  0
SECTION
  2
HEADER
  9
$ACADVER
  1
AC1014
  9
$ACADMAINTVER
 70
     9
  9
$DWGCODEPAGE
  3
ANSI_932
  9
$INSBASE
 10
0.0
 20
0.0
 30
0.0
  9
$EXTMIN
 10
101.2377164078792
 20
75.18947290096116
 30
0.0
  9
$EXTMAX
 10
530.0183415606019
 20
410.6086325616679
 30
0.0
  9
$LIMMIN
 10
0.0
 20
0.0
  9
$LIMMAX
 10
10000.0
 20
10000.0
  9
$ORTHOMODE
 70
     1
  9
$REGENMODE
 70
     1
  9
$FILLMODE
 70
     1
  9
$QTEXTMODE
 70
     0
  9
$MIRRTEXT
 70
     1
  9
$DRAGMODE
 70
     2
  9
$LTSCALE
 40
1.0
  9
$OSMODE
 70
    32
  9
$ATTMODE
 70
     1
  9
$TEXTSIZE
 40
3.5
  9
$TRACEWID
 40
1.0
  9
$TEXTSTYLE
  7
AD-STANDARD
  9
$CLAYER
  8
1
  9
$CELTYPE
  6
BYLAYER
  9
$CECOLOR
 62
   256
  9
$CELTSCALE
 40
1.0
  9
$DELOBJ
 70
     1
  9
$DISPSILH
 70
     0
  9
$DIMSCALE
 40
2.0
  9
$DIMASZ
 40
2.5
  9
$DIMEXO
 40
1.0
  9
$DIMDLI
 40
0.38
  9
$DIMRND
 40
0.0
  9
$DIMDLE
 40
0.0
  9
$DIMEXE
 40
2.0
  9
$DIMTP
 40
0.0
  9
$DIMTM
 40
0.0
  9
$DIMTXT
 40
3.5
  9
$DIMCEN
 40
-2.0
  9
$DIMTSZ
 40
0.0
  9
$DIMTOL
 70
     0
  9
$DIMLIM
 70
     0
  9
$DIMTIH
 70
     0
  9
$DIMTOH
 70
     0
  9
$DIMSE1
 70
     0
  9
$DIMSE2
 70
     0
  9
$DIMTAD
 70
     1
  9
$DIMZIN
 70
     8
  9
$DIMBLK
  1

  9
$DIMASO
 70
     1
  9
$DIMSHO
 70
     1
  9
$DIMPOST
  1

  9
$DIMAPOST
  1

  9
$DIMALT
 70
     0
  9
$DIMALTD
 70
     2
  9
$DIMALTF
 40
25.4
  9
$DIMLFAC
 40
1.0
  9
$DIMTOFL
 70
     1
  9
$DIMTVP
 40
0.0
  9
$DIMTIX
 70
     0
  9
$DIMSOXD
 70
     0
  9
$DIMSAH
 70
     0
  9
$DIMBLK1
  1

  9
$DIMBLK2
  1

  9
$DIMSTYLE
  2
AD-STANDARD
  9
$DIMCLRD
 70
     9
  9
$DIMCLRE
 70
     9
  9
$DIMCLRT
 70
     2
  9
$DIMTFAC
 40
1.0
  9
$DIMGAP
 40
0.5
  9
$DIMJUST
 70
     0
  9
$DIMSD1
 70
     0
  9
$DIMSD2
 70
     0
  9
$DIMTOLJ
 70
     1
  9
$DIMTZIN
 70
     8
  9
$DIMALTZ
 70
     0
  9
$DIMALTTZ
 70
     0
  9
$DIMFIT
 70
     3
  9
$DIMUPT
 70
     0
  9
$DIMUNIT
 70
     2
  9
$DIMDEC
 70
     4
  9
$DIMTDEC
 70
     4
  9
$DIMALTU
 70
     2
  9
$DIMALTTD
 70
     2
  9
$DIMTXSTY
  7
AD-STANDARD
  9
$DIMAUNIT
 70
     0
  9
$LUNITS
 70
     2
  9
$LUPREC
 70
     4
  9
$SKETCHINC
 40
1.0
  9
$FILLETRAD
 40
0.5
  9
$AUNITS
 70
     0
  9
$AUPREC
 70
     0
  9
$MENU
  1
.
  9
$ELEVATION
 40
0.0
  9
$PELEVATION
 40
0.0
  9
$THICKNESS
 40
0.0
  9
$LIMCHECK
 70
     0
  9
$BLIPMODE
 70
     0
  9
$CHAMFERA
 40
1.0
  9
$CHAMFERB
 40
1.0
  9
$CHAMFERC
 40
673.4006734006733
  9
$CHAMFERD
 40
0.0
  9
$SKPOLY
 70
     0
  9
$TDCREATE
 40
2451428.386184838
  9
$TDUPDATE
 40
2453987.886730093
  9
$TDINDWG
 40
2.0411231250
  9
$TDUSRTIMER
 40
2.0411231250
  9
$USRTIMER
 70
     1
  9
$ANGBASE
 50
0.0
  9
$ANGDIR
 70
     0
  9
$PDMODE
 70
     0
  9
$PDSIZE
 40
0.0
  9
$PLINEWID
 40
0.0
  9
$COORDS
 70
     1
  9
$SPLFRAME
 70
     0
  9
$SPLINETYPE
 70
     6
  9
$SPLINESEGS
 70
     8
  9
$ATTDIA
 70
     0
  9
$ATTREQ
 70
     1
  9
$HANDLING
 70
 10241
  9
$HANDSEED
  5
3F8A
  9
$SURFTAB1
 70
     6
  9
$SURFTAB2
 70
     6
  9
$SURFTYPE
 70
     6
  9
$SURFU
 70
     6
  9
$SURFV
 70
     6
  9
$UCSNAME
  2

  9
$UCSORG
 10
0.0
 20
0.0
 30
0.0
  9
$UCSXDIR
 10
1.0
 20
0.0
 30
0.0
  9
$UCSYDIR
 10
0.0
 20
1.0
 30
0.0
  9
$PUCSNAME
  2

  9
$PUCSORG
 10
0.0
 20
0.0
 30
0.0
  9
$PUCSXDIR
 10
1.0
 20
0.0
 30
0.0
  9
$PUCSYDIR
 10
0.0
 20
1.0
 30
0.0
  9
$USERI1
 70
     0
  9
$USERI2
 70
     0
  9
$USERI3
 70
     0
  9
$USERI4
 70
     0
  9
$USERI5
 70
     0
  9
$USERR1
 40
0.0
  9
$USERR2
 40
0.0
  9
$USERR3
 40
0.0
  9
$USERR4
 40
0.0
  9
$USERR5
 40
0.0
  9
$WORLDVIEW
 70
     1
  9
$SHADEDGE
 70
     3
  9
$SHADEDIF
 70
    70
  9
$TILEMODE
 70
     1
  9
$MAXACTVP
 70
    16
  9
$PINSBASE
 10
0.0
 20
0.0
 30
0.0
  9
$PLIMCHECK
 70
     0
  9
$PEXTMIN
 10
20.0
 20
16.99999999999994
 30
0.0
  9
$PEXTMAX
 10
404.9999999999998
 20
281.9999999999999
 30
0.0
  9
$PLIMMIN
 10
-5.789093017578125
 20
-5.831416606903076
  9
$PLIMMAX
 10
414.1998901367187
 20
291.1369061470031
  9
$UNITMODE
 70
     0
  9
$VISRETAIN
 70
     0
  9
$PLINEGEN
 70
     0
  9
$PSLTSCALE
 70
     0
  9
$TREEDEPTH
 70
  3020
  9
$PICKSTYLE
 70
     1
  9
$CMLSTYLE
  2
STANDARD
  9
$CMLJUST
 70
     0
  9
$CMLSCALE
 40
1.0
  9
$PROXYGRAPHICS
 70
     1
  9
$MEASUREMENT
 70
     1
  0
ENDSEC
  0
SECTION
  2
CLASSES
  0
CLASS
  1
LWPOLYLINE
  2
AcDbPolyline
  3
AutoCAD 2000
 90
        0
280
     0
281
     1
  0
CLASS
  1
OLE2FRAME
  2
AcDbOle2Frame
  3
AutoCAD 2000
 90
        0
280
     0
281
     1
  0
CLASS
  1
ACDBDICTIONARYWDFLT
  2
AcDbDictionaryWithDefault
  3
AutoCAD 2000
 90
        0
280
     0
281
     0
  0
CLASS
  1
ACDBPLACEHOLDER
  2
AcDbPlaceHolder
  3
AutoCAD 2000
 90
        0
280
     0
281
     0
  0
CLASS
  1
LAYOUT
  2
AcDbLayout
  3
AutoCAD 2000
 90
        0
280
     0
281
     0
  0
CLASS
  1
LONG_TRANSACTION
  2
AcDbLongTransaction
  3
AutoCAD 2000
 90
        0
280
     0
281
     0
  0
CLASS
  1
LWPOLYLINE
  2
AcDbPolyline
  3
AutoCAD 2000
 90
        0
280
     0
281
     1
  0
CLASS
  1
HATCH
  2
AcDbHatch
  3
AutoCAD 2000
 90
        0
280
     0
281
     1
  0
CLASS
  1
XRECORD
  2
AcDbXrecord
  3
AutoCAD 2000
 90
        0
280
     0
281
     0
  0
CLASS
  1
LONG_TRANSACTION
  2
AcDbLongTransaction
  3
AutoCAD 2000
 90
        0
280
     0
281
     0
  0
CLASS
  1
LWPOLYLINE
  2
AcDbPolyline
  3
AutoCAD 2000
 90
        0
280
     0
281
     1
  0
CLASS
  1
HATCH
  2
AcDbHatch
  3
AutoCAD 2000
 90
        0
280
     0
281
     1
  0
CLASS
  1
XRECORD
  2
AcDbXrecord
  3
AutoCAD 2000
 90
        0
280
     0
281
     0
  0
CLASS
  1
LONG_TRANSACTION
  2
AcDbLongTransaction
  3
AutoCAD 2000
 90
        0
280
     0
281
     0
  0
CLASS
  1
LWPOLYLINE
  2
AcDbPolyline
  3
AutoCAD 2000
 90
        0
280
     0
281
     1
  0
CLASS
  1
HATCH
  2
AcDbHatch
  3
AutoCAD 2000
 90
        0
280
     0
281
     1
  0
CLASS
  1
XRECORD
  2
AcDbXrecord
  3
AutoCAD 2000
 90
        0
280
     0
281
     0
  0
CLASS
  1
LONG_TRANSACTION
  2
AcDbLongTransaction
  3
AutoCAD 2000
 90
        0
280
     0
281
     0
  0
CLASS
  1
LWPOLYLINE
  2
AcDbPolyline
  3
AutoCAD 2000
 90
        0
280
     0
281
     1
  0
CLASS
  1
HATCH
  2
AcDbHatch
  3
AutoCAD 2000
 90
        0
280
     0
281
     1
  0
CLASS
  1
XRECORD
  2
AcDbXrecord
  3
AutoCAD 2000
 90
        0
280
     0
281
     0
  0
CLASS
  1
LONG_TRANSACTION
  2
AcDbLongTransaction
  3
AutoCAD 2000
 90
        0
280
     0
281
     0
  0
CLASS
  1
LWPOLYLINE
  2
AcDbPolyline
  3
AutoCAD 2000
 90
        0
280
     0
281
     1
  0
CLASS
  1
HATCH
  2
AcDbHatch
  3
AutoCAD 2000
 90
        0
280
     0
281
     1
  0
CLASS
  1
XRECORD
  2
AcDbXrecord
  3
AutoCAD 2000
 90
        0
280
     0
281
     0
  0
CLASS
  1
LONG_TRANSACTION
  2
AcDbLongTransaction
  3
AutoCAD 2000
 90
        0
280
     0
281
     0
  0
CLASS
  1
LWPOLYLINE
  2
AcDbPolyline
  3
AutoCAD 2000
 90
        0
280
     0
281
     1
  0
CLASS
  1
HATCH
  2
AcDbHatch
  3
AutoCAD 2000
 90
        0
280
     0
281
     1
  0
CLASS
  1
XRECORD
  2
AcDbXrecord
  3
AutoCAD 2000
 90
        0
280
     0
281
     0
  0
CLASS
  1
LONG_TRANSACTION
  2
AcDbLongTransaction
  3
AutoCAD 2000
 90
        0
280
     0
281
     0
  0
CLASS
  1
LWPOLYLINE
  2
AcDbPolyline
  3
AutoCAD 2000
 90
        0
280
     0
281
     1
  0
CLASS
  1
HATCH
  2
AcDbHatch
  3
AutoCAD 2000
 90
        0
280
     0
281
     1
  0
CLASS
  1
XRECORD
  2
AcDbXrecord
  3
AutoCAD 2000
 90
        0
280
     0
281
     0
  0
CLASS
  1
LONG_TRANSACTION
  2
AcDbLongTransaction
  3
AutoCAD 2000
 90
        0
280
     0
281
     0
  0
CLASS
  1
LWPOLYLINE
  2
AcDbPolyline
  3
AutoCAD 2000
 90
        0
280
     0
281
     1
  0
CLASS
  1
HATCH
  2
AcDbHatch
  3
AutoCAD 2000
 90
        0
280
     0
281
     1
  0
CLASS
  1
XRECORD
  2
AcDbXrecord
  3
AutoCAD 2000
 90
        0
280
     0
281
     0
  0
CLASS
  1
LONG_TRANSACTION
  2
AcDbLongTransaction
  3
AutoCAD 2000
 90
        0
280
     0
281
     0
  0
CLASS
  1
LWPOLYLINE
  2
AcDbPolyline
  3
AutoCAD 2000
 90
        0
280
     0
281
     1
  0
CLASS
  1
HATCH
  2
AcDbHatch
  3
AutoCAD 2000
 90
        0
280
     0
281
     1
  0
CLASS
  1
XRECORD
  2
AcDbXrecord
  3
AutoCAD 2000
 90
        0
280
     0
281
     0
  0
CLASS
  1
LONG_TRANSACTION
  2
AcDbLongTransaction
  3
AutoCAD 2000
 90
        0
280
     0
281
     0
  0
CLASS
  1
LWPOLYLINE
  2
AcDbPolyline
  3
AutoCAD 2000
 90
        0
280
     0
281
     1
  0
CLASS
  1
HATCH
  2
AcDbHatch
  3
AutoCAD 2000
 90
        0
280
     0
281
     1
  0
CLASS
  1
XRECORD
  2
AcDbXrecord
  3
AutoCAD 2000
 90
        0
280
     0
281
     0
  0
CLASS
  1
LONG_TRANSACTION
  2
AcDbLongTransaction
  3
AutoCAD 2000
 90
        0
280
     0
281
     0
  0
CLASS
  1
LWPOLYLINE
  2
AcDbPolyline
  3
AutoCAD 2000
 90
        0
280
     0
281
     1
  0
CLASS
  1
HATCH
  2
AcDbHatch
  3
AutoCAD 2000
 90
        0
280
     0
281
     1
  0
CLASS
  1
XRECORD
  2
AcDbXrecord
  3
AutoCAD 2000
 90
        0
280
     0
281
     0
  0
CLASS
  1
LONG_TRANSACTION
  2
AcDbLongTransaction
  3
AutoCAD 2000
 90
        0
280
     0
281
     0
  0
CLASS
  1
LWPOLYLINE
  2
AcDbPolyline
  3
AutoCAD 2000
 90
        0
280
     0
281
     1
  0
CLASS
  1
HATCH
  2
AcDbHatch
  3
AutoCAD 2000
 90
        0
280
     0
281
     1
  0
CLASS
  1
XRECORD
  2
AcDbXrecord
  3
AutoCAD 2000
 90
        0
280
     0
281
     0
  0
CLASS
  1
LONG_TRANSACTION
  2
AcDbLongTransaction
  3
AutoCAD 2000
 90
        0
280
     0
281
     0
  0
CLASS
  1
LWPOLYLINE
  2
AcDbPolyline
  3
AutoCAD 2000
 90
        0
280
     0
281
     1
  0
CLASS
  1
HATCH
  2
AcDbHatch
  3
AutoCAD 2000
 90
        0
280
     0
281
     1
  0
CLASS
  1
XRECORD
  2
AcDbXrecord
  3
AutoCAD 2000
 90
        0
280
     0
281
     0
  0
CLASS
  1
LONG_TRANSACTION
  2
AcDbLongTransaction
  3
AutoCAD 2000
 90
        0
280
     0
281
     0
  0
CLASS
  1
LWPOLYLINE
  2
AcDbPolyline
  3
AutoCAD 2000
 90
        0
280
     0
281
     1
  0
CLASS
  1
HATCH
  2
AcDbHatch
  3
AutoCAD 2000
 90
        0
280
     0
281
     1
  0
CLASS
  1
XRECORD
  2
AcDbXrecord
  3
AutoCAD 2000
 90
        0
280
     0
281
     0
  0
CLASS
  1
LONG_TRANSACTION
  2
AcDbLongTransaction
  3
AutoCAD 2000
 90
        0
280
     0
281
     0
  0
CLASS
  1
LWPOLYLINE
  2
AcDbPolyline
  3
AutoCAD 2000
 90
        0
280
     0
281
     1
  0
CLASS
  1
HATCH
  2
AcDbHatch
  3
AutoCAD 2000
 90
        0
280
     0
281
     1
  0
CLASS
  1
XRECORD
  2
AcDbXrecord
  3
AutoCAD 2000
 90
        0
280
     0
281
     0
  0
CLASS
  1
LONG_TRANSACTION
  2
AcDbLongTransaction
  3
AutoCAD 2000
 90
        0
280
     0
281
     0
  0
CLASS
  1
LWPOLYLINE
  2
AcDbPolyline
  3
AutoCAD 2000
 90
        0
280
     0
281
     1
  0
CLASS
  1
HATCH
  2
AcDbHatch
  3
AutoCAD 2000
 90
        0
280
     0
281
     1
  0
CLASS
  1
XRECORD
  2
AcDbXrecord
  3
AutoCAD 2000
 90
        0
280
     0
281
     0
  0
CLASS
  1
LONG_TRANSACTION
  2
AcDbLongTransaction
  3
AutoCAD 2000
 90
        0
280
     0
281
     0
  0
CLASS
  1
LWPOLYLINE
  2
AcDbPolyline
  3
AutoCAD 2000
 90
        0
280
     0
281
     1
  0
CLASS
  1
HATCH
  2
AcDbHatch
  3
AutoCAD 2000
 90
        0
280
     0
281
     1
  0
CLASS
  1
XRECORD
  2
AcDbXrecord
  3
AutoCAD 2000
 90
        0
280
     0
281
     0
  0
CLASS
  1
DICTIONARYVAR
  2
AcDbDictionaryVar
  3
AutoCAD 2000
 90
        0
280
     0
281
     0
  0
CLASS
  1
LONG_TRANSACTION
  2
AcDbLongTransaction
  3
AutoCAD 2000
 90
        0
280
     0
281
     0
  0
CLASS
  1
LWPOLYLINE
  2
AcDbPolyline
  3
AutoCAD 2000
 90
        0
280
     0
281
     1
  0
CLASS
  1
HATCH
  2
AcDbHatch
  3
AutoCAD 2000
 90
        0
280
     0
281
     1
  0
CLASS
  1
XRECORD
  2
AcDbXrecord
  3
AutoCAD 2000
 90
        0
280
     0
281
     0
  0
CLASS
  1
LONG_TRANSACTION
  2
AcDbLongTransaction
  3
AutoCAD 2000
 90
        0
280
     0
281
     0
  0
CLASS
  1
LWPOLYLINE
  2
AcDbPolyline
  3
AutoCAD 2000
 90
        0
280
     0
281
     1
  0
CLASS
  1
HATCH
  2
AcDbHatch
  3
AutoCAD 2000
 90
        0
280
     0
281
     1
  0
CLASS
  1
XRECORD
  2
AcDbXrecord
  3
AutoCAD 2000
 90
        0
280
     0
281
     0
  0
CLASS
  1
LONG_TRANSACTION
  2
AcDbLongTransaction
  3
AutoCAD 2000
 90
        0
280
     0
281
     0
  0
CLASS
  1
LWPOLYLINE
  2
AcDbPolyline
  3
AutoCAD 2000
 90
        0
280
     0
281
     1
  0
CLASS
  1
HATCH
  2
AcDbHatch
  3
AutoCAD 2000
 90
        0
280
     0
281
     1
  0
CLASS
  1
XRECORD
  2
AcDbXrecord
  3
AutoCAD 2000
 90
        0
280
     0
281
     0
  0
CLASS
  1
LONG_TRANSACTION
  2
AcDbLongTransaction
  3
AutoCAD 2000
 90
        0
280
     0
281
     0
  0
CLASS
  1
LWPOLYLINE
  2
AcDbPolyline
  3
AutoCAD 2000
 90
        0
280
     0
281
     1
  0
CLASS
  1
HATCH
  2
AcDbHatch
  3
AutoCAD 2000
 90
        0
280
     0
281
     1
  0
CLASS
  1
XRECORD
  2
AcDbXrecord
  3
AutoCAD 2000
 90
        0
280
     0
281
     0
  0
CLASS
  1
LONG_TRANSACTION
  2
AcDbLongTransaction
  3
AutoCAD 2000
 90
        0
280
     0
281
     0
  0
CLASS
  1
LWPOLYLINE
  2
AcDbPolyline
  3
AutoCAD 2000
 90
        0
280
     0
281
     1
  0
CLASS
  1
HATCH
  2
AcDbHatch
  3
AutoCAD 2000
 90
        0
280
     0
281
     1
  0
CLASS
  1
XRECORD
  2
AcDbXrecord
  3
AutoCAD 2000
 90
        0
280
     0
281
     0
  0
CLASS
  1
LONG_TRANSACTION
  2
AcDbLongTransaction
  3
AutoCAD 2000
 90
        0
280
     0
281
     0
  0
CLASS
  1
LWPOLYLINE
  2
AcDbPolyline
  3
AutoCAD 2000
 90
        0
280
     0
281
     1
  0
CLASS
  1
HATCH
  2
AcDbHatch
  3
AutoCAD 2000
 90
        0
280
     0
281
     1
  0
CLASS
  1
XRECORD
  2
AcDbXrecord
  3
AutoCAD 2000
 90
        0
280
     0
281
     0
  0
CLASS
  1
LONG_TRANSACTION
  2
AcDbLongTransaction
  3
AutoCAD 2000
 90
        0
280
     0
281
     0
  0
CLASS
  1
LWPOLYLINE
  2
AcDbPolyline
  3
AutoCAD 2000
 90
        0
280
     0
281
     1
  0
CLASS
  1
HATCH
  2
AcDbHatch
  3
AutoCAD 2000
 90
        0
280
     0
281
     1
  0
CLASS
  1
XRECORD
  2
AcDbXrecord
  3
AutoCAD 2000
 90
        0
280
     0
281
     0
  0
CLASS
  1
LONG_TRANSACTION
  2
AcDbLongTransaction
  3
AutoCAD 2000
 90
        0
280
     0
281
     0
  0
CLASS
  1
LWPOLYLINE
  2
AcDbPolyline
  3
AutoCAD 2000
 90
        0
280
     0
281
     1
  0
CLASS
  1
HATCH
  2
AcDbHatch
  3
AutoCAD 2000
 90
        0
280
     0
281
     1
  0
CLASS
  1
XRECORD
  2
AcDbXrecord
  3
AutoCAD 2000
 90
        0
280
     0
281
     0
  0
CLASS
  1
LONG_TRANSACTION
  2
AcDbLongTransaction
  3
AutoCAD 2000
 90
        0
280
     0
281
     0
  0
CLASS
  1
LWPOLYLINE
  2
AcDbPolyline
  3
AutoCAD 2000
 90
        0
280
     0
281
     1
  0
CLASS
  1
HATCH
  2
AcDbHatch
  3
AutoCAD 2000
 90
        0
280
     0
281
     1
  0
CLASS
  1
XRECORD
  2
AcDbXrecord
  3
AutoCAD 2000
 90
        0
280
     0
281
     0
  0
CLASS
  1
LONG_TRANSACTION
  2
AcDbLongTransaction
  3
AutoCAD 2000
 90
        0
280
     0
281
     0
  0
CLASS
  1
LWPOLYLINE
  2
AcDbPolyline
  3
AutoCAD 2000
 90
        0
280
     0
281
     1
  0
CLASS
  1
HATCH
  2
AcDbHatch
  3
AutoCAD 2000
 90
        0
280
     0
281
     1
  0
CLASS
  1
XRECORD
  2
AcDbXrecord
  3
AutoCAD 2000
 90
        0
280
     0
281
     0
  0
CLASS
  1
LONG_TRANSACTION
  2
AcDbLongTransaction
  3
AutoCAD 2000
 90
        0
280
     0
281
     0
  0
CLASS
  1
LWPOLYLINE
  2
AcDbPolyline
  3
AutoCAD 2000
 90
        0
280
     0
281
     1
  0
CLASS
  1
HATCH
  2
AcDbHatch
  3
AutoCAD 2000
 90
        0
280
     0
281
     1
  0
CLASS
  1
XRECORD
  2
AcDbXrecord
  3
AutoCAD 2000
 90
        0
280
     0
281
     0
  0
CLASS
  1
LONG_TRANSACTION
  2
AcDbLongTransaction
  3
AutoCAD 2000
 90
        0
280
     0
281
     0
  0
CLASS
  1
LWPOLYLINE
  2
AcDbPolyline
  3
AutoCAD 2000
 90
        0
280
     0
281
     1
  0
CLASS
  1
HATCH
  2
AcDbHatch
  3
AutoCAD 2000
 90
        0
280
     0
281
     1
  0
CLASS
  1
XRECORD
  2
AcDbXrecord
  3
AutoCAD 2000
 90
        0
280
     0
281
     0
  0
CLASS
  1
LONG_TRANSACTION
  2
AcDbLongTransaction
  3
AutoCAD 2000
 90
        0
280
     0
281
     0
  0
CLASS
  1
LWPOLYLINE
  2
AcDbPolyline
  3
AutoCAD 2000
 90
        0
280
     0
281
     1
  0
CLASS
  1
HATCH
  2
AcDbHatch
  3
AutoCAD 2000
 90
        0
280
     0
281
     1
  0
CLASS
  1
XRECORD
  2
AcDbXrecord
  3
AutoCAD 2000
 90
        0
280
     0
281
     0
  0
CLASS
  1
LONG_TRANSACTION
  2
AcDbLongTransaction
  3
AutoCAD 2000
 90
        0
280
     0
281
     0
  0
CLASS
  1
LWPOLYLINE
  2
AcDbPolyline
  3
AutoCAD 2000
 90
        0
280
     0
281
     1
  0
CLASS
  1
HATCH
  2
AcDbHatch
  3
AutoCAD 2000
 90
        0
280
     0
281
     1
  0
CLASS
  1
XRECORD
  2
AcDbXrecord
  3
AutoCAD 2000
 90
        0
280
     0
281
     0
  0
CLASS
  1
LONG_TRANSACTION
  2
AcDbLongTransaction
  3
AutoCAD 2000
 90
        0
280
     0
281
     0
  0
CLASS
  1
LWPOLYLINE
  2
AcDbPolyline
  3
AutoCAD 2000
 90
        0
280
     0
281
     1
  0
CLASS
  1
HATCH
  2
AcDbHatch
  3
AutoCAD 2000
 90
        0
280
     0
281
     1
  0
CLASS
  1
XRECORD
  2
AcDbXrecord
  3
AutoCAD 2000
 90
        0
280
     0
281
     0
  0
CLASS
  1
LONG_TRANSACTION
  2
AcDbLongTransaction
  3
AutoCAD 2000
 90
        0
280
     0
281
     0
  0
CLASS
  1
LWPOLYLINE
  2
AcDbPolyline
  3
AutoCAD 2000
 90
        0
280
     0
281
     1
  0
CLASS
  1
HATCH
  2
AcDbHatch
  3
AutoCAD 2000
 90
        0
280
     0
281
     1
  0
CLASS
  1
XRECORD
  2
AcDbXrecord
  3
AutoCAD 2000
 90
        0
280
     0
281
     0
  0
CLASS
  1
LONG_TRANSACTION
  2
AcDbLongTransaction
  3
AutoCAD 2000
 90
        0
280
     0
281
     0
  0
CLASS
  1
LWPOLYLINE
  2
AcDbPolyline
  3
AutoCAD 2000
 90
        0
280
     0
281
     1
  0
CLASS
  1
HATCH
  2
AcDbHatch
  3
AutoCAD 2000
 90
        0
280
     0
281
     1
  0
CLASS
  1
XRECORD
  2
AcDbXrecord
  3
AutoCAD 2000
 90
        0
280
     0
281
     0
  0
CLASS
  1
LONG_TRANSACTION
  2
AcDbLongTransaction
  3
AutoCAD 2000
 90
        0
280
     0
281
     0
  0
CLASS
  1
LWPOLYLINE
  2
AcDbPolyline
  3
AutoCAD 2000
 90
        0
280
     0
281
     1
  0
CLASS
  1
HATCH
  2
AcDbHatch
  3
AutoCAD 2000
 90
        0
280
     0
281
     1
  0
CLASS
  1
XRECORD
  2
AcDbXrecord
  3
AutoCAD 2000
 90
        0
280
     0
281
     0
  0
CLASS
  1
LONG_TRANSACTION
  2
AcDbLongTransaction
  3
AutoCAD 2000
 90
        0
280
     0
281
     0
  0
CLASS
  1
LWPOLYLINE
  2
AcDbPolyline
  3
AutoCAD 2000
 90
        0
280
     0
281
     1
  0
CLASS
  1
HATCH
  2
AcDbHatch
  3
AutoCAD 2000
 90
        0
280
     0
281
     1
  0
CLASS
  1
XRECORD
  2
AcDbXrecord
  3
AutoCAD 2000
 90
        0
280
     0
281
     0
  0
CLASS
  1
LONG_TRANSACTION
  2
AcDbLongTransaction
  3
AutoCAD 2000
 90
        0
280
     0
281
     0
  0
CLASS
  1
LWPOLYLINE
  2
AcDbPolyline
  3
AutoCAD 2000
 90
        0
280
     0
281
     1
  0
CLASS
  1
HATCH
  2
AcDbHatch
  3
AutoCAD 2000
 90
        0
280
     0
281
     1
  0
CLASS
  1
XRECORD
  2
AcDbXrecord
  3
AutoCAD 2000
 90
        0
280
     0
281
     0
  0
CLASS
  1
LONG_TRANSACTION
  2
AcDbLongTransaction
  3
AutoCAD 2000
 90
        0
280
     0
281
     0
  0
CLASS
  1
LWPOLYLINE
  2
AcDbPolyline
  3
AutoCAD 2000
 90
        0
280
     0
281
     1
  0
CLASS
  1
HATCH
  2
AcDbHatch
  3
AutoCAD 2000
 90
        0
280
     0
281
     1
  0
CLASS
  1
XRECORD
  2
AcDbXrecord
  3
AutoCAD 2000
 90
        0
280
     0
281
     0
  0
ENDSEC
  0
SECTION
  2
TABLES
  0
TABLE
  2
VPORT
  5
8
330
0
100
AcDbSymbolTable
 70
     6
  0
VPORT
  5
3F67
330
8
100
AcDbSymbolTableRecord
100
AcDbViewportTableRecord
  2
*ACTIVE
 70
     0
 10
0.0
 20
0.0
 11
1.0
 21
1.0
 12
257.7555673173999
 22
263.4660194981118
 13
0.0
 23
0.0
 14
168.0
 24
168.0
 15
0.0
 25
0.0
 16
0.0
 26
0.0
 36
1.0
 17
0.0
 27
0.0
 37
0.0
 40
552.8989711380651
 41
1.602080624187256
 42
50.0
 43
0.0
 44
0.0
 50
0.0
 51
0.0
 71
     0
 72
   100
 73
     1
 74
     0
 75
     0
 76
     0
 77
     0
 78
     1
  0
ENDTAB
  0
TABLE
  2
LTYPE
  5
5
330
0
100
AcDbSymbolTable
 70
     4
  0
LTYPE
  5
14
330
5
100
AcDbSymbolTableRecord
100
AcDbLinetypeTableRecord
  2
BYBLOCK
 70
     0
  3

 72
    65
 73
     0
 40
0.0
  0
LTYPE
  5
15
330
5
100
AcDbSymbolTableRecord
100
AcDbLinetypeTableRecord
  2
BYLAYER
 70
     0
  3

 72
    65
 73
     0
 40
0.0
  0
LTYPE
  5
16
330
5
100
AcDbSymbolTableRecord
100
AcDbLinetypeTableRecord
  2
CONTINUOUS
 70
     0
  3
Solid line
 72
    65
 73
     0
 40
0.0
  0
LTYPE
  5
6E
330
5
100
AcDbSymbolTableRecord
100
AcDbLinetypeTableRecord
  2
CENTER
 70
     0
  3
____ _ ____ _ ____ _ ____ _ ____ _ ____ _ ____ 
 72
    65
 73
     4
 40
2.0
 49
1.25
 74
     0
 49
-0.25
 74
     0
 49
0.25
 74
     0
 49
-0.25
 74
     0
  0
ENDTAB
  0
TABLE
  2
LAYER
  5
2
330
0
100
AcDbSymbolTable
 70
     6
  0
LAYER
  5
F
330
2
100
AcDbSymbolTableRecord
100
AcDbLayerTableRecord
  2
0
 70
     0
 62
     7
  6
CONTINUOUS
  0
LAYER
  5
72
330
2
100
AcDbSymbolTableRecord
100
AcDbLayerTableRecord
  2
DEFPOINTS
 70
     0
 62
     7
  6
CONTINUOUS
  0
LAYER
  5
74
330
2
100
AcDbSymbolTableRecord
100
AcDbLayerTableRecord
  2
CENTER
 70
     0
 62
     9
  6
CENTER
  0
LAYER
  5
3F07
330
2
100
AcDbSymbolTableRecord
100
AcDbLayerTableRecord
  2
1
 70
     0
 62
     7
  6
CONTINUOUS
  0
ENDTAB
  0
TABLE
  2
STYLE
  5
3
330
0
100
AcDbSymbolTable
 70
     5
  0
STYLE
  5
10
330
3
100
AcDbSymbolTableRecord
100
AcDbTextStyleTableRecord
  2
STANDARD
 70
     0
 40
0.0
 41
0.8
 50
0.0
 71
     0
 42
84.17508417508416
  3
TXT
  4
bigfont.shx
  0
STYLE
  5
63
330
3
100
AcDbSymbolTableRecord
100
AcDbTextStyleTableRecord
  2
AD-STANDARD
 70
     0
 40
0.0
 41
0.8
 50
0.0
 71
     0
 42
3.5
  3
C:\Program Files\AutoCAD LT\romans.shx
  4
bigfont.shx
  0
ENDTAB
  0
TABLE
  2
VIEW
  5
6
330
0
100
AcDbSymbolTable
 70
     0
  0
ENDTAB
  0
TABLE
  2
UCS
  5
7
330
0
100
AcDbSymbolTable
 70
     0
  0
ENDTAB
  0
TABLE
  2
APPID
  5
9
330
0
100
AcDbSymbolTable
 70
     5
  0
APPID
  5
11
330
9
100
AcDbSymbolTableRecord
100
AcDbRegAppTableRecord
  2
ACAD
 70
     0
  0
APPID
  5
22A
330
9
100
AcDbSymbolTableRecord
100
AcDbRegAppTableRecord
  2
CONTENTTABDATA
 70
     0
  0
APPID
  5
22B
330
9
100
AcDbSymbolTableRecord
100
AcDbRegAppTableRecord
  2
CONTENTCURRENTTAB
 70
     0
  0
APPID
  5
232
330
9
100
AcDbSymbolTableRecord
100
AcDbRegAppTableRecord
  2
CONTENTBLOCKDESCRIPTION
 70
     0
  0
APPID
  5
233
330
9
100
AcDbSymbolTableRecord
100
AcDbRegAppTableRecord
  2
CONTENTBLOCKICON
 70
     0
  0
ENDTAB
  0
TABLE
  2
DIMSTYLE
  5
A
330
0
100
AcDbSymbolTable
 70
     3
  0
DIMSTYLE
105
1D
330
A
100
AcDbSymbolTableRecord
100
AcDbDimStyleTableRecord
  2
STANDARD
 70
     0
  3

  4

  5

  6

  7

 40
1.0
 41
0.18
 42
0.0625
 43
0.38
 44
0.18
 45
0.0
 46
0.0
 47
0.0
 48
0.0
140
0.18
141
0.09
142
0.0
143
25.4
144
1.0
145
0.0
146
1.0
147
0.09
 71
     0
 72
     0
 73
     1
 74
     1
 75
     0
 76
     0
 77
     0
 78
     0
170
     0
171
     2
172
     0
173
     0
174
     0
175
     0
176
     0
177
     0
178
     0
270
     2
271
     4
272
     4
273
     2
274
     2
340
10
275
     0
280
     0
281
     0
282
     0
283
     1
284
     0
285
     0
286
     0
287
     3
288
     0
  0
DIMSTYLE
105
11BB
102
{ACAD_REACTORS
330
286F
330
3641
330
3627
330
365B
330
3675
330
3682
330
3707
330
3713
330
3668
330
361A
330
3634
330
3600
330
3899
330
35F3
330
36A9
330
368F
330
369C
330
364E
330
360D
102
}
330
A
100
AcDbSymbolTableRecord
100
AcDbDimStyleTableRecord
  2
AD-STANDARD
 70
     0
  3

  4

  5

  6

  7

 40
2.0
 41
2.5
 42
1.0
 43
0.38
 44
2.0
 45
0.0
 46
0.0
 47
0.0
 48
0.0
140
3.5
141
-2.0
142
0.0
143
25.4
144
1.0
145
0.0
146
1.0
147
0.5
 71
     0
 72
     0
 73
     0
 74
     0
 75
     0
 76
     0
 77
     1
 78
     8
170
     0
171
     2
172
     1
173
     0
174
     0
175
     0
176
     9
177
     9
178
     2
270
     2
271
     4
272
     4
273
     2
274
     2
340
63
275
     0
280
     0
281
     0
282
     0
283
     1
284
     8
285
     0
286
     0
287
     3
288
     0
  0
ENDTAB
  0
TABLE
  2
BLOCK_RECORD
  5
1
330
0
100
AcDbSymbolTable
 70
    93
  0
BLOCK_RECORD
  5
1A
102
{ACAD_XDICTIONARY
360
F6B
102
}
330
1
100
AcDbSymbolTableRecord
100
AcDbBlockTableRecord
  2
*MODEL_SPACE
  0
BLOCK_RECORD
  5
17
102
{ACAD_XDICTIONARY
360
F69
102
}
330
1
100
AcDbSymbolTableRecord
100
AcDbBlockTableRecord
  2
*PAPER_SPACE
  0
BLOCK_RECORD
  5
3B40
330
1
100
AcDbSymbolTableRecord
100
AcDbBlockTableRecord
  2
CBF20
  0
ENDTAB
  0
ENDSEC
  0
SECTION
  2
BLOCKS
  0
BLOCK
  5
1B
330
1A
100
AcDbEntity
  8
0
100
AcDbBlockBegin
  2
*MODEL_SPACE
 70
     0
 10
0.0
 20
0.0
 30
0.0
  3
*MODEL_SPACE
  1

  0
ENDBLK
  5
1C
330
1A
100
AcDbEntity
  8
0
100
AcDbBlockEnd
  0
BLOCK
  5
18
330
17
100
AcDbEntity
 67
     1
  8
0
100
AcDbBlockBegin
  2
*PAPER_SPACE
 70
     0
 10
0.0
 20
0.0
 30
0.0
  3
*PAPER_SPACE
  1

  0
ENDBLK
  5
19
330
17
100
AcDbEntity
 67
     1
  8
0
100
AcDbBlockEnd
  0
BLOCK
  5
3B49
330
3B40
100
AcDbEntity
  8
0
100
AcDbBlockBegin
  2
CBF20
 70
     0
 10
0.0
 20
0.0
 30
0.0
  3
CBF20
  1

  0
CIRCLE
  5
3B41
330
3B40
100
AcDbEntity
  8
0
  6
CONTINUOUS
100
AcDbCircle
 10
0.0000187875812969
 20
0.0000034482758196
 30
0.0
 40
13.26794838486186
  0
CIRCLE
  5
3B42
330
3B40
100
AcDbEntity
  8
0
  6
CONTINUOUS
100
AcDbCircle
 10
0.0000187875812969
 20
0.0000034482758196
 30
0.0
 40
15.0
  0
LINE
  5
3B43
330
3B40
100
AcDbEntity
  8
0
  6
CONTINUOUS
100
AcDbLine
 10
-9.814931212418656
 20
0.0000034482758196
 30
0.0
 11
-4.907456212418679
 21
-8.499992588598203
 31
0.0
  0
LINE
  5
3B44
330
3B40
100
AcDbEntity
  8
0
  6
CONTINUOUS
100
AcDbLine
 10
4.90749378758133
 20
-8.499992588598203
 30
0.0
 11
9.814968787581307
 21
0.0000034482758196
 31
0.0
  0
LINE
  5
3B45
330
3B40
100
AcDbEntity
  8
0
  6
CONTINUOUS
100
AcDbLine
 10
-4.907456212418679
 20
-8.499992588598203
 30
0.0
 11
4.90749378758133
 21
-8.499992588598203
 31
0.0
  0
LINE
  5
3B46
330
3B40
100
AcDbEntity
  8
0
  6
CONTINUOUS
100
AcDbLine
 10
4.90749378758133
 20
8.499999485149899
 30
0.0
 11
-4.907456212418679
 21
8.499999485149899
 31
0.0
  0
LINE
  5
3B47
330
3B40
100
AcDbEntity
  8
0
  6
CONTINUOUS
100
AcDbLine
 10
-4.907456212418679
 20
8.499999485149899
 30
0.0
 11
-9.814931212418656
 21
0.0000034482758196
 31
0.0
  0
LINE
  5
3B48
330
3B40
100
AcDbEntity
  8
0
  6
CONTINUOUS
100
AcDbLine
 10
9.814968787581307
 20
0.0000034482758196
 30
0.0
 11
4.90749378758133
 21
8.499999485149899
 31
0.0
  0
ENDBLK
  5
3B4A
330
3B40
100
AcDbEntity
  8
0
100
AcDbBlockEnd
  0
ENDSEC
  0
SECTION
  2
ENTITIES
  0
LINE
  5
31A8
330
1A
100
AcDbEntity
  8
CENTER
 48
10.0
100
AcDbLine
 10
274.2272753963992
 20
280.8229428911081
 30
0.0
 11
274.2272753963992
 21
410.6086325616679
 31
0.0
  0
LINE
  5
31A9
330
1A
100
AcDbEntity
  8
1
100
AcDbLine
 10
334.2272753963983
 20
290.1186578402193
 30
0.0
 11
334.2272753963983
 21
402.1186578402202
 31
0.0
  0
LINE
  5
31AB
330
1A
100
AcDbEntity
  8
1
100
AcDbLine
 10
122.2272753963992
 20
324.6186578402202
 30
0.0
 11
122.2272753964001
 21
367.6186578402194
 31
0.0
  0
LINE
  5
31AC
330
1A
100
AcDbEntity
  8
1
100
AcDbLine
 10
122.2272753963974
 20
290.1186578402193
 30
0.0
 11
122.2272753963983
 21
402.1186578402202
 31
0.0
  0
LINE
  5
31AD
330
1A
100
AcDbEntity
  8
1
100
AcDbLine
 10
450.1899144358547
 20
112.2215801846616
 30
0.0
 11
488.1899144358547
 21
112.2215801846626
 31
0.0
  0
LINE
  5
31AE
330
1A
100
AcDbEntity
  8
1
100
AcDbLine
 10
409.1899144358575
 20
86.22158018466349
 30
0.0
 11
529.1899144358565
 21
86.22158018466349
 31
0.0
  0
LINE
  5
31AF
330
1A
100
AcDbEntity
  8
CENTER
 48
10.0
100
AcDbLine
 10
337.3714522433368
 20
346.1186578402193
 30
0.0
 11
101.2377164078792
 21
346.1186578402193
 31
0.0
  0
LINE
  5
31B0
330
1A
100
AcDbEntity
  8
1
100
AcDbLine
 10
252.3483729536623
 20
110.2215801846634
 30
0.0
 11
126.2272753963983
 21
110.2215801846653
 31
0.0
  0
LINE
  5
31B1
330
1A
100
AcDbEntity
  8
1
100
AcDbLine
 10
334.2272753963992
 20
86.22158018466349
 30
0.0
 11
122.2272753963974
 21
86.22158018466349
 31
0.0
  0
LINE
  5
31B2
330
1A
100
AcDbEntity
  8
1
100
AcDbLine
 10
198.2272753963992
 20
112.2215801846643
 30
0.0
 11
122.2272753963991
 21
112.2215801846653
 31
0.0
  0
LINE
  5
31B3
330
1A
100
AcDbEntity
  8
1
100
AcDbLine
 10
330.2272753963983
 20
286.1186578402193
 30
0.0
 11
126.2272753963974
 21
286.1186578402193
 31
0.0
  0
LINE
  5
31B5
330
1A
100
AcDbEntity
  8
1
100
AcDbLine
 10
334.2272753964001
 20
106.2215801846625
 30
0.0
 11
334.2272753963992
 21
86.22158018466349
 31
0.0
  0
LINE
  5
31B7
330
1A
100
AcDbEntity
  8
1
100
AcDbLine
 10
292.6647753963983
 20
135.2215801846634
 30
0.0
 11
255.7897753963965
 21
135.2215801846634
 31
0.0
  0
LINE
  5
31B8
330
1A
100
AcDbEntity
  8
1
100
AcDbLine
 10
290.2878241750298
 20
158.2215801846643
 30
0.0
 11
258.166726617764
 21
158.2215801846643
 31
0.0
  0
LINE
  5
31B9
330
1A
100
AcDbEntity
  8
CENTER
 48
10.0
100
AcDbLine
 10
298.5295678813466
 20
306.1186612884948
 30
0.0
 11
250.5466874114848
 21
306.1186612884948
 31
0.0
  0
ARC
  5
31BA
330
1A
100
AcDbEntity
  8
1
100
AcDbCircle
 10
274.2272753963992
 20
306.1186612884948
 30
0.0
 40
18.43749999999909
100
AcDbArc
 50
237.1546822827613
 51
302.8453177172419
  0
ARC
  5
31BB
330
1A
100
AcDbEntity
  8
1
100
AcDbCircle
 10
274.2272753963992
 20
306.1186612884948
 30
0.0
 40
16.99999999999818
100
AcDbArc
 50
233.968120927525
 51
306.0318790724782
  0
LINE
  5
31BD
330
1A
100
AcDbEntity
  8
1
100
AcDbLine
 10
330.2272753964001
 20
110.2215801846625
 30
0.0
 11
296.1061778391343
 21
110.2215801846625
 31
0.0
  0
ARC
  5
31BE
330
1A
100
AcDbEntity
  8
1
100
AcDbCircle
 10
330.2272753964001
 20
106.2215801846625
 30
0.0
 40
4.0
100
AcDbArc
 50
0.000000000000007
 51
90.0
  0
ARC
  5
31BF
330
1A
100
AcDbEntity
  8
1
100
AcDbCircle
 10
296.3561778391343
 20
108.2215801846625
 30
0.0
 40
2.0
100
AcDbArc
 50
183.5763343749779
 51
270.0
  0
ARC
  5
31C0
330
1A
100
AcDbEntity
  8
1
100
AcDbCircle
 10
296.1061778391343
 20
112.2215801846625
 30
0.0
 40
2.0
100
AcDbArc
 50
183.5763343749779
 51
270.0
  0
ARC
  5
31C1
330
1A
100
AcDbEntity
  8
1
100
AcDbCircle
 10
290.2878241750298
 20
157.2215801846643
 30
0.0
 40
1.0
100
AcDbArc
 50
3.576334374977851
 51
90.0
  0
LINE
  5
31C2
330
1A
100
AcDbEntity
  8
1
100
AcDbLine
 10
291.285876753513
 20
157.2839584708192
 30
0.0
 11
294.3600726821681
 21
108.0968236123519
 31
0.0
  0
ARC
  5
31C6
330
1A
100
AcDbEntity
  8
1
100
AcDbCircle
 10
330.2272753963983
 20
290.1186578402193
 30
0.0
 40
4.0
100
AcDbArc
 50
270.0
 51
0.000000000000007
  0
CIRCLE
  5
31CA
330
1A
100
AcDbEntity
  8
1
100
AcDbCircle
 10
316.2272753963992
 20
304.1186578402193
 30
0.0
 40
7.0
  0
ARC
  5
31CD
330
1A
100
AcDbEntity
  8
1
100
AcDbCircle
 10
252.0983729536632
 20
108.2215801846625
 30
0.0
 40
2.0
100
AcDbArc
 50
270.0
 51
356.4236656250221
  0
ARC
  5
31CE
330
1A
100
AcDbEntity
  8
1
100
AcDbCircle
 10
252.3483729536623
 20
112.2215801846634
 30
0.0
 40
2.0
100
AcDbArc
 50
270.0
 51
356.4236656250221
  0
ARC
  5
31CF
330
1A
100
AcDbEntity
  8
1
100
AcDbCircle
 10
258.166726617764
 20
157.2215801846643
 30
0.0
 40
1.0
100
AcDbArc
 50
90.0
 51
176.4236656250221
  0
LINE
  5
31D0
330
1A
100
AcDbEntity
  8
1
100
AcDbLine
 10
257.1686740392809
 20
157.2839584708192
 30
0.0
 11
254.0944781106294
 21
108.0968236123519
 31
0.0
  0
ARC
  5
31D1
330
1A
100
AcDbEntity
  8
1
100
AcDbCircle
 10
199.2272753963992
 20
111.2215801846643
 30
0.0
 40
1.0
100
AcDbArc
 50
180.0
 51
270.0
  0
LINE
  5
31D3
330
1A
100
AcDbEntity
  8
1
100
AcDbLine
 10
198.2272753963992
 20
112.2215801846643
 30
0.0
 11
198.2272753963992
 21
111.2215801846643
 31
0.0
  0
LINE
  5
31D8
330
1A
100
AcDbEntity
  8
1
100
AcDbLine
 10
529.1899144358565
 20
86.22158018466349
 30
0.0
 11
529.189914435852
 21
135.2215801846643
 31
0.0
  0
LINE
  5
31D9
330
1A
100
AcDbEntity
  8
1
100
AcDbLine
 10
122.2272753963992
 20
112.2215801846653
 30
0.0
 11
122.2272753963974
 21
86.22158018466349
 31
0.0
  0
LINE
  5
31DA
330
1A
100
AcDbEntity
  8
CENTER
 48
10.0
100
AcDbLine
 10
509.1899144358502
 20
79.8767159920701
 30
0.0
 11
509.1899144358547
 21
205.4897495647535
 31
0.0
  0
ARC
  5
31DE
330
1A
100
AcDbEntity
  8
1
100
AcDbCircle
 10
126.2272753963983
 20
106.2215801846625
 30
0.0
 40
4.0
100
AcDbArc
 50
90.0
 51
180.0
  0
ARC
  5
31DF
330
1A
100
AcDbEntity
  8
1
100
AcDbCircle
 10
126.2272753963974
 20
290.1186578402193
 30
0.0
 40
4.0
100
AcDbArc
 50
180.0
 51
270.0
  0
CIRCLE
  5
31E1
330
1A
100
AcDbEntity
  8
1
100
AcDbCircle
 10
141.2272753963992
 20
304.1186578402193
 30
0.0
 40
7.0
  0
ARC
  5
31E7
330
1A
100
AcDbEntity
  8
1
100
AcDbCircle
 10
525.1899144358556
 20
106.2215801846625
 30
0.0
 40
4.0
100
AcDbArc
 50
0.000000000000007
 51
90.0
  0
ARC
  5
31E9
330
1A
100
AcDbEntity
  8
1
100
AcDbCircle
 10
528.5668656572233
 20
136.2215801846634
 30
0.0
 40
1.0
100
AcDbArc
 50
183.5763343749779
 51
270.0
  0
LINE
  5
31EA
330
1A
100
AcDbEntity
  8
1
100
AcDbLine
 10
529.1899144358511
 20
135.2215801846634
 30
0.0
 11
509.189914435853
 21
135.2215801846634
 31
0.0
  0
ARC
  5
31ED
330
1A
100
AcDbEntity
  8
1
100
AcDbCircle
 10
489.1899144358538
 20
111.2215801846634
 30
0.0
 40
1.0
100
AcDbArc
 50
180.0
 51
220.9085656765695
  0
ARC
  5
31EE
330
1A
100
AcDbEntity
  8
1
100
AcDbCircle
 10
493.1293656572259
 20
157.2215801846625
 30
0.0
 40
1.0
100
AcDbArc
 50
90.0
 51
176.4236656250221
  0
ARC
  5
31EF
330
1A
100
AcDbEntity
  8
1
100
AcDbCircle
 10
525.2504632144908
 20
157.2215801846598
 30
0.0
 40
1.0
100
AcDbArc
 50
3.576334374977851
 51
90.0
  0
LINE
  5
31F1
330
1A
100
AcDbEntity
  8
1
100
AcDbLine
 10
488.1899144358547
 20
112.2215801846625
 30
0.0
 11
488.1899144358544
 21
111.2215801846638
 31
0.0
  0
LINE
  5
31F2
330
1A
100
AcDbEntity
  8
1
100
AcDbLine
 10
492.1313130787429
 20
157.2839584708174
 30
0.0
 11
489.3071171500838
 21
112.096823612352
 31
0.0
  0
LINE
  5
31F3
330
1A
100
AcDbEntity
  8
1
100
AcDbLine
 10
526.248515792974
 20
157.2839584708146
 30
0.0
 11
527.5688130787401
 21
136.1592018985086
 31
0.0
  0
LINE
  5
31F4
330
1A
100
AcDbEntity
  8
1
100
AcDbLine
 10
493.1293656572259
 20
158.2215801846625
 30
0.0
 11
525.2504632144908
 21
158.2215801846598
 31
0.0
  0
LINE
  5
31F5
330
1A
100
AcDbEntity
  8
1
100
AcDbLine
 10
409.1899144358575
 20
86.22158018466349
 30
0.0
 11
409.1899144358566
 21
135.2215801846662
 31
0.0
  0
LINE
  5
31F6
330
1A
100
AcDbEntity
  8
CENTER
 48
10.0
100
AcDbLine
 10
469.1899144358566
 20
209.9041769016007
 30
0.0
 11
469.1899144358548
 21
75.18947290096116
 31
0.0
  0
LINE
  5
31F7
330
1A
100
AcDbEntity
  8
CENTER
 48
10.0
100
AcDbLine
 10
429.1899144358584
 20
79.87671599207192
 30
0.0
 11
429.1899144358584
 21
205.4897495647535
 31
0.0
  0
ARC
  5
31FA
330
1A
100
AcDbEntity
  8
1
100
AcDbCircle
 10
409.812963214489
 20
136.2215801846671
 30
0.0
 40
1.0
100
AcDbArc
 50
270.0
 51
356.4236656250221
  0
LINE
  5
31FB
330
1A
100
AcDbEntity
  8
1
100
AcDbLine
 10
409.1899144358603
 20
135.2215801846671
 30
0.0
 11
429.1899144358584
 21
135.2215801846662
 31
0.0
  0
ARC
  5
31FD
330
1A
100
AcDbEntity
  8
1
100
AcDbCircle
 10
449.1899144358539
 20
111.2215801846634
 30
0.0
 40
1.0
100
AcDbArc
 50
319.09143432348
 51
0.000000000000007
  0
ARC
  5
31FE
330
1A
100
AcDbEntity
  8
1
100
AcDbCircle
 10
413.1293656572223
 20
157.2215801846634
 30
0.0
 40
1.0
100
AcDbArc
 50
90.0
 51
176.4236656250221
  0
ARC
  5
31FF
330
1A
100
AcDbEntity
  8
1
100
AcDbCircle
 10
445.250463214489
 20
157.2215801846634
 30
0.0
 40
1.0
100
AcDbArc
 50
3.576334374977851
 51
90.0
  0
LINE
  5
3201
330
1A
100
AcDbEntity
  8
1
100
AcDbLine
 10
412.1313130787392
 20
157.2839584708183
 30
0.0
 11
410.8110157929721
 21
136.1592018985122
 31
0.0
  0
ARC
  5
3202
330
1A
100
AcDbEntity
  8
1
100
AcDbCircle
 10
413.1899144358539
 20
106.2215801846625
 30
0.0
 40
4.0
100
AcDbArc
 50
90.0
 51
180.0
  0
LINE
  5
3203
330
1A
100
AcDbEntity
  8
1
100
AcDbLine
 10
446.2485157929721
 20
157.2839584708183
 30
0.0
 11
449.0727117216266
 21
112.0968236123512
 31
0.0
  0
LINE
  5
3204
330
1A
100
AcDbEntity
  8
1
100
AcDbLine
 10
450.1899144358548
 20
112.2215801846616
 30
0.0
 11
450.1899144358547
 21
111.2215801846633
 31
0.0
  0
LINE
  5
3205
330
1A
100
AcDbEntity
  8
1
100
AcDbLine
 10
445.250463214489
 20
158.2215801846634
 30
0.0
 11
413.1293656572223
 21
158.2215801846634
 31
0.0
  0
LINE
  5
3206
330
1A
100
AcDbEntity
  8
1
100
AcDbLine
 10
413.1899144358539
 20
110.2215801846625
 30
0.0
 11
525.1899144358558
 21
110.2215801846597
 31
0.0
  0
LINE
  5
3207
330
1A
100
AcDbEntity
  8
1
100
AcDbLine
 10
330.2272753963983
 20
406.1186578402202
 30
0.0
 11
126.2272753963983
 21
406.1186578402202
 31
0.0
  0
LINE
  5
3209
330
1A
100
AcDbEntity
  8
CENTER
 48
10.0
100
AcDbLine
 10
298.2199985478049
 20
386.1186543919438
 30
0.0
 11
250.2371218535011
 21
386.1186543919438
 31
0.0
  0
ARC
  5
320A
330
1A
100
AcDbEntity
  8
1
100
AcDbCircle
 10
274.2272753963992
 20
386.1186543919438
 30
0.0
 40
18.43749999999909
100
AcDbArc
 50
57.15468228276133
 51
122.8453177172386
  0
ARC
  5
320C
330
1A
100
AcDbEntity
  8
1
100
AcDbCircle
 10
274.2272753963992
 20
386.1186543919438
 30
0.0
 40
16.99999999999818
100
AcDbArc
 50
53.96812092752502
 51
126.0318790724749
  0
ARC
  5
3210
330
1A
100
AcDbEntity
  8
1
100
AcDbCircle
 10
330.2272753963983
 20
402.1186578402193
 30
0.0
 40
4.0
100
AcDbArc
 50
0.000000000000007
 51
90.0
  0
CIRCLE
  5
3211
330
1A
100
AcDbEntity
  8
1
100
AcDbCircle
 10
316.2272753963992
 20
388.1186578402193
 30
0.0
 40
7.0
  0
ARC
  5
321B
330
1A
100
AcDbEntity
  8
1
100
AcDbCircle
 10
126.2272753963983
 20
402.1186578402202
 30
0.0
 40
4.0
100
AcDbArc
 50
90.0
 51
180.0
  0
CIRCLE
  5
321C
330
1A
100
AcDbEntity
  8
1
100
AcDbCircle
 10
141.2272753963992
 20
388.1186578402193
 30
0.0
 40
7.0
  0
ARC
  5
3226
330
1A
100
AcDbEntity
  8
1
100
AcDbCircle
 10
451.0688168785925
 20
112.2215801846616
 30
0.0
 40
2.0
100
AcDbArc
 50
183.5763343749979
 51
269.9999999999983
  0
ARC
  5
3227
330
1A
100
AcDbEntity
  8
1
100
AcDbCircle
 10
487.3110119931181
 20
112.2215801846625
 30
0.0
 40
2.0
100
AcDbArc
 50
269.9999999999983
 51
356.423665624996
  0
LINE
  5
3290
330
1A
100
AcDbEntity
  8
1
100
AcDbLine
 10
215.2272753963956
 20
176.2215801846643
 30
0.0
 11
266.2272753963969
 21
176.2215801846643
 31
0.0
  0
LINE
  5
3291
330
1A
100
AcDbEntity
  8
1
100
AcDbLine
 10
257.2272753963974
 20
185.2215801846616
 30
0.0
 11
266.2272753963969
 21
185.2215801846616
 31
0.0
  0
LINE
  5
3292
330
1A
100
AcDbEntity
  8
1
100
AcDbLine
 10
333.9593262039646
 20
202.2215801846616
 30
0.0
 11
214.4952245888265
 21
202.2215801846625
 31
0.0
  0
ARC
  5
3293
330
1A
100
AcDbEntity
  8
1
100
AcDbCircle
 10
216.2272753963947
 20
201.2215801846616
 30
0.0
 40
2.0
100
AcDbArc
 50
149.9999999999455
 51
180.0
  0
ARC
  5
3294
330
1A
100
AcDbEntity
  8
1
100
AcDbCircle
 10
215.2272753963956
 20
177.2215801846643
 30
0.0
 40
1.0
100
AcDbArc
 50
180.0
 51
270.0
  0
LINE
  5
3295
330
1A
100
AcDbEntity
  8
1
100
AcDbLine
 10
214.2272753963956
 20
177.2215801846643
 30
0.0
 11
214.2272753963947
 21
201.2215801846616
 31
0.0
  0
ARC
  5
3296
330
1A
100
AcDbEntity
  8
1
100
AcDbCircle
 10
257.2272753963974
 20
187.2215801846607
 30
0.0
 40
2.0
100
AcDbArc
 50
180.0
 51
270.0
  0
ARC
  5
3297
330
1A
100
AcDbEntity
  8
1
100
AcDbCircle
 10
263.2272753963956
 20
177.2215801846643
 30
0.0
 40
1.0
100
AcDbArc
 50
270.0
 51
0.0
  0
ARC
  5
3298
330
1A
100
AcDbEntity
  8
1
100
AcDbCircle
 10
263.2272753963956
 20
184.2215801846625
 30
0.0
 40
1.0
100
AcDbArc
 50
0.0
 51
90.0
  0
LINE
  5
3299
330
1A
100
AcDbEntity
  8
1
100
AcDbLine
 10
264.2272753963956
 20
184.2215801846634
 30
0.0
 11
264.2272753963956
 21
177.2215801846652
 31
0.0
  0
LINE
  5
329A
330
1A
100
AcDbEntity
  8
1
100
AcDbLine
 10
255.2272753963974
 20
187.2215801846616
 30
0.0
 11
255.2272753963956
 21
202.2215801846643
 31
0.0
  0
ARC
  5
329B
330
1A
100
AcDbEntity
  8
1
100
AcDbCircle
 10
332.2272753963965
 20
201.2215801846598
 30
0.0
 40
2.0
100
AcDbArc
 50
0.0
 51
30.00000000005446
  0
ARC
  5
329C
330
1A
100
AcDbEntity
  8
1
100
AcDbCircle
 10
333.2272753963983
 20
177.2215801846643
 30
0.0
 40
1.0
100
AcDbArc
 50
270.0
 51
0.0
  0
ARC
  5
329D
330
1A
100
AcDbEntity
  8
1
100
AcDbCircle
 10
291.2272753963956
 20
187.2215801846607
 30
0.0
 40
2.0
100
AcDbArc
 50
270.0
 51
0.0
  0
LINE
  5
329E
330
1A
100
AcDbEntity
  8
1
100
AcDbLine
 10
334.2272753963983
 20
177.2215801846643
 30
0.0
 11
334.2272753963965
 21
201.2215801846598
 31
0.0
  0
ARC
  5
329F
330
1A
100
AcDbEntity
  8
1
100
AcDbCircle
 10
285.2272753963956
 20
184.2215801846625
 30
0.0
 40
1.0
100
AcDbArc
 50
90.0
 51
180.0
  0
ARC
  5
32A0
330
1A
100
AcDbEntity
  8
1
100
AcDbCircle
 10
285.2272753963956
 20
177.2215801846643
 30
0.0
 40
1.0
100
AcDbArc
 50
180.0
 51
270.0
  0
LINE
  5
32A1
330
1A
100
AcDbEntity
  8
1
100
AcDbLine
 10
284.2272753963955
 20
184.2215801846634
 30
0.0
 11
284.2272753963955
 21
177.2215801846652
 31
0.0
  0
LINE
  5
32A2
330
1A
100
AcDbEntity
  8
1
100
AcDbLine
 10
293.2272753963956
 20
187.2215801846616
 30
0.0
 11
293.2272753963946
 21
202.2215801846643
 31
0.0
  0
ARC
  5
32A3
330
1A
100
AcDbEntity
  8
1
100
AcDbCircle
 10
274.2272753963992
 20
386.118654391943
 30
0.0
 40
19.0000000000009
100
AcDbArc
 50
180.0
 51
0.0
  0
ARC
  5
32A4
330
1A
100
AcDbEntity
  8
1
100
AcDbCircle
 10
274.2272753963992
 20
306.1186612884939
 30
0.0
 40
19.0000000000009
100
AcDbArc
 50
0.0
 51
180.0
  0
CIRCLE
  5
32A9
330
1A
100
AcDbEntity
  8
1
100
AcDbCircle
 10
274.2272753963992
 20
346.1186578402193
 30
0.0
 40
16.0
  0
LINE
  5
32AB
330
1A
100
AcDbEntity
  8
1
100
AcDbLine
 10
214.2272753963992
 20
290.1186578402184
 30
0.0
 11
214.2272753964001
 21
402.1186578402184
 31
0.0
  0
ARC
  5
32AD
330
1A
100
AcDbEntity
  8
1
100
AcDbCircle
 10
218.2272753963992
 20
290.1186578402193
 30
0.0
 40
4.0
100
AcDbArc
 50
180.0
 51
270.0
  0
ARC
  5
32AE
330
1A
100
AcDbEntity
  8
1
100
AcDbCircle
 10
251.2272753963983
 20
290.1186578402193
 30
0.0
 40
4.0
100
AcDbArc
 50
270.0
 51
0.0
  0
LINE
  5
32AF
330
1A
100
AcDbEntity
  8
1
100
AcDbLine
 10
255.2272753963983
 20
306.1186612884939
 30
0.0
 11
255.2272753963983
 21
290.1186578402193
 31
0.0
  0
ARC
  5
32B0
330
1A
100
AcDbEntity
  8
1
100
AcDbCircle
 10
260.2272753963992
 20
290.1186578402193
 30
0.0
 40
4.0
100
AcDbArc
 50
270.0
 51
0.0
  0
LINE
  5
32B1
330
1A
100
AcDbEntity
  8
1
100
AcDbLine
 10
264.2272753963992
 20
292.9942565400882
 30
0.0
 11
264.2272753963992
 21
290.1186578402184
 31
0.0
  0
CIRCLE
  5
32B2
330
1A
100
AcDbEntity
  8
1
100
AcDbCircle
 10
232.2272753963992
 20
304.1186578402193
 30
0.0
 40
7.0
  0
LINE
  5
32B9
330
1A
100
AcDbEntity
  8
1
100
AcDbLine
 10
218.2272753963992
 20
286.1186578402184
 30
0.0
 11
260.2272753963992
 21
286.1186578402175
 31
0.0
  0
ARC
  5
32BA
330
1A
100
AcDbEntity
  8
1
100
AcDbCircle
 10
218.2272753964001
 20
402.1186578402193
 30
0.0
 40
4.0
100
AcDbArc
 50
90.0
 51
180.0
  0
ARC
  5
32BB
330
1A
100
AcDbEntity
  8
1
100
AcDbCircle
 10
251.2272753963983
 20
402.1186578402176
 30
0.0
 40
4.0
100
AcDbArc
 50
0.0
 51
90.0
  0
LINE
  5
32BC
330
1A
100
AcDbEntity
  8
1
100
AcDbLine
 10
255.2272753963983
 20
386.118654391943
 30
0.0
 11
255.2272753963983
 21
402.1186578402176
 31
0.0
  0
ARC
  5
32BD
330
1A
100
AcDbEntity
  8
1
100
AcDbCircle
 10
260.2272753963992
 20
402.1186578402193
 30
0.0
 40
4.0
100
AcDbArc
 50
0.0
 51
90.0
  0
LINE
  5
32BE
330
1A
100
AcDbEntity
  8
1
100
AcDbLine
 10
264.2272753963992
 20
399.2430591403506
 30
0.0
 11
264.2272753963992
 21
402.1186578402184
 31
0.0
  0
CIRCLE
  5
32C5
330
1A
100
AcDbEntity
  8
1
100
AcDbCircle
 10
232.2272753963992
 20
388.1186578402193
 30
0.0
 40
7.0
  0
LINE
  5
32C6
330
1A
100
AcDbEntity
  8
1
100
AcDbLine
 10
218.2272753964001
 20
406.1186578402184
 30
0.0
 11
260.2272753963992
 21
406.1186578402166
 31
0.0
  0
LINE
  5
32C7
330
1A
100
AcDbEntity
  8
1
100
AcDbLine
 10
334.227275396401
 20
290.1186578402175
 30
0.0
 11
334.2272753963992
 21
402.1186578402184
 31
0.0
  0
ARC
  5
32CC
330
1A
100
AcDbEntity
  8
1
100
AcDbCircle
 10
297.227275396401
 20
290.1186578402193
 30
0.0
 40
4.0
100
AcDbArc
 50
180.0
 51
270.0
  0
LINE
  5
32CD
330
1A
100
AcDbEntity
  8
1
100
AcDbLine
 10
293.2272753964001
 20
306.1186612884939
 30
0.0
 11
293.227275396401
 21
290.1186578402193
 31
0.0
  0
ARC
  5
32CE
330
1A
100
AcDbEntity
  8
1
100
AcDbCircle
 10
288.2272753964001
 20
290.1186578402193
 30
0.0
 40
4.0
100
AcDbArc
 50
180.0
 51
270.0
  0
LINE
  5
32CF
330
1A
100
AcDbEntity
  8
1
100
AcDbLine
 10
284.2272753964
 20
292.9942565400887
 30
0.0
 11
284.2272753964001
 21
290.1186578402184
 31
0.0
  0
ARC
  5
32D0
330
1A
100
AcDbEntity
  8
1
100
AcDbCircle
 10
330.227275396401
 20
290.1186578402184
 30
0.0
 40
4.0
100
AcDbArc
 50
270.0
 51
0.0
  0
CIRCLE
  5
32D1
330
1A
100
AcDbEntity
  8
1
100
AcDbCircle
 10
316.2272753963992
 20
304.1186578402193
 30
0.0
 40
7.0
  0
LINE
  5
32D8
330
1A
100
AcDbEntity
  8
1
100
AcDbLine
 10
288.2272753964001
 20
286.1186578402193
 30
0.0
 11
330.227275396401
 21
286.1186578402175
 31
0.0
  0
ARC
  5
32D9
330
1A
100
AcDbEntity
  8
1
100
AcDbCircle
 10
297.227275396401
 20
402.1186578402176
 30
0.0
 40
4.0
100
AcDbArc
 50
90.0
 51
180.0
  0
LINE
  5
32DA
330
1A
100
AcDbEntity
  8
1
100
AcDbLine
 10
293.2272753964001
 20
386.118654391943
 30
0.0
 11
293.227275396401
 21
402.1186578402176
 31
0.0
  0
ARC
  5
32DB
330
1A
100
AcDbEntity
  8
1
100
AcDbCircle
 10
288.2272753963992
 20
402.1186578402212
 30
0.0
 40
4.0
100
AcDbArc
 50
90.0
 51
180.0
  0
LINE
  5
32DC
330
1A
100
AcDbEntity
  8
1
100
AcDbLine
 10
284.2272753963992
 20
399.2430591403506
 30
0.0
 11
284.2272753963992
 21
402.1186578402202
 31
0.0
  0
ARC
  5
32DD
330
1A
100
AcDbEntity
  8
1
100
AcDbCircle
 10
330.2272753963992
 20
402.1186578402193
 30
0.0
 40
4.0
100
AcDbArc
 50
0.0
 51
90.0
  0
LINE
  5
32DE
330
1A
100
AcDbEntity
  8
1
100
AcDbLine
 10
288.2272753963992
 20
406.1186578402193
 30
0.0
 11
330.2272753963992
 21
406.1186578402184
 31
0.0
  0
CIRCLE
  5
32E5
330
1A
100
AcDbEntity
  8
1
100
AcDbCircle
 10
316.2272753963992
 20
388.1186578402193
 30
0.0
 40
7.0
  0
LINE
  5
32F9
330
1A
100
AcDbEntity
  8
CENTER
 48
10.0
100
AcDbLine
 10
274.2272753963969
 20
212.7616006039013
 30
0.0
 11
274.2272753963969
 21
78.47777026218068
 31
0.0
  0
LINE
  5
3332
330
1A
100
AcDbEntity
  8
1
  6
CENTER
 62
     9
 48
10.0
100
AcDbLine
 10
122.2272753964001
 20
150.2215801846643
 30
0.0
 11
256.7272753963967
 21
150.2215801846651
 31
0.0
  0
LINE
  5
3333
330
1A
100
AcDbEntity
  8
1
  6
CENTER
 62
     9
 48
10.0
100
AcDbLine
 10
200.2272753964001
 20
114.2215801846643
 30
0.0
 11
254.4772753963986
 21
114.2215801846643
 31
0.0
  0
LINE
  5
3334
330
1A
100
AcDbEntity
  8
1
  6
CENTER
 62
     9
 48
10.0
100
AcDbLine
 10
122.2272753963992
 20
327.1186578402193
 30
0.0
 11
214.2272753963995
 21
327.1186578402193
 31
0.0
  0
LINE
  5
3335
330
1A
100
AcDbEntity
  8
1
  6
CENTER
 62
     9
 48
10.0
100
AcDbLine
 10
122.2272753963992
 20
365.1186578402193
 30
0.0
 11
214.2272753963998
 21
365.1186578402193
 31
0.0
  0
LINE
  5
3347
330
1A
100
AcDbEntity
  8
1
  6
CENTER
 62
     9
 48
10.0
100
AcDbLine
 10
198.2272753964001
 20
112.2215801846653
 30
0.0
 11
200.227275396401
 21
114.2215801846643
 31
0.0
  0
LINE
  5
3348
330
1A
100
AcDbEntity
  8
1
  6
CENTER
 62
     9
 48
10.0
100
AcDbLine
 10
122.2272753964001
 20
112.2215801846643
 30
0.0
 11
122.2272753964001
 21
150.2215801846643
 31
0.0
  0
LINE
  5
3349
330
1A
100
AcDbEntity
  8
1
  6
CENTER
 62
     9
 48
10.0
100
AcDbLine
 10
122.2272753964001
 20
112.2215801846643
 30
0.0
 11
198.2272753964001
 21
112.2215801846643
 31
0.0
  0
CIRCLE
  5
334A
330
1A
100
AcDbEntity
  8
1
  6
CENTER
 62
     9
 48
10.0
100
AcDbCircle
 10
160.2272753964019
 20
132.2215801846652
 30
0.0
 40
13.5
  0
LINE
  5
334B
330
1A
100
AcDbEntity
  8
1
  6
CENTER
 62
     9
 48
10.0
100
AcDbLine
 10
122.2272753963992
 20
327.1186578402184
 30
0.0
 11
122.2272753963992
 21
365.1186578402193
 31
0.0
  0
LINE
  5
3355
330
1A
100
AcDbEntity
  8
1
  6
CENTER
 62
     9
 48
10.0
100
AcDbLine
 10
293.2272753964017
 20
126.2215801846097
 30
0.0
 11
293.227275396401
 21
150.2215801846652
 31
0.0
  0
CIRCLE
  5
3365
330
1A
100
AcDbEntity
  8
1
  6
CENTER
 62
     9
 48
10.0
100
AcDbCircle
 10
235.227275396401
 20
132.2215801846643
 30
0.0
 40
12.0
  0
LINE
  5
339B
330
1A
100
AcDbEntity
  8
1
100
AcDbLine
 10
255.2272753963969
 20
170.2215801846644
 30
0.0
 11
262.2272753963969
 21
170.2215801846644
 31
0.0
  0
LINE
  5
339C
330
1A
100
AcDbEntity
  8
1
100
AcDbLine
 10
293.2272753963969
 20
176.2215801846643
 30
0.0
 11
293.2272753963969
 21
170.2215801846644
 31
0.0
  0
LINE
  5
339D
330
1A
100
AcDbEntity
  8
1
100
AcDbLine
 10
255.2272753963969
 20
176.2215801846643
 30
0.0
 11
255.2272753963969
 21
170.2215801846644
 31
0.0
  0
LINE
  5
346A
330
1A
100
AcDbEntity
  8
1
100
AcDbLine
 10
257.7272753963969
 20
160.2215801846651
 30
0.0
 11
259.2272753963969
 21
160.2215801846651
 31
0.0
  0
LINE
  5
346B
330
1A
100
AcDbEntity
  8
1
100
AcDbLine
 10
257.7272753963969
 20
165.2215801846651
 30
0.0
 11
262.2272753963969
 21
165.2215801846651
 31
0.0
  0
LINE
  5
346C
330
1A
100
AcDbEntity
  8
1
100
AcDbLine
 10
255.2272753963969
 20
166.2215801846651
 30
0.0
 11
255.2272753963969
 21
170.2215801846651
 31
0.0
  0
LINE
  5
346D
330
1A
100
AcDbEntity
  8
1
100
AcDbLine
 10
293.2272753963969
 20
166.2215801846651
 30
0.0
 11
293.2272753963969
 21
170.2215801846651
 31
0.0
  0
LINE
  5
346E
330
1A
100
AcDbEntity
  8
1
100
AcDbLine
 10
255.2272753963969
 20
170.2215801846651
 30
0.0
 11
262.2272753963969
 21
170.2215801846651
 31
0.0
  0
LINE
  5
346F
330
1A
100
AcDbEntity
  8
1
100
AcDbLine
 10
255.2272753963969
 20
166.2215801846651
 30
0.0
 11
262.2272753963969
 21
166.2215801846651
 31
0.0
  0
ARC
  5
3470
330
1A
100
AcDbEntity
  8
1
100
AcDbCircle
 10
258.7272753963969
 20
165.7215801846651
 30
0.0
 40
0.5
100
AcDbArc
 50
270.0
 51
90.0
  0
ARC
  5
3471
330
1A
100
AcDbEntity
  8
1
100
AcDbCircle
 10
289.7272753963969
 20
165.7215801846651
 30
0.0
 40
0.5
100
AcDbArc
 50
90.0
 51
270.0
  0
ARC
  5
3472
330
1A
100
AcDbEntity
  8
1
100
AcDbCircle
 10
290.7272753963969
 20
162.7215801846651
 30
0.0
 40
2.5
100
AcDbArc
 50
270.0
 51
90.0
  0
ARC
  5
3473
330
1A
100
AcDbEntity
  8
1
100
AcDbCircle
 10
257.7272753963969
 20
162.7215801846651
 30
0.0
 40
2.5
100
AcDbArc
 50
90.0
 51
270.0
  0
ARC
  5
3474
330
1A
100
AcDbEntity
  8
1
100
AcDbCircle
 10
258.7272753963969
 20
159.7215801846651
 30
0.0
 40
0.5
100
AcDbArc
 50
270.0
 51
90.0
  0
ARC
  5
3475
330
1A
100
AcDbEntity
  8
1
100
AcDbCircle
 10
289.7272753963969
 20
159.7215801846651
 30
0.0
 40
0.5
100
AcDbArc
 50
90.0
 51
270.0
  0
LINE
  5
3476
330
1A
100
AcDbEntity
  8
1
100
AcDbLine
 10
258.2272753963969
 20
159.2215801846651
 30
0.0
 11
259.2272753963969
 21
159.2215801846651
 31
0.0
  0
ARC
  5
3477
330
1A
100
AcDbEntity
  8
1
100
AcDbCircle
 10
290.2272753963969
 20
156.2215801846651
 30
0.0
 40
3.0
100
AcDbArc
 50
0.0
 51
90.0
  0
ARC
  5
3478
330
1A
100
AcDbEntity
  8
1
100
AcDbCircle
 10
258.2272753963969
 20
156.2215801846651
 30
0.0
 40
3.0
100
AcDbArc
 50
90.0
 51
180.0
  0
LINE
  5
3479
330
1A
100
AcDbEntity
  8
1
100
AcDbLine
 10
255.2272753963969
 20
150.2215801846651
 30
0.0
 11
256.7272753963967
 21
150.2215801846651
 31
0.0
  0
LINE
  5
347A
330
1A
100
AcDbEntity
  8
1
100
AcDbLine
 10
293.2272753963969
 20
150.2215801846651
 30
0.0
 11
293.2272753963969
 21
156.2215801846651
 31
0.0
  0
LINE
  5
347B
330
1A
100
AcDbEntity
  8
1
100
AcDbLine
 10
255.2272753963969
 20
150.2215801846651
 30
0.0
 11
255.2272753963969
 21
156.2215801846651
 31
0.0
  0
LINE
  5
34AF
330
1A
100
AcDbEntity
  8
1
100
AcDbLine
 10
410.1899144358537
 20
176.2215801846643
 30
0.0
 11
528.1899144358564
 21
176.2215801846643
 31
0.0
  0
LINE
  5
34B0
330
1A
100
AcDbEntity
  8
1
100
AcDbLine
 10
528.9219652434227
 20
202.2215801846616
 30
0.0
 11
409.4578636282846
 21
202.2215801846625
 31
0.0
  0
ARC
  5
34B1
330
1A
100
AcDbEntity
  8
1
100
AcDbCircle
 10
527.1899144358545
 20
201.2215801846598
 30
0.0
 40
2.0
100
AcDbArc
 50
0.0
 51
30.00000000005446
  0
ARC
  5
34B2
330
1A
100
AcDbEntity
  8
1
100
AcDbCircle
 10
528.1899144358564
 20
177.2215801846643
 30
0.0
 40
1.0
100
AcDbArc
 50
270.0
 51
0.0
  0
LINE
  5
34B3
330
1A
100
AcDbEntity
  8
1
100
AcDbLine
 10
529.1899144358564
 20
177.2215801846643
 30
0.0
 11
529.1899144358545
 21
201.2215801846598
 31
0.0
  0
ARC
  5
34B4
330
1A
100
AcDbEntity
  8
1
100
AcDbCircle
 10
411.1899144358527
 20
201.2215801846616
 30
0.0
 40
2.0
100
AcDbArc
 50
149.9999999999455
 51
180.0
  0
ARC
  5
34B5
330
1A
100
AcDbEntity
  8
1
100
AcDbCircle
 10
410.1899144358537
 20
177.2215801846643
 30
0.0
 40
1.0
100
AcDbArc
 50
180.0
 51
270.0
  0
LINE
  5
34B6
330
1A
100
AcDbEntity
  8
1
100
AcDbLine
 10
409.1899144358536
 20
177.2215801846643
 30
0.0
 11
409.1899144358527
 21
201.2215801846616
 31
0.0
  0
LINE
  5
34B7
330
1A
100
AcDbEntity
  8
1
  6
CENTER
 62
     9
 48
10.0
100
AcDbLine
 10
450.1899144358547
 20
150.2215801846616
 30
0.0
 11
488.1899144358547
 21
150.2215801846626
 31
0.0
  0
LINE
  5
34B8
330
1A
100
AcDbEntity
  8
1
  6
CENTER
 62
     9
 48
10.0
100
AcDbLine
 10
488.1899144358563
 20
150.2215801846621
 30
0.0
 11
488.1899144358555
 21
112.2215801846621
 31
0.0
  0
LINE
  5
34B9
330
1A
100
AcDbEntity
  8
1
  6
CENTER
 62
     9
 48
10.0
100
AcDbLine
 10
450.1899144358563
 20
150.2215801846621
 30
0.0
 11
450.1899144358555
 21
112.2215801846621
 31
0.0
  0
LINE
  5
34BA
330
1A
100
AcDbEntity
  8
1
  6
CENTER
 62
     9
 48
10.0
100
AcDbLine
 10
450.1899144358547
 20
114.2215801846616
 30
0.0
 11
488.1899144358547
 21
114.2215801846626
 31
0.0
  0
LINE
  5
34BB
330
1A
100
AcDbEntity
  8
1
100
AcDbLine
 10
450.189914435855
 20
176.2215801846643
 30
0.0
 11
450.189914435855
 21
170.2215801846644
 31
0.0
  0
LINE
  5
34BC
330
1A
100
AcDbEntity
  8
1
100
AcDbLine
 10
488.189914435855
 20
176.2215801846643
 30
0.0
 11
488.189914435855
 21
170.2215801846644
 31
0.0
  0
LINE
  5
34BD
330
1A
100
AcDbEntity
  8
1
100
AcDbLine
 10
450.189914435855
 20
170.2215801846651
 30
0.0
 11
488.189914435855
 21
170.2215801846651
 31
0.0
  0
LINE
  5
34BE
330
1A
100
AcDbEntity
  8
1
100
AcDbLine
 10
452.689914435855
 20
160.2215801846651
 30
0.0
 11
485.689914435855
 21
160.2215801846651
 31
0.0
  0
LINE
  5
34BF
330
1A
100
AcDbEntity
  8
1
100
AcDbLine
 10
452.689914435855
 20
165.2215801846651
 30
0.0
 11
485.689914435855
 21
165.2215801846651
 31
0.0
  0
LINE
  5
34C0
330
1A
100
AcDbEntity
  8
1
100
AcDbLine
 10
450.189914435855
 20
166.2215801846651
 30
0.0
 11
450.189914435855
 21
170.2215801846651
 31
0.0
  0
LINE
  5
34C1
330
1A
100
AcDbEntity
  8
1
100
AcDbLine
 10
488.189914435855
 20
166.2215801846651
 30
0.0
 11
488.189914435855
 21
170.2215801846651
 31
0.0
  0
LINE
  5
34C2
330
1A
100
AcDbEntity
  8
1
100
AcDbLine
 10
450.189914435855
 20
170.2215801846651
 30
0.0
 11
488.189914435855
 21
170.2215801846651
 31
0.0
  0
LINE
  5
34C3
330
1A
100
AcDbEntity
  8
1
100
AcDbLine
 10
450.189914435855
 20
166.2215801846651
 30
0.0
 11
488.189914435855
 21
166.2215801846651
 31
0.0
  0
ARC
  5
34C4
330
1A
100
AcDbEntity
  8
1
100
AcDbCircle
 10
453.689914435855
 20
165.7215801846651
 30
0.0
 40
0.5
100
AcDbArc
 50
270.0
 51
90.0
  0
ARC
  5
34C5
330
1A
100
AcDbEntity
  8
1
100
AcDbCircle
 10
484.689914435855
 20
165.7215801846651
 30
0.0
 40
0.5
100
AcDbArc
 50
90.0
 51
270.0
  0
ARC
  5
34C6
330
1A
100
AcDbEntity
  8
1
100
AcDbCircle
 10
485.689914435855
 20
162.7215801846651
 30
0.0
 40
2.5
100
AcDbArc
 50
270.0
 51
90.0
  0
ARC
  5
34C7
330
1A
100
AcDbEntity
  8
1
100
AcDbCircle
 10
452.689914435855
 20
162.7215801846651
 30
0.0
 40
2.5
100
AcDbArc
 50
90.0
 51
270.0
  0
ARC
  5
34C8
330
1A
100
AcDbEntity
  8
1
100
AcDbCircle
 10
453.689914435855
 20
159.7215801846651
 30
0.0
 40
0.5
100
AcDbArc
 50
270.0
 51
90.0
  0
ARC
  5
34C9
330
1A
100
AcDbEntity
  8
1
100
AcDbCircle
 10
484.689914435855
 20
159.7215801846651
 30
0.0
 40
0.5
100
AcDbArc
 50
90.0
 51
270.0
  0
LINE
  5
34CA
330
1A
100
AcDbEntity
  8
1
100
AcDbLine
 10
453.189914435855
 20
159.2215801846651
 30
0.0
 11
485.189914435855
 21
159.2215801846651
 31
0.0
  0
ARC
  5
34CB
330
1A
100
AcDbEntity
  8
1
100
AcDbCircle
 10
485.189914435855
 20
156.2215801846651
 30
0.0
 40
3.0
100
AcDbArc
 50
0.0
 51
90.0
  0
ARC
  5
34CC
330
1A
100
AcDbEntity
  8
1
100
AcDbCircle
 10
453.189914435855
 20
156.2215801846651
 30
0.0
 40
3.0
100
AcDbArc
 50
90.0
 51
180.0
  0
LINE
  5
34CD
330
1A
100
AcDbEntity
  8
1
100
AcDbLine
 10
450.189914435855
 20
150.2215801846651
 30
0.0
 11
488.189914435855
 21
150.2215801846651
 31
0.0
  0
LINE
  5
34CE
330
1A
100
AcDbEntity
  8
1
100
AcDbLine
 10
488.189914435855
 20
150.2215801846651
 30
0.0
 11
488.189914435855
 21
156.2215801846651
 31
0.0
  0
LINE
  5
34CF
330
1A
100
AcDbEntity
  8
1
100
AcDbLine
 10
450.189914435855
 20
150.2215801846651
 30
0.0
 11
450.189914435855
 21
156.2215801846651
 31
0.0
  0
CIRCLE
  5
3539
330
1A
100
AcDbEntity
  8
1
100
AcDbCircle
 10
274.2272753963992
 20
386.1186543919438
 30
0.0
 40
8.0
  0
LWPOLYLINE
  5
353A
330
1A
100
AcDbEntity
  8
1
100
AcDbPolyline
 90
        6
 70
     1
 43
0.0
 10
280.5781283574855
 20
375.1186543919438
 10
286.9289813185708
 20
386.1186543919438
 10
280.5781283574855
 20
397.1186543919439
 10
267.8764224353129
 20
397.1186543919439
 10
261.5255694742276
 20
386.1186543919438
 10
267.8764224353129
 20
375.1186543919438
  0
CIRCLE
  5
353B
330
1A
100
AcDbEntity
  8
1
100
AcDbCircle
 10
274.2272753963992
 20
386.1186543919438
 30
0.0
 40
11.0
  0
CIRCLE
  5
353D
330
1A
100
AcDbEntity
  8
1
100
AcDbCircle
 10
274.2272753963992
 20
386.1186543919438
 30
0.0
 40
16.5
  0
LINE
  5
3566
330
1A
100
AcDbEntity
  8
1
100
AcDbLine
 10
257.7272753963969
 20
188.5215801846609
 30
0.0
 11
261.0255694742253
 21
190.4258511583623
 31
0.0
  0
LINE
  5
3567
330
1A
100
AcDbEntity
  8
1
100
AcDbLine
 10
290.7272753963969
 20
188.5215801846609
 30
0.0
 11
287.4289813185695
 21
190.4258511583623
 31
0.0
  0
ARC
  5
3568
330
1A
100
AcDbEntity
  8
1
100
AcDbCircle
 10
264.4509959547666
 20
184.1205819792633
 30
0.0
 40
7.175650910857903
100
AcDbArc
 50
61.48635418438274
 51
118.5136458156172
  0
ARC
  5
3569
330
1A
100
AcDbEntity
  8
1
100
AcDbCircle
 10
274.2272753963942
 20
167.5724030029452
 30
0.0
 40
23.71947355920139
100
AcDbArc
 50
74.46966796314505
 51
105.5303320368549
  0
ARC
  5
356A
330
1A
100
AcDbEntity
  8
1
100
AcDbCircle
 10
284.0035548380273
 20
184.1205819792542
 30
0.0
 40
7.175650910865895
100
AcDbArc
 50
61.48635418438274
 51
118.5136458156172
  0
ARC
  5
356B
330
1A
100
AcDbEntity
  8
1
100
AcDbCircle
 10
287.9289813185695
 20
191.2918765621464
 30
0.0
 40
1.0
100
AcDbArc
 50
180.0
 51
239.99999999999
  0
ARC
  5
356C
330
1A
100
AcDbEntity
  8
1
100
AcDbCircle
 10
260.5255694742253
 20
191.2918765621464
 30
0.0
 40
1.0
100
AcDbArc
 50
300.0000000000099
 51
0.0
  0
ARC
  5
356D
330
1A
100
AcDbEntity
  8
1
100
AcDbCircle
 10
264.7009959547693
 20
196.0987701381266
 30
0.0
 40
5.622810046534739
100
AcDbArc
 50
55.61575253199683
 51
124.3842474680323
  0
ARC
  5
356E
330
1A
100
AcDbEntity
  8
1
100
AcDbCircle
 10
274.2272753963951
 20
180.7040605568865
 30
0.0
 40
21.0175196277748
100
AcDbArc
 50
72.41204622603634
 51
107.5879537739636
  0
ARC
  5
356F
330
1A
100
AcDbEntity
  8
1
100
AcDbCircle
 10
283.7535548380254
 20
196.0987701381184
 30
0.0
 40
5.62281004654252
100
AcDbArc
 50
55.61575253204096
 51
124.3842474679589
  0
LINE
  5
3570
330
1A
100
AcDbEntity
  8
1
100
AcDbLine
 10
285.2272753963969
 20
201.7215801846625
 30
0.0
 11
286.9289813185686
 21
200.7390998124157
 31
0.0
  0
LINE
  5
3571
330
1A
100
AcDbEntity
  8
1
100
AcDbLine
 10
263.2272753963969
 20
201.7215801846625
 30
0.0
 11
261.5255694742253
 21
200.7390998124157
 31
0.0
  0
LINE
  5
3572
330
1A
100
AcDbEntity
  8
1
100
AcDbLine
 10
280.5781283574832
 20
200.7390998124157
 30
0.0
 11
280.5781283574832
 21
190.4258511583614
 31
0.0
  0
LINE
  5
3573
330
1A
100
AcDbEntity
  8
1
100
AcDbLine
 10
267.8764224353106
 20
200.7390998124157
 30
0.0
 11
267.8764224353106
 21
190.4258511583623
 31
0.0
  0
LINE
  5
3574
330
1A
100
AcDbEntity
  8
1
100
AcDbLine
 10
261.5255694742253
 20
200.7390998124139
 30
0.0
 11
261.5255694742253
 21
191.2918765621464
 31
0.0
  0
LINE
  5
3575
330
1A
100
AcDbEntity
  8
1
100
AcDbLine
 10
286.9289813185695
 20
200.7390998124149
 30
0.0
 11
286.9289813185695
 21
191.2918765621464
 31
0.0
  0
LINE
  5
3576
330
1A
100
AcDbEntity
  8
1
100
AcDbLine
 10
263.2272753963969
 20
201.7215801846625
 30
0.0
 11
285.2272753963969
 21
201.7215801846607
 31
0.0
  0
LINE
  5
3577
330
1A
100
AcDbEntity
  8
1
 62
     9
100
AcDbLine
 10
267.2272753963969
 20
174.4215801846643
 30
0.0
 11
267.2272753963969
 21
184.9895293770943
 31
0.0
  0
LINE
  5
3578
330
1A
100
AcDbEntity
  8
1
 62
     9
100
AcDbLine
 10
281.227275396397
 20
174.4215801846643
 30
0.0
 11
281.227275396397
 21
184.9895293770943
 31
0.0
  0
LINE
  5
3579
330
1A
100
AcDbEntity
  8
1
100
AcDbLine
 10
266.2272753963969
 20
186.1215801846612
 30
0.0
 11
266.2272753963969
 21
174.4215801846643
 31
0.0
  0
LINE
  5
357A
330
1A
100
AcDbEntity
  8
1
100
AcDbLine
 10
282.2272753963961
 20
186.1215801846612
 30
0.0
 11
282.2272753963963
 21
174.4215801846643
 31
0.0
  0
ARC
  5
357B
330
1A
100
AcDbEntity
  8
1
100
AcDbCircle
 10
265.6272753963966
 20
186.1215801846612
 30
0.0
 40
0.6
100
AcDbArc
 50
0.0
 51
89.99999999999998
  0
ARC
  5
357C
330
1A
100
AcDbEntity
  8
1
100
AcDbCircle
 10
282.8272753963973
 20
186.1215801846612
 30
0.0
 40
0.6
100
AcDbArc
 50
89.99999999999998
 51
180.0
  0
LINE
  5
357D
330
1A
100
AcDbEntity
  8
1
 62
     9
100
AcDbLine
 10
267.2272753963969
 20
184.9895293770943
 30
0.0
 11
266.2272753963969
 21
186.7215801846616
 31
0.0
  0
LINE
  5
357E
330
1A
100
AcDbEntity
  8
1
 62
     9
100
AcDbLine
 10
281.227275396397
 20
184.9895293770943
 30
0.0
 11
282.2272753963969
 21
186.7215801846616
 31
0.0
  0
LINE
  5
357F
330
1A
100
AcDbEntity
  8
1
100
AcDbLine
 10
266.227275396396
 20
184.9895293770943
 30
0.0
 11
282.2272753963969
 21
184.9895293770943
 31
0.0
  0
LINE
  5
3580
330
1A
100
AcDbEntity
  8
1
100
AcDbLine
 10
257.7272753963969
 20
186.7215801846616
 30
0.0
 11
290.7272753963969
 21
186.7215801846616
 31
0.0
  0
LINE
  5
3581
330
1A
100
AcDbEntity
  8
1
100
AcDbLine
 10
257.7272753963969
 20
188.5215801846609
 30
0.0
 11
257.7272753963969
 21
186.7215801846616
 31
0.0
  0
LINE
  5
3582
330
1A
100
AcDbEntity
  8
1
100
AcDbLine
 10
290.7272753963969
 20
188.5215801846609
 30
0.0
 11
290.7272753963969
 21
186.7215801846616
 31
0.0
  0
LINE
  5
3583
330
1A
100
AcDbEntity
  8
1
100
AcDbLine
 10
257.7272753963969
 20
188.5215801846609
 30
0.0
 11
290.7272753963969
 21
188.5215801846609
 31
0.0
  0
CIRCLE
  5
3588
330
1A
100
AcDbEntity
  8
1
100
AcDbCircle
 10
274.2272753963992
 20
306.1186612884948
 30
0.0
 40
8.0
  0
LWPOLYLINE
  5
3589
330
1A
100
AcDbEntity
  8
1
100
AcDbPolyline
 90
        6
 70
     1
 43
0.0
 10
280.5781283574855
 20
295.1186612884948
 10
286.9289813185708
 20
306.1186612884948
 10
280.5781283574855
 20
317.1186612884948
 10
267.8764224353129
 20
317.1186612884948
 10
261.5255694742276
 20
306.1186612884948
 10
267.8764224353129
 20
295.1186612884948
  0
CIRCLE
  5
358A
330
1A
100
AcDbEntity
  8
1
100
AcDbCircle
 10
274.2272753963992
 20
306.1186612884948
 30
0.0
 40
11.0
  0
CIRCLE
  5
358B
330
1A
100
AcDbEntity
  8
1
100
AcDbCircle
 10
274.2272753963992
 20
306.1186612884948
 30
0.0
 40
16.5
  0
LINE
  5
3590
330
1A
100
AcDbEntity
  8
1
100
AcDbLine
 10
495.3335079753036
 20
173.3497834149367
 30
0.0
 11
495.3335079753036
 21
161.4215801846612
 31
0.0
  0
LINE
  5
3591
330
1A
100
AcDbEntity
  8
1
100
AcDbLine
 10
502.261711205579
 20
173.3497834149367
 30
0.0
 11
502.261711205579
 21
161.4215801846611
 31
0.0
  0
LINE
  5
3592
330
1A
100
AcDbEntity
  8
1
100
AcDbLine
 10
516.1181176661301
 20
173.3497834149366
 30
0.0
 11
516.1181176661301
 21
161.4215801846612
 31
0.0
  0
LINE
  5
3593
330
1A
100
AcDbEntity
  8
1
100
AcDbLine
 10
523.0463208964056
 20
173.3497834149367
 30
0.0
 11
523.0463208964056
 21
161.4215801846611
 31
0.0
  0
LINE
  5
3599
330
1A
100
AcDbEntity
  8
1
100
AcDbLine
 10
495.3335079753036
 20
161.4215801846611
 30
0.0
 11
523.0463208964056
 21
161.4215801846611
 31
0.0
  0
LINE
  5
359A
330
1A
100
AcDbEntity
  8
1
100
AcDbLine
 10
497.1899144358546
 20
174.4215801846611
 30
0.0
 11
521.1899144358547
 21
174.4215801846612
 31
0.0
  0
LINE
  5
359B
330
1A
100
AcDbEntity
  8
1
100
AcDbLine
 10
497.1899144358546
 20
174.4215801846611
 30
0.0
 11
495.3335079753036
 21
173.3497834149366
 31
0.0
  0
LINE
  5
359C
330
1A
100
AcDbEntity
  8
1
100
AcDbLine
 10
521.1899144358547
 20
174.4215801846611
 30
0.0
 11
523.0463208964056
 21
173.3497834149366
 31
0.0
  0
ARC
  5
359E
330
1A
100
AcDbEntity
  8
1
100
AcDbCircle
 10
498.7976095904413
 20
168.2876055884455
 30
0.0
 40
6.13397459621559
100
AcDbArc
 50
55.61575253195826
 51
124.3842474680417
  0
ARC
  5
359F
330
1A
100
AcDbEntity
  8
1
100
AcDbCircle
 10
509.1899144358547
 20
151.4933769543864
 30
0.0
 40
22.9282032302747
100
AcDbArc
 50
72.41204622600562
 51
107.5879537739944
  0
ARC
  5
35A0
330
1A
100
AcDbEntity
  8
1
100
AcDbCircle
 10
519.5822192812678
 20
168.2876055884456
 30
0.0
 40
6.133974596215492
100
AcDbArc
 50
55.61575253195698
 51
124.3842474680422
  0
LINE
  5
35A1
330
1A
100
AcDbEntity
  8
1
100
AcDbLine
 10
286.2272753963969
 20
174.4215801846643
 30
0.0
 11
286.2272753963969
 21
161.4215801846643
 31
0.0
  0
LINE
  5
35A3
330
1A
100
AcDbEntity
  8
1
100
AcDbLine
 10
274.2272753963969
 20
173.3497834149399
 30
0.0
 11
274.2272753963969
 21
161.4215801846643
 31
0.0
  0
LINE
  5
35A5
330
1A
100
AcDbEntity
  8
1
100
AcDbLine
 10
262.2272753963969
 20
174.4215801846643
 30
0.0
 11
262.2272753963969
 21
161.4215801846643
 31
0.0
  0
LINE
  5
35A6
330
1A
100
AcDbEntity
  8
1
100
AcDbLine
 10
286.2272753963969
 20
161.4215801846643
 30
0.0
 11
262.2272753963969
 21
161.4215801846643
 31
0.0
  0
LINE
  5
35A7
330
1A
100
AcDbEntity
  8
1
100
AcDbLine
 10
286.2272753963969
 20
174.4215801846643
 30
0.0
 11
262.2272753963969
 21
174.4215801846643
 31
0.0
  0
ARC
  5
35A8
330
1A
100
AcDbEntity
  8
1
100
AcDbCircle
 10
280.2272753963969
 20
157.0914531657418
 30
0.0
 40
17.33012701892257
100
AcDbArc
 50
69.74384199958409
 51
110.2561580004159
  0
ARC
  5
35A9
330
1A
100
AcDbEntity
  8
1
100
AcDbCircle
 10
268.2272753963969
 20
157.0914531657419
 30
0.0
 40
17.33012701892244
100
AcDbArc
 50
69.74384199958393
 51
110.256158000416
  0
LINE
  5
35AA
330
1A
100
AcDbEntity
  8
1
100
AcDbLine
 10
291.7272753963977
 20
150.2215801846651
 30
0.0
 11
293.2272753963969
 21
150.2215801846651
 31
0.0
  0
LINE
  5
35AB
330
1A
100
AcDbEntity
  8
1
  6
CENTER
 62
     9
 48
10.0
100
AcDbLine
 10
291.7272753963977
 20
150.2215801846652
 30
0.0
 11
293.227275396401
 21
150.2215801846652
 31
0.0
  0
LINE
  5
35AC
330
1A
100
AcDbEntity
  8
1
100
AcDbLine
 10
289.2272753963969
 20
161.4215801846643
 30
0.0
 11
259.2272753963969
 21
161.4215801846643
 31
0.0
  0
LINE
  5
35AD
330
1A
100
AcDbEntity
  8
1
100
AcDbLine
 10
289.2272753963969
 20
161.4215801846643
 30
0.0
 11
289.2272753963969
 21
158.2215801846643
 31
0.0
  0
LINE
  5
35AE
330
1A
100
AcDbEntity
  8
1
100
AcDbLine
 10
259.2272753963969
 20
161.4215801846643
 30
0.0
 11
259.2272753963969
 21
158.2215801846643
 31
0.0
  0
LINE
  5
35AF
330
1A
100
AcDbEntity
  8
1
100
AcDbLine
 10
289.2272753963969
 20
160.2215801846651
 30
0.0
 11
290.7272753963969
 21
160.2215801846651
 31
0.0
  0
LINE
  5
35B0
330
1A
100
AcDbEntity
  8
1
100
AcDbLine
 10
289.2272753963969
 20
159.2215801846651
 30
0.0
 11
290.2272753963969
 21
159.2215801846651
 31
0.0
  0
LINE
  5
35B1
330
1A
100
AcDbEntity
  8
1
100
AcDbLine
 10
286.2272753963969
 20
165.2215801846651
 30
0.0
 11
290.7272753963969
 21
165.2215801846651
 31
0.0
  0
LINE
  5
35B2
330
1A
100
AcDbEntity
  8
1
100
AcDbLine
 10
286.2272753963969
 20
166.2215801846651
 30
0.0
 11
293.2272753963969
 21
166.2215801846651
 31
0.0
  0
LINE
  5
35B3
330
1A
100
AcDbEntity
  8
1
100
AcDbLine
 10
286.2272753963969
 20
170.2215801846651
 30
0.0
 11
293.2272753963969
 21
170.2215801846651
 31
0.0
  0
LINE
  5
35B4
330
1A
100
AcDbEntity
  8
1
100
AcDbLine
 10
286.2272753963969
 20
170.2215801846644
 30
0.0
 11
293.2272753963969
 21
170.2215801846644
 31
0.0
  0
LINE
  5
35B5
330
1A
100
AcDbEntity
  8
1
100
AcDbLine
 10
282.2272753963963
 20
176.2215801846643
 30
0.0
 11
333.2272753963983
 21
176.2215801846643
 31
0.0
  0
LINE
  5
35B6
330
1A
100
AcDbEntity
  8
1
100
AcDbLine
 10
282.2272753963961
 20
185.2215801846616
 30
0.0
 11
291.2272753963956
 21
185.2215801846616
 31
0.0
  0
LINE
  5
35B7
330
1A
100
AcDbEntity
  8
1
100
AcDbLine
 10
444.1899144358584
 20
161.4215801846634
 30
0.0
 11
414.1899144358584
 21
161.4215801846634
 31
0.0
  0
LINE
  5
35B8
330
1A
100
AcDbEntity
  8
1
100
AcDbLine
 10
414.1899144358584
 20
161.4215801846634
 30
0.0
 11
414.1899144358584
 21
158.2215801846634
 31
0.0
  0
LINE
  5
35B9
330
1A
100
AcDbEntity
  8
1
100
AcDbLine
 10
444.1899144358584
 20
161.4215801846634
 30
0.0
 11
444.1899144358584
 21
158.2215801846634
 31
0.0
  0
LINE
  5
35BA
330
1A
100
AcDbEntity
  8
1
100
AcDbLine
 10
524.1899144358544
 20
161.4215801846611
 30
0.0
 11
524.1899144358544
 21
158.2215801846612
 31
0.0
  0
LINE
  5
35BB
330
1A
100
AcDbEntity
  8
1
100
AcDbLine
 10
524.1899144358544
 20
161.4215801846611
 30
0.0
 11
494.1899144358544
 21
161.4215801846611
 31
0.0
  0
LINE
  5
35BC
330
1A
100
AcDbEntity
  8
1
100
AcDbLine
 10
494.1899144358544
 20
161.4215801846611
 30
0.0
 11
494.1899144358544
 21
158.2215801846612
 31
0.0
  0
LINE
  5
35BD
330
1A
100
AcDbEntity
  8
1
100
AcDbLine
 10
436.1181176661339
 20
173.3497834149389
 30
0.0
 11
436.1181176661339
 21
161.4215801846635
 31
0.0
  0
LINE
  5
35BE
330
1A
100
AcDbEntity
  8
1
100
AcDbLine
 10
443.0463208964095
 20
173.349783414939
 30
0.0
 11
443.0463208964095
 21
161.4215801846634
 31
0.0
  0
LINE
  5
35BF
330
1A
100
AcDbEntity
  8
1
100
AcDbLine
 10
415.3335079753073
 20
173.349783414939
 30
0.0
 11
415.3335079753073
 21
161.4215801846635
 31
0.0
  0
LINE
  5
35C0
330
1A
100
AcDbEntity
  8
1
100
AcDbLine
 10
422.261711205583
 20
173.349783414939
 30
0.0
 11
422.261711205583
 21
161.4215801846634
 31
0.0
  0
ARC
  5
35C1
330
1A
100
AcDbEntity
  8
1
100
AcDbCircle
 10
439.5822192812715
 20
168.2876055884479
 30
0.0
 40
6.133974596215492
100
AcDbArc
 50
55.61575253195698
 51
124.3842474680422
  0
ARC
  5
35C2
330
1A
100
AcDbEntity
  8
1
100
AcDbCircle
 10
429.1899144358584
 20
151.4933769543887
 30
0.0
 40
22.9282032302747
100
AcDbArc
 50
72.41204622600562
 51
107.5879537739944
  0
ARC
  5
35C3
330
1A
100
AcDbEntity
  8
1
100
AcDbCircle
 10
418.7976095904451
 20
168.2876055884478
 30
0.0
 40
6.13397459621559
100
AcDbArc
 50
55.61575253195826
 51
124.3842474680417
  0
LINE
  5
35C4
330
1A
100
AcDbEntity
  8
1
100
AcDbLine
 10
441.1899144358584
 20
174.4215801846634
 30
0.0
 11
443.0463208964095
 21
173.3497834149389
 31
0.0
  0
LINE
  5
35C5
330
1A
100
AcDbEntity
  8
1
100
AcDbLine
 10
415.3335079753073
 20
161.4215801846634
 30
0.0
 11
443.0463208964095
 21
161.4215801846634
 31
0.0
  0
LINE
  5
35C6
330
1A
100
AcDbEntity
  8
1
100
AcDbLine
 10
417.1899144358584
 20
174.4215801846634
 30
0.0
 11
415.3335079753073
 21
173.3497834149389
 31
0.0
  0
LINE
  5
35C7
330
1A
100
AcDbEntity
  8
1
100
AcDbLine
 10
417.1899144358584
 20
174.4215801846634
 30
0.0
 11
441.1899144358584
 21
174.4215801846634
 31
0.0
  0
LINE
  5
35C8
330
1A
100
AcDbEntity
  8
1
 62
     9
100
AcDbLine
 10
422.1899144358583
 20
174.4215801846634
 30
0.0
 11
422.1899144358583
 21
176.2215801846643
 31
0.0
  0
LINE
  5
35C9
330
1A
100
AcDbEntity
  8
1
100
AcDbLine
 10
421.1899144358584
 20
176.2215801846643
 30
0.0
 11
421.1899144358583
 21
174.4215801846634
 31
0.0
  0
LINE
  5
35CA
330
1A
100
AcDbEntity
  8
1
 62
     9
100
AcDbLine
 10
436.1899144358583
 20
174.4215801846634
 30
0.0
 11
436.1899144358583
 21
176.2215801846643
 31
0.0
  0
LINE
  5
35CB
330
1A
100
AcDbEntity
  8
1
100
AcDbLine
 10
437.1899144358576
 20
176.2215801846643
 30
0.0
 11
437.1899144358576
 21
174.4215801846634
 31
0.0
  0
LINE
  5
35CC
330
1A
100
AcDbEntity
  8
1
 62
     9
100
AcDbLine
 10
502.1899144358545
 20
174.4215801846611
 30
0.0
 11
502.1899144358545
 21
176.2215801846621
 31
0.0
  0
LINE
  5
35CD
330
1A
100
AcDbEntity
  8
1
100
AcDbLine
 10
501.1899144358546
 20
176.2215801846621
 30
0.0
 11
501.1899144358546
 21
174.4215801846611
 31
0.0
  0
LINE
  5
35CE
330
1A
100
AcDbEntity
  8
1
 62
     9
100
AcDbLine
 10
516.1899144358545
 20
174.4215801846611
 30
0.0
 11
516.1899144358545
 21
176.2215801846621
 31
0.0
  0
LINE
  5
35CF
330
1A
100
AcDbEntity
  8
1
100
AcDbLine
 10
517.1899144358539
 20
176.2215801846621
 30
0.0
 11
517.1899144358539
 21
174.4215801846611
 31
0.0
  0
LINE
  5
35EA
330
1A
100
AcDbEntity
  8
CENTER
 62
     9
 48
10.0
100
AcDbLine
 10
141.2272753963969
 20
176.9008447422768
 30
0.0
 11
141.2272753963969
 21
82.00400053476869
 31
0.0
  0
LINE
  5
35EB
330
1A
100
AcDbEntity
  8
CENTER
 62
     9
 48
10.0
100
AcDbLine
 10
316.2272753963969
 20
113.7815930497402
 30
0.0
 11
316.2272753963969
 21
84.04102635679555
 31
0.0
  0
LINE
  5
35EC
330
1A
100
AcDbEntity
  8
CENTER
 62
     9
 48
10.0
100
AcDbLine
 10
179.2272753963969
 20
178.0980444419078
 30
0.0
 11
179.2272753963969
 21
82.00400053476869
 31
0.0
  0
LINE
  5
35ED
330
1A
100
AcDbEntity
  8
CENTER
 62
     9
 48
10.0
100
AcDbLine
 10
232.2272753963969
 20
173.1646832647761
 30
0.0
 11
232.2272753963969
 21
205.0211646899088
 31
0.0
  0
LINE
  5
35EE
330
1A
100
AcDbEntity
  8
CENTER
 62
     9
 48
10.0
100
AcDbLine
 10
316.2272753963969
 20
172.0269521629134
 30
0.0
 11
316.2272753963969
 21
206.9173836335542
 31
0.0
  0
LINE
  5
35EF
330
1A
100
AcDbEntity
  8
CENTER
 48
10.0
100
AcDbLine
 10
511.1899144358502
 20
82.71032265352801
 30
0.0
 11
511.1899144358513
 21
113.4510449345707
 31
0.0
  0
LINE
  5
35F0
330
1A
100
AcDbEntity
  8
CENTER
 48
10.0
100
AcDbLine
 10
427.1899144358584
 20
82.95409970778996
 30
0.0
 11
427.1899144358584
 21
113.9787115778535
 31
0.0
  0
LINE
  5
35F1
330
1A
100
AcDbEntity
  8
CENTER
 48
10.0
100
AcDbLine
 10
511.1899144358537
 20
172.2729455764647
 30
0.0
 11
511.1899144358548
 21
205.4897495647534
 31
0.0
  0
LINE
  5
35F2
330
1A
100
AcDbEntity
  8
CENTER
 48
10.0
100
AcDbLine
 10
427.1899144358584
 20
171.7315234963998
 30
0.0
 11
427.1899144358584
 21
205.4897495647535
 31
0.0
  0
INSERT
  5
3B4B
330
1A
100
AcDbEntity
  8
1
100
AcDbBlockReference
  2
CBF20
 10
141.2272941839805
 20
346.1186612884952
 30
0.0
  0
INSERT
  5
3B4C
330
1A
100
AcDbEntity
  8
1
100
AcDbBlockReference
  2
CBF20
 10
179.2272753963992
 20
346.1186578402193
 30
0.0
  0
LINE
  5
3B59
330
1A
100
AcDbEntity
  8
1
 48
0.3
100
AcDbLine
 10
164.2272753963969
 20
150.2215801846647
 30
0.0
 11
194.2272753963969
 21
150.2215801846647
 31
0.0
  0
LINE
  5
3B5A
330
1A
100
AcDbEntity
  8
1
 48
0.3
100
AcDbLine
 10
165.9593270115355
 20
170.2215801846647
 30
0.0
 11
192.4952237812584
 21
170.2215801846647
 31
0.0
  0
LINE
  5
3B5B
330
1A
100
AcDbEntity
  8
1
 48
0.3
100
AcDbLine
 10
186.2916219661236
 20
169.2215801846647
 30
0.0
 11
194.2272753963969
 21
169.2215801846647
 31
0.0
  0
LINE
  5
3B5C
330
1A
100
AcDbEntity
  8
1
 48
0.3
100
AcDbLine
 10
194.2272753963969
 20
150.2215801846647
 30
0.0
 11
194.2272753963969
 21
169.2215801846647
 31
0.0
  0
LINE
  5
3B5D
330
1A
100
AcDbEntity
  8
1
 48
0.3
100
AcDbLine
 10
194.2272753963969
 20
169.2215801846647
 30
0.0
 11
192.4952237812584
 21
170.2215801846647
 31
0.0
  0
LINE
  5
3B5E
330
1A
100
AcDbEntity
  8
1
 48
0.3
100
AcDbLine
 10
172.1629288266702
 20
169.2215801846647
 30
0.0
 11
164.2272753963969
 21
169.2215801846647
 31
0.0
  0
LINE
  5
3B5F
330
1A
100
AcDbEntity
  8
1
 48
0.3
100
AcDbLine
 10
164.2272753963969
 20
150.2215801846647
 30
0.0
 11
164.2272753963969
 21
169.2215801846647
 31
0.0
  0
LINE
  5
3B60
330
1A
100
AcDbEntity
  8
1
 48
0.3
100
AcDbLine
 10
164.2272753963969
 20
169.2215801846647
 30
0.0
 11
165.9593270115355
 21
170.2215801846647
 31
0.0
  0
LINE
  5
3B61
330
1A
100
AcDbEntity
  8
1
 48
0.3
100
AcDbLine
 10
126.2272753963969
 20
169.2215801846645
 30
0.0
 11
127.9593270115354
 21
170.2215801846645
 31
0.0
  0
LINE
  5
3B62
330
1A
100
AcDbEntity
  8
1
 48
0.3
100
AcDbLine
 10
126.2272753963969
 20
150.2215801846645
 30
0.0
 11
126.2272753963969
 21
169.2215801846645
 31
0.0
  0
LINE
  5
3B63
330
1A
100
AcDbEntity
  8
1
 48
0.3
100
AcDbLine
 10
134.1629288266702
 20
169.2215801846645
 30
0.0
 11
126.2272753963969
 21
169.2215801846645
 31
0.0
  0
LINE
  5
3B64
330
1A
100
AcDbEntity
  8
1
 48
0.3
100
AcDbLine
 10
156.2272753963969
 20
169.2215801846645
 30
0.0
 11
154.4952237812584
 21
170.2215801846645
 31
0.0
  0
LINE
  5
3B65
330
1A
100
AcDbEntity
  8
1
 48
0.3
100
AcDbLine
 10
156.2272753963969
 20
150.2215801846645
 30
0.0
 11
156.2272753963969
 21
169.2215801846645
 31
0.0
  0
LINE
  5
3B66
330
1A
100
AcDbEntity
  8
1
 48
0.3
100
AcDbLine
 10
148.2916219661236
 20
169.2215801846645
 30
0.0
 11
156.2272753963969
 21
169.2215801846645
 31
0.0
  0
LINE
  5
3B67
330
1A
100
AcDbEntity
  8
1
 48
0.3
100
AcDbLine
 10
127.9593270115354
 20
170.2215801846645
 30
0.0
 11
154.4952237812584
 21
170.2215801846645
 31
0.0
  0
LINE
  5
3B68
330
1A
100
AcDbEntity
  8
1
 48
0.3
100
AcDbLine
 10
126.2272753963969
 20
150.2215801846645
 30
0.0
 11
156.2272753963969
 21
150.2215801846645
 31
0.0
  0
VIEWPORT
  5
22
330
17
100
AcDbEntity
 67
     1
  8
0
100
AcDbViewport
 10
207.5085191965623
 20
148.3310746995655
 30
0.0
 40
473.7328131858232
 41
295.6984848538133
 68
     1
 69
     1
1001
ACAD
1000
MVIEW
1002
{
1070
    16
1010
0.0
1020
0.0
1030
0.0
1010
0.0
1020
0.0
1030
1.0
1040
0.0
1040
295.6984848538133
1040
207.5085191965623
1040
148.3310746995655
1040
50.0
1040
0.0
1040
0.0
1070
     0
1070
   100
1070
     1
1070
     0
1070
     0
1070
     0
1070
     0
1070
     0
1040
0.0
1040
0.0
1040
0.0
1040
1.0
1040
1.0
1040
10.0
1040
10.0
1070
     0
1002
{
1002
}
1002
}
  0
VIEWPORT
  5
2CF
330
17
100
AcDbEntity
 67
     1
  8
DEFPOINTS
100
AcDbViewport
 10
212.4999999999999
 20
149.4999999999999
 30
0.0
 40
384.9999999999998
 41
265.0
 68
     2
 69
     2
1001
ACAD
1000
MVIEW
1002
{
1070
    16
1010
0.0
1020
0.0
1030
0.0
1010
0.0
1020
0.0
1030
1.0
1040
0.0
1040
530.0000026903647
1040
306.8185677794017
1040
252.8640124975181
1040
50.0
1040
0.0
1040
0.0
1070
     0
1070
   100
1070
     1
1070
     0
1070
     0
1070
     0
1070
     0
1070
     1
1040
0.0
1040
0.0
1040
0.0
1040
168.0
1040
168.0
1040
0.0
1040
0.0
1070
     0
1002
{
1002
}
1002
}
  0
ENDSEC
  0
SECTION
  2
OBJECTS
  0
DICTIONARY
  5
C
330
0
100
AcDbDictionary
  3
ACAD_GROUP
350
D
  3
ACAD_LAYOUT
350
F3D
  3
ACAD_MLINESTYLE
350
E
  3
ACAD_PLOTSETTINGS
350
F3E
  3
ACAD_PLOTSTYLENAME
350
F3B
  3
ACADDIM
350
17D7
  3
ACDBVARIABLEDICTIONARY
350
1B44
  3
CONTENTDICTIONARY
350
234
  3
DWGPROPS
350
19EE
  3
ACDBHEADERROUNDTRIPXREC
350
3F68
  0
DICTIONARY
  5
F6B
330
1A
100
AcDbDictionary
280
     1
  3
ACAD_LAYOUTSELFREF
360
3F89
  0
DICTIONARY
  5
F69
330
17
100
AcDbDictionary
280
     1
  3
ACAD_LAYOUTSELFREF
360
3F88
  0
DICTIONARY
  5
D
102
{ACAD_REACTORS
330
C
102
}
330
C
100
AcDbDictionary
  3
*A1
350
36C
  3
*A2
350
377
  3
*A3
350
419
  3
*A4
350
41A
  3
*A5
350
621
  3
*A6
350
630
  3
*A7
350
682
  3
*A8
350
84A
  0
DICTIONARY
  5
F3D
102
{ACAD_REACTORS
330
C
102
}
330
C
100
AcDbDictionary
  0
DICTIONARY
  5
E
102
{ACAD_REACTORS
330
C
102
}
330
C
100
AcDbDictionary
  3
STANDARD
350
13
  0
DICTIONARY
  5
F3E
102
{ACAD_REACTORS
330
C
102
}
330
C
100
AcDbDictionary
  0
ACDBDICTIONARYWDFLT
  5
F3B
102
{ACAD_REACTORS
330
C
102
}
330
C
100
AcDbDictionary
281
     1
  3
Normal
350
F3C
100
AcDbDictionaryWithDefault
340
F3C
  0
XRECORD
  5
17D7
102
{ACAD_REACTORS
330
C
102
}
330
C
100
AcDbXrecord
 90
   990106
  3

 60
     0
 61
     0
 62
     1
 63
     3
 64
     1
 65
     0
 66
     0
 67
     3
 68
     1
 69
     0
 70
     0
 71
     0
 72
     0
 40
0.0
170
     2
340
3730
  0
DICTIONARY
  5
1B44
102
{ACAD_REACTORS
330
C
102
}
330
C
100
AcDbDictionary
  3
SORTENTS
350
1B45
  0
DICTIONARY
  5
234
102
{ACAD_REACTORS
330
C
102
}
330
C
100
AcDbDictionary
  0
XRECORD
  5
19EE
102
{ACAD_REACTORS
330
C
102
}
330
C
100
AcDbXrecord
  1
DWGPROPS COOKIE
  2

  3

  4

  6

  7

  8

  9

300
=
301
=
302
=
303
=
304
=
305
=
306
=
307
=
308
=
309
=
 40
1.323962395833333
 41
2451428.386184838
 42
2451856.879646296
  1

 90
        0
  0
DICTIONARY
  5
3F68
102
{ACAD_REACTORS
330
C
102
}
330
C
100
AcDbDictionary
  3
TSTACKALIGN
350
3F69
  3
TSTACKSIZE
350
3F6A
  3
HYPERLINKBASE
350
3F6B
  3
STYLESHEET
350
3F6C
  3
LAYOUTDICT
350
3F6D
  3
PLOTSETDICT
350
3F6E
  3
PLOTSTYLNAMDICT
350
3F6F
  3
LWETCUNION
350
3F70
  3
INSUNITS
350
3F71
  3
CEPSNTYPE
350
3F72
  3
FINGERPRINTGUID
350
3F73
  3
VERSIONGUID
350
3F74
  3
PSVPSCALE
350
3F75
  3
PUCSORTHOREF
350
3F76
  3
PUCSORTHOVIEW
350
3F77
  3
PUCSBASE
350
3F78
  3
PUCSORGTOP
350
3F79
  3
PUCSORGBOTTOM
350
3F7A
  3
PUCSORGLEFT
350
3F7B
  3
PUCSORGRIGHT
350
3F7C
  3
PUCSORGFRONT
350
3F7D
  3
PUCSORGBACK
350
3F7E
  3
UCSORTHOREF
350
3F7F
  3
UCSORTHOVIEW
350
3F80
  3
UCSBASE
350
3F81
  3
UCSORGTOP
350
3F82
  3
UCSORGBOTTOM
350
3F83
  3
UCSORGLEFT
350
3F84
  3
UCSORGRIGHT
350
3F85
  3
UCSORGFRONT
350
3F86
  3
UCSORGBACK
350
3F87
  0
XRECORD
  5
3F89
102
{ACAD_REACTORS
330
F6B
102
}
330
F6B
100
AcDbXrecord
340
1A
  0
XRECORD
  5
3F88
102
{ACAD_REACTORS
330
F69
102
}
330
F69
100
AcDbXrecord
340
17
  0
GROUP
  5
36C
102
{ACAD_REACTORS
330
D
102
}
330
D
100
AcDbGroup
300

 70
     1
 71
     1
  0
GROUP
  5
377
102
{ACAD_REACTORS
330
D
102
}
330
D
100
AcDbGroup
300

 70
     1
 71
     1
  0
GROUP
  5
419
102
{ACAD_REACTORS
330
D
102
}
330
D
100
AcDbGroup
300

 70
     1
 71
     1
  0
GROUP
  5
41A
102
{ACAD_REACTORS
330
D
102
}
330
D
100
AcDbGroup
300

 70
     1
 71
     1
  0
GROUP
  5
621
102
{ACAD_REACTORS
330
D
102
}
330
D
100
AcDbGroup
300

 70
     1
 71
     1
  0
GROUP
  5
630
102
{ACAD_REACTORS
330
D
102
}
330
D
100
AcDbGroup
300

 70
     1
 71
     1
  0
GROUP
  5
682
102
{ACAD_REACTORS
330
D
102
}
330
D
100
AcDbGroup
300

 70
     1
 71
     1
  0
GROUP
  5
84A
102
{ACAD_REACTORS
330
D
102
}
330
D
100
AcDbGroup
300

 70
     1
 71
     1
  0
MLINESTYLE
  5
13
102
{ACAD_REACTORS
330
E
102
}
330
E
100
AcDbMlineStyle
  2
STANDARD
 70
     0
  3

 62
     0
 51
90.0
 52
90.0
 71
     2
 49
0.5
 62
   256
  6
BYLAYER
 49
-0.5
 62
   256
  6
BYLAYER
  0
ACDBPLACEHOLDER
  5
F3C
102
{ACAD_REACTORS
330
F3B
102
}
330
F3B
100
AcDbPlaceHolder
280
     0
  0
DICTIONARYVAR
  5
1B45
102
{ACAD_REACTORS
330
1B44
102
}
330
1B44
100
DictionaryVariables
280
     0
  1
96
  0
XRECORD
  5
3F69
102
{ACAD_REACTORS
330
3F68
102
}
330
3F68
100
AcDbXrecord
 90
        1
  0
XRECORD
  5
3F6A
102
{ACAD_REACTORS
330
3F68
102
}
330
3F68
100
AcDbXrecord
 90
       70
  0
XRECORD
  5
3F6B
102
{ACAD_REACTORS
330
3F68
102
}
330
3F68
100
AcDbXrecord
  1

  0
XRECORD
  5
3F6C
102
{ACAD_REACTORS
330
3F68
102
}
330
3F68
100
AcDbXrecord
  1

  0
XRECORD
  5
3F6D
102
{ACAD_REACTORS
330
3F68
102
}
330
3F68
100
AcDbXrecord
340
F3D
  0
XRECORD
  5
3F6E
102
{ACAD_REACTORS
330
3F68
102
}
330
3F68
100
AcDbXrecord
340
F3E
  0
XRECORD
  5
3F6F
102
{ACAD_REACTORS
330
3F68
102
}
330
3F68
100
AcDbXrecord
340
F3B
  0
XRECORD
  5
3F70
102
{ACAD_REACTORS
330
3F68
102
}
330
3F68
100
AcDbXrecord
 90
    10781
  0
XRECORD
  5
3F71
102
{ACAD_REACTORS
330
3F68
102
}
330
3F68
100
AcDbXrecord
 90
        0
  0
XRECORD
  5
3F72
102
{ACAD_REACTORS
330
3F68
102
}
330
3F68
100
AcDbXrecord
 90
        0
  0
XRECORD
  5
3F73
102
{ACAD_REACTORS
330
3F68
102
}
330
3F68
100
AcDbXrecord
  1
{792B2680-90AD-11D4-9803-00E029225608}
  0
XRECORD
  5
3F74
102
{ACAD_REACTORS
330
3F68
102
}
330
3F68
100
AcDbXrecord
  1
{A46A49DE-AB89-4B80-9494-2E4F17AEB33F}
  0
XRECORD
  5
3F75
102
{ACAD_REACTORS
330
3F68
102
}
330
3F68
100
AcDbXrecord
 40
0.0
  0
XRECORD
  5
3F76
102
{ACAD_REACTORS
330
3F68
102
}
330
3F68
100
AcDbXrecord
340
0
  0
XRECORD
  5
3F77
102
{ACAD_REACTORS
330
3F68
102
}
330
3F68
100
AcDbXrecord
 70
     0
  0
XRECORD
  5
3F78
102
{ACAD_REACTORS
330
3F68
102
}
330
3F68
100
AcDbXrecord
340
0
  0
XRECORD
  5
3F79
102
{ACAD_REACTORS
330
3F68
102
}
330
3F68
100
AcDbXrecord
 10
0.0
 20
0.0
 30
0.0
  0
XRECORD
  5
3F7A
102
{ACAD_REACTORS
330
3F68
102
}
330
3F68
100
AcDbXrecord
 10
0.0
 20
0.0
 30
0.0
  0
XRECORD
  5
3F7B
102
{ACAD_REACTORS
330
3F68
102
}
330
3F68
100
AcDbXrecord
 10
0.0
 20
0.0
 30
0.0
  0
XRECORD
  5
3F7C
102
{ACAD_REACTORS
330
3F68
102
}
330
3F68
100
AcDbXrecord
 10
0.0
 20
0.0
 30
0.0
  0
XRECORD
  5
3F7D
102
{ACAD_REACTORS
330
3F68
102
}
330
3F68
100
AcDbXrecord
 10
0.0
 20
0.0
 30
0.0
  0
XRECORD
  5
3F7E
102
{ACAD_REACTORS
330
3F68
102
}
330
3F68
100
AcDbXrecord
 10
0.0
 20
0.0
 30
0.0
  0
XRECORD
  5
3F7F
102
{ACAD_REACTORS
330
3F68
102
}
330
3F68
100
AcDbXrecord
340
0
  0
XRECORD
  5
3F80
102
{ACAD_REACTORS
330
3F68
102
}
330
3F68
100
AcDbXrecord
 70
     0
  0
XRECORD
  5
3F81
102
{ACAD_REACTORS
330
3F68
102
}
330
3F68
100
AcDbXrecord
340
0
  0
XRECORD
  5
3F82
102
{ACAD_REACTORS
330
3F68
102
}
330
3F68
100
AcDbXrecord
 10
0.0
 20
0.0
 30
0.0
  0
XRECORD
  5
3F83
102
{ACAD_REACTORS
330
3F68
102
}
330
3F68
100
AcDbXrecord
 10
0.0
 20
0.0
 30
0.0
  0
XRECORD
  5
3F84
102
{ACAD_REACTORS
330
3F68
102
}
330
3F68
100
AcDbXrecord
 10
0.0
 20
0.0
 30
0.0
  0
XRECORD
  5
3F85
102
{ACAD_REACTORS
330
3F68
102
}
330
3F68
100
AcDbXrecord
 10
0.0
 20
0.0
 30
0.0
  0
XRECORD
  5
3F86
102
{ACAD_REACTORS
330
3F68
102
}
330
3F68
100
AcDbXrecord
 10
0.0
 20
0.0
 30
0.0
  0
XRECORD
  5
3F87
102
{ACAD_REACTORS
330
3F68
102
}
330
3F68
100
AcDbXrecord
 10
0.0
 20
0.0
 30
0.0
  0
ENDSEC
  0
EOF
