  0
SECTION
  2
HEADER
  9
$ACADVER
  1
AC1014
  9
$ACADMAINTVER
 70
     9
  9
$DWGCODEPAGE
  3
ANSI_932
  9
$INSBASE
 10
0.0
 20
0.0
 30
0.0
  9
$EXTMIN
 10
86.35644509912731
 20
56.7672080519203
 30
0.0
  9
$EXTMAX
 10
458.0155824968852
 20
371.560406484412
 30
0.0
  9
$LIMMIN
 10
0.0
 20
0.0
  9
$LIMMAX
 10
10000.0
 20
10000.0
  9
$ORTHOMODE
 70
     0
  9
$REGENMODE
 70
     1
  9
$FILLMODE
 70
     1
  9
$QTEXTMODE
 70
     0
  9
$MIRRTEXT
 70
     1
  9
$DRAGMODE
 70
     2
  9
$LTSCALE
 40
1.0
  9
$OSMODE
 70
    32
  9
$ATTMODE
 70
     1
  9
$TEXTSIZE
 40
3.5
  9
$TRACEWID
 40
1.0
  9
$TEXTSTYLE
  7
AD-STANDARD
  9
$CLAYER
  8
0
  9
$CELTYPE
  6
BYLAYER
  9
$CECOLOR
 62
   256
  9
$CELTSCALE
 40
1.0
  9
$DELOBJ
 70
     1
  9
$DISPSILH
 70
     0
  9
$DIMSCALE
 40
2.0
  9
$DIMASZ
 40
2.5
  9
$DIMEXO
 40
1.0
  9
$DIMDLI
 40
0.38
  9
$DIMRND
 40
0.0
  9
$DIMDLE
 40
0.0
  9
$DIMEXE
 40
2.0
  9
$DIMTP
 40
0.0
  9
$DIMTM
 40
0.0
  9
$DIMTXT
 40
3.5
  9
$DIMCEN
 40
-2.0
  9
$DIMTSZ
 40
0.0
  9
$DIMTOL
 70
     0
  9
$DIMLIM
 70
     0
  9
$DIMTIH
 70
     0
  9
$DIMTOH
 70
     0
  9
$DIMSE1
 70
     0
  9
$DIMSE2
 70
     0
  9
$DIMTAD
 70
     1
  9
$DIMZIN
 70
     8
  9
$DIMBLK
  1

  9
$DIMASO
 70
     1
  9
$DIMSHO
 70
     1
  9
$DIMPOST
  1

  9
$DIMAPOST
  1

  9
$DIMALT
 70
     0
  9
$DIMALTD
 70
     2
  9
$DIMALTF
 40
25.4
  9
$DIMLFAC
 40
1.0
  9
$DIMTOFL
 70
     1
  9
$DIMTVP
 40
0.0
  9
$DIMTIX
 70
     0
  9
$DIMSOXD
 70
     0
  9
$DIMSAH
 70
     0
  9
$DIMBLK1
  1

  9
$DIMBLK2
  1

  9
$DIMSTYLE
  2
AD-STANDARD
  9
$DIMCLRD
 70
     9
  9
$DIMCLRE
 70
     9
  9
$DIMCLRT
 70
     2
  9
$DIMTFAC
 40
1.0
  9
$DIMGAP
 40
0.5
  9
$DIMJUST
 70
     0
  9
$DIMSD1
 70
     0
  9
$DIMSD2
 70
     0
  9
$DIMTOLJ
 70
     1
  9
$DIMTZIN
 70
     8
  9
$DIMALTZ
 70
     0
  9
$DIMALTTZ
 70
     0
  9
$DIMFIT
 70
     3
  9
$DIMUPT
 70
     0
  9
$DIMUNIT
 70
     2
  9
$DIMDEC
 70
     4
  9
$DIMTDEC
 70
     4
  9
$DIMALTU
 70
     2
  9
$DIMALTTD
 70
     2
  9
$DIMTXSTY
  7
AD-STANDARD
  9
$DIMAUNIT
 70
     0
  9
$LUNITS
 70
     2
  9
$LUPREC
 70
     4
  9
$SKETCHINC
 40
1.0
  9
$FILLETRAD
 40
0.5
  9
$AUNITS
 70
     0
  9
$AUPREC
 70
     0
  9
$MENU
  1
.
  9
$ELEVATION
 40
0.0
  9
$PELEVATION
 40
0.0
  9
$THICKNESS
 40
0.0
  9
$LIMCHECK
 70
     0
  9
$BLIPMODE
 70
     0
  9
$CHAMFERA
 40
1.0
  9
$CHAMFERB
 40
1.0
  9
$CHAMFERC
 40
673.4006734006733
  9
$CHAMFERD
 40
0.0
  9
$SKPOLY
 70
     0
  9
$TDCREATE
 40
2451428.386184838
  9
$TDUPDATE
 40
2453987.884333113
  9
$TDINDWG
 40
1.8441207986
  9
$TDUSRTIMER
 40
1.8441207986
  9
$USRTIMER
 70
     1
  9
$ANGBASE
 50
0.0
  9
$ANGDIR
 70
     0
  9
$PDMODE
 70
     0
  9
$PDSIZE
 40
0.0
  9
$PLINEWID
 40
0.0
  9
$COORDS
 70
     1
  9
$SPLFRAME
 70
     0
  9
$SPLINETYPE
 70
     6
  9
$SPLINESEGS
 70
     8
  9
$ATTDIA
 70
     0
  9
$ATTREQ
 70
     1
  9
$HANDLING
 70
 10241
  9
$HANDSEED
  5
3094
  9
$SURFTAB1
 70
     6
  9
$SURFTAB2
 70
     6
  9
$SURFTYPE
 70
     6
  9
$SURFU
 70
     6
  9
$SURFV
 70
     6
  9
$UCSNAME
  2

  9
$UCSORG
 10
0.0
 20
0.0
 30
0.0
  9
$UCSXDIR
 10
1.0
 20
0.0
 30
0.0
  9
$UCSYDIR
 10
0.0
 20
1.0
 30
0.0
  9
$PUCSNAME
  2

  9
$PUCSORG
 10
0.0
 20
0.0
 30
0.0
  9
$PUCSXDIR
 10
1.0
 20
0.0
 30
0.0
  9
$PUCSYDIR
 10
0.0
 20
1.0
 30
0.0
  9
$USERI1
 70
     0
  9
$USERI2
 70
     0
  9
$USERI3
 70
     0
  9
$USERI4
 70
     0
  9
$USERI5
 70
     0
  9
$USERR1
 40
0.0
  9
$USERR2
 40
0.0
  9
$USERR3
 40
0.0
  9
$USERR4
 40
0.0
  9
$USERR5
 40
0.0
  9
$WORLDVIEW
 70
     1
  9
$SHADEDGE
 70
     3
  9
$SHADEDIF
 70
    70
  9
$TILEMODE
 70
     1
  9
$MAXACTVP
 70
    16
  9
$PINSBASE
 10
0.0
 20
0.0
 30
0.0
  9
$PLIMCHECK
 70
     0
  9
$PEXTMIN
 10
20.0
 20
17.35395842634557
 30
0.0
  9
$PEXTMAX
 10
409.1356570902176
 20
281.9999999999999
 30
0.0
  9
$PLIMMIN
 10
-5.789093017578125
 20
-5.831416606903076
  9
$PLIMMAX
 10
414.1998901367187
 20
291.1369061470031
  9
$UNITMODE
 70
     0
  9
$VISRETAIN
 70
     0
  9
$PLINEGEN
 70
     0
  9
$PSLTSCALE
 70
     0
  9
$TREEDEPTH
 70
  3020
  9
$PICKSTYLE
 70
     1
  9
$CMLSTYLE
  2
STANDARD
  9
$CMLJUST
 70
     0
  9
$CMLSCALE
 40
1.0
  9
$PROXYGRAPHICS
 70
     1
  9
$MEASUREMENT
 70
     1
  0
ENDSEC
  0
SECTION
  2
CLASSES
  0
CLASS
  1
LWPOLYLINE
  2
AcDbPolyline
  3
AutoCAD 2000
 90
        0
280
     0
281
     1
  0
CLASS
  1
OLE2FRAME
  2
AcDbOle2Frame
  3
AutoCAD 2000
 90
        0
280
     0
281
     1
  0
CLASS
  1
ACDBDICTIONARYWDFLT
  2
AcDbDictionaryWithDefault
  3
AutoCAD 2000
 90
        0
280
     0
281
     0
  0
CLASS
  1
ACDBPLACEHOLDER
  2
AcDbPlaceHolder
  3
AutoCAD 2000
 90
        0
280
     0
281
     0
  0
CLASS
  1
LAYOUT
  2
AcDbLayout
  3
AutoCAD 2000
 90
        0
280
     0
281
     0
  0
CLASS
  1
LONG_TRANSACTION
  2
AcDbLongTransaction
  3
AutoCAD 2000
 90
        0
280
     0
281
     0
  0
CLASS
  1
LWPOLYLINE
  2
AcDbPolyline
  3
AutoCAD 2000
 90
        0
280
     0
281
     1
  0
CLASS
  1
HATCH
  2
AcDbHatch
  3
AutoCAD 2000
 90
        0
280
     0
281
     1
  0
CLASS
  1
XRECORD
  2
AcDbXrecord
  3
AutoCAD 2000
 90
        0
280
     0
281
     0
  0
CLASS
  1
LONG_TRANSACTION
  2
AcDbLongTransaction
  3
AutoCAD 2000
 90
        0
280
     0
281
     0
  0
CLASS
  1
LWPOLYLINE
  2
AcDbPolyline
  3
AutoCAD 2000
 90
        0
280
     0
281
     1
  0
CLASS
  1
HATCH
  2
AcDbHatch
  3
AutoCAD 2000
 90
        0
280
     0
281
     1
  0
CLASS
  1
XRECORD
  2
AcDbXrecord
  3
AutoCAD 2000
 90
        0
280
     0
281
     0
  0
CLASS
  1
LONG_TRANSACTION
  2
AcDbLongTransaction
  3
AutoCAD 2000
 90
        0
280
     0
281
     0
  0
CLASS
  1
LWPOLYLINE
  2
AcDbPolyline
  3
AutoCAD 2000
 90
        0
280
     0
281
     1
  0
CLASS
  1
HATCH
  2
AcDbHatch
  3
AutoCAD 2000
 90
        0
280
     0
281
     1
  0
CLASS
  1
XRECORD
  2
AcDbXrecord
  3
AutoCAD 2000
 90
        0
280
     0
281
     0
  0
CLASS
  1
LONG_TRANSACTION
  2
AcDbLongTransaction
  3
AutoCAD 2000
 90
        0
280
     0
281
     0
  0
CLASS
  1
LWPOLYLINE
  2
AcDbPolyline
  3
AutoCAD 2000
 90
        0
280
     0
281
     1
  0
CLASS
  1
HATCH
  2
AcDbHatch
  3
AutoCAD 2000
 90
        0
280
     0
281
     1
  0
CLASS
  1
XRECORD
  2
AcDbXrecord
  3
AutoCAD 2000
 90
        0
280
     0
281
     0
  0
CLASS
  1
LONG_TRANSACTION
  2
AcDbLongTransaction
  3
AutoCAD 2000
 90
        0
280
     0
281
     0
  0
CLASS
  1
LWPOLYLINE
  2
AcDbPolyline
  3
AutoCAD 2000
 90
        0
280
     0
281
     1
  0
CLASS
  1
HATCH
  2
AcDbHatch
  3
AutoCAD 2000
 90
        0
280
     0
281
     1
  0
CLASS
  1
XRECORD
  2
AcDbXrecord
  3
AutoCAD 2000
 90
        0
280
     0
281
     0
  0
CLASS
  1
LONG_TRANSACTION
  2
AcDbLongTransaction
  3
AutoCAD 2000
 90
        0
280
     0
281
     0
  0
CLASS
  1
LWPOLYLINE
  2
AcDbPolyline
  3
AutoCAD 2000
 90
        0
280
     0
281
     1
  0
CLASS
  1
HATCH
  2
AcDbHatch
  3
AutoCAD 2000
 90
        0
280
     0
281
     1
  0
CLASS
  1
XRECORD
  2
AcDbXrecord
  3
AutoCAD 2000
 90
        0
280
     0
281
     0
  0
CLASS
  1
LONG_TRANSACTION
  2
AcDbLongTransaction
  3
AutoCAD 2000
 90
        0
280
     0
281
     0
  0
CLASS
  1
LWPOLYLINE
  2
AcDbPolyline
  3
AutoCAD 2000
 90
        0
280
     0
281
     1
  0
CLASS
  1
HATCH
  2
AcDbHatch
  3
AutoCAD 2000
 90
        0
280
     0
281
     1
  0
CLASS
  1
XRECORD
  2
AcDbXrecord
  3
AutoCAD 2000
 90
        0
280
     0
281
     0
  0
CLASS
  1
LONG_TRANSACTION
  2
AcDbLongTransaction
  3
AutoCAD 2000
 90
        0
280
     0
281
     0
  0
CLASS
  1
LWPOLYLINE
  2
AcDbPolyline
  3
AutoCAD 2000
 90
        0
280
     0
281
     1
  0
CLASS
  1
HATCH
  2
AcDbHatch
  3
AutoCAD 2000
 90
        0
280
     0
281
     1
  0
CLASS
  1
XRECORD
  2
AcDbXrecord
  3
AutoCAD 2000
 90
        0
280
     0
281
     0
  0
CLASS
  1
LONG_TRANSACTION
  2
AcDbLongTransaction
  3
AutoCAD 2000
 90
        0
280
     0
281
     0
  0
CLASS
  1
LWPOLYLINE
  2
AcDbPolyline
  3
AutoCAD 2000
 90
        0
280
     0
281
     1
  0
CLASS
  1
HATCH
  2
AcDbHatch
  3
AutoCAD 2000
 90
        0
280
     0
281
     1
  0
CLASS
  1
XRECORD
  2
AcDbXrecord
  3
AutoCAD 2000
 90
        0
280
     0
281
     0
  0
CLASS
  1
LONG_TRANSACTION
  2
AcDbLongTransaction
  3
AutoCAD 2000
 90
        0
280
     0
281
     0
  0
CLASS
  1
LWPOLYLINE
  2
AcDbPolyline
  3
AutoCAD 2000
 90
        0
280
     0
281
     1
  0
CLASS
  1
HATCH
  2
AcDbHatch
  3
AutoCAD 2000
 90
        0
280
     0
281
     1
  0
CLASS
  1
XRECORD
  2
AcDbXrecord
  3
AutoCAD 2000
 90
        0
280
     0
281
     0
  0
CLASS
  1
LONG_TRANSACTION
  2
AcDbLongTransaction
  3
AutoCAD 2000
 90
        0
280
     0
281
     0
  0
CLASS
  1
LWPOLYLINE
  2
AcDbPolyline
  3
AutoCAD 2000
 90
        0
280
     0
281
     1
  0
CLASS
  1
HATCH
  2
AcDbHatch
  3
AutoCAD 2000
 90
        0
280
     0
281
     1
  0
CLASS
  1
XRECORD
  2
AcDbXrecord
  3
AutoCAD 2000
 90
        0
280
     0
281
     0
  0
CLASS
  1
LONG_TRANSACTION
  2
AcDbLongTransaction
  3
AutoCAD 2000
 90
        0
280
     0
281
     0
  0
CLASS
  1
LWPOLYLINE
  2
AcDbPolyline
  3
AutoCAD 2000
 90
        0
280
     0
281
     1
  0
CLASS
  1
HATCH
  2
AcDbHatch
  3
AutoCAD 2000
 90
        0
280
     0
281
     1
  0
CLASS
  1
XRECORD
  2
AcDbXrecord
  3
AutoCAD 2000
 90
        0
280
     0
281
     0
  0
CLASS
  1
LONG_TRANSACTION
  2
AcDbLongTransaction
  3
AutoCAD 2000
 90
        0
280
     0
281
     0
  0
CLASS
  1
LWPOLYLINE
  2
AcDbPolyline
  3
AutoCAD 2000
 90
        0
280
     0
281
     1
  0
CLASS
  1
HATCH
  2
AcDbHatch
  3
AutoCAD 2000
 90
        0
280
     0
281
     1
  0
CLASS
  1
XRECORD
  2
AcDbXrecord
  3
AutoCAD 2000
 90
        0
280
     0
281
     0
  0
CLASS
  1
LONG_TRANSACTION
  2
AcDbLongTransaction
  3
AutoCAD 2000
 90
        0
280
     0
281
     0
  0
CLASS
  1
LWPOLYLINE
  2
AcDbPolyline
  3
AutoCAD 2000
 90
        0
280
     0
281
     1
  0
CLASS
  1
HATCH
  2
AcDbHatch
  3
AutoCAD 2000
 90
        0
280
     0
281
     1
  0
CLASS
  1
XRECORD
  2
AcDbXrecord
  3
AutoCAD 2000
 90
        0
280
     0
281
     0
  0
CLASS
  1
LONG_TRANSACTION
  2
AcDbLongTransaction
  3
AutoCAD 2000
 90
        0
280
     0
281
     0
  0
CLASS
  1
LWPOLYLINE
  2
AcDbPolyline
  3
AutoCAD 2000
 90
        0
280
     0
281
     1
  0
CLASS
  1
HATCH
  2
AcDbHatch
  3
AutoCAD 2000
 90
        0
280
     0
281
     1
  0
CLASS
  1
XRECORD
  2
AcDbXrecord
  3
AutoCAD 2000
 90
        0
280
     0
281
     0
  0
CLASS
  1
LONG_TRANSACTION
  2
AcDbLongTransaction
  3
AutoCAD 2000
 90
        0
280
     0
281
     0
  0
CLASS
  1
LWPOLYLINE
  2
AcDbPolyline
  3
AutoCAD 2000
 90
        0
280
     0
281
     1
  0
CLASS
  1
HATCH
  2
AcDbHatch
  3
AutoCAD 2000
 90
        0
280
     0
281
     1
  0
CLASS
  1
XRECORD
  2
AcDbXrecord
  3
AutoCAD 2000
 90
        0
280
     0
281
     0
  0
CLASS
  1
LONG_TRANSACTION
  2
AcDbLongTransaction
  3
AutoCAD 2000
 90
        0
280
     0
281
     0
  0
CLASS
  1
LWPOLYLINE
  2
AcDbPolyline
  3
AutoCAD 2000
 90
        0
280
     0
281
     1
  0
CLASS
  1
HATCH
  2
AcDbHatch
  3
AutoCAD 2000
 90
        0
280
     0
281
     1
  0
CLASS
  1
XRECORD
  2
AcDbXrecord
  3
AutoCAD 2000
 90
        0
280
     0
281
     0
  0
CLASS
  1
DICTIONARYVAR
  2
AcDbDictionaryVar
  3
AutoCAD 2000
 90
        0
280
     0
281
     0
  0
CLASS
  1
LONG_TRANSACTION
  2
AcDbLongTransaction
  3
AutoCAD 2000
 90
        0
280
     0
281
     0
  0
CLASS
  1
LWPOLYLINE
  2
AcDbPolyline
  3
AutoCAD 2000
 90
        0
280
     0
281
     1
  0
CLASS
  1
HATCH
  2
AcDbHatch
  3
AutoCAD 2000
 90
        0
280
     0
281
     1
  0
CLASS
  1
XRECORD
  2
AcDbXrecord
  3
AutoCAD 2000
 90
        0
280
     0
281
     0
  0
CLASS
  1
LONG_TRANSACTION
  2
AcDbLongTransaction
  3
AutoCAD 2000
 90
        0
280
     0
281
     0
  0
CLASS
  1
LWPOLYLINE
  2
AcDbPolyline
  3
AutoCAD 2000
 90
        0
280
     0
281
     1
  0
CLASS
  1
HATCH
  2
AcDbHatch
  3
AutoCAD 2000
 90
        0
280
     0
281
     1
  0
CLASS
  1
XRECORD
  2
AcDbXrecord
  3
AutoCAD 2000
 90
        0
280
     0
281
     0
  0
CLASS
  1
LONG_TRANSACTION
  2
AcDbLongTransaction
  3
AutoCAD 2000
 90
        0
280
     0
281
     0
  0
CLASS
  1
LWPOLYLINE
  2
AcDbPolyline
  3
AutoCAD 2000
 90
        0
280
     0
281
     1
  0
CLASS
  1
HATCH
  2
AcDbHatch
  3
AutoCAD 2000
 90
        0
280
     0
281
     1
  0
CLASS
  1
XRECORD
  2
AcDbXrecord
  3
AutoCAD 2000
 90
        0
280
     0
281
     0
  0
CLASS
  1
LONG_TRANSACTION
  2
AcDbLongTransaction
  3
AutoCAD 2000
 90
        0
280
     0
281
     0
  0
CLASS
  1
LWPOLYLINE
  2
AcDbPolyline
  3
AutoCAD 2000
 90
        0
280
     0
281
     1
  0
CLASS
  1
HATCH
  2
AcDbHatch
  3
AutoCAD 2000
 90
        0
280
     0
281
     1
  0
CLASS
  1
XRECORD
  2
AcDbXrecord
  3
AutoCAD 2000
 90
        0
280
     0
281
     0
  0
CLASS
  1
LONG_TRANSACTION
  2
AcDbLongTransaction
  3
AutoCAD 2000
 90
        0
280
     0
281
     0
  0
CLASS
  1
LWPOLYLINE
  2
AcDbPolyline
  3
AutoCAD 2000
 90
        0
280
     0
281
     1
  0
CLASS
  1
HATCH
  2
AcDbHatch
  3
AutoCAD 2000
 90
        0
280
     0
281
     1
  0
CLASS
  1
XRECORD
  2
AcDbXrecord
  3
AutoCAD 2000
 90
        0
280
     0
281
     0
  0
CLASS
  1
LONG_TRANSACTION
  2
AcDbLongTransaction
  3
AutoCAD 2000
 90
        0
280
     0
281
     0
  0
CLASS
  1
LWPOLYLINE
  2
AcDbPolyline
  3
AutoCAD 2000
 90
        0
280
     0
281
     1
  0
CLASS
  1
HATCH
  2
AcDbHatch
  3
AutoCAD 2000
 90
        0
280
     0
281
     1
  0
CLASS
  1
XRECORD
  2
AcDbXrecord
  3
AutoCAD 2000
 90
        0
280
     0
281
     0
  0
CLASS
  1
LONG_TRANSACTION
  2
AcDbLongTransaction
  3
AutoCAD 2000
 90
        0
280
     0
281
     0
  0
CLASS
  1
LWPOLYLINE
  2
AcDbPolyline
  3
AutoCAD 2000
 90
        0
280
     0
281
     1
  0
CLASS
  1
HATCH
  2
AcDbHatch
  3
AutoCAD 2000
 90
        0
280
     0
281
     1
  0
CLASS
  1
XRECORD
  2
AcDbXrecord
  3
AutoCAD 2000
 90
        0
280
     0
281
     0
  0
CLASS
  1
LONG_TRANSACTION
  2
AcDbLongTransaction
  3
AutoCAD 2000
 90
        0
280
     0
281
     0
  0
CLASS
  1
LWPOLYLINE
  2
AcDbPolyline
  3
AutoCAD 2000
 90
        0
280
     0
281
     1
  0
CLASS
  1
HATCH
  2
AcDbHatch
  3
AutoCAD 2000
 90
        0
280
     0
281
     1
  0
CLASS
  1
XRECORD
  2
AcDbXrecord
  3
AutoCAD 2000
 90
        0
280
     0
281
     0
  0
CLASS
  1
LONG_TRANSACTION
  2
AcDbLongTransaction
  3
AutoCAD 2000
 90
        0
280
     0
281
     0
  0
CLASS
  1
LWPOLYLINE
  2
AcDbPolyline
  3
AutoCAD 2000
 90
        0
280
     0
281
     1
  0
CLASS
  1
HATCH
  2
AcDbHatch
  3
AutoCAD 2000
 90
        0
280
     0
281
     1
  0
CLASS
  1
XRECORD
  2
AcDbXrecord
  3
AutoCAD 2000
 90
        0
280
     0
281
     0
  0
CLASS
  1
LONG_TRANSACTION
  2
AcDbLongTransaction
  3
AutoCAD 2000
 90
        0
280
     0
281
     0
  0
CLASS
  1
LWPOLYLINE
  2
AcDbPolyline
  3
AutoCAD 2000
 90
        0
280
     0
281
     1
  0
CLASS
  1
HATCH
  2
AcDbHatch
  3
AutoCAD 2000
 90
        0
280
     0
281
     1
  0
CLASS
  1
XRECORD
  2
AcDbXrecord
  3
AutoCAD 2000
 90
        0
280
     0
281
     0
  0
CLASS
  1
LONG_TRANSACTION
  2
AcDbLongTransaction
  3
AutoCAD 2000
 90
        0
280
     0
281
     0
  0
CLASS
  1
LWPOLYLINE
  2
AcDbPolyline
  3
AutoCAD 2000
 90
        0
280
     0
281
     1
  0
CLASS
  1
HATCH
  2
AcDbHatch
  3
AutoCAD 2000
 90
        0
280
     0
281
     1
  0
CLASS
  1
XRECORD
  2
AcDbXrecord
  3
AutoCAD 2000
 90
        0
280
     0
281
     0
  0
CLASS
  1
LONG_TRANSACTION
  2
AcDbLongTransaction
  3
AutoCAD 2000
 90
        0
280
     0
281
     0
  0
CLASS
  1
LWPOLYLINE
  2
AcDbPolyline
  3
AutoCAD 2000
 90
        0
280
     0
281
     1
  0
CLASS
  1
HATCH
  2
AcDbHatch
  3
AutoCAD 2000
 90
        0
280
     0
281
     1
  0
CLASS
  1
XRECORD
  2
AcDbXrecord
  3
AutoCAD 2000
 90
        0
280
     0
281
     0
  0
CLASS
  1
LONG_TRANSACTION
  2
AcDbLongTransaction
  3
AutoCAD 2000
 90
        0
280
     0
281
     0
  0
CLASS
  1
LWPOLYLINE
  2
AcDbPolyline
  3
AutoCAD 2000
 90
        0
280
     0
281
     1
  0
CLASS
  1
HATCH
  2
AcDbHatch
  3
AutoCAD 2000
 90
        0
280
     0
281
     1
  0
CLASS
  1
XRECORD
  2
AcDbXrecord
  3
AutoCAD 2000
 90
        0
280
     0
281
     0
  0
CLASS
  1
LONG_TRANSACTION
  2
AcDbLongTransaction
  3
AutoCAD 2000
 90
        0
280
     0
281
     0
  0
CLASS
  1
LWPOLYLINE
  2
AcDbPolyline
  3
AutoCAD 2000
 90
        0
280
     0
281
     1
  0
CLASS
  1
HATCH
  2
AcDbHatch
  3
AutoCAD 2000
 90
        0
280
     0
281
     1
  0
CLASS
  1
XRECORD
  2
AcDbXrecord
  3
AutoCAD 2000
 90
        0
280
     0
281
     0
  0
CLASS
  1
LONG_TRANSACTION
  2
AcDbLongTransaction
  3
AutoCAD 2000
 90
        0
280
     0
281
     0
  0
CLASS
  1
LWPOLYLINE
  2
AcDbPolyline
  3
AutoCAD 2000
 90
        0
280
     0
281
     1
  0
CLASS
  1
HATCH
  2
AcDbHatch
  3
AutoCAD 2000
 90
        0
280
     0
281
     1
  0
CLASS
  1
XRECORD
  2
AcDbXrecord
  3
AutoCAD 2000
 90
        0
280
     0
281
     0
  0
CLASS
  1
LONG_TRANSACTION
  2
AcDbLongTransaction
  3
AutoCAD 2000
 90
        0
280
     0
281
     0
  0
CLASS
  1
LWPOLYLINE
  2
AcDbPolyline
  3
AutoCAD 2000
 90
        0
280
     0
281
     1
  0
CLASS
  1
HATCH
  2
AcDbHatch
  3
AutoCAD 2000
 90
        0
280
     0
281
     1
  0
CLASS
  1
XRECORD
  2
AcDbXrecord
  3
AutoCAD 2000
 90
        0
280
     0
281
     0
  0
CLASS
  1
LONG_TRANSACTION
  2
AcDbLongTransaction
  3
AutoCAD 2000
 90
        0
280
     0
281
     0
  0
CLASS
  1
LWPOLYLINE
  2
AcDbPolyline
  3
AutoCAD 2000
 90
        0
280
     0
281
     1
  0
CLASS
  1
HATCH
  2
AcDbHatch
  3
AutoCAD 2000
 90
        0
280
     0
281
     1
  0
CLASS
  1
XRECORD
  2
AcDbXrecord
  3
AutoCAD 2000
 90
        0
280
     0
281
     0
  0
CLASS
  1
LONG_TRANSACTION
  2
AcDbLongTransaction
  3
AutoCAD 2000
 90
        0
280
     0
281
     0
  0
CLASS
  1
LWPOLYLINE
  2
AcDbPolyline
  3
AutoCAD 2000
 90
        0
280
     0
281
     1
  0
CLASS
  1
HATCH
  2
AcDbHatch
  3
AutoCAD 2000
 90
        0
280
     0
281
     1
  0
CLASS
  1
XRECORD
  2
AcDbXrecord
  3
AutoCAD 2000
 90
        0
280
     0
281
     0
  0
CLASS
  1
LONG_TRANSACTION
  2
AcDbLongTransaction
  3
AutoCAD 2000
 90
        0
280
     0
281
     0
  0
CLASS
  1
LWPOLYLINE
  2
AcDbPolyline
  3
AutoCAD 2000
 90
        0
280
     0
281
     1
  0
CLASS
  1
HATCH
  2
AcDbHatch
  3
AutoCAD 2000
 90
        0
280
     0
281
     1
  0
CLASS
  1
XRECORD
  2
AcDbXrecord
  3
AutoCAD 2000
 90
        0
280
     0
281
     0
  0
ENDSEC
  0
SECTION
  2
TABLES
  0
TABLE
  2
VPORT
  5
8
330
0
100
AcDbSymbolTable
 70
     7
  0
VPORT
  5
3071
330
8
100
AcDbSymbolTableRecord
100
AcDbViewportTableRecord
  2
*ACTIVE
 70
     0
 10
0.0
 20
0.0
 11
1.0
 21
1.0
 12
182.8851904913575
 22
239.4432740432285
 13
0.0
 23
0.0
 14
168.0
 24
168.0
 15
0.0
 25
0.0
 16
0.0
 26
0.0
 36
1.0
 17
0.0
 27
0.0
 37
0.0
 40
680.9524433749054
 41
1.602080624187256
 42
50.0
 43
0.0
 44
0.0
 50
0.0
 51
0.0
 71
     0
 72
   100
 73
     1
 74
     0
 75
     0
 76
     0
 77
     0
 78
     1
  0
ENDTAB
  0
TABLE
  2
LTYPE
  5
5
330
0
100
AcDbSymbolTable
 70
     4
  0
LTYPE
  5
14
330
5
100
AcDbSymbolTableRecord
100
AcDbLinetypeTableRecord
  2
BYBLOCK
 70
     0
  3

 72
    65
 73
     0
 40
0.0
  0
LTYPE
  5
15
330
5
100
AcDbSymbolTableRecord
100
AcDbLinetypeTableRecord
  2
BYLAYER
 70
     0
  3

 72
    65
 73
     0
 40
0.0
  0
LTYPE
  5
16
330
5
100
AcDbSymbolTableRecord
100
AcDbLinetypeTableRecord
  2
CONTINUOUS
 70
     0
  3
Solid line
 72
    65
 73
     0
 40
0.0
  0
LTYPE
  5
6E
330
5
100
AcDbSymbolTableRecord
100
AcDbLinetypeTableRecord
  2
CENTER
 70
     0
  3
____ _ ____ _ ____ _ ____ _ ____ _ ____ _ ____ 
 72
    65
 73
     4
 40
2.0
 49
1.25
 74
     0
 49
-0.25
 74
     0
 49
0.25
 74
     0
 49
-0.25
 74
     0
  0
ENDTAB
  0
TABLE
  2
LAYER
  5
2
330
0
100
AcDbSymbolTable
 70
     6
  0
LAYER
  5
F
330
2
100
AcDbSymbolTableRecord
100
AcDbLayerTableRecord
  2
0
 70
     0
 62
     7
  6
CONTINUOUS
  0
LAYER
  5
72
330
2
100
AcDbSymbolTableRecord
100
AcDbLayerTableRecord
  2
DEFPOINTS
 70
     0
 62
     7
  6
CONTINUOUS
  0
LAYER
  5
74
330
2
100
AcDbSymbolTableRecord
100
AcDbLayerTableRecord
  2
CENTER
 70
     0
 62
     9
  6
CENTER
  0
LAYER
  5
3012
330
2
100
AcDbSymbolTableRecord
100
AcDbLayerTableRecord
  2
1
 70
     0
 62
     7
  6
CONTINUOUS
  0
ENDTAB
  0
TABLE
  2
STYLE
  5
3
330
0
100
AcDbSymbolTable
 70
     5
  0
STYLE
  5
10
330
3
100
AcDbSymbolTableRecord
100
AcDbTextStyleTableRecord
  2
STANDARD
 70
     0
 40
0.0
 41
0.8
 50
0.0
 71
     0
 42
84.17508417508416
  3
TXT
  4
bigfont.shx
  0
STYLE
  5
63
330
3
100
AcDbSymbolTableRecord
100
AcDbTextStyleTableRecord
  2
AD-STANDARD
 70
     0
 40
0.0
 41
0.8
 50
0.0
 71
     0
 42
3.5
  3
C:\Program Files\AutoCAD LT\romans.shx
  4
bigfont.shx
  0
ENDTAB
  0
TABLE
  2
VIEW
  5
6
330
0
100
AcDbSymbolTable
 70
     0
  0
ENDTAB
  0
TABLE
  2
UCS
  5
7
330
0
100
AcDbSymbolTable
 70
     0
  0
ENDTAB
  0
TABLE
  2
APPID
  5
9
330
0
100
AcDbSymbolTable
 70
     5
  0
APPID
  5
11
330
9
100
AcDbSymbolTableRecord
100
AcDbRegAppTableRecord
  2
ACAD
 70
     0
  0
APPID
  5
22A
330
9
100
AcDbSymbolTableRecord
100
AcDbRegAppTableRecord
  2
CONTENTTABDATA
 70
     0
  0
APPID
  5
22B
330
9
100
AcDbSymbolTableRecord
100
AcDbRegAppTableRecord
  2
CONTENTCURRENTTAB
 70
     0
  0
APPID
  5
232
330
9
100
AcDbSymbolTableRecord
100
AcDbRegAppTableRecord
  2
CONTENTBLOCKDESCRIPTION
 70
     0
  0
APPID
  5
233
330
9
100
AcDbSymbolTableRecord
100
AcDbRegAppTableRecord
  2
CONTENTBLOCKICON
 70
     0
  0
ENDTAB
  0
TABLE
  2
DIMSTYLE
  5
A
330
0
100
AcDbSymbolTable
 70
     3
  0
DIMSTYLE
105
1D
330
A
100
AcDbSymbolTableRecord
100
AcDbDimStyleTableRecord
  2
STANDARD
 70
     0
  3

  4

  5

  6

  7

 40
1.0
 41
0.18
 42
0.0625
 43
0.38
 44
0.18
 45
0.0
 46
0.0
 47
0.0
 48
0.0
140
0.18
141
0.09
142
0.0
143
25.4
144
1.0
145
0.0
146
1.0
147
0.09
 71
     0
 72
     0
 73
     1
 74
     1
 75
     0
 76
     0
 77
     0
 78
     0
170
     0
171
     2
172
     0
173
     0
174
     0
175
     0
176
     0
177
     0
178
     0
270
     2
271
     4
272
     4
273
     2
274
     2
340
10
275
     0
280
     0
281
     0
282
     0
283
     1
284
     0
285
     0
286
     0
287
     3
288
     0
  0
DIMSTYLE
105
11BB
102
{ACAD_REACTORS
330
286F
330
2B60
330
2B7A
330
2CBC
330
2BA1
330
2BAE
330
2B87
330
2B53
330
2CB0
330
2B1F
330
2B46
330
2B2C
330
2B12
330
2B94
330
2B39
330
2B6D
330
2BD5
330
2BBB
330
2BC8
102
}
330
A
100
AcDbSymbolTableRecord
100
AcDbDimStyleTableRecord
  2
AD-STANDARD
 70
     0
  3

  4

  5

  6

  7

 40
2.0
 41
2.5
 42
1.0
 43
0.38
 44
2.0
 45
0.0
 46
0.0
 47
0.0
 48
0.0
140
3.5
141
-2.0
142
0.0
143
25.4
144
1.0
145
0.0
146
1.0
147
0.5
 71
     0
 72
     0
 73
     0
 74
     0
 75
     0
 76
     0
 77
     1
 78
     8
170
     0
171
     2
172
     1
173
     0
174
     0
175
     0
176
     9
177
     9
178
     2
270
     2
271
     4
272
     4
273
     2
274
     2
340
63
275
     0
280
     0
281
     0
282
     0
283
     1
284
     8
285
     0
286
     0
287
     3
288
     0
  0
ENDTAB
  0
TABLE
  2
BLOCK_RECORD
  5
1
330
0
100
AcDbSymbolTable
 70
    55
  0
BLOCK_RECORD
  5
1A
102
{ACAD_XDICTIONARY
360
F6B
102
}
330
1
100
AcDbSymbolTableRecord
100
AcDbBlockTableRecord
  2
*MODEL_SPACE
  0
BLOCK_RECORD
  5
17
102
{ACAD_XDICTIONARY
360
F69
102
}
330
1
100
AcDbSymbolTableRecord
100
AcDbBlockTableRecord
  2
*PAPER_SPACE
  0
BLOCK_RECORD
  5
2ACC
330
1
100
AcDbSymbolTableRecord
100
AcDbBlockTableRecord
  2
CBF12
  0
BLOCK_RECORD
  5
2AE0
330
1
100
AcDbSymbolTableRecord
100
AcDbBlockTableRecord
  2
CBS1200
  0
ENDTAB
  0
ENDSEC
  0
SECTION
  2
BLOCKS
  0
BLOCK
  5
1B
330
1A
100
AcDbEntity
  8
0
100
AcDbBlockBegin
  2
*MODEL_SPACE
 70
     0
 10
0.0
 20
0.0
 30
0.0
  3
*MODEL_SPACE
  1

  0
ENDBLK
  5
1C
330
1A
100
AcDbEntity
  8
0
100
AcDbBlockEnd
  0
BLOCK
  5
18
330
17
100
AcDbEntity
 67
     1
  8
0
100
AcDbBlockBegin
  2
*PAPER_SPACE
 70
     0
 10
0.0
 20
0.0
 30
0.0
  3
*PAPER_SPACE
  1

  0
ENDBLK
  5
19
330
17
100
AcDbEntity
 67
     1
  8
0
100
AcDbBlockEnd
  0
BLOCK
  5
2AD5
330
2ACC
100
AcDbEntity
  8
0
100
AcDbBlockBegin
  2
CBF12
 70
     0
 10
0.0
 20
0.0
 30
0.0
  3
CBF12
  1

  0
CIRCLE
  5
2ACD
330
2ACC
100
AcDbEntity
  8
0
  6
CONTINUOUS
100
AcDbCircle
 10
0.0000187875812969
 20
0.0000034482758338
 30
0.0
 40
9.0
  0
CIRCLE
  5
2ACE
330
2ACC
100
AcDbEntity
  8
0
  6
CONTINUOUS
100
AcDbCircle
 10
0.0000187875812969
 20
0.0000034482758338
 30
0.0
 40
7.787563869403307
  0
LINE
  5
2ACF
330
2ACC
100
AcDbEntity
  8
0
  6
CONTINUOUS
100
AcDbLine
 10
-2.886731212418652
 20
-4.99999422047361
 30
0.0
 11
2.886768787581303
 21
-4.999994220473624
 31
0.0
  0
LINE
  5
2AD0
330
2ACC
100
AcDbEntity
  8
0
  6
CONTINUOUS
100
AcDbLine
 10
2.886768787581303
 20
5.000001117025291
 30
0.0
 11
-2.886731212418652
 21
5.000001117025291
 31
0.0
  0
LINE
  5
2AD1
330
2ACC
100
AcDbEntity
  8
0
  6
CONTINUOUS
100
AcDbLine
 10
-5.773481212418658
 20
0.0000034482758338
 30
0.0
 11
-2.886731212418652
 21
-4.99999422047361
 31
0.0
  0
LINE
  5
2AD2
330
2ACC
100
AcDbEntity
  8
0
  6
CONTINUOUS
100
AcDbLine
 10
-2.886731212418652
 20
5.000001117025291
 30
0.0
 11
-5.773481212418658
 21
0.0000034482758338
 31
0.0
  0
LINE
  5
2AD3
330
2ACC
100
AcDbEntity
  8
0
  6
CONTINUOUS
100
AcDbLine
 10
2.886768787581303
 20
-4.999994220473624
 30
0.0
 11
5.773518787581309
 21
0.0000034482758338
 31
0.0
  0
LINE
  5
2AD4
330
2ACC
100
AcDbEntity
  8
0
  6
CONTINUOUS
100
AcDbLine
 10
5.773518787581309
 20
0.0000034482758338
 30
0.0
 11
2.886768787581303
 21
5.000001117025291
 31
0.0
  0
ENDBLK
  5
2AD6
330
2ACC
100
AcDbEntity
  8
0
100
AcDbBlockEnd
  0
BLOCK
  5
2AE9
330
2AE0
100
AcDbEntity
  8
0
100
AcDbBlockBegin
  2
CBS1200
 70
     0
 10
0.0
 20
0.0
 30
0.0
  3
CBS1200
  1

  0
LINE
  5
2AE1
330
2AE0
100
AcDbEntity
  8
0
 48
0.3
100
AcDbLine
 10
9.0
 20
0.0
 30
0.0
 11
-9.0
 21
0.0
 31
0.0
  0
LINE
  5
2AE2
330
2AE0
100
AcDbEntity
  8
0
 48
0.3
100
AcDbLine
 10
7.7875638694033
 20
11.99999999999998
 30
0.0
 11
-7.7875638694033
 21
11.99999999999998
 31
0.0
  0
LINE
  5
2AE3
330
2AE0
100
AcDbEntity
  8
0
 48
0.3
100
AcDbLine
 10
-9.0
 20
0.0
 30
0.0
 11
-9.0
 21
11.29999999999998
 31
0.0
  0
LINE
  5
2AE4
330
2AE0
100
AcDbEntity
  8
0
 48
0.3
100
AcDbLine
 10
-5.0
 20
11.29999999999998
 30
0.0
 11
-9.0
 21
11.29999999999998
 31
0.0
  0
LINE
  5
2AE5
330
2AE0
100
AcDbEntity
  8
0
 48
0.3
100
AcDbLine
 10
-9.0
 20
11.29999999999998
 30
0.0
 11
-7.7875638694033
 21
11.99999999999998
 31
0.0
  0
LINE
  5
2AE6
330
2AE0
100
AcDbEntity
  8
0
 48
0.3
100
AcDbLine
 10
9.0
 20
0.0
 30
0.0
 11
9.0
 21
11.29999999999998
 31
0.0
  0
LINE
  5
2AE7
330
2AE0
100
AcDbEntity
  8
0
 48
0.3
100
AcDbLine
 10
9.0
 20
11.29999999999998
 30
0.0
 11
5.0
 21
11.29999999999998
 31
0.0
  0
LINE
  5
2AE8
330
2AE0
100
AcDbEntity
  8
0
 48
0.3
100
AcDbLine
 10
9.0
 20
11.29999999999998
 30
0.0
 11
7.7875638694033
 21
11.99999999999998
 31
0.0
  0
ENDBLK
  5
2AEA
330
2AE0
100
AcDbEntity
  8
0
100
AcDbBlockEnd
  0
ENDSEC
  0
SECTION
  2
ENTITIES
  0
LINE
  5
1FAC
330
1A
100
AcDbEntity
  8
1
  6
CENTER
 48
10.0
100
AcDbLine
 10
93.12208005902448
 20
90.98686152595906
 30
0.0
 11
151.1220800590244
 21
90.98686152595906
 31
0.0
  0
LINE
  5
1FAD
330
1A
100
AcDbEntity
  8
1
  6
CENTER
 48
10.0
100
AcDbLine
 10
93.12208005902448
 20
122.986861525959
 30
0.0
 11
196.8199103994894
 21
122.9868615259597
 31
0.0
  0
LINE
  5
1FDF
330
1A
100
AcDbEntity
  8
1
  6
CENTER
 48
10.0
100
AcDbLine
 10
153.1220800590244
 20
92.98686152595905
 30
0.0
 11
195.3090621018225
 21
92.98686152595909
 31
0.0
  0
LINE
  5
1FF7
330
1A
100
AcDbEntity
  8
1
  6
CENTER
 48
10.0
100
AcDbLine
 10
151.1220800590244
 20
90.98686152595997
 30
0.0
 11
153.1220800590235
 21
92.98686152595905
 31
0.0
  0
CIRCLE
  5
1FF8
330
1A
100
AcDbEntity
  8
1
  6
CENTER
 48
10.0
100
AcDbCircle
 10
178.1220800590244
 20
107.986861525959
 30
0.0
 40
12.0
  0
LINE
  5
1FF9
330
1A
100
AcDbEntity
  8
1
  6
CENTER
 48
10.0
100
AcDbLine
 10
93.12208005902448
 20
90.98686152595906
 30
0.0
 11
93.12208005902448
 21
122.986861525959
 31
0.0
  0
ARC
  5
27AE
330
1A
100
AcDbEntity
  8
1
100
AcDbCircle
 10
210.1220612714423
 20
348.0703757898373
 30
0.0
 40
13.79999999999745
100
AcDbArc
 50
54.53319144770702
 51
125.4666312287391
  0
ARC
  5
27B0
330
1A
100
AcDbEntity
  8
1
100
AcDbCircle
 10
210.1220800590235
 20
348.0703757898373
 30
0.0
 40
13.0
100
AcDbArc
 50
52.02004664239403
 51
127.9799737965573
  0
ARC
  5
27B6
330
1A
100
AcDbEntity
  8
1
100
AcDbCircle
 10
210.1220800590235
 20
278.0703826863883
 30
0.0
 40
13.0
100
AcDbArc
 50
232.0200262034421
 51
307.9799533576059
  0
ARC
  5
27B7
330
1A
100
AcDbEntity
  8
1
100
AcDbCircle
 10
210.1220612714423
 20
278.0703826863883
 30
0.0
 40
13.79999999999745
100
AcDbArc
 50
234.5333687712609
 51
305.4668085522929
  0
LINE
  5
27B8
330
1A
100
AcDbEntity
  8
1
100
AcDbLine
 10
198.0729857918986
 20
128.986861525959
 30
0.0
 11
222.1711743261494
 21
128.986861525959
 31
0.0
  0
LINE
  5
27B9
330
1A
100
AcDbEntity
  8
1
100
AcDbLine
 10
196.3162943002662
 20
112.986861525959
 30
0.0
 11
223.9278658177809
 21
112.986861525959
 31
0.0
  0
LINE
  5
27BA
330
1A
100
AcDbEntity
  8
1
100
AcDbLine
 10
256.1297651599998
 20
263.0703866207169
 30
0.0
 11
96.12088006119757
 21
263.0703794181127
 31
0.0
  0
LINE
  5
27BB
330
1A
100
AcDbEntity
  8
1
100
AcDbLine
 10
256.1220800590226
 20
363.0703792381128
 30
0.0
 11
96.12208005902267
 21
363.0703792381119
 31
0.0
  0
LINE
  5
27BC
330
1A
100
AcDbEntity
  8
CENTER
 48
10.0
100
AcDbLine
 10
266.7212224884881
 20
313.0703792381128
 30
0.0
 11
86.35644509912731
 21
313.0703792381128
 31
0.0
  0
LINE
  5
27BE
330
1A
100
AcDbEntity
  8
1
100
AcDbLine
 10
260.1220800590226
 20
267.0703792381128
 30
0.0
 11
260.1220800590217
 21
359.0703792381128
 31
0.0
  0
CIRCLE
  5
27C2
330
1A
100
AcDbEntity
  8
1
100
AcDbCircle
 10
245.1220800590235
 20
278.0703792381137
 30
0.0
 40
7.0
  0
ARC
  5
27C3
330
1A
100
AcDbEntity
  8
1
100
AcDbCircle
 10
256.1220800590226
 20
267.0703792381138
 30
0.0
 40
4.0
100
AcDbArc
 50
270.0
 51
0.000000000000007
  0
ARC
  5
27C9
330
1A
100
AcDbEntity
  8
1
100
AcDbCircle
 10
222.1711743261494
 20
127.9868615259599
 30
0.0
 40
1.0
100
AcDbArc
 50
2.883071907217307
 51
90.0
  0
LINE
  5
27CA
330
1A
100
AcDbEntity
  8
1
100
AcDbLine
 10
223.1699085874761
 20
128.0371593912439
 30
0.0
 11
225.2423338387007
 21
86.88626579538937
 31
0.0
  0
ARC
  5
27CB
330
1A
100
AcDbEntity
  8
1
100
AcDbCircle
 10
227.2398023613541
 20
86.98686152595906
 30
0.0
 40
2.0
100
AcDbArc
 50
182.8830719072173
 51
270.0
  0
ARC
  5
27CC
330
1A
100
AcDbEntity
  8
1
100
AcDbCircle
 10
227.0383559216652
 20
90.98686152595997
 30
0.0
 40
2.0
100
AcDbArc
 50
182.8830719072173
 51
270.0
  0
ARC
  5
27CD
330
1A
100
AcDbEntity
  8
1
100
AcDbCircle
 10
256.1220800590244
 20
84.98686152595906
 30
0.0
 40
4.0
100
AcDbArc
 50
0.000000000000007
 51
90.0
  0
LINE
  5
27CE
330
1A
100
AcDbEntity
  8
1
100
AcDbLine
 10
260.1220800590244
 20
84.98686152595814
 30
0.0
 11
260.1220800590226
 21
68.98686152595996
 31
0.0
  0
LINE
  5
27D0
330
1A
100
AcDbEntity
  8
1
100
AcDbLine
 10
256.1220800590244
 20
88.98686152595814
 30
0.0
 11
227.0383559216652
 21
88.98686152595905
 31
0.0
  0
CIRCLE
  5
27D4
330
1A
100
AcDbEntity
  8
1
100
AcDbCircle
 10
245.1220800590235
 20
348.0703792381138
 30
0.0
 40
7.0
  0
ARC
  5
27D5
330
1A
100
AcDbEntity
  8
1
100
AcDbCircle
 10
256.1220800590226
 20
359.0703792381138
 30
0.0
 40
4.0
100
AcDbArc
 50
0.000000000000007
 51
90.0
  0
LINE
  5
27DC
330
1A
100
AcDbEntity
  8
1
100
AcDbLine
 10
92.12208005902084
 20
267.0703792381138
 30
0.0
 11
92.12208005902267
 21
359.0703792381119
 31
0.0
  0
LINE
  5
27DE
330
1A
100
AcDbEntity
  8
CENTER
 48
10.0
100
AcDbLine
 10
210.1220800590235
 20
254.8215578807631
 30
0.0
 11
210.1220800590235
 21
371.560406484412
 31
0.0
  0
LINE
  5
27E0
330
1A
100
AcDbEntity
  8
1
100
AcDbLine
 10
454.2359061524117
 20
128.9868615259554
 30
0.0
 11
430.1384045918626
 21
128.9868615259572
 31
0.0
  0
LINE
  5
27E2
330
1A
100
AcDbEntity
  8
1
100
AcDbLine
 10
442.1871553721335
 20
112.986861525959
 30
0.0
 11
457.1871553721327
 21
112.986861525959
 31
0.0
  0
CIRCLE
  5
27E5
330
1A
100
AcDbEntity
  8
1
100
AcDbCircle
 10
109.1220800590235
 20
278.0703792381137
 30
0.0
 40
7.0
  0
LINE
  5
27E7
330
1A
100
AcDbEntity
  8
1
100
AcDbLine
 10
193.2058041963819
 20
88.98686152595997
 30
0.0
 11
96.12208005902267
 21
88.98686152595997
 31
0.0
  0
LINE
  5
27E8
330
1A
100
AcDbEntity
  8
1
  6
CENTER
 48
10.0
100
AcDbLine
 10
160.1220665399151
 20
297.0703792381139
 30
0.0
 11
94.12208005902442
 21
297.0703792381129
 31
0.0
  0
LINE
  5
27ED
330
1A
100
AcDbEntity
  8
1
100
AcDbLine
 10
164.1220402969502
 20
263.0703975286779
 30
0.0
 11
198.1220402969465
 21
263.0703840095703
 31
0.0
  0
LINE
  5
27EE
330
1A
100
AcDbEntity
  8
1
100
AcDbLine
 10
151.1220800590235
 20
90.98686152595906
 30
0.0
 11
151.1220800590244
 21
89.98686152595997
 31
0.0
  0
ARC
  5
27F0
330
1A
100
AcDbEntity
  8
1
100
AcDbCircle
 10
152.1220800590235
 20
89.98686152595997
 30
0.0
 40
1.0
100
AcDbArc
 50
180.0
 51
270.0
  0
ARC
  5
27F1
330
1A
100
AcDbEntity
  8
1
100
AcDbCircle
 10
198.0729857918986
 20
127.9868615259599
 30
0.0
 40
1.0
100
AcDbArc
 50
90.0
 51
177.1169280927827
  0
LINE
  5
27F2
330
1A
100
AcDbEntity
  8
1
100
AcDbLine
 10
197.0742515305719
 20
128.0371593912439
 30
0.0
 11
195.0018262793464
 21
86.88626579539027
 31
0.0
  0
ARC
  5
27F3
330
1A
100
AcDbEntity
  8
1
100
AcDbCircle
 10
193.004357756693
 20
86.98686152595996
 30
0.0
 40
2.0
100
AcDbArc
 50
270.0
 51
357.1169280927827
  0
ARC
  5
27F4
330
1A
100
AcDbEntity
  8
1
100
AcDbCircle
 10
193.2058041963819
 20
90.98686152595997
 30
0.0
 40
2.0
100
AcDbArc
 50
270.0
 51
357.1169280927827
  0
ARC
  5
27F5
330
1A
100
AcDbEntity
  8
1
100
AcDbCircle
 10
96.12208005902267
 20
267.0703792381146
 30
0.0
 40
4.0
100
AcDbArc
 50
180.0
 51
270.0
  0
LINE
  5
27FA
330
1A
100
AcDbEntity
  8
1
100
AcDbLine
 10
455.2346584912899
 20
128.036799142899
 30
0.0
 11
455.9396522529829
 21
113.9369239090153
 31
0.0
  0
LINE
  5
27FB
330
1A
100
AcDbEntity
  8
1
100
AcDbLine
 10
457.1871553721372
 20
68.98686152595906
 30
0.0
 11
457.1871553721327
 21
112.9868615259599
 31
0.0
  0
ARC
  5
27FC
330
1A
100
AcDbEntity
  8
1
100
AcDbCircle
 10
453.187155372139
 20
84.98686152595906
 30
0.0
 40
4.0
100
AcDbArc
 50
0.000000000000007
 51
90.0
  0
ARC
  5
27FE
330
1A
100
AcDbEntity
  8
1
100
AcDbCircle
 10
454.2359061524117
 20
127.9868615259563
 30
0.0
 40
1.0
100
AcDbArc
 50
2.862405226098736
 51
90.0
  0
ARC
  5
27FF
330
1A
100
AcDbEntity
  8
1
100
AcDbCircle
 10
456.938404591861
 20
113.986861525959
 30
0.0
 40
1.0
100
AcDbArc
 50
182.8624052260988
 51
270.0
  0
LINE
  5
2800
330
1A
100
AcDbEntity
  8
1
100
AcDbLine
 10
92.12208005902448
 20
90.98686152596178
 30
0.0
 11
92.12208005902448
 21
84.98686152595814
 31
0.0
  0
LINE
  5
2801
330
1A
100
AcDbEntity
  8
1
100
AcDbLine
 10
92.12208005902358
 20
84.98686152595814
 30
0.0
 11
92.12208005902267
 21
68.98686152595814
 31
0.0
  0
ARC
  5
2802
330
1A
100
AcDbEntity
  8
1
100
AcDbCircle
 10
96.12208005902267
 20
84.98686152595906
 30
0.0
 40
4.0
100
AcDbArc
 50
90.0
 51
180.0
  0
LINE
  5
2806
330
1A
100
AcDbEntity
  8
1
100
AcDbLine
 10
361.1871553721381
 20
88.98686152595997
 30
0.0
 11
453.187155372139
 21
88.98686152595997
 31
0.0
  0
LINE
  5
2807
330
1A
100
AcDbEntity
  8
CENTER
 48
10.0
100
AcDbLine
 10
407.1871553721363
 20
175.5676479869355
 30
0.0
 11
407.1871553721345
 21
56.7672080519203
 31
0.0
  0
LINE
  5
2808
330
1A
100
AcDbEntity
  8
CENTER
 48
10.0
100
AcDbLine
 10
372.1871553721381
 20
63.64199733336931
 30
0.0
 11
372.1871553721381
 21
172.1138101023707
 31
0.0
  0
LINE
  5
2809
330
1A
100
AcDbEntity
  8
1
100
AcDbLine
 10
359.1396522529827
 20
128.0367991429054
 30
0.0
 11
358.4346584912879
 21
113.9369239090181
 31
0.0
  0
LINE
  5
280A
330
1A
100
AcDbEntity
  8
1
100
AcDbLine
 10
385.2346584912871
 20
128.0367991429045
 30
0.0
 11
387.0921491338309
 21
90.8869862920717
 31
0.0
  0
LINE
  5
280B
330
1A
100
AcDbEntity
  8
1
100
AcDbLine
 10
391.1871553721354
 20
90.98686152595906
 30
0.0
 11
391.1871553721354
 21
89.98686152596013
 31
0.0
  0
ARC
  5
280D
330
1A
100
AcDbEntity
  8
1
100
AcDbCircle
 10
390.1871553721345
 20
89.98686152595997
 30
0.0
 40
1.0
100
AcDbArc
 50
270.0
 51
0.000000000000007
  0
LINE
  5
280E
330
1A
100
AcDbEntity
  8
1
100
AcDbLine
 10
357.1871553721372
 20
68.98686152596088
 30
0.0
 11
357.1871553721372
 21
112.9868615259608
 31
0.0
  0
ARC
  5
280F
330
1A
100
AcDbEntity
  8
1
100
AcDbCircle
 10
361.1871553721381
 20
84.98686152596087
 30
0.0
 40
4.0
100
AcDbArc
 50
90.0
 51
180.0
  0
ARC
  5
2811
330
1A
100
AcDbEntity
  8
1
100
AcDbCircle
 10
360.1384045918617
 20
127.9868615259608
 30
0.0
 40
1.0
100
AcDbArc
 50
90.0
 51
177.1375947739012
  0
ARC
  5
2812
330
1A
100
AcDbEntity
  8
1
100
AcDbCircle
 10
384.2359061524108
 20
127.9868615259608
 30
0.0
 40
1.0
100
AcDbArc
 50
2.862405226098736
 51
90.0
  0
LINE
  5
2813
330
1A
100
AcDbEntity
  8
1
100
AcDbLine
 10
360.1384045918617
 20
128.9868615259599
 30
0.0
 11
384.2359061524108
 21
128.9868615259599
 31
0.0
  0
LINE
  5
2819
330
1A
100
AcDbEntity
  8
1
100
AcDbLine
 10
357.1871553721372
 20
112.9868615259608
 30
0.0
 11
372.1871553721381
 21
112.9868615259617
 31
0.0
  0
ARC
  5
281A
330
1A
100
AcDbEntity
  8
1
100
AcDbCircle
 10
357.4359061524097
 20
113.9868615259617
 30
0.0
 40
1.0
100
AcDbArc
 50
270.0
 51
357.1375947739013
  0
ARC
  5
281C
330
1A
100
AcDbEntity
  8
1
100
AcDbCircle
 10
389.0896538115872
 20
90.98686152595997
 30
0.0
 40
2.0
100
AcDbArc
 50
182.862405226151
 51
270.0
  0
LINE
  5
281D
330
1A
100
AcDbEntity
  8
CENTER
 48
10.0
100
AcDbLine
 10
442.1871553721299
 20
63.6419973333675
 30
0.0
 11
442.1871553721344
 21
172.6072152952817
 31
0.0
  0
LINE
  5
281E
330
1A
100
AcDbEntity
  8
1
100
AcDbLine
 10
429.1396522529845
 20
128.0367991429009
 30
0.0
 11
427.282161610438
 21
90.8869862920717
 31
0.0
  0
LINE
  5
281F
330
1A
100
AcDbEntity
  8
1
100
AcDbLine
 10
423.1871553721354
 20
90.98686152595906
 30
0.0
 11
423.1871553721357
 21
89.9868615259596
 31
0.0
  0
ARC
  5
2821
330
1A
100
AcDbEntity
  8
1
100
AcDbCircle
 10
424.1871553721363
 20
89.98686152595997
 30
0.0
 40
1.0
100
AcDbArc
 50
180.0
 51
270.0
  0
ARC
  5
2822
330
1A
100
AcDbEntity
  8
1
100
AcDbCircle
 10
430.1384045918626
 20
127.9868615259581
 30
0.0
 40
1.0
100
AcDbArc
 50
90.0
 51
177.1375947739012
  0
ARC
  5
2824
330
1A
100
AcDbEntity
  8
1
100
AcDbCircle
 10
425.2846569326835
 20
90.98686152595997
 30
0.0
 40
2.0
100
AcDbArc
 50
270.0
 51
357.137594773849
  0
CIRCLE
  5
2827
330
1A
100
AcDbEntity
  8
1
100
AcDbCircle
 10
109.1220800590235
 20
348.0703792381138
 30
0.0
 40
7.0
  0
LINE
  5
2828
330
1A
100
AcDbEntity
  8
1
  6
CENTER
 48
10.0
100
AcDbLine
 10
160.1220538160501
 20
329.0703792381128
 30
0.0
 11
94.12208005902442
 21
329.0703792381128
 31
0.0
  0
ARC
  5
282E
330
1A
100
AcDbEntity
  8
1
100
AcDbCircle
 10
96.12208005902267
 20
359.0703792381128
 30
0.0
 40
4.0
100
AcDbArc
 50
90.0
 51
180.0
  0
LINE
  5
2835
330
1A
100
AcDbEntity
  8
1
100
AcDbLine
 10
92.12208005902267
 20
68.98686152595814
 30
0.0
 11
260.1220800590226
 21
68.98686152595996
 31
0.0
  0
LINE
  5
2836
330
1A
100
AcDbEntity
  8
1
100
AcDbLine
 10
357.1871553721372
 20
68.98686152596088
 30
0.0
 11
457.1871553721372
 21
68.98686152595906
 31
0.0
  0
LINE
  5
2837
330
1A
100
AcDbEntity
  8
1
100
AcDbLine
 10
391.1871553721354
 20
90.98686152595888
 30
0.0
 11
423.1871553721354
 21
90.98686152595943
 31
0.0
  0
LINE
  5
2838
330
1A
100
AcDbEntity
  8
1
100
AcDbLine
 10
92.12208005902448
 20
90.98686152596178
 30
0.0
 11
151.1220800590235
 21
90.98686152595906
 31
0.0
  0
LINE
  5
28CD
330
1A
100
AcDbEntity
  8
1
100
AcDbLine
 10
161.1220800590249
 20
142.986861525959
 30
0.0
 11
204.1220800590239
 21
142.986861525959
 31
0.0
  0
LINE
  5
28CE
330
1A
100
AcDbEntity
  8
1
100
AcDbLine
 10
259.8541308665921
 20
165.9868615259581
 30
0.0
 11
160.3900292514549
 21
165.9868615259581
 31
0.0
  0
LINE
  5
28CF
330
1A
100
AcDbEntity
  8
1
100
AcDbLine
 10
196.1220988466043
 20
150.9868615259545
 30
0.0
 11
204.122080059024
 21
150.9868615259555
 31
0.0
  0
ARC
  5
28D0
330
1A
100
AcDbEntity
  8
1
100
AcDbCircle
 10
162.122080059024
 20
164.986861525959
 30
0.0
 40
2.0
100
AcDbArc
 50
150.0000000000608
 51
180.0
  0
ARC
  5
28D1
330
1A
100
AcDbEntity
  8
1
100
AcDbCircle
 10
161.1220800590249
 20
143.986861525959
 30
0.0
 40
1.0
100
AcDbArc
 50
180.0
 51
270.0
  0
ARC
  5
28D2
330
1A
100
AcDbEntity
  8
1
100
AcDbCircle
 10
196.1220988466043
 20
152.9868615259545
 30
0.0
 40
2.0
100
AcDbArc
 50
180.0
 51
270.0
  0
LINE
  5
28D3
330
1A
100
AcDbEntity
  8
1
100
AcDbLine
 10
160.1220800590249
 20
143.986861525959
 30
0.0
 11
160.122080059024
 21
164.986861525959
 31
0.0
  0
LINE
  5
28D4
330
1A
100
AcDbEntity
  8
1
100
AcDbLine
 10
194.1220988466052
 20
165.9868615259599
 30
0.0
 11
194.1220988466043
 21
152.9868615259545
 31
0.0
  0
ARC
  5
28D5
330
1A
100
AcDbEntity
  8
1
100
AcDbCircle
 10
201.1220800590222
 20
149.9868615259563
 30
0.0
 40
1.0
100
AcDbArc
 50
0.0
 51
90.0
  0
ARC
  5
28D6
330
1A
100
AcDbEntity
  8
1
100
AcDbCircle
 10
201.1220800590231
 20
143.986861525959
 30
0.0
 40
1.0
100
AcDbArc
 50
270.0
 51
0.0
  0
LINE
  5
28D7
330
1A
100
AcDbEntity
  8
1
100
AcDbLine
 10
202.1220800590231
 20
149.9868615259572
 30
0.0
 11
202.1220800590231
 21
143.9868615259599
 31
0.0
  0
ARC
  5
28D8
330
1A
100
AcDbEntity
  8
1
100
AcDbCircle
 10
258.1220800590231
 20
164.9868615259581
 30
0.0
 40
2.0
100
AcDbArc
 50
0.0
 51
30.00000000001226
  0
ARC
  5
28D9
330
1A
100
AcDbEntity
  8
1
100
AcDbCircle
 10
259.122080059024
 20
143.986861525959
 30
0.0
 40
1.0
100
AcDbArc
 50
270.0
 51
0.0
  0
ARC
  5
28DA
330
1A
100
AcDbEntity
  8
1
100
AcDbCircle
 10
224.122061271501
 20
152.9868615259581
 30
0.0
 40
2.0
100
AcDbArc
 50
270.0
 51
0.0
  0
LINE
  5
28DB
330
1A
100
AcDbEntity
  8
1
100
AcDbLine
 10
218.1220800590231
 20
149.9868615259572
 30
0.0
 11
218.1220800590231
 21
143.9868615259599
 31
0.0
  0
ARC
  5
28DC
330
1A
100
AcDbEntity
  8
1
100
AcDbCircle
 10
219.1220800590213
 20
143.986861525959
 30
0.0
 40
1.0
100
AcDbArc
 50
180.0
 51
270.0
  0
ARC
  5
28DD
330
1A
100
AcDbEntity
  8
1
100
AcDbCircle
 10
219.1220800590222
 20
149.9868615259563
 30
0.0
 40
1.0
100
AcDbArc
 50
90.0
 51
180.0
  0
LINE
  5
28DE
330
1A
100
AcDbEntity
  8
1
100
AcDbLine
 10
226.1220612714982
 20
165.9868615259599
 30
0.0
 11
226.122061271501
 21
152.9868615259581
 31
0.0
  0
LINE
  5
28DF
330
1A
100
AcDbEntity
  8
1
100
AcDbLine
 10
260.122080059024
 20
143.986861525959
 30
0.0
 11
260.1220800590231
 21
164.9868615259581
 31
0.0
  0
LINE
  5
28E1
330
1A
100
AcDbEntity
  8
CENTER
 48
10.0
100
AcDbLine
 10
227.9486413586019
 20
348.0703757898373
 30
0.0
 11
191.7066565460772
 21
348.0703757898373
 31
0.0
  0
ARC
  5
28E2
330
1A
100
AcDbEntity
  8
1
100
AcDbCircle
 10
210.1220800590235
 20
348.0703757898373
 30
0.0
 40
15.99998121241879
100
AcDbArc
 50
180.0
 51
0.0
  0
ARC
  5
28E3
330
1A
100
AcDbEntity
  8
1
100
AcDbCircle
 10
210.1220800590235
 20
278.0703826863883
 30
0.0
 40
15.99998121241879
100
AcDbArc
 50
0.0
 51
180.0
  0
LINE
  5
28E4
330
1A
100
AcDbEntity
  8
CENTER
 48
10.0
100
AcDbLine
 10
227.9486413586019
 20
278.0703826863883
 30
0.0
 11
191.7066565460772
 21
278.0703826863883
 31
0.0
  0
CIRCLE
  5
28E5
330
1A
100
AcDbEntity
  8
1
100
AcDbCircle
 10
210.1220800590244
 20
313.0703792381138
 30
0.0
 40
14.0
  0
LINE
  5
28E8
330
1A
100
AcDbEntity
  8
1
100
AcDbLine
 10
160.1220418874345
 20
359.0703593570661
 30
0.0
 11
160.1220784685465
 21
267.0703593570734
 31
0.0
  0
ARC
  5
28E9
330
1A
100
AcDbEntity
  8
1
100
AcDbCircle
 10
190.1221545449325
 20
267.0479154715432
 30
0.0
 40
4.0
100
AcDbArc
 50
270.0000227820097
 51
0.1499771913814179
  0
LINE
  5
28EA
330
1A
100
AcDbEntity
  8
1
100
AcDbLine
 10
194.1220988466047
 20
278.0703826863883
 30
0.0
 11
194.1220988466047
 21
267.0268066222553
 31
0.0
  0
LINE
  5
28EB
330
1A
100
AcDbEntity
  8
1
100
AcDbLine
 10
202.1220594837357
 20
268.4656978192679
 30
0.0
 11
202.1220648446733
 21
267.0599346028076
 31
0.0
  0
LINE
  5
28EC
330
1A
100
AcDbEntity
  8
1
100
AcDbLine
 10
198.1282567846001
 20
263.0703792381128
 30
0.0
 11
164.1099820177951
 21
263.0703792381128
 31
0.0
  0
CIRCLE
  5
28ED
330
1A
100
AcDbEntity
  8
1
100
AcDbCircle
 10
175.1220740947146
 20
278.0703653213851
 30
0.0
 40
7.0
  0
ARC
  5
28F4
330
1A
100
AcDbEntity
  8
1
100
AcDbCircle
 10
164.1220784685456
 20
267.0703609475568
 30
0.0
 40
4.0
100
AcDbArc
 50
180.0000227820097
 51
270.0000227820097
  0
ARC
  5
28F5
330
1A
100
AcDbEntity
  8
1
100
AcDbCircle
 10
198.1220784685419
 20
267.0703744666626
 30
0.0
 40
4.0
100
AcDbArc
 50
270.0000227820097
 51
0.1499771913814179
  0
ARC
  5
28F6
330
1A
100
AcDbEntity
  8
1
100
AcDbCircle
 10
198.1220784685419
 20
359.0703840095631
 30
0.0
 40
4.0
100
AcDbArc
 50
359.8500228086185
 51
89.99997721799031
  0
LINE
  5
28F7
330
1A
100
AcDbEntity
  8
1
100
AcDbLine
 10
202.1220594837358
 20
357.6750606569578
 30
0.0
 11
202.1220648446733
 21
359.0808238734181
 31
0.0
  0
ARC
  5
28F8
330
1A
100
AcDbEntity
  8
1
100
AcDbCircle
 10
190.1221545449325
 20
359.0928430046825
 30
0.0
 40
4.0
100
AcDbArc
 50
359.8500228086185
 51
89.99997721799031
  0
LINE
  5
28F9
330
1A
100
AcDbEntity
  8
1
100
AcDbLine
 10
194.1220988466047
 20
348.0703757898373
 30
0.0
 11
194.1220988466047
 21
359.1139518539704
 31
0.0
  0
LINE
  5
28FA
330
1A
100
AcDbEntity
  8
1
100
AcDbLine
 10
198.1220402969465
 20
363.0703744666553
 30
0.0
 11
164.1220402969502
 21
363.0703609475486
 31
0.0
  0
CIRCLE
  5
2901
330
1A
100
AcDbEntity
  8
1
100
AcDbCircle
 10
175.12204626126
 20
348.0703653213796
 30
0.0
 40
7.0
  0
ARC
  5
2902
330
1A
100
AcDbEntity
  8
1
100
AcDbCircle
 10
164.1220418874345
 20
359.0703609475496
 30
0.0
 40
4.0
100
AcDbArc
 50
90.00002278200968
 51
180.0000227820097
  0
LINE
  5
2903
330
1A
100
AcDbEntity
  8
1
100
AcDbLine
 10
164.1220402969502
 20
363.0703609475478
 30
0.0
 11
198.1220402969465
 21
363.0703744666553
 31
0.0
  0
LINE
  5
2904
330
1A
100
AcDbEntity
  8
1
100
AcDbLine
 10
260.1220800590226
 20
359.0703792381128
 30
0.0
 11
260.1220800590217
 21
267.0703792381128
 31
0.0
  0
ARC
  5
290A
330
1A
100
AcDbEntity
  8
1
100
AcDbCircle
 10
230.1220354693123
 20
267.0502052391485
 30
0.0
 40
4.0
100
AcDbArc
 50
179.850045590602
 51
270.0
  0
LINE
  5
290B
330
1A
100
AcDbEntity
  8
1
100
AcDbLine
 10
226.1220612714423
 20
278.0703826863883
 30
0.0
 11
226.1220612714423
 21
267.0358380413346
 31
0.0
  0
LINE
  5
290C
330
1A
100
AcDbEntity
  8
1
100
AcDbLine
 10
218.1220952385613
 20
268.4657246224621
 30
0.0
 11
218.1220936870431
 21
267.0599377837798
 31
0.0
  0
LINE
  5
290D
330
1A
100
AcDbEntity
  8
1
100
AcDbLine
 10
256.1220800590226
 20
263.0703792381128
 30
0.0
 11
222.1220800590235
 21
263.0703792381128
 31
0.0
  0
ARC
  5
2913
330
1A
100
AcDbEntity
  8
1
100
AcDbCircle
 10
222.1220800590244
 20
267.0703792381128
 30
0.0
 40
4.0
100
AcDbArc
 50
179.850045590602
 51
270.0
  0
ARC
  5
2914
330
1A
100
AcDbEntity
  8
1
100
AcDbCircle
 10
256.1220800590235
 20
267.0703792381138
 30
0.0
 40
4.0
100
AcDbArc
 50
270.0
 51
0.0
  0
CIRCLE
  5
2916
330
1A
100
AcDbEntity
  8
1
100
AcDbCircle
 10
245.1220800590244
 20
278.0703792381137
 30
0.0
 40
7.0
  0
ARC
  5
2917
330
1A
100
AcDbEntity
  8
1
100
AcDbCircle
 10
222.1220800590244
 20
359.0703792381128
 30
0.0
 40
4.0
100
AcDbArc
 50
90.0
 51
180.1499544093979
  0
LINE
  5
2918
330
1A
100
AcDbEntity
  8
1
100
AcDbLine
 10
218.1220952385613
 20
357.6750338537636
 30
0.0
 11
218.1220936870431
 21
359.0808206924458
 31
0.0
  0
ARC
  5
2919
330
1A
100
AcDbEntity
  8
1
100
AcDbCircle
 10
230.1220354693123
 20
359.0905532370772
 30
0.0
 40
4.0
100
AcDbArc
 50
90.0
 51
180.1499544093979
  0
LINE
  5
291A
330
1A
100
AcDbEntity
  8
1
100
AcDbLine
 10
226.1220612714423
 20
348.0703757898373
 30
0.0
 11
226.1220612714423
 21
359.1049204348911
 31
0.0
  0
CIRCLE
  5
291B
330
1A
100
AcDbEntity
  8
1
100
AcDbCircle
 10
245.1220800590244
 20
348.0703792381138
 30
0.0
 40
7.0
  0
ARC
  5
291D
330
1A
100
AcDbEntity
  8
1
100
AcDbCircle
 10
256.1220800590235
 20
359.0703792381138
 30
0.0
 40
4.0
100
AcDbArc
 50
0.0
 51
90.0
  0
LINE
  5
2923
330
1A
100
AcDbEntity
  8
1
100
AcDbLine
 10
256.1220800590226
 20
363.0703792381119
 30
0.0
 11
222.1220800590235
 21
363.0703792381128
 31
0.0
  0
LINE
  5
2924
330
1A
100
AcDbEntity
  8
CENTER
 48
10.0
100
AcDbLine
 10
210.122080059024
 20
63.5646185679409
 30
0.0
 11
210.122080059024
 21
173.5940272152909
 31
0.0
  0
LINE
  5
2926
330
1A
100
AcDbEntity
  8
1
100
AcDbLine
 10
193.122080059024
 20
133.986861525959
 30
0.0
 11
200.6220800590241
 21
133.986861525959
 31
0.0
  0
LINE
  5
2927
330
1A
100
AcDbEntity
  8
1
100
AcDbLine
 10
227.1220800590239
 20
133.986861525959
 30
0.0
 11
227.122080059024
 21
142.986861525959
 31
0.0
  0
LINE
  5
2928
330
1A
100
AcDbEntity
  8
1
100
AcDbLine
 10
193.122080059024
 20
133.986861525959
 30
0.0
 11
193.122080059024
 21
142.986861525959
 31
0.0
  0
LINE
  5
2971
330
1A
100
AcDbEntity
  8
1
100
AcDbLine
 10
223.122080059024
 20
132.9868615259598
 30
0.0
 11
219.622080059024
 21
132.9868615259598
 31
0.0
  0
ARC
  5
2979
330
1A
100
AcDbEntity
  8
1
100
AcDbCircle
 10
198.122080059024
 20
133.9868615259598
 30
0.0
 40
1.0
100
AcDbArc
 50
270.0
 51
0.0
  0
ARC
  5
297A
330
1A
100
AcDbEntity
  8
1
100
AcDbCircle
 10
222.122080059024
 20
133.9868615259598
 30
0.0
 40
1.0
100
AcDbArc
 50
180.0
 51
270.0
  0
ARC
  5
297B
330
1A
100
AcDbEntity
  8
1
100
AcDbCircle
 10
197.122080059024
 20
129.9868615259598
 30
0.0
 40
3.0
100
AcDbArc
 50
90.0
 51
268.0775915694321
  0
ARC
  5
297C
330
1A
100
AcDbEntity
  8
1
100
AcDbCircle
 10
223.122080059024
 20
129.9868615259598
 30
0.0
 40
3.0
100
AcDbArc
 50
271.9224084305656
 51
90.0
  0
LINE
  5
297F
330
1A
100
AcDbEntity
  8
1
100
AcDbLine
 10
225.122080059024
 20
124.9868615259598
 30
0.0
 11
223.3235264987141
 21
124.9868615259599
 31
0.0
  0
LINE
  5
2980
330
1A
100
AcDbEntity
  8
1
100
AcDbLine
 10
196.8199103994894
 20
122.9868615259598
 30
0.0
 11
195.122080059024
 21
122.9868615259598
 31
0.0
  0
LINE
  5
2981
330
1A
100
AcDbEntity
  8
1
100
AcDbLine
 10
225.122080059024
 20
122.9868615259598
 30
0.0
 11
225.122080059024
 21
124.9868615259598
 31
0.0
  0
LINE
  5
2982
330
1A
100
AcDbEntity
  8
1
100
AcDbLine
 10
195.122080059024
 20
122.9868615259598
 30
0.0
 11
195.122080059024
 21
124.9868615259598
 31
0.0
  0
LINE
  5
2A18
330
1A
100
AcDbEntity
  8
1
100
AcDbLine
 10
197.622080059024
 20
154.3868615259529
 30
0.0
 11
199.8071254828005
 21
155.6483980895631
 31
0.0
  0
LINE
  5
2A19
330
1A
100
AcDbEntity
  8
1
100
AcDbLine
 10
197.622080059024
 20
152.9868615259551
 30
0.0
 11
222.622080059024
 21
152.9868615259551
 31
0.0
  0
LINE
  5
2A1A
330
1A
100
AcDbEntity
  8
1
100
AcDbLine
 10
197.622080059024
 20
154.3868615259547
 30
0.0
 11
222.622080059024
 21
154.3868615259547
 31
0.0
  0
LINE
  5
2A1B
330
1A
100
AcDbEntity
  8
1
100
AcDbLine
 10
197.622080059024
 20
154.3868615259547
 30
0.0
 11
197.622080059024
 21
152.9868615259551
 31
0.0
  0
LINE
  5
2A1C
330
1A
100
AcDbEntity
  8
1
 62
     9
100
AcDbLine
 10
205.122080059024
 20
141.286861525959
 30
0.0
 11
205.122080059024
 21
151.2548107183878
 31
0.0
  0
LINE
  5
2A1D
330
1A
100
AcDbEntity
  8
1
 62
     9
100
AcDbLine
 10
215.1220800590239
 20
141.2868615259591
 30
0.0
 11
215.122080059024
 21
151.2548107183878
 31
0.0
  0
LINE
  5
2A1E
330
1A
100
AcDbEntity
  8
1
100
AcDbLine
 10
204.122080059024
 20
152.3868615259547
 30
0.0
 11
204.1220800590239
 21
141.286861525959
 31
0.0
  0
LINE
  5
2A1F
330
1A
100
AcDbEntity
  8
1
100
AcDbLine
 10
216.1220800590231
 20
152.3868615259547
 30
0.0
 11
216.1220800590232
 21
141.286861525959
 31
0.0
  0
ARC
  5
2A20
330
1A
100
AcDbEntity
  8
1
100
AcDbCircle
 10
203.5220800590236
 20
152.3868615259547
 30
0.0
 40
0.6
100
AcDbArc
 50
0.0
 51
89.99999999999998
  0
ARC
  5
2A21
330
1A
100
AcDbEntity
  8
1
100
AcDbCircle
 10
216.7220800590243
 20
152.3868615259547
 30
0.0
 40
0.6
100
AcDbArc
 50
89.99999999999998
 51
180.0
  0
LINE
  5
2A22
330
1A
100
AcDbEntity
  8
1
 62
     9
100
AcDbLine
 10
205.122080059024
 20
151.2548107183878
 30
0.0
 11
204.122080059024
 21
152.9868615259551
 31
0.0
  0
LINE
  5
2A23
330
1A
100
AcDbEntity
  8
1
 62
     9
100
AcDbLine
 10
215.122080059024
 20
151.2548107183878
 30
0.0
 11
216.122080059024
 21
152.9868615259551
 31
0.0
  0
LINE
  5
2A24
330
1A
100
AcDbEntity
  8
1
100
AcDbLine
 10
204.1220800590231
 20
151.2548107183878
 30
0.0
 11
216.122080059024
 21
151.2548107183878
 31
0.0
  0
ARC
  5
2A25
330
1A
100
AcDbEntity
  8
1
100
AcDbCircle
 10
202.5108641268566
 20
151.8969477123759
 30
0.0
 40
4.62423859547249
100
AcDbArc
 50
54.21902037850429
 51
125.7809796214956
  0
ARC
  5
2A26
330
1A
100
AcDbEntity
  8
1
100
AcDbCircle
 10
210.1220800590231
 20
142.1768918084521
 30
0.0
 40
14.33753168489503
100
AcDbArc
 50
69.98404039713754
 51
110.0159596028624
  0
ARC
  5
2A27
330
1A
100
AcDbEntity
  8
1
100
AcDbCircle
 10
217.7332959911932
 20
151.896947712375
 30
0.0
 40
4.624238595473434
100
AcDbArc
 50
54.21902037854553
 51
125.7809796214956
  0
ARC
  5
2A28
330
1A
100
AcDbEntity
  8
1
100
AcDbCircle
 10
220.9370346352484
 20
156.5144234933481
 30
0.0
 40
1.0
100
AcDbArc
 50
180.0
 51
239.99999999999
  0
ARC
  5
2A29
330
1A
100
AcDbEntity
  8
1
100
AcDbCircle
 10
199.3071254828005
 20
156.5144234933472
 30
0.0
 40
1.0
100
AcDbArc
 50
300.0000000000099
 51
0.0
  0
LINE
  5
2A2A
330
1A
100
AcDbEntity
  8
1
100
AcDbLine
 10
222.622080059024
 20
154.3868615259547
 30
0.0
 11
220.4370346352484
 21
155.648398089564
 31
0.0
  0
LINE
  5
2A2B
330
1A
100
AcDbEntity
  8
1
100
AcDbLine
 10
222.622080059024
 20
154.3868615259547
 30
0.0
 11
222.622080059024
 21
152.9868615259551
 31
0.0
  0
ARC
  5
2A30
330
1A
100
AcDbEntity
  8
1
100
AcDbCircle
 10
217.4832959911923
 20
160.1419628536318
 30
0.0
 40
4.344898672323558
100
AcDbArc
 50
55.61575253199683
 51
124.3842474680323
  0
ARC
  5
2A31
330
1A
100
AcDbEntity
  8
1
100
AcDbCircle
 10
210.1220800590249
 20
148.2460509044899
 30
0.0
 40
16.24081062146536
100
AcDbArc
 50
72.41204622603634
 51
107.5879537739636
  0
ARC
  5
2A32
330
1A
100
AcDbEntity
  8
1
100
AcDbCircle
 10
202.7608641268566
 20
160.1419628536318
 30
0.0
 40
4.344898672323558
100
AcDbArc
 50
55.61575253199683
 51
124.3842474680323
  0
LINE
  5
2A33
330
1A
100
AcDbEntity
  8
1
100
AcDbLine
 10
218.622080059024
 20
164.4868615259551
 30
0.0
 11
219.9370346352475
 21
163.7276721474012
 31
0.0
  0
LINE
  5
2A34
330
1A
100
AcDbEntity
  8
1
100
AcDbLine
 10
201.622080059024
 20
164.4868615259551
 30
0.0
 11
200.3071254828005
 21
163.7276721474012
 31
0.0
  0
LINE
  5
2A35
330
1A
100
AcDbEntity
  8
1
100
AcDbLine
 10
201.622080059024
 20
164.4868615259551
 30
0.0
 11
218.622080059024
 21
164.4868615259551
 31
0.0
  0
LINE
  5
2A36
330
1A
100
AcDbEntity
  8
1
100
AcDbLine
 10
200.3071254828005
 20
163.7276721474021
 30
0.0
 11
200.3071254828005
 21
156.5144234933472
 31
0.0
  0
LINE
  5
2A37
330
1A
100
AcDbEntity
  8
1
100
AcDbLine
 10
205.2146027709118
 20
163.7276721474012
 30
0.0
 11
205.2146027709118
 21
155.6483980895631
 31
0.0
  0
LINE
  5
2A38
330
1A
100
AcDbEntity
  8
1
100
AcDbLine
 10
215.0295573471362
 20
163.7276721474012
 30
0.0
 11
215.0295573471371
 21
155.6483980895631
 31
0.0
  0
LINE
  5
2A39
330
1A
100
AcDbEntity
  8
1
100
AcDbLine
 10
219.9370346352484
 20
163.7276721474012
 30
0.0
 11
219.9370346352484
 21
156.5144234933481
 31
0.0
  0
LINE
  5
2A42
330
1A
100
AcDbEntity
  8
1
 48
0.3
100
AcDbLine
 10
222.122080059024
 20
131.286861525959
 30
0.0
 11
198.122080059024
 21
131.286861525959
 31
0.0
  0
LINE
  5
2A43
330
1A
100
AcDbEntity
  8
1
 48
0.3
100
AcDbLine
 10
222.122080059024
 20
128.986861525959
 30
0.0
 11
198.122080059024
 21
128.986861525959
 31
0.0
  0
LINE
  5
2A44
330
1A
100
AcDbEntity
  8
1
 48
0.3
100
AcDbLine
 10
198.122080059024
 20
128.986861525959
 30
0.0
 11
198.122080059024
 21
131.286861525959
 31
0.0
  0
LINE
  5
2A45
330
1A
100
AcDbEntity
  8
1
 48
0.3
100
AcDbLine
 10
222.122080059024
 20
131.286861525959
 30
0.0
 11
222.122080059024
 21
128.986861525959
 31
0.0
  0
LINE
  5
2A66
330
1A
100
AcDbEntity
  8
1
100
AcDbLine
 10
200.6220800590241
 20
141.2868615259591
 30
0.0
 11
200.6220800590241
 21
131.2868615259591
 31
0.0
  0
LINE
  5
2A67
330
1A
100
AcDbEntity
  8
1
100
AcDbLine
 10
219.622080059024
 20
141.2868615259591
 30
0.0
 11
219.622080059024
 21
131.2868615259591
 31
0.0
  0
LINE
  5
2A68
330
1A
100
AcDbEntity
  8
1
100
AcDbLine
 10
210.122080059024
 20
140.4383557499271
 30
0.0
 11
210.122080059024
 21
131.2868615259591
 31
0.0
  0
LINE
  5
2A6B
330
1A
100
AcDbEntity
  8
1
100
AcDbLine
 10
219.622080059024
 20
131.286861525959
 30
0.0
 11
200.6220800590241
 21
131.2868615259591
 31
0.0
  0
LINE
  5
2A6C
330
1A
100
AcDbEntity
  8
1
100
AcDbLine
 10
219.622080059024
 20
141.2868615259591
 30
0.0
 11
200.6220800590241
 21
141.286861525959
 31
0.0
  0
ARC
  5
2A6E
330
1A
100
AcDbEntity
  8
1
100
AcDbCircle
 10
205.372080059024
 20
127.5671776359803
 30
0.0
 40
13.7196838899787
100
AcDbArc
 50
69.74384199958162
 51
110.2561580004185
  0
ARC
  5
2A6F
330
1A
100
AcDbEntity
  8
1
100
AcDbCircle
 10
214.872080059024
 20
127.5671776359803
 30
0.0
 40
13.71968388997867
100
AcDbArc
 50
69.74384199958129
 51
110.2561580004182
  0
LINE
  5
2A70
330
1A
100
AcDbEntity
  8
1
100
AcDbLine
 10
216.1220800590232
 20
142.986861525959
 30
0.0
 11
259.122080059024
 21
142.986861525959
 31
0.0
  0
LINE
  5
2A71
330
1A
100
AcDbEntity
  8
1
100
AcDbLine
 10
216.1220800590231
 20
150.9868615259571
 30
0.0
 11
224.122061271501
 21
150.9868615259581
 31
0.0
  0
LINE
  5
2A72
330
1A
100
AcDbEntity
  8
1
100
AcDbLine
 10
219.622080059024
 20
133.986861525959
 30
0.0
 11
227.122080059024
 21
133.986861525959
 31
0.0
  0
LINE
  5
2A73
330
1A
100
AcDbEntity
  8
1
100
AcDbLine
 10
200.6220800590241
 20
132.9868615259598
 30
0.0
 11
197.122080059024
 21
132.9868615259598
 31
0.0
  0
LINE
  5
2A74
330
1A
100
AcDbEntity
  8
1
100
AcDbLine
 10
196.9206336193338
 20
124.9868615259598
 30
0.0
 11
195.122080059024
 21
124.9868615259598
 31
0.0
  0
LINE
  5
2A75
330
1A
100
AcDbEntity
  8
1
100
AcDbLine
 10
358.1871553721357
 20
142.9868615259595
 30
0.0
 11
456.1871553721348
 21
142.9868615259596
 31
0.0
  0
LINE
  5
2A76
330
1A
100
AcDbEntity
  8
1
100
AcDbLine
 10
456.9192061797029
 20
165.9868615259586
 30
0.0
 11
357.4551045645657
 21
165.9868615259586
 31
0.0
  0
ARC
  5
2A77
330
1A
100
AcDbEntity
  8
1
100
AcDbCircle
 10
455.1871553721339
 20
164.9868615259586
 30
0.0
 40
2.0
100
AcDbArc
 50
0.0
 51
30.00000000001226
  0
ARC
  5
2A78
330
1A
100
AcDbEntity
  8
1
100
AcDbCircle
 10
456.1871553721348
 20
143.9868615259596
 30
0.0
 40
1.0
100
AcDbArc
 50
270.0
 51
0.0
  0
LINE
  5
2A79
330
1A
100
AcDbEntity
  8
1
100
AcDbLine
 10
457.1871553721348
 20
143.9868615259596
 30
0.0
 11
457.1871553721339
 21
164.9868615259586
 31
0.0
  0
ARC
  5
2A7A
330
1A
100
AcDbEntity
  8
1
100
AcDbCircle
 10
359.1871553721348
 20
164.9868615259596
 30
0.0
 40
2.0
100
AcDbArc
 50
150.0000000000608
 51
180.0
  0
ARC
  5
2A7B
330
1A
100
AcDbEntity
  8
1
100
AcDbCircle
 10
358.1871553721357
 20
143.9868615259596
 30
0.0
 40
1.0
100
AcDbArc
 50
180.0
 51
270.0
  0
LINE
  5
2A7C
330
1A
100
AcDbEntity
  8
1
100
AcDbLine
 10
357.1871553721357
 20
143.9868615259596
 30
0.0
 11
357.1871553721348
 21
164.9868615259596
 31
0.0
  0
LINE
  5
2A7D
330
1A
100
AcDbEntity
  8
1
100
AcDbLine
 10
424.1871553721348
 20
133.9868615259595
 30
0.0
 11
424.1871553721348
 21
142.9868615259596
 31
0.0
  0
LINE
  5
2A7E
330
1A
100
AcDbEntity
  8
1
100
AcDbLine
 10
390.1871553721347
 20
133.9868615259595
 30
0.0
 11
424.1871553721348
 21
133.9868615259595
 31
0.0
  0
LINE
  5
2A7F
330
1A
100
AcDbEntity
  8
1
100
AcDbLine
 10
390.1871553721348
 20
133.9868615259595
 30
0.0
 11
390.1871553721348
 21
142.9868615259596
 31
0.0
  0
LINE
  5
2A80
330
1A
100
AcDbEntity
  8
1
100
AcDbLine
 10
420.1871553721363
 20
132.9868615259595
 30
0.0
 11
394.1871553721363
 21
132.9868615259595
 31
0.0
  0
LINE
  5
2A81
330
1A
100
AcDbEntity
  8
1
100
AcDbLine
 10
420.1871553721363
 20
126.9868615259595
 30
0.0
 11
394.1871553721363
 21
126.9868615259595
 31
0.0
  0
ARC
  5
2A88
330
1A
100
AcDbEntity
  8
1
100
AcDbCircle
 10
395.1871553721363
 20
133.9868615259595
 30
0.0
 40
1.0
100
AcDbArc
 50
270.0
 51
0.0
  0
ARC
  5
2A89
330
1A
100
AcDbEntity
  8
1
100
AcDbCircle
 10
419.1871553721362
 20
133.9868615259595
 30
0.0
 40
1.0
100
AcDbArc
 50
180.0
 51
270.0
  0
ARC
  5
2A8A
330
1A
100
AcDbEntity
  8
1
100
AcDbCircle
 10
394.1871553721363
 20
129.9868615259595
 30
0.0
 40
3.0
100
AcDbArc
 50
90.0
 51
270.0
  0
ARC
  5
2A8B
330
1A
100
AcDbEntity
  8
1
100
AcDbCircle
 10
420.1871553721363
 20
129.9868615259595
 30
0.0
 40
3.0
100
AcDbArc
 50
270.0
 51
90.0
  0
ARC
  5
2A8C
330
1A
100
AcDbEntity
  8
1
100
AcDbCircle
 10
419.1871553721362
 20
125.9868615259595
 30
0.0
 40
1.0
100
AcDbArc
 50
90.0
 51
270.0
  0
ARC
  5
2A8D
330
1A
100
AcDbEntity
  8
1
100
AcDbCircle
 10
395.1871553721363
 20
125.9868615259595
 30
0.0
 40
1.0
100
AcDbArc
 50
270.0
 51
90.0
  0
LINE
  5
2A8E
330
1A
100
AcDbEntity
  8
1
100
AcDbLine
 10
422.1871553721363
 20
124.9868615259595
 30
0.0
 11
392.1871553721363
 21
124.9868615259595
 31
0.0
  0
LINE
  5
2A8F
330
1A
100
AcDbEntity
  8
1
100
AcDbLine
 10
422.1871553721363
 20
122.9868615259595
 30
0.0
 11
392.1871553721364
 21
122.9868615259595
 31
0.0
  0
LINE
  5
2A90
330
1A
100
AcDbEntity
  8
1
100
AcDbLine
 10
422.1871553721363
 20
122.9868615259595
 30
0.0
 11
422.1871553721363
 21
124.9868615259595
 31
0.0
  0
LINE
  5
2A91
330
1A
100
AcDbEntity
  8
1
100
AcDbLine
 10
392.1871553721364
 20
122.9868615259595
 30
0.0
 11
392.1871553721363
 21
124.9868615259595
 31
0.0
  0
LINE
  5
2A92
330
1A
100
AcDbEntity
  8
1
  6
CENTER
 48
10.0
100
AcDbLine
 10
423.187155372136
 20
122.9868615259595
 30
0.0
 11
423.1871553721353
 21
90.98686152595917
 31
0.0
  0
LINE
  5
2A93
330
1A
100
AcDbEntity
  8
1
  6
CENTER
 48
10.0
100
AcDbLine
 10
391.1871553721359
 20
122.9868615259595
 30
0.0
 11
391.1871553721352
 21
90.98686152595917
 31
0.0
  0
LINE
  5
2A94
330
1A
100
AcDbEntity
  8
1
  6
CENTER
 48
10.0
100
AcDbLine
 10
391.1871553721359
 20
122.9868615259595
 30
0.0
 11
423.187155372136
 21
122.9868615259595
 31
0.0
  0
LINE
  5
2A95
330
1A
100
AcDbEntity
  8
1
  6
CENTER
 48
10.0
100
AcDbLine
 10
391.1871553721354
 20
92.98686152595889
 30
0.0
 11
423.1871553721354
 21
92.98686152595942
 31
0.0
  0
LINE
  5
2A96
330
1A
100
AcDbEntity
  8
1
 48
0.3
100
AcDbLine
 10
384.1871553721381
 20
131.2868615259599
 30
0.0
 11
360.1871553721381
 21
131.2868615259599
 31
0.0
  0
LINE
  5
2A97
330
1A
100
AcDbEntity
  8
1
 48
0.3
100
AcDbLine
 10
360.1871553721381
 20
128.9868615259599
 30
0.0
 11
360.1871553721381
 21
131.2868615259599
 31
0.0
  0
LINE
  5
2A98
330
1A
100
AcDbEntity
  8
1
 48
0.3
100
AcDbLine
 10
384.1871553721381
 20
131.2868615259599
 30
0.0
 11
384.1871553721381
 21
128.9868615259599
 31
0.0
  0
LINE
  5
2A99
330
1A
100
AcDbEntity
  8
1
100
AcDbLine
 10
361.2175002575352
 20
131.2868615259599
 30
0.0
 11
383.1568104867411
 21
131.2868615259599
 31
0.0
  0
ARC
  5
2A9A
330
1A
100
AcDbEntity
  8
1
100
AcDbCircle
 10
380.4143967080904
 20
136.4307983039559
 30
0.0
 40
4.85606322200404
100
AcDbArc
 50
55.6157525319589
 51
124.3842474680419
  0
LINE
  5
2A9B
330
1A
100
AcDbEntity
  8
1
100
AcDbLine
 10
381.6871553721381
 20
141.28686152596
 30
0.0
 11
383.156810486741
 21
140.4383557499281
 31
0.0
  0
LINE
  5
2A9C
330
1A
100
AcDbEntity
  8
1
100
AcDbLine
 10
377.6719829294395
 20
140.4383557499281
 30
0.0
 11
377.6719829294395
 21
131.2868615259599
 31
0.0
  0
LINE
  5
2A9D
330
1A
100
AcDbEntity
  8
1
100
AcDbLine
 10
366.7023278148367
 20
140.4383557499281
 30
0.0
 11
366.7023278148367
 21
131.2868615259599
 31
0.0
  0
LINE
  5
2A9E
330
1A
100
AcDbEntity
  8
1
100
AcDbLine
 10
361.2175002575352
 20
140.4383557499281
 30
0.0
 11
361.2175002575352
 21
131.2868615259599
 31
0.0
  0
ARC
  5
2A9F
330
1A
100
AcDbEntity
  8
1
100
AcDbCircle
 10
372.1871553721383
 20
123.1353673019933
 30
0.0
 40
18.15149422396665
100
AcDbArc
 50
72.41204622600554
 51
107.5879537739959
  0
ARC
  5
2AA0
330
1A
100
AcDbEntity
  8
1
100
AcDbCircle
 10
363.9599140361858
 20
136.4307983039559
 30
0.0
 40
4.856063222004046
100
AcDbArc
 50
55.61575253195802
 51
124.3842474680403
  0
LINE
  5
2AA1
330
1A
100
AcDbEntity
  8
1
100
AcDbLine
 10
362.6871553721382
 20
141.28686152596
 30
0.0
 11
361.2175002575352
 21
140.4383557499281
 31
0.0
  0
LINE
  5
2AA2
330
1A
100
AcDbEntity
  8
1
100
AcDbLine
 10
362.687155372138
 20
141.28686152596
 30
0.0
 11
381.6871553721382
 21
141.28686152596
 31
0.0
  0
LINE
  5
2AA3
330
1A
100
AcDbEntity
  8
1
100
AcDbLine
 10
383.156810486741
 20
140.4383557499281
 30
0.0
 11
383.156810486741
 21
131.2868615259599
 31
0.0
  0
LINE
  5
2AA4
330
1A
100
AcDbEntity
  8
1
 48
0.3
100
AcDbLine
 10
454.1871553721342
 20
131.2868615259563
 30
0.0
 11
430.1871553721342
 21
131.2868615259563
 31
0.0
  0
LINE
  5
2AA5
330
1A
100
AcDbEntity
  8
1
 48
0.3
100
AcDbLine
 10
454.1871553721342
 20
131.2868615259563
 30
0.0
 11
454.1871553721342
 21
128.9868615259563
 31
0.0
  0
LINE
  5
2AA6
330
1A
100
AcDbEntity
  8
1
 48
0.3
100
AcDbLine
 10
430.1871553721342
 20
128.9868615259563
 30
0.0
 11
430.1871553721342
 21
131.2868615259563
 31
0.0
  0
LINE
  5
2AA7
330
1A
100
AcDbEntity
  8
1
100
AcDbLine
 10
431.2175002575315
 20
131.2868615259563
 30
0.0
 11
453.1568104867375
 21
131.2868615259563
 31
0.0
  0
ARC
  5
2AA8
330
1A
100
AcDbEntity
  8
1
100
AcDbCircle
 10
450.4143967080867
 20
136.4307983039523
 30
0.0
 40
4.85606322200404
100
AcDbArc
 50
55.6157525319589
 51
124.3842474680419
  0
LINE
  5
2AA9
330
1A
100
AcDbEntity
  8
1
100
AcDbLine
 10
451.6871553721345
 20
141.2868615259563
 30
0.0
 11
453.1568104867374
 21
140.4383557499245
 31
0.0
  0
LINE
  5
2AAA
330
1A
100
AcDbEntity
  8
1
100
AcDbLine
 10
447.6719829294359
 20
140.4383557499245
 30
0.0
 11
447.6719829294359
 21
131.2868615259563
 31
0.0
  0
LINE
  5
2AAB
330
1A
100
AcDbEntity
  8
1
100
AcDbLine
 10
436.702327814833
 20
140.4383557499245
 30
0.0
 11
436.702327814833
 21
131.2868615259563
 31
0.0
  0
LINE
  5
2AAC
330
1A
100
AcDbEntity
  8
1
100
AcDbLine
 10
431.2175002575315
 20
140.4383557499245
 30
0.0
 11
431.2175002575315
 21
131.2868615259563
 31
0.0
  0
ARC
  5
2AAD
330
1A
100
AcDbEntity
  8
1
100
AcDbCircle
 10
442.1871553721347
 20
123.1353673019897
 30
0.0
 40
18.15149422396665
100
AcDbArc
 50
72.41204622600554
 51
107.5879537739959
  0
ARC
  5
2AAE
330
1A
100
AcDbEntity
  8
1
100
AcDbCircle
 10
433.9599140361822
 20
136.4307983039522
 30
0.0
 40
4.856063222004046
100
AcDbArc
 50
55.61575253195802
 51
124.3842474680403
  0
LINE
  5
2AAF
330
1A
100
AcDbEntity
  8
1
100
AcDbLine
 10
432.6871553721345
 20
141.2868615259563
 30
0.0
 11
431.2175002575315
 21
140.4383557499245
 31
0.0
  0
LINE
  5
2AB0
330
1A
100
AcDbEntity
  8
1
100
AcDbLine
 10
432.6871553721344
 20
141.2868615259563
 30
0.0
 11
451.6871553721346
 21
141.2868615259563
 31
0.0
  0
LINE
  5
2AB1
330
1A
100
AcDbEntity
  8
1
100
AcDbLine
 10
453.1568104867374
 20
140.4383557499245
 30
0.0
 11
453.1568104867374
 21
131.2868615259563
 31
0.0
  0
LINE
  5
2AB2
330
1A
100
AcDbEntity
  8
1
 62
     9
100
AcDbLine
 10
367.1871553721383
 20
141.2868615259599
 30
0.0
 11
367.1871553721383
 21
142.9868615259595
 31
0.0
  0
LINE
  5
2AB3
330
1A
100
AcDbEntity
  8
1
100
AcDbLine
 10
366.1871553721382
 20
142.9868615259595
 30
0.0
 11
366.1871553721382
 21
141.2868615259599
 31
0.0
  0
LINE
  5
2AB4
330
1A
100
AcDbEntity
  8
1
100
AcDbLine
 10
378.1871553721374
 20
142.9868615259595
 30
0.0
 11
378.1871553721375
 21
141.2868615259599
 31
0.0
  0
LINE
  5
2AB5
330
1A
100
AcDbEntity
  8
1
 62
     9
100
AcDbLine
 10
377.1871553721382
 20
141.28686152596
 30
0.0
 11
377.1871553721382
 21
142.9868615259595
 31
0.0
  0
LINE
  5
2AB6
330
1A
100
AcDbEntity
  8
1
 62
     9
100
AcDbLine
 10
437.1871553721344
 20
141.2868615259563
 30
0.0
 11
437.1871553721344
 21
142.9868615259558
 31
0.0
  0
LINE
  5
2AB7
330
1A
100
AcDbEntity
  8
1
100
AcDbLine
 10
436.1871553721344
 20
142.9868615259558
 30
0.0
 11
436.1871553721344
 21
141.2868615259562
 31
0.0
  0
LINE
  5
2AB8
330
1A
100
AcDbEntity
  8
1
 62
     9
100
AcDbLine
 10
447.1871553721343
 20
141.2868615259563
 30
0.0
 11
447.1871553721343
 21
142.9868615259558
 31
0.0
  0
LINE
  5
2AB9
330
1A
100
AcDbEntity
  8
1
100
AcDbLine
 10
448.1871553721336
 20
142.9868615259558
 30
0.0
 11
448.1871553721337
 21
141.2868615259563
 31
0.0
  0
CIRCLE
  5
2ABA
330
1A
100
AcDbEntity
  8
1
100
AcDbCircle
 10
210.1220612714423
 20
278.0703826863883
 30
0.0
 40
6.0
  0
CIRCLE
  5
2ABF
330
1A
100
AcDbEntity
  8
1
100
AcDbCircle
 10
210.1220612714423
 20
278.0703826863883
 30
0.0
 40
12.5
  0
CIRCLE
  5
2AC0
330
1A
100
AcDbEntity
  8
1
100
AcDbCircle
 10
210.1220612714423
 20
278.0703826863883
 30
0.0
 40
8.5
  0
LWPOLYLINE
  5
2AC1
330
1A
100
AcDbEntity
  8
1
100
AcDbPolyline
 90
        6
 70
     1
 43
0.0
 10
215.0295385595545
 20
269.5703826863883
 10
219.9370158476658
 20
278.0703826863883
 10
215.0295385595545
 20
286.5703826863883
 10
205.2145839833301
 20
286.5703826863883
 10
200.3071066952188
 20
278.0703826863883
 10
205.2145839833301
 20
269.5703826863883
  0
CIRCLE
  5
2AC3
330
1A
100
AcDbEntity
  8
1
100
AcDbCircle
 10
210.1220612714423
 20
348.0703757898373
 30
0.0
 40
6.0
  0
CIRCLE
  5
2AC6
330
1A
100
AcDbEntity
  8
1
100
AcDbCircle
 10
210.1220612714423
 20
348.0703757898373
 30
0.0
 40
12.5
  0
CIRCLE
  5
2AC7
330
1A
100
AcDbEntity
  8
1
100
AcDbCircle
 10
210.1220612714423
 20
348.0703757898373
 30
0.0
 40
8.5
  0
LWPOLYLINE
  5
2AC8
330
1A
100
AcDbEntity
  8
1
100
AcDbPolyline
 90
        6
 70
     1
 43
0.0
 10
215.0295385595545
 20
339.5703757898373
 10
219.9370158476658
 20
348.0703757898373
 10
215.0295385595545
 20
356.5703757898373
 10
205.2145839833301
 20
356.5703757898373
 10
200.3071066952188
 20
348.0703757898373
 10
205.2145839833301
 20
339.5703757898373
  0
CIRCLE
  5
2AC9
330
1A
100
AcDbEntity
  8
1
100
AcDbCircle
 10
109.1220800590235
 20
313.0703792381128
 30
0.0
 40
12.0
  0
CIRCLE
  5
2ACB
330
1A
100
AcDbEntity
  8
1
100
AcDbCircle
 10
134.1220800590235
 20
313.0703792381128
 30
0.0
 40
12.0
  0
INSERT
  5
2AD7
330
1A
100
AcDbEntity
  8
1
100
AcDbBlockReference
  2
CBF12
 10
109.1220800590235
 20
313.0703792381128
 30
0.0
  0
INSERT
  5
2AD8
330
1A
100
AcDbEntity
  8
1
100
AcDbBlockReference
  2
CBF12
 10
134.1220800590235
 20
313.0703792381128
 30
0.0
  0
LINE
  5
2AD9
330
1A
100
AcDbEntity
  8
1
  6
CENTER
 48
10.0
100
AcDbLine
 10
94.12208005902442
 20
297.0703792381129
 30
0.0
 11
94.12208005902442
 21
329.0703792381128
 31
0.0
  0
LINE
  5
2ADA
330
1A
100
AcDbEntity
  8
1
 48
0.3
100
AcDbLine
 10
122.1220800590244
 20
125.286861525959
 30
0.0
 11
98.12208005902448
 21
125.286861525959
 31
0.0
  0
LINE
  5
2ADB
330
1A
100
AcDbEntity
  8
1
 48
0.3
100
AcDbLine
 10
122.1220800590244
 20
125.286861525959
 30
0.0
 11
122.1220800590244
 21
122.986861525959
 31
0.0
  0
LINE
  5
2ADC
330
1A
100
AcDbEntity
  8
1
 48
0.3
100
AcDbLine
 10
98.12208005902448
 20
122.986861525959
 30
0.0
 11
98.12208005902448
 21
125.286861525959
 31
0.0
  0
LINE
  5
2ADD
330
1A
100
AcDbEntity
  8
1
 48
0.3
100
AcDbLine
 10
147.1220800590244
 20
125.286861525959
 30
0.0
 11
123.1220800590244
 21
125.286861525959
 31
0.0
  0
LINE
  5
2ADE
330
1A
100
AcDbEntity
  8
1
 48
0.3
100
AcDbLine
 10
147.1220800590244
 20
125.286861525959
 30
0.0
 11
147.1220800590244
 21
122.986861525959
 31
0.0
  0
LINE
  5
2ADF
330
1A
100
AcDbEntity
  8
1
 48
0.3
100
AcDbLine
 10
123.1220800590244
 20
122.986861525959
 30
0.0
 11
123.1220800590244
 21
125.286861525959
 31
0.0
  0
INSERT
  5
2AEB
330
1A
100
AcDbEntity
  8
1
100
AcDbBlockReference
  2
CBS1200
 10
110.1220800590244
 20
125.286861525959
 30
0.0
  0
INSERT
  5
2AEC
330
1A
100
AcDbEntity
  8
1
100
AcDbBlockReference
  2
CBS1200
 10
135.1220800590244
 20
125.286861525959
 30
0.0
  0
LINE
  5
2AEF
330
1A
100
AcDbEntity
  8
1
100
AcDbLine
 10
225.122080059024
 20
122.9868615259598
 30
0.0
 11
223.4242497185584
 21
122.9868615259598
 31
0.0
  0
LINE
  5
2AF0
330
1A
100
AcDbEntity
  8
CENTER
 62
     9
 48
10.0
100
AcDbLine
 10
109.122080059024
 20
66.41283317094781
 30
0.0
 11
109.122080059024
 21
141.7800272823972
 31
0.0
  0
LINE
  5
2AF1
330
1A
100
AcDbEntity
  8
CENTER
 62
     9
 48
10.0
100
AcDbLine
 10
245.122080059024
 20
65.87874441422854
 30
0.0
 11
245.122080059024
 21
91.51496791626914
 31
0.0
  0
LINE
  5
2AF2
330
1A
100
AcDbEntity
  8
CENTER
 62
     9
 48
10.0
100
AcDbLine
 10
245.122080059024
 20
169.5882104225033
 30
0.0
 11
245.122080059024
 21
139.6780679275627
 31
0.0
  0
LINE
  5
2AF3
330
1A
100
AcDbEntity
  8
CENTER
 62
     9
 48
10.0
100
AcDbLine
 10
175.1220756851976
 20
169.2234529239719
 30
0.0
 11
175.1220772756801
 21
140.0428254260944
 31
0.0
  0
LINE
  5
2AF4
330
1A
100
AcDbEntity
  8
1
100
AcDbLine
 10
94.12208005902442
 20
329.0703792381128
 30
0.0
 11
92.12208005902203
 21
329.0703792381129
 31
0.0
  0
LINE
  5
2AF5
330
1A
100
AcDbEntity
  8
1
100
AcDbLine
 10
94.12208005902442
 20
297.0703792381129
 30
0.0
 11
92.12208005902141
 21
297.0703792381129
 31
0.0
  0
LINE
  5
2BE3
330
1A
100
AcDbEntity
  8
CENTER
 62
     9
 48
10.0
100
AcDbLine
 10
134.1220800590266
 20
65.25582976494752
 30
0.0
 11
134.1220800590266
 21
141.7800272823972
 31
0.0
  0
VIEWPORT
  5
22
330
17
100
AcDbEntity
 67
     1
  8
0
100
AcDbViewport
 10
144.2052534760054
 20
150.8765469447342
 30
0.0
 40
553.6596390237694
 41
345.5878753322067
 68
     1
 69
     1
1001
ACAD
1000
MVIEW
1002
{
1070
    16
1010
0.0
1020
0.0
1030
0.0
1010
0.0
1020
0.0
1030
1.0
1040
0.0
1040
345.5878753322067
1040
144.2052534760054
1040
150.8765469447342
1040
50.0
1040
0.0
1040
0.0
1070
     0
1070
   100
1070
     1
1070
     0
1070
     0
1070
     0
1070
     0
1070
     0
1040
0.0
1040
0.0
1040
0.0
1040
1.0
1040
1.0
1040
10.0
1040
10.0
1070
     0
1002
{
1002
}
1002
}
  0
VIEWPORT
  5
2CF
330
17
100
AcDbEntity
 67
     1
  8
DEFPOINTS
100
AcDbViewport
 10
214.5678285451087
 20
149.6769792131727
 30
0.0
 40
389.1356570902175
 41
264.6460415736543
 68
     2
 69
     2
1001
ACAD
1000
MVIEW
1002
{
1070
    16
1010
0.0
1020
0.0
1030
0.0
1010
0.0
1020
0.0
1030
1.0
1040
0.0
1040
529.2920846385179
1040
259.6170323049793
1040
229.3264959399355
1040
50.0
1040
0.0
1040
0.0
1070
     0
1070
   100
1070
     1
1070
     0
1070
     0
1070
     0
1070
     0
1070
     1
1040
0.0
1040
0.0
1040
0.0
1040
168.0
1040
168.0
1040
0.0
1040
0.0
1070
     0
1002
{
1002
}
1002
}
  0
ENDSEC
  0
SECTION
  2
OBJECTS
  0
DICTIONARY
  5
C
330
0
100
AcDbDictionary
  3
ACAD_GROUP
350
D
  3
ACAD_LAYOUT
350
F3D
  3
ACAD_MLINESTYLE
350
E
  3
ACAD_PLOTSETTINGS
350
F3E
  3
ACAD_PLOTSTYLENAME
350
F3B
  3
ACADDIM
350
17D7
  3
ACDBVARIABLEDICTIONARY
350
1B44
  3
CONTENTDICTIONARY
350
234
  3
DWGPROPS
350
19EE
  3
ACDBHEADERROUNDTRIPXREC
350
3072
  0
DICTIONARY
  5
F6B
330
1A
100
AcDbDictionary
280
     1
  3
ACAD_LAYOUTSELFREF
360
3093
  0
DICTIONARY
  5
F69
330
17
100
AcDbDictionary
280
     1
  3
ACAD_LAYOUTSELFREF
360
3092
  0
DICTIONARY
  5
D
102
{ACAD_REACTORS
330
C
102
}
330
C
100
AcDbDictionary
  3
*A1
350
36C
  3
*A2
350
377
  3
*A3
350
419
  3
*A4
350
41A
  3
*A5
350
621
  3
*A6
350
630
  3
*A7
350
682
  3
*A8
350
84A
  0
DICTIONARY
  5
F3D
102
{ACAD_REACTORS
330
C
102
}
330
C
100
AcDbDictionary
  0
DICTIONARY
  5
E
102
{ACAD_REACTORS
330
C
102
}
330
C
100
AcDbDictionary
  3
STANDARD
350
13
  0
DICTIONARY
  5
F3E
102
{ACAD_REACTORS
330
C
102
}
330
C
100
AcDbDictionary
  0
ACDBDICTIONARYWDFLT
  5
F3B
102
{ACAD_REACTORS
330
C
102
}
330
C
100
AcDbDictionary
281
     1
  3
Normal
350
F3C
100
AcDbDictionaryWithDefault
340
F3C
  0
XRECORD
  5
17D7
102
{ACAD_REACTORS
330
C
102
}
330
C
100
AcDbXrecord
 90
   990106
  3

 60
     0
 61
     0
 62
     1
 63
     3
 64
     1
 65
     0
 66
     0
 67
     3
 68
     1
 69
     0
 70
     0
 71
     0
 72
     0
 40
0.0
170
     2
340
2D0F
  0
DICTIONARY
  5
1B44
102
{ACAD_REACTORS
330
C
102
}
330
C
100
AcDbDictionary
  3
SORTENTS
350
1B45
  0
DICTIONARY
  5
234
102
{ACAD_REACTORS
330
C
102
}
330
C
100
AcDbDictionary
  0
XRECORD
  5
19EE
102
{ACAD_REACTORS
330
C
102
}
330
C
100
AcDbXrecord
  1
DWGPROPS COOKIE
  2

  3

  4

  6

  7

  8

  9

300
=
301
=
302
=
303
=
304
=
305
=
306
=
307
=
308
=
309
=
 40
1.323962395833333
 41
2451428.386184838
 42
2451856.879646296
  1

 90
        0
  0
DICTIONARY
  5
3072
102
{ACAD_REACTORS
330
C
102
}
330
C
100
AcDbDictionary
  3
TSTACKALIGN
350
3073
  3
TSTACKSIZE
350
3074
  3
HYPERLINKBASE
350
3075
  3
STYLESHEET
350
3076
  3
LAYOUTDICT
350
3077
  3
PLOTSETDICT
350
3078
  3
PLOTSTYLNAMDICT
350
3079
  3
LWETCUNION
350
307A
  3
INSUNITS
350
307B
  3
CEPSNTYPE
350
307C
  3
FINGERPRINTGUID
350
307D
  3
VERSIONGUID
350
307E
  3
PSVPSCALE
350
307F
  3
PUCSORTHOREF
350
3080
  3
PUCSORTHOVIEW
350
3081
  3
PUCSBASE
350
3082
  3
PUCSORGTOP
350
3083
  3
PUCSORGBOTTOM
350
3084
  3
PUCSORGLEFT
350
3085
  3
PUCSORGRIGHT
350
3086
  3
PUCSORGFRONT
350
3087
  3
PUCSORGBACK
350
3088
  3
UCSORTHOREF
350
3089
  3
UCSORTHOVIEW
350
308A
  3
UCSBASE
350
308B
  3
UCSORGTOP
350
308C
  3
UCSORGBOTTOM
350
308D
  3
UCSORGLEFT
350
308E
  3
UCSORGRIGHT
350
308F
  3
UCSORGFRONT
350
3090
  3
UCSORGBACK
350
3091
  0
XRECORD
  5
3093
102
{ACAD_REACTORS
330
F6B
102
}
330
F6B
100
AcDbXrecord
340
1A
  0
XRECORD
  5
3092
102
{ACAD_REACTORS
330
F69
102
}
330
F69
100
AcDbXrecord
340
17
  0
GROUP
  5
36C
102
{ACAD_REACTORS
330
D
102
}
330
D
100
AcDbGroup
300

 70
     1
 71
     1
  0
GROUP
  5
377
102
{ACAD_REACTORS
330
D
102
}
330
D
100
AcDbGroup
300

 70
     1
 71
     1
  0
GROUP
  5
419
102
{ACAD_REACTORS
330
D
102
}
330
D
100
AcDbGroup
300

 70
     1
 71
     1
  0
GROUP
  5
41A
102
{ACAD_REACTORS
330
D
102
}
330
D
100
AcDbGroup
300

 70
     1
 71
     1
  0
GROUP
  5
621
102
{ACAD_REACTORS
330
D
102
}
330
D
100
AcDbGroup
300

 70
     1
 71
     1
  0
GROUP
  5
630
102
{ACAD_REACTORS
330
D
102
}
330
D
100
AcDbGroup
300

 70
     1
 71
     1
  0
GROUP
  5
682
102
{ACAD_REACTORS
330
D
102
}
330
D
100
AcDbGroup
300

 70
     1
 71
     1
  0
GROUP
  5
84A
102
{ACAD_REACTORS
330
D
102
}
330
D
100
AcDbGroup
300

 70
     1
 71
     1
  0
MLINESTYLE
  5
13
102
{ACAD_REACTORS
330
E
102
}
330
E
100
AcDbMlineStyle
  2
STANDARD
 70
     0
  3

 62
     0
 51
90.0
 52
90.0
 71
     2
 49
0.5
 62
   256
  6
BYLAYER
 49
-0.5
 62
   256
  6
BYLAYER
  0
ACDBPLACEHOLDER
  5
F3C
102
{ACAD_REACTORS
330
F3B
102
}
330
F3B
100
AcDbPlaceHolder
280
     0
  0
DICTIONARYVAR
  5
1B45
102
{ACAD_REACTORS
330
1B44
102
}
330
1B44
100
DictionaryVariables
280
     0
  1
96
  0
XRECORD
  5
3073
102
{ACAD_REACTORS
330
3072
102
}
330
3072
100
AcDbXrecord
 90
        1
  0
XRECORD
  5
3074
102
{ACAD_REACTORS
330
3072
102
}
330
3072
100
AcDbXrecord
 90
       70
  0
XRECORD
  5
3075
102
{ACAD_REACTORS
330
3072
102
}
330
3072
100
AcDbXrecord
  1

  0
XRECORD
  5
3076
102
{ACAD_REACTORS
330
3072
102
}
330
3072
100
AcDbXrecord
  1

  0
XRECORD
  5
3077
102
{ACAD_REACTORS
330
3072
102
}
330
3072
100
AcDbXrecord
340
F3D
  0
XRECORD
  5
3078
102
{ACAD_REACTORS
330
3072
102
}
330
3072
100
AcDbXrecord
340
F3E
  0
XRECORD
  5
3079
102
{ACAD_REACTORS
330
3072
102
}
330
3072
100
AcDbXrecord
340
F3B
  0
XRECORD
  5
307A
102
{ACAD_REACTORS
330
3072
102
}
330
3072
100
AcDbXrecord
 90
    10781
  0
XRECORD
  5
307B
102
{ACAD_REACTORS
330
3072
102
}
330
3072
100
AcDbXrecord
 90
        0
  0
XRECORD
  5
307C
102
{ACAD_REACTORS
330
3072
102
}
330
3072
100
AcDbXrecord
 90
        0
  0
XRECORD
  5
307D
102
{ACAD_REACTORS
330
3072
102
}
330
3072
100
AcDbXrecord
  1
{792B2680-90AD-11D4-9803-00E029225608}
  0
XRECORD
  5
307E
102
{ACAD_REACTORS
330
3072
102
}
330
3072
100
AcDbXrecord
  1
{76F4F94C-B221-469E-9361-1014763D6061}
  0
XRECORD
  5
307F
102
{ACAD_REACTORS
330
3072
102
}
330
3072
100
AcDbXrecord
 40
0.0
  0
XRECORD
  5
3080
102
{ACAD_REACTORS
330
3072
102
}
330
3072
100
AcDbXrecord
340
0
  0
XRECORD
  5
3081
102
{ACAD_REACTORS
330
3072
102
}
330
3072
100
AcDbXrecord
 70
     0
  0
XRECORD
  5
3082
102
{ACAD_REACTORS
330
3072
102
}
330
3072
100
AcDbXrecord
340
0
  0
XRECORD
  5
3083
102
{ACAD_REACTORS
330
3072
102
}
330
3072
100
AcDbXrecord
 10
0.0
 20
0.0
 30
0.0
  0
XRECORD
  5
3084
102
{ACAD_REACTORS
330
3072
102
}
330
3072
100
AcDbXrecord
 10
0.0
 20
0.0
 30
0.0
  0
XRECORD
  5
3085
102
{ACAD_REACTORS
330
3072
102
}
330
3072
100
AcDbXrecord
 10
0.0
 20
0.0
 30
0.0
  0
XRECORD
  5
3086
102
{ACAD_REACTORS
330
3072
102
}
330
3072
100
AcDbXrecord
 10
0.0
 20
0.0
 30
0.0
  0
XRECORD
  5
3087
102
{ACAD_REACTORS
330
3072
102
}
330
3072
100
AcDbXrecord
 10
0.0
 20
0.0
 30
0.0
  0
XRECORD
  5
3088
102
{ACAD_REACTORS
330
3072
102
}
330
3072
100
AcDbXrecord
 10
0.0
 20
0.0
 30
0.0
  0
XRECORD
  5
3089
102
{ACAD_REACTORS
330
3072
102
}
330
3072
100
AcDbXrecord
340
0
  0
XRECORD
  5
308A
102
{ACAD_REACTORS
330
3072
102
}
330
3072
100
AcDbXrecord
 70
     0
  0
XRECORD
  5
308B
102
{ACAD_REACTORS
330
3072
102
}
330
3072
100
AcDbXrecord
340
0
  0
XRECORD
  5
308C
102
{ACAD_REACTORS
330
3072
102
}
330
3072
100
AcDbXrecord
 10
0.0
 20
0.0
 30
0.0
  0
XRECORD
  5
308D
102
{ACAD_REACTORS
330
3072
102
}
330
3072
100
AcDbXrecord
 10
0.0
 20
0.0
 30
0.0
  0
XRECORD
  5
308E
102
{ACAD_REACTORS
330
3072
102
}
330
3072
100
AcDbXrecord
 10
0.0
 20
0.0
 30
0.0
  0
XRECORD
  5
308F
102
{ACAD_REACTORS
330
3072
102
}
330
3072
100
AcDbXrecord
 10
0.0
 20
0.0
 30
0.0
  0
XRECORD
  5
3090
102
{ACAD_REACTORS
330
3072
102
}
330
3072
100
AcDbXrecord
 10
0.0
 20
0.0
 30
0.0
  0
XRECORD
  5
3091
102
{ACAD_REACTORS
330
3072
102
}
330
3072
100
AcDbXrecord
 10
0.0
 20
0.0
 30
0.0
  0
ENDSEC
  0
EOF
