  0
SECTION
  2
HEADER
  9
$ACADVER
  1
AC1015
  9
$ACADMAINTVER
 70
     6
  9
$DWGCODEPAGE
  3
ANSI_932
  9
$INSBASE
 10
0.0
 20
0.0
 30
0.0
  9
$EXTMIN
 10
-10.59761429665059
 20
-20.76662361468697
 30
0.0
  9
$EXTMAX
 10
336.4532269011065
 20
622.57746151024
 30
0.0
  9
$LIMMIN
 10
0.0
 20
0.0
  9
$LIMMAX
 10
10000.0
 20
10000.0
  9
$ORTHOMODE
 70
     1
  9
$REGENMODE
 70
     1
  9
$FILLMODE
 70
     1
  9
$QTEXTMODE
 70
     0
  9
$MIRRTEXT
 70
     1
  9
$LTSCALE
 40
33.67003367003366
  9
$ATTMODE
 70
     1
  9
$TEXTSIZE
 40
3.5
  9
$TRACEWID
 40
1.0
  9
$TEXTSTYLE
  7
AD-STANDARD
  9
$CLAYER
  8
1
  9
$CELTYPE
  6
BYLAYER
  9
$CECOLOR
 62
   256
  9
$CELTSCALE
 40
0.3
  9
$DISPSILH
 70
     0
  9
$DIMSCALE
 40
0.0
  9
$DIMASZ
 40
2.5
  9
$DIMEXO
 40
1.0
  9
$DIMDLI
 40
0.38
  9
$DIMRND
 40
0.0
  9
$DIMDLE
 40
0.0
  9
$DIMEXE
 40
2.0
  9
$DIMTP
 40
0.5
  9
$DIMTM
 40
0.5
  9
$DIMTXT
 40
10.0
  9
$DIMCEN
 40
-2.0
  9
$DIMTSZ
 40
0.0
  9
$DIMTOL
 70
     0
  9
$DIMLIM
 70
     0
  9
$DIMTIH
 70
     0
  9
$DIMTOH
 70
     0
  9
$DIMSE1
 70
     0
  9
$DIMSE2
 70
     0
  9
$DIMTAD
 70
     1
  9
$DIMZIN
 70
     8
  9
$DIMBLK
  1

  9
$DIMASO
 70
     1
  9
$DIMSHO
 70
     1
  9
$DIMPOST
  1

  9
$DIMAPOST
  1

  9
$DIMALT
 70
     0
  9
$DIMALTD
 70
     2
  9
$DIMALTF
 40
25.4
  9
$DIMLFAC
 40
1.0
  9
$DIMTOFL
 70
     1
  9
$DIMTVP
 40
0.0
  9
$DIMTIX
 70
     0
  9
$DIMSOXD
 70
     0
  9
$DIMSAH
 70
     1
  9
$DIMBLK1
  1
DOT
  9
$DIMBLK2
  1
DOT
  9
$DIMSTYLE
  2
AD-STANDARD
  9
$DIMCLRD
 70
     9
  9
$DIMCLRE
 70
     9
  9
$DIMCLRT
 70
     2
  9
$DIMTFAC
 40
0.6
  9
$DIMGAP
 40
0.5
  9
$DIMJUST
 70
     0
  9
$DIMSD1
 70
     0
  9
$DIMSD2
 70
     0
  9
$DIMTOLJ
 70
     2
  9
$DIMTZIN
 70
     8
  9
$DIMALTZ
 70
     0
  9
$DIMALTTZ
 70
     0
  9
$DIMUPT
 70
     0
  9
$DIMDEC
 70
     4
  9
$DIMTDEC
 70
     4
  9
$DIMALTU
 70
     2
  9
$DIMALTTD
 70
     2
  9
$DIMTXSTY
  7
BIGFONT
  9
$DIMAUNIT
 70
     0
  9
$DIMADEC
 70
     0
  9
$DIMALTRND
 40
0.0
  9
$DIMAZIN
 70
     0
  9
$DIMDSEP
 70
    46
  9
$DIMATFIT
 70
     3
  9
$DIMFRAC
 70
     0
  9
$DIMLDRBLK
  1
DOT
  9
$DIMLUNIT
 70
     2
  9
$DIMLWD
 70
    -2
  9
$DIMLWE
 70
    -2
  9
$DIMTMOVE
 70
     0
  9
$LUNITS
 70
     2
  9
$LUPREC
 70
     4
  9
$SKETCHINC
 40
1.0
  9
$FILLETRAD
 40
1.0
  9
$AUNITS
 70
     0
  9
$AUPREC
 70
     0
  9
$MENU
  1
.
  9
$ELEVATION
 40
0.0
  9
$PELEVATION
 40
0.0
  9
$THICKNESS
 40
0.0
  9
$LIMCHECK
 70
     0
  9
$CHAMFERA
 40
2.0
  9
$CHAMFERB
 40
2.0
  9
$CHAMFERC
 40
673.4006734006733
  9
$CHAMFERD
 40
0.0
  9
$SKPOLY
 70
     0
  9
$TDCREATE
 40
2450858.806556018
  9
$TDUCREATE
 40
2450858.431556018
  9
$TDUPDATE
 40
2455610.805732187
  9
$TDUUPDATE
 40
2455610.430732187
  9
$TDINDWG
 40
0.7871703356
  9
$TDUSRTIMER
 40
0.7871703356
  9
$USRTIMER
 70
     1
  9
$ANGBASE
 50
0.0
  9
$ANGDIR
 70
     0
  9
$PDMODE
 70
     0
  9
$PDSIZE
 40
0.0
  9
$PLINEWID
 40
0.0
  9
$SPLFRAME
 70
     0
  9
$SPLINETYPE
 70
     6
  9
$SPLINESEGS
 70
     8
  9
$HANDSEED
  5
3E28
  9
$SURFTAB1
 70
     6
  9
$SURFTAB2
 70
     6
  9
$SURFTYPE
 70
     6
  9
$SURFU
 70
     6
  9
$SURFV
 70
     6
  9
$UCSBASE
  2

  9
$UCSNAME
  2

  9
$UCSORG
 10
0.0
 20
0.0
 30
0.0
  9
$UCSXDIR
 10
1.0
 20
0.0
 30
0.0
  9
$UCSYDIR
 10
0.0
 20
1.0
 30
0.0
  9
$UCSORTHOREF
  2

  9
$UCSORTHOVIEW
 70
     0
  9
$UCSORGTOP
 10
0.0
 20
0.0
 30
0.0
  9
$UCSORGBOTTOM
 10
0.0
 20
0.0
 30
0.0
  9
$UCSORGLEFT
 10
0.0
 20
0.0
 30
0.0
  9
$UCSORGRIGHT
 10
0.0
 20
0.0
 30
0.0
  9
$UCSORGFRONT
 10
0.0
 20
0.0
 30
0.0
  9
$UCSORGBACK
 10
0.0
 20
0.0
 30
0.0
  9
$PUCSBASE
  2

  9
$PUCSNAME
  2

  9
$PUCSORG
 10
0.0
 20
0.0
 30
0.0
  9
$PUCSXDIR
 10
1.0
 20
0.0
 30
0.0
  9
$PUCSYDIR
 10
0.0
 20
1.0
 30
0.0
  9
$PUCSORTHOREF
  2

  9
$PUCSORTHOVIEW
 70
     0
  9
$PUCSORGTOP
 10
0.0
 20
0.0
 30
0.0
  9
$PUCSORGBOTTOM
 10
0.0
 20
0.0
 30
0.0
  9
$PUCSORGLEFT
 10
0.0
 20
0.0
 30
0.0
  9
$PUCSORGRIGHT
 10
0.0
 20
0.0
 30
0.0
  9
$PUCSORGFRONT
 10
0.0
 20
0.0
 30
0.0
  9
$PUCSORGBACK
 10
0.0
 20
0.0
 30
0.0
  9
$USERI1
 70
     0
  9
$USERI2
 70
     0
  9
$USERI3
 70
     0
  9
$USERI4
 70
     0
  9
$USERI5
 70
     0
  9
$USERR1
 40
0.0
  9
$USERR2
 40
0.0
  9
$USERR3
 40
0.0
  9
$USERR4
 40
0.0
  9
$USERR5
 40
0.0
  9
$WORLDVIEW
 70
     1
  9
$SHADEDGE
 70
     3
  9
$SHADEDIF
 70
    70
  9
$TILEMODE
 70
     1
  9
$MAXACTVP
 70
    16
  9
$PINSBASE
 10
0.0
 20
0.0
 30
0.0
  9
$PLIMCHECK
 70
     0
  9
$PEXTMIN
 10
20.0
 20
-23.52073579709565
 30
0.0
  9
$PEXTMAX
 10
404.9999999999998
 20
281.9999999999999
 30
0.0
  9
$PLIMMIN
 10
-8.31564505939604
 20
-35.54501804387955
  9
$PLIMMAX
 10
433.5066689634458
 20
305.863131507488
  9
$UNITMODE
 70
     0
  9
$VISRETAIN
 70
     0
  9
$PLINEGEN
 70
     0
  9
$PSLTSCALE
 70
     1
  9
$TREEDEPTH
 70
  3020
  9
$CMLSTYLE
  2
STANDARD
  9
$CMLJUST
 70
     0
  9
$CMLSCALE
 40
1.0
  9
$PROXYGRAPHICS
 70
     1
  9
$MEASUREMENT
 70
     1
  9
$CELWEIGHT
370
    -1
  9
$ENDCAPS
280
     0
  9
$JOINSTYLE
280
     0
  9
$LWDISPLAY
290
     0
  9
$INSUNITS
 70
     0
  9
$HYPERLINKBASE
  1

  9
$STYLESHEET
  1

  9
$XEDIT
290
     1
  9
$CEPSNTYPE
380
     0
  9
$PSTYLEMODE
290
     1
  9
$FINGERPRINTGUID
  2
{F41FE006-5BAB-473A-82C7-49E540CEF7D1}
  9
$VERSIONGUID
  2
{3C4667ED-9E37-44AC-A390-4F032E97CFC1}
  9
$EXTNAMES
290
     1
  9
$PSVPSCALE
 40
0.0
  9
$OLESTARTUP
290
     0
  0
ENDSEC
  0
SECTION
  2
CLASSES
  0
CLASS
  1
LWPOLYLINE
  2
AcDbPolyline
  3
AutoCAD 2000
 90
    32768
280
     0
281
     1
  0
CLASS
  1
HATCH
  2
AcDbHatch
  3
AutoCAD 2000
 90
    32768
280
     0
281
     1
  0
CLASS
  1
ACDBDICTIONARYWDFLT
  2
AcDbDictionaryWithDefault
  3
AutoCAD 2000
 90
        0
280
     0
281
     0
  0
CLASS
  1
ACDBPLACEHOLDER
  2
AcDbPlaceHolder
  3
AutoCAD 2000
 90
        0
280
     0
281
     0
  0
CLASS
  1
LAYOUT
  2
AcDbLayout
  3
AutoCAD 2000
 90
        0
280
     0
281
     0
  0
ENDSEC
  0
SECTION
  2
TABLES
  0
TABLE
  2
VPORT
  5
8
330
0
100
AcDbSymbolTable
 70
     8
  0
VPORT
  5
3E27
330
8
100
AcDbSymbolTableRecord
100
AcDbViewportTableRecord
  2
*Active
 70
     0
 10
0.0
 20
0.0
 11
1.0
 21
1.0
 12
210.8364148662452
 22
305.0914661980641
 13
0.0
 23
0.0
 14
168.0
 24
168.0
 15
0.0
 25
0.0
 16
0.0
 26
0.0
 36
1.0
 17
0.0
 27
0.0
 37
0.0
 40
650.8906667576375
 41
1.621870882740448
 42
50.0
 43
0.0
 44
0.0
 50
0.0
 51
0.0
 71
     0
 72
   100
 73
     1
 74
     0
 75
     0
 76
     0
 77
     0
 78
     1
281
     0
 65
     1
110
0.0
120
0.0
130
0.0
111
1.0
121
0.0
131
0.0
112
0.0
122
1.0
132
0.0
 79
     0
146
0.0
  0
ENDTAB
  0
TABLE
  2
LTYPE
  5
5
330
0
100
AcDbSymbolTable
 70
     3
  0
LTYPE
  5
14
330
5
100
AcDbSymbolTableRecord
100
AcDbLinetypeTableRecord
  2
BYBLOCK
 70
     0
  3

 72
    65
 73
     0
 40
0.0
  0
LTYPE
  5
15
330
5
100
AcDbSymbolTableRecord
100
AcDbLinetypeTableRecord
  2
BYLAYER
 70
     0
  3

 72
    65
 73
     0
 40
0.0
  0
LTYPE
  5
16
330
5
100
AcDbSymbolTableRecord
100
AcDbLinetypeTableRecord
  2
CONTINUOUS
 70
     0
  3
Solid line
 72
    65
 73
     0
 40
0.0
  0
LTYPE
  5
6E
330
5
100
AcDbSymbolTableRecord
100
AcDbLinetypeTableRecord
  2
CENTER
 70
     0
  3
____ _ ____ _ ____ _ ____ _ ____ _ ____ _ ____ 
 72
    65
 73
     4
 40
2.0
 49
1.25
 74
     0
 49
-0.25
 74
     0
 49
0.25
 74
     0
 49
-0.25
 74
     0
  0
LTYPE
  5
6F
330
5
100
AcDbSymbolTableRecord
100
AcDbLinetypeTableRecord
  2
HIDDEN
 70
     0
  3
__ __ __ __ __ __ __ __ __ __ __ __ __ __ __ __
 72
    65
 73
     2
 40
0.375
 49
0.25
 74
     0
 49
-0.125
 74
     0
  0
ENDTAB
  0
TABLE
  2
LAYER
  5
2
330
0
100
AcDbSymbolTable
 70
    12
  0
LAYER
  5
F
330
2
100
AcDbSymbolTableRecord
100
AcDbLayerTableRecord
  2
0
 70
     0
 62
     3
  6
CONTINUOUS
370
    -3
390
3E15
  0
LAYER
  5
72
330
2
100
AcDbSymbolTableRecord
100
AcDbLayerTableRecord
  2
DEFPOINTS
 70
     0
 62
     7
  6
CONTINUOUS
290
     0
370
    -3
390
3E15
  0
LAYER
  5
74
330
2
100
AcDbSymbolTableRecord
100
AcDbLayerTableRecord
  2
CENTER
 70
     0
 62
     8
  6
CENTER
370
    -3
390
3E15
  0
LAYER
  5
1060
330
2
100
AcDbSymbolTableRecord
100
AcDbLayerTableRecord
  2
1
 70
     0
 62
   210
  6
CONTINUOUS
370
    -3
390
3E15
  0
ENDTAB
  0
TABLE
  2
STYLE
  5
3
330
0
100
AcDbSymbolTable
 70
     5
  0
STYLE
  5
10
330
3
100
AcDbSymbolTableRecord
100
AcDbTextStyleTableRecord
  2
STANDARD
 70
     0
 40
0.0
 41
0.8
 50
0.0
 71
     0
 42
84.17508417508416
  3
TXT
  4
bigfont.shx
  0
STYLE
  5
63
330
3
100
AcDbSymbolTableRecord
100
AcDbTextStyleTableRecord
  2
AD-STANDARD
 70
     0
 40
0.0
 41
0.6
 50
0.0
 71
     0
 42
3.5
  3
romans.shx
  4
bigfont.shx
  0
STYLE
  5
22A
330
3
100
AcDbSymbolTableRecord
100
AcDbTextStyleTableRecord
  2
BIGFONT
 70
     0
 40
0.0
 41
0.8
 50
15.0
 71
     0
 42
6.0
  3
ROMANS.SHX
  4
BIGFONT.SHX
  0
ENDTAB
  0
TABLE
  2
VIEW
  5
6
330
0
100
AcDbSymbolTable
 70
     1
  0
VIEW
  5
389A
330
6
100
AcDbSymbolTableRecord
100
AcDbViewTableRecord
  2
OLE1
 70
     0
 40
1122.458500863242
 10
3312.818289082358
 20
9492.322479230244
 41
1854.047747155184
 11
0.0
 21
0.0
 31
1.0
 12
0.0
 22
0.0
 32
0.0
 42
50.0
 43
0.0
 44
0.0
 50
0.0
 71
     0
281
     0
 72
     0
  0
ENDTAB
  0
TABLE
  2
UCS
  5
7
330
0
100
AcDbSymbolTable
 70
     0
  0
ENDTAB
  0
TABLE
  2
APPID
  5
9
330
0
100
AcDbSymbolTable
 70
     4
  0
APPID
  5
11
330
9
100
AcDbSymbolTableRecord
100
AcDbRegAppTableRecord
  2
ACAD
 70
     0
  0
APPID
  5
DFC
330
9
100
AcDbSymbolTableRecord
100
AcDbRegAppTableRecord
  2
CONTENTTABDATA
 70
     0
  0
APPID
  5
DFD
330
9
100
AcDbSymbolTableRecord
100
AcDbRegAppTableRecord
  2
CONTENTCURRENTTAB
 70
     0
  0
APPID
  5
F72
330
9
100
AcDbSymbolTableRecord
100
AcDbRegAppTableRecord
  2
CONTENTBLOCKDESCRIPTION
 70
     0
  0
ENDTAB
  0
TABLE
  2
DIMSTYLE
  5
A
330
0
100
AcDbSymbolTable
 70
     2
100
AcDbDimStyleTable
 71
     0
  0
DIMSTYLE
105
1D
330
A
100
AcDbSymbolTableRecord
100
AcDbDimStyleTableRecord
  2
STANDARD
 70
     0
340
10
  0
DIMSTYLE
105
68
330
A
100
AcDbSymbolTableRecord
100
AcDbDimStyleTableRecord
  2
AD-STANDARD
 70
     0
 41
2.5
 42
1.0
 44
2.0
 73
     0
 74
     0
 77
     1
 78
     8
140
3.5
141
-2.0
147
0.5
172
     1
176
     9
177
     9
178
     2
284
     8
340
63
  0
ENDTAB
  0
TABLE
  2
BLOCK_RECORD
  5
1
330
0
100
AcDbSymbolTable
 70
     4
  0
BLOCK_RECORD
  5
1A
330
1
100
AcDbSymbolTableRecord
100
AcDbBlockTableRecord
  2
*MODEL_SPACE
340
3E18
  0
BLOCK_RECORD
  5
17
330
1
100
AcDbSymbolTableRecord
100
AcDbBlockTableRecord
  2
*PAPER_SPACE
340
3E19
  0
BLOCK_RECORD
  5
88
330
1
100
AcDbSymbolTableRecord
100
AcDbBlockTableRecord
  2
_DOT
340
0
  0
ENDTAB
  0
ENDSEC
  0
SECTION
  2
BLOCKS
  0
BLOCK
  5
1B
330
1A
100
AcDbEntity
  8
0
100
AcDbBlockBegin
  2
*MODEL_SPACE
 70
     0
 10
0.0
 20
0.0
 30
0.0
  3
*MODEL_SPACE
  1

  0
ENDBLK
  5
1C
330
1A
100
AcDbEntity
  8
0
100
AcDbBlockEnd
  0
BLOCK
  5
18
330
17
100
AcDbEntity
 67
     1
  8
0
100
AcDbBlockBegin
  2
*PAPER_SPACE
 70
     0
 10
0.0
 20
0.0
 30
0.0
  3
*PAPER_SPACE
  1

  0
ENDBLK
  5
19
330
17
100
AcDbEntity
 67
     1
  8
0
100
AcDbBlockEnd
  0
BLOCK
  5
AE
330
88
100
AcDbEntity
  8
0
100
AcDbBlockBegin
  2
_DOT
 70
     0
 10
0.0
 20
0.0
 30
0.0
  3
_DOT
  1

  0
LINE
  5
AF
330
88
100
AcDbEntity
  8
0
  6
ByBlock
 62
     0
100
AcDbLine
 10
-0.0625
 20
0.0
 30
0.0
 11
-1.0
 21
0.0
 31
0.0
  0
LWPOLYLINE
  5
B0
330
88
100
AcDbEntity
  8
0
  6
ByBlock
 62
     0
100
AcDbPolyline
 90
        2
 70
     1
 43
0.125
 10
-0.0625
 20
0.0
 42
1.0
 10
0.0625
 20
0.0
 42
1.0
  0
ENDBLK
  5
B4
330
88
100
AcDbEntity
  8
0
100
AcDbBlockEnd
  0
ENDSEC
  0
SECTION
  2
ENTITIES
  0
LINE
  5
32BB
330
1A
100
AcDbEntity
  8
1
 48
0.3
100
AcDbLine
 10
59.00000000000045
 20
555.0774615102382
 30
0.0
 11
90.0000000000041
 21
555.07746151024
 31
0.0
  0
LINE
  5
32BC
330
1A
100
AcDbEntity
  8
1
 48
0.3
100
AcDbLine
 10
59.00000000000045
 20
580.07746151024
 30
0.0
 11
90.0000000000041
 21
580.07746151024
 31
0.0
  0
LINE
  5
32BD
330
1A
100
AcDbEntity
  8
1
 48
0.3
100
AcDbLine
 10
-0.0000000000013642
 20
553.57746151024
 30
0.0
 11
100.0000000000004
 21
553.5774615102382
 31
0.0
  0
LINE
  5
32BE
330
1A
100
AcDbEntity
  8
1
 48
0.3
100
AcDbLine
 10
-0.0000000000013642
 20
581.57746151024
 30
0.0
 11
100.0000000000004
 21
581.5774615102382
 31
0.0
  0
LINE
  5
32BF
330
1A
100
AcDbEntity
  8
CENTER
 48
0.3
100
AcDbLine
 10
2.000000000001364
 20
567.57746151024
 30
0.0
 11
313.0000000000022
 21
567.57746151024
 31
0.0
  0
LINE
  5
32C1
330
1A
100
AcDbEntity
  8
1
 48
0.3
100
AcDbLine
 10
55.5
 20
235.4999999999999
 30
0.0
 11
90.0000000000009
 21
235.4999999999999
 31
0.0
  0
LINE
  5
32C2
330
1A
100
AcDbEntity
  8
1
 48
0.3
100
AcDbLine
 10
55.5
 20
260.4999999999999
 30
0.0
 11
90.00000000000136
 21
260.4999999999999
 31
0.0
  0
LINE
  5
32C4
330
1A
100
AcDbEntity
  8
1
 48
0.3
100
AcDbLine
 10
328.0
 20
602.57746151024
 30
0.0
 11
2.0
 21
602.57746151024
 31
0.0
  0
LINE
  5
32C5
330
1A
100
AcDbEntity
  8
1
 48
0.3
100
AcDbLine
 10
2.000000000001818
 20
372.57746151024
 30
0.0
 11
328.0
 21
372.57746151024
 31
0.0
  0
LINE
  5
32C6
330
1A
100
AcDbEntity
  8
CENTER
 48
0.3
100
AcDbLine
 10
-8.633827015347378
 20
248.0
 30
0.0
 11
288.987876353583
 21
248.0
 31
0.0
  0
LINE
  5
32C7
330
1A
100
AcDbEntity
  8
1
 48
0.3
100
AcDbLine
 10
0.0
 20
0.0
 30
0.0
 11
330.0
 21
-0.000000000001819
 31
0.0
  0
LINE
  5
32C8
330
1A
100
AcDbEntity
  8
1
 48
0.3
100
AcDbLine
 10
0.0
 20
30.0
 30
0.0
 11
330.0
 21
29.99999999999818
 31
0.0
  0
LINE
  5
32CA
330
1A
100
AcDbEntity
  8
1
 48
0.3
100
AcDbLine
 10
0.0
 20
-0.000000000001819
 30
0.0
 11
0.0
 21
29.99999999999818
 31
0.0
  0
LINE
  5
32CB
330
1A
100
AcDbEntity
  8
1
 48
0.3
100
AcDbLine
 10
2.0
 20
-0.000000000001819
 30
0.0
 11
2.0
 21
29.99999999999818
 31
0.0
  0
LINE
  5
32CC
330
1A
100
AcDbEntity
  8
1
 48
0.3
100
AcDbLine
 10
26.42441786544486
 20
258.1956963650063
 30
0.0
 11
27.28238545193017
 21
256.5798934240538
 31
0.0
  0
ARC
  5
32CD
330
1A
100
AcDbEntity
  8
1
 48
0.3
100
AcDbCircle
 10
25.54120529765168
 20
257.7267234872251
 30
0.0
 40
1.0
100
AcDbArc
 50
27.96764444586342
 51
114.6270360418308
  0
LINE
  5
32CE
330
1A
100
AcDbEntity
  8
1
 48
0.3
100
AcDbLine
 10
23.01646558788479
 20
242.322831065152
 30
0.0
 11
21.8806057522579
 21
237.7761643258927
 31
0.0
  0
LINE
  5
32D0
330
1A
100
AcDbEntity
  8
1
 48
0.3
100
AcDbLine
 10
33.57558213455422
 20
258.1956963650063
 30
0.0
 11
32.71761454806846
 21
256.5798934240538
 31
0.0
  0
ARC
  5
32D1
330
1A
100
AcDbEntity
  8
1
 48
0.3
100
AcDbCircle
 10
34.45879470234695
 20
257.7267234872251
 30
0.0
 40
1.0
100
AcDbArc
 50
65.37296395816847
 51
152.0323555541237
  0
LINE
  5
32D2
330
1A
100
AcDbEntity
  8
1
 48
0.3
100
AcDbLine
 10
40.65316854248658
 20
248.0
 30
0.0
 11
38.99999999999954
 21
248.0
 31
0.0
  0
ARC
  5
32D3
330
1A
100
AcDbEntity
  8
1
 48
0.3
100
AcDbCircle
 10
29.99999999999954
 20
248.0
 30
0.0
 40
11.69999999999999
100
AcDbArc
 50
5.362571618116416
 51
65.372963958167
  0
ARC
  5
32D4
330
1A
100
AcDbEntity
  8
1
 48
0.3
100
AcDbCircle
 10
40.65316854248658
 20
249.0000000000018
 30
0.0
 40
1.0
100
AcDbArc
 50
269.9999999999997
 51
5.362571618108096
  0
LINE
  5
32D5
330
1A
100
AcDbEntity
  8
1
 48
0.3
100
AcDbLine
 10
36.98353441211384
 20
242.3228310651502
 30
0.0
 11
38.11939424774027
 21
237.7761643258891
 31
0.0
  0
ARC
  5
32D6
330
1A
100
AcDbEntity
  8
1
 48
0.3
100
AcDbCircle
 10
39.08957724451374
 20
238.0185379068989
 30
0.0
 40
1.0
100
AcDbArc
 50
194.0266734872119
 51
312.3224305702616
  0
LINE
  5
32D7
330
1A
100
AcDbEntity
  8
1
 48
0.3
100
AcDbLine
 10
47.49999999999954
 20
271.0
 30
0.0
 11
55.49999999999954
 21
263.0
 31
0.0
  0
ARC
  5
32D8
330
1A
100
AcDbEntity
  8
1
 48
0.3
100
AcDbCircle
 10
45.234375
 20
248.0
 30
0.0
 40
11.96852500000041
100
AcDbArc
 50
329.0613703895099
 51
30.93862961048896
  0
LINE
  5
32D9
330
1A
100
AcDbEntity
  8
1
 48
0.3
100
AcDbLine
 10
55.49999999999954
 20
263.0
 30
0.0
 11
55.49999999999909
 21
181.0
 31
0.0
  0
LINE
  5
32DA
330
1A
100
AcDbEntity
  8
CENTER
 48
0.3
100
AcDbLine
 10
29.99999999999954
 20
158.2771955464268
 30
0.0
 11
29.99999999999954
 21
290.6481139306943
 31
0.0
  0
LINE
  5
32DC
330
1A
100
AcDbEntity
  8
1
 48
0.3
100
AcDbLine
 10
20.99999999999954
 20
248.0
 30
0.0
 11
19.3468314575125
 21
248.0
 31
0.0
  0
ARC
  5
32DD
330
1A
100
AcDbEntity
  8
1
 48
0.3
100
AcDbCircle
 10
19.3468314575125
 20
249.0000000000018
 30
0.0
 40
1.0
100
AcDbArc
 50
174.6374283818912
 51
269.9999999999997
  0
LINE
  5
32DE
330
1A
100
AcDbEntity
  8
1
 48
0.3
100
AcDbLine
 10
20.91042275548397
 20
237.0185379069007
 30
0.0
 11
20.91042275548397
 21
237.0185379069007
 31
0.0
  0
LINE
  5
32DF
330
1A
100
AcDbEntity
  8
1
 48
0.3
100
AcDbLine
 10
12.5
 20
271.0
 30
0.0
 11
4.5
 21
263.0
 31
0.0
  0
LINE
  5
32E0
330
1A
100
AcDbEntity
  8
1
 48
0.3
100
AcDbLine
 10
4.49999999999909
 20
181.0
 30
0.0
 11
4.5
 21
263.0
 31
0.0
  0
CIRCLE
  5
32E1
330
1A
100
AcDbEntity
  8
1
 48
0.3
100
AcDbCircle
 10
29.99999999999954
 20
248.0
 30
0.0
 40
9.0
  0
ARC
  5
32E2
330
1A
100
AcDbEntity
  8
1
 48
0.3
100
AcDbCircle
 10
29.99999999999954
 20
248.0
 30
0.0
 40
14.5
100
AcDbArc
 50
312.3224305702665
 51
227.6775694297239
  0
LINE
  5
32E3
330
1A
100
AcDbEntity
  8
1
 48
0.3
100
AcDbLine
 10
12.5
 20
271.0
 30
0.0
 11
47.49999999999954
 21
271.0
 31
0.0
  0
LINE
  5
32E4
330
1A
100
AcDbEntity
  8
1
 48
0.3
100
AcDbLine
 10
55.49999999999954
 20
181.0
 30
0.0
 11
4.49999999999909
 21
181.0000000000018
 31
0.0
  0
ARC
  5
32E5
330
1A
100
AcDbEntity
  8
1
 48
0.3
100
AcDbCircle
 10
29.99999999999954
 20
248.0
 30
0.0
 40
11.69999999999999
100
AcDbArc
 50
114.6270360418343
 51
174.6374283818829
  0
ARC
  5
32E6
330
1A
100
AcDbEntity
  8
1
 48
0.3
100
AcDbCircle
 10
20.91042275548397
 20
238.0185379069007
 30
0.0
 40
1.0
100
AcDbArc
 50
227.6775694296992
 51
345.9733265128948
  0
LINE
  5
32E7
330
1A
100
AcDbEntity
  8
CENTER
 48
0.3
100
AcDbLine
 10
29.99999999999954
 20
523.446470621031
 30
0.0
 11
29.99999999999954
 21
613.4586925973216
 31
0.0
  0
LINE
  5
32E8
330
1A
100
AcDbEntity
  8
1
 48
0.3
100
AcDbLine
 10
0.0
 20
600.57746151024
 30
0.0
 11
0.000000000001819
 21
374.57746151024
 31
0.0
  0
LINE
  5
32E9
330
1A
100
AcDbEntity
  8
CENTER
 48
0.2
100
AcDbLine
 10
17.5
 20
527.5372156492903
 30
0.0
 11
17.5
 21
502.6177073711896
 31
0.0
  0
LINE
  5
32EA
330
1A
100
AcDbEntity
  8
1
 48
0.3
100
AcDbLine
 10
0.000000000001819
 20
374.57746151024
 30
0.0
 11
2.000000000001818
 21
372.57746151024
 31
0.0
  0
LINE
  5
32EB
330
1A
100
AcDbEntity
  8
CENTER
 48
0.2
100
AcDbLine
 10
17.5
 20
402.5372156492903
 30
0.0
 11
17.5
 21
377.6177073711896
 31
0.0
  0
LINE
  5
32EC
330
1A
100
AcDbEntity
  8
CENTER
 48
0.2
100
AcDbLine
 10
5.040245860949653
 20
515.07746151024
 30
0.0
 11
29.95975413905034
 21
515.07746151024
 31
0.0
  0
CIRCLE
  5
32ED
330
1A
100
AcDbEntity
  8
1
 48
0.3
100
AcDbCircle
 10
17.50000000000045
 20
390.0774615102382
 30
0.0
 40
7.0
  0
LINE
  5
32EE
330
1A
100
AcDbEntity
  8
CENTER
 48
0.2
100
AcDbLine
 10
5.040245860949653
 20
390.07746151024
 30
0.0
 11
29.95975413905034
 21
390.07746151024
 31
0.0
  0
CIRCLE
  5
32EF
330
1A
100
AcDbEntity
  8
1
 48
0.3
100
AcDbCircle
 10
17.50000000000045
 20
515.0774615102382
 30
0.0
 40
7.0
  0
LINE
  5
32F0
330
1A
100
AcDbEntity
  8
1
 48
0.3
100
AcDbLine
 10
51.00000000000045
 20
559.07746151024
 30
0.0
 11
59.00000000000045
 21
555.07746151024
 31
0.0
  0
LINE
  5
32F1
330
1A
100
AcDbEntity
  8
1
 48
0.3
100
AcDbLine
 10
51.00000000000045
 20
576.07746151024
 30
0.0
 11
59.00000000000045
 21
580.07746151024
 31
0.0
  0
ARC
  5
32F2
330
1A
100
AcDbEntity
  8
1
 48
0.3
100
AcDbCircle
 10
30.00000000000136
 20
567.57746151024
 30
0.0
 40
15.875
100
AcDbArc
 50
313.5802569142256
 51
327.6267140208671
  0
LINE
  5
32F3
330
1A
100
AcDbEntity
  8
1
 48
0.3
100
AcDbLine
 10
51.99999999999864
 20
553.57746151024
 30
0.0
 11
51.99999999999818
 21
543.5774615102381
 31
0.0
  0
LINE
  5
32F4
330
1A
100
AcDbEntity
  8
1
 48
0.3
100
AcDbLine
 10
22.49999999999499
 20
538.2524615102393
 30
0.0
 11
22.49999999999499
 21
538.3274615102418
 31
0.0
  0
LINE
  5
32F5
330
1A
100
AcDbEntity
  8
1
 48
0.3
100
AcDbLine
 10
22.49999999999499
 20
536.5774615102436
 30
0.0
 11
22.49999999999499
 21
536.6524615102389
 31
0.0
  0
LINE
  5
32F6
330
1A
100
AcDbEntity
  8
1
 48
0.3
100
AcDbLine
 10
37.49999999999499
 20
536.6524615102389
 30
0.0
 11
37.49999999999499
 21
536.5774615102382
 31
0.0
  0
LINE
  5
32F7
330
1A
100
AcDbEntity
  8
1
 48
0.3
100
AcDbLine
 10
37.49999999999499
 20
538.3274615102382
 30
0.0
 11
37.49999999999499
 21
538.2524615102393
 31
0.0
  0
LINE
  5
32F8
330
1A
100
AcDbEntity
  8
1
 48
0.3
100
AcDbLine
 10
44.50000000000045
 20
538.2524615102393
 30
0.0
 11
44.50000000000136
 21
536.652461510237
 31
0.0
  0
LINE
  5
32F9
330
1A
100
AcDbEntity
  8
1
 48
0.3
100
AcDbLine
 10
38.99999999999499
 20
536.5774615102382
 30
0.0
 11
38.99999999999408
 21
533.5774615102382
 31
0.0
  0
LINE
  5
32FA
330
1A
100
AcDbEntity
  8
1
 48
0.3
100
AcDbLine
 10
38.99999999999863
 20
556.07746151024
 30
0.0
 11
38.99999999999772
 21
553.57746151024
 31
0.0
  0
LINE
  5
32FB
330
1A
100
AcDbEntity
  8
1
 48
0.3
100
AcDbLine
 10
38.9999999999959
 20
541.5774615102382
 30
0.0
 11
38.99999999999499
 21
538.3274615102382
 31
0.0
  0
LINE
  5
32FC
330
1A
100
AcDbEntity
  8
1
 48
0.3
100
AcDbLine
 10
51.99999999999818
 20
591.5774615102399
 30
0.0
 11
51.99999999999864
 21
581.57746151024
 31
0.0
  0
ARC
  5
32FD
330
1A
100
AcDbEntity
  8
1
 48
0.3
100
AcDbCircle
 10
30.00000000000136
 20
567.57746151024
 30
0.0
 40
15.875
100
AcDbArc
 50
32.37328597913148
 51
46.41974308576734
  0
LINE
  5
32FE
330
1A
100
AcDbEntity
  8
1
 48
0.3
100
AcDbLine
 10
22.50000000000045
 20
596.9024615102462
 30
0.0
 11
22.50000000000045
 21
596.8274615102436
 31
0.0
  0
LINE
  5
32FF
330
1A
100
AcDbEntity
  8
1
 48
0.3
100
AcDbLine
 10
22.50000000000045
 20
598.5774615102418
 30
0.0
 11
22.50000000000045
 21
598.5024615102447
 31
0.0
  0
LINE
  5
3300
330
1A
100
AcDbEntity
  8
1
 48
0.3
100
AcDbLine
 10
37.50000000000045
 20
598.5024615102429
 30
0.0
 11
37.50000000000045
 21
598.5774615102436
 31
0.0
  0
LINE
  5
3301
330
1A
100
AcDbEntity
  8
1
 48
0.3
100
AcDbLine
 10
37.50000000000045
 20
596.8274615102436
 30
0.0
 11
37.50000000000045
 21
596.9024615102462
 31
0.0
  0
LINE
  5
3302
330
1A
100
AcDbEntity
  8
1
 48
0.3
100
AcDbLine
 10
44.50000000000045
 20
598.5024615102447
 30
0.0
 11
44.50000000000136
 21
596.9024615102425
 31
0.0
  0
LINE
  5
3303
330
1A
100
AcDbEntity
  8
1
 48
0.3
100
AcDbLine
 10
39.00000000000045
 20
598.5774615102436
 30
0.0
 11
39.00000000000045
 21
601.5774615102436
 31
0.0
  0
LINE
  5
3304
330
1A
100
AcDbEntity
  8
1
 48
0.3
100
AcDbLine
 10
39.00000000000136
 20
579.0774615102399
 30
0.0
 11
39.00000000000136
 21
581.57746151024
 31
0.0
  0
LINE
  5
3305
330
1A
100
AcDbEntity
  8
1
 48
0.3
100
AcDbLine
 10
39.00000000000136
 20
593.57746151024
 30
0.0
 11
39.00000000000045
 21
596.8274615102436
 31
0.0
  0
LINE
  5
3306
330
1A
100
AcDbEntity
  8
1
 48
0.3
100
AcDbLine
 10
65.00000000000046
 20
553.5774615102382
 30
0.0
 11
64.99999999999954
 21
555.0774615102382
 31
0.0
  0
LINE
  5
3307
330
1A
100
AcDbEntity
  8
1
 48
0.3
100
AcDbLine
 10
64.99999999999954
 20
580.07746151024
 30
0.0
 11
64.99999999999954
 21
581.5774615102382
 31
0.0
  0
LINE
  5
3308
330
1A
100
AcDbEntity
  8
1
 48
0.3
100
AcDbLine
 10
0.0
 20
600.57746151024
 30
0.0
 11
2.0
 21
602.57746151024
 31
0.0
  0
ARC
  5
3309
330
1A
100
AcDbEntity
  8
1
 48
0.3
100
AcDbCircle
 10
30.00000000000136
 20
567.57746151024
 30
0.0
 40
15.875
100
AcDbArc
 50
212.3732859791328
 51
226.4197430857743
  0
LINE
  5
330A
330
1A
100
AcDbEntity
  8
1
 48
0.3
100
AcDbLine
 10
8.000000000000454
 20
553.57746151024
 30
0.0
 11
8.000000000000454
 21
543.5774615102381
 31
0.0
  0
LINE
  5
330B
330
1A
100
AcDbEntity
  8
1
 48
0.3
100
AcDbLine
 10
15.50000000000045
 20
538.2524615102393
 30
0.0
 11
15.50000000000045
 21
536.6524615102389
 31
0.0
  0
LINE
  5
330C
330
1A
100
AcDbEntity
  8
1
 48
0.3
100
AcDbLine
 10
20.99999999999409
 20
533.5774615102418
 30
0.0
 11
20.999999999995
 21
536.5774615102418
 31
0.0
  0
LINE
  5
330D
330
1A
100
AcDbEntity
  8
1
 48
0.3
100
AcDbLine
 10
20.999999999995
 20
538.3274615102418
 30
0.0
 11
20.9999999999959
 21
541.5774615102399
 31
0.0
  0
LINE
  5
330E
330
1A
100
AcDbEntity
  8
1
 48
0.3
100
AcDbLine
 10
20.99999999999772
 20
553.57746151024
 30
0.0
 11
20.99999999999772
 21
556.07746151024
 31
0.0
  0
LINE
  5
330F
330
1A
100
AcDbEntity
  8
1
 48
0.3
100
AcDbLine
 10
8.000000000000454
 20
591.5774615102418
 30
0.0
 11
8.000000000000454
 21
581.57746151024
 31
0.0
  0
ARC
  5
3310
330
1A
100
AcDbEntity
  8
1
 48
0.3
100
AcDbCircle
 10
30.00000000000136
 20
567.57746151024
 30
0.0
 40
21.0
100
AcDbArc
 50
156.1237922694498
 51
203.8762077305512
  0
ARC
  5
3311
330
1A
100
AcDbEntity
  8
1
 48
0.3
100
AcDbCircle
 10
30.00000000000136
 20
567.57746151024
 30
0.0
 40
15.875
100
AcDbArc
 50
133.5802569142326
 51
147.6267140208685
  0
LINE
  5
3312
330
1A
100
AcDbEntity
  8
1
 48
0.3
100
AcDbLine
 10
15.50000000000045
 20
598.5024615102447
 30
0.0
 11
15.50000000000045
 21
596.9024615102443
 31
0.0
  0
LINE
  5
3313
330
1A
100
AcDbEntity
  8
1
 48
0.3
100
AcDbLine
 10
21.00000000000045
 20
601.5774615102436
 30
0.0
 11
21.00000000000045
 21
598.5774615102436
 31
0.0
  0
LINE
  5
3314
330
1A
100
AcDbEntity
  8
1
 48
0.3
100
AcDbLine
 10
21.00000000000045
 20
596.8274615102436
 30
0.0
 11
21.00000000000045
 21
593.57746151024
 31
0.0
  0
LINE
  5
3315
330
1A
100
AcDbEntity
  8
1
 48
0.3
100
AcDbLine
 10
21.00000000000045
 20
581.57746151024
 30
0.0
 11
21.00000000000045
 21
579.0774615102399
 31
0.0
  0
LINE
  5
3316
330
1A
100
AcDbEntity
  8
1
 48
0.3
100
AcDbLine
 10
10.00000000000045
 20
541.5774615102382
 30
0.0
 11
49.99999999999818
 21
541.5774615102382
 31
0.0
  0
LINE
  5
3317
330
1A
100
AcDbEntity
  8
1
 48
0.3
100
AcDbLine
 10
19.05625178469608
 20
556.07746151024
 30
0.0
 11
40.94374821530482
 21
556.07746151024
 31
0.0
  0
LINE
  5
3318
330
1A
100
AcDbEntity
  8
1
 48
0.3
100
AcDbLine
 10
44.50000000000045
 20
536.6524615102389
 30
0.0
 11
15.50000000000045
 21
536.6524615102389
 31
0.0
  0
LINE
  5
3319
330
1A
100
AcDbEntity
  8
1
 48
0.3
100
AcDbLine
 10
44.50000000000045
 20
538.2524615102393
 30
0.0
 11
15.50000000000045
 21
538.2524615102393
 31
0.0
  0
LINE
  5
331A
330
1A
100
AcDbEntity
  8
1
 48
0.3
100
AcDbLine
 10
38.99999999999408
 20
533.5774615102382
 30
0.0
 11
20.99999999999409
 21
533.5774615102418
 31
0.0
  0
LINE
  5
331B
330
1A
100
AcDbEntity
  8
1
 48
0.3
100
AcDbLine
 10
38.99999999999499
 20
536.5774615102382
 30
0.0
 11
20.999999999995
 21
536.5774615102418
 31
0.0
  0
LINE
  5
331C
330
1A
100
AcDbEntity
  8
1
 48
0.3
100
AcDbLine
 10
38.99999999999499
 20
538.3274615102382
 30
0.0
 11
20.999999999995
 21
538.3274615102418
 31
0.0
  0
LINE
  5
331D
330
1A
100
AcDbEntity
  8
1
 48
0.3
100
AcDbLine
 10
10.00000000000045
 20
593.5774615102418
 30
0.0
 11
49.99999999999818
 21
593.57746151024
 31
0.0
  0
LINE
  5
331E
330
1A
100
AcDbEntity
  8
1
 48
0.3
100
AcDbLine
 10
10.79713563032828
 20
559.07746151024
 30
0.0
 11
51.00000000000045
 21
559.07746151024
 31
0.0
  0
LINE
  5
331F
330
1A
100
AcDbEntity
  8
1
 48
0.3
100
AcDbLine
 10
10.79713563032828
 20
576.07746151024
 30
0.0
 11
51.00000000000045
 21
576.07746151024
 31
0.0
  0
LINE
  5
3320
330
1A
100
AcDbEntity
  8
1
 48
0.3
100
AcDbLine
 10
19.05625178469426
 20
579.0774615102399
 30
0.0
 11
40.94374821530664
 21
579.0774615102399
 31
0.0
  0
LINE
  5
3321
330
1A
100
AcDbEntity
  8
1
 48
0.3
100
AcDbLine
 10
44.50000000000045
 20
596.9024615102443
 30
0.0
 11
15.50000000000045
 21
596.9024615102443
 31
0.0
  0
LINE
  5
3322
330
1A
100
AcDbEntity
  8
1
 48
0.3
100
AcDbLine
 10
44.50000000000045
 20
598.5024615102447
 30
0.0
 11
15.50000000000045
 21
598.5024615102447
 31
0.0
  0
LINE
  5
3323
330
1A
100
AcDbEntity
  8
1
 48
0.3
100
AcDbLine
 10
39.00000000000045
 20
596.8274615102436
 30
0.0
 11
21.00000000000045
 21
596.8274615102436
 31
0.0
  0
LINE
  5
3324
330
1A
100
AcDbEntity
  8
1
 48
0.3
100
AcDbLine
 10
39.00000000000045
 20
598.5774615102436
 30
0.0
 11
21.00000000000045
 21
598.5774615102436
 31
0.0
  0
LINE
  5
3325
330
1A
100
AcDbEntity
  8
1
 48
0.3
100
AcDbLine
 10
39.00000000000045
 20
601.5774615102436
 30
0.0
 11
21.00000000000045
 21
601.5774615102436
 31
0.0
  0
ARC
  5
3326
330
1A
100
AcDbEntity
  8
1
 48
0.3
100
AcDbCircle
 10
250.0000000000009
 20
247.9999999999963
 30
0.0
 40
14.5
100
AcDbArc
 50
312.3224305702665
 51
227.6775694297239
  0
ARC
  5
3327
330
1A
100
AcDbEntity
  8
1
 48
0.3
100
AcDbCircle
 10
250.0000000000009
 20
247.9999999999963
 30
0.0
 40
11.69999999999999
100
AcDbArc
 50
5.362571618116416
 51
65.372963958167
  0
LINE
  5
3328
330
1A
100
AcDbEntity
  8
1
 48
0.3
100
AcDbLine
 10
267.5
 20
224.9999999999963
 30
0.0
 11
232.5000000000022
 21
224.9999999999945
 31
0.0
  0
LINE
  5
332A
330
1A
100
AcDbEntity
  8
1
 48
0.3
100
AcDbLine
 10
172.0000000000018
 20
288.0
 30
0.0
 11
332.0000000000013
 21
287.9999999999981
 31
0.0
  0
LINE
  5
332C
330
1A
100
AcDbEntity
  8
CENTER
 48
0.2
100
AcDbLine
 10
250.0000000000013
 20
-20.76662361468697
 30
0.0
 11
250.0000000000004
 21
316.947840466586
 31
0.0
  0
LINE
  5
3346
330
1A
100
AcDbEntity
  8
1
 48
0.3
100
AcDbLine
 10
90.00000000000136
 20
263.5
 30
0.0
 11
90.0000000000009
 21
232.5000000000018
 31
0.0
  0
LINE
  5
3349
330
1A
100
AcDbEntity
  8
1
 48
0.3
100
AcDbLine
 10
89.99999999999909
 20
232.5
 30
0.0
 11
99.99999999999909
 21
232.5
 31
0.0
  0
LINE
  5
334A
330
1A
100
AcDbEntity
  8
1
 48
0.3
100
AcDbLine
 10
89.99999999999955
 20
263.5
 30
0.0
 11
99.99999999999955
 21
263.5
 31
0.0
  0
LINE
  5
334B
330
1A
100
AcDbEntity
  8
1
 48
0.3
100
AcDbLine
 10
99.99999999999955
 20
240.3842268941352
 30
0.0
 11
90.00000000000136
 21
240.3842268941352
 31
0.0
  0
LINE
  5
334C
330
1A
100
AcDbEntity
  8
1
 48
0.3
100
AcDbLine
 10
99.99999999999955
 20
255.6157731058647
 30
0.0
 11
90.00000000000136
 21
255.6157731058647
 31
0.0
  0
LINE
  5
334D
330
1A
100
AcDbEntity
  8
1
 48
0.3
100
AcDbLine
 10
90.00000000000136
 20
255.6157731058647
 30
0.0
 11
99.99999999999955
 21
240.3842268941352
 31
0.0
  0
LINE
  5
334E
330
1A
100
AcDbEntity
  8
1
 48
0.3
100
AcDbLine
 10
90.00000000000136
 20
240.3842268941352
 30
0.0
 11
99.99999999999955
 21
255.6157731058647
 31
0.0
  0
ARC
  5
3359
330
1A
100
AcDbEntity
  8
1
 48
0.3
100
AcDbCircle
 10
234.7656250000004
 20
247.9999999999963
 30
0.0
 40
11.96852500000041
100
AcDbArc
 50
149.0613703895099
 51
210.93862961049
  0
LINE
  5
335A
330
1A
100
AcDbEntity
  8
1
 48
0.3
100
AcDbLine
 10
224.5000000000008
 20
232.9999999999963
 30
0.0
 11
224.5000000000013
 21
273.0
 31
0.0
  0
LINE
  5
335B
330
1A
100
AcDbEntity
  8
1
 48
0.3
100
AcDbLine
 10
260.6531685424879
 20
247.9999999999963
 30
0.0
 11
259.0000000000009
 21
247.9999999999963
 31
0.0
  0
ARC
  5
335C
330
1A
100
AcDbEntity
  8
1
 48
0.3
100
AcDbCircle
 10
260.6531685424879
 20
248.9999999999982
 30
0.0
 40
1.0
100
AcDbArc
 50
269.9999999999997
 51
5.362571618108096
  0
CIRCLE
  5
335D
330
1A
100
AcDbEntity
  8
1
 48
0.3
100
AcDbCircle
 10
250.0000000000013
 20
247.9999999999963
 30
0.0
 40
9.0
  0
LINE
  5
335E
330
1A
100
AcDbEntity
  8
1
 48
0.3
100
AcDbLine
 10
240.9104227554853
 20
237.0185379068971
 30
0.0
 11
240.9104227554853
 21
237.0185379068971
 31
0.0
  0
ARC
  5
335F
330
1A
100
AcDbEntity
  8
1
 48
0.3
100
AcDbCircle
 10
240.9104227554853
 20
238.0185379068971
 30
0.0
 40
1.0
100
AcDbArc
 50
227.6775694296992
 51
345.9733265128948
  0
ARC
  5
3360
330
1A
100
AcDbEntity
  8
1
 48
0.3
100
AcDbCircle
 10
259.0895772445151
 20
238.0185379068953
 30
0.0
 40
1.0
100
AcDbArc
 50
194.0266734872119
 51
312.3224305702616
  0
ARC
  5
3361
330
1A
100
AcDbEntity
  8
1
 48
0.3
100
AcDbCircle
 10
239.3468314575138
 20
248.9999999999982
 30
0.0
 40
1.0
100
AcDbArc
 50
174.6374283818912
 51
269.9999999999997
  0
ARC
  5
3362
330
1A
100
AcDbEntity
  8
1
 48
0.3
100
AcDbCircle
 10
250.0000000000009
 20
247.9999999999963
 30
0.0
 40
11.69999999999999
100
AcDbArc
 50
114.6270360418343
 51
174.6374283818829
  0
ARC
  5
3363
330
1A
100
AcDbEntity
  8
1
 48
0.3
100
AcDbCircle
 10
245.541205297653
 20
257.7267234872215
 30
0.0
 40
1.0
100
AcDbArc
 50
27.96764444586342
 51
114.6270360418308
  0
ARC
  5
3364
330
1A
100
AcDbEntity
  8
1
 48
0.3
100
AcDbCircle
 10
254.4587947023483
 20
257.7267234872215
 30
0.0
 40
1.0
100
AcDbArc
 50
65.37296395816847
 51
152.0323555541237
  0
CIRCLE
  5
3365
330
1A
100
AcDbEntity
  8
1
 48
0.3
100
AcDbCircle
 10
250.0000000000009
 20
247.9999999999963
 30
0.0
 40
9.0
  0
LINE
  5
3366
330
1A
100
AcDbEntity
  8
1
 48
0.3
100
AcDbLine
 10
246.4244178654462
 20
258.1956963650027
 30
0.0
 11
247.2823854519315
 21
256.5798934240501
 31
0.0
  0
LINE
  5
3367
330
1A
100
AcDbEntity
  8
1
 48
0.3
100
AcDbLine
 10
253.5755821345555
 20
258.1956963650027
 30
0.0
 11
252.7176145480698
 21
256.5798934240501
 31
0.0
  0
LINE
  5
3368
330
1A
100
AcDbEntity
  8
1
 48
0.3
100
AcDbLine
 10
256.9835344121151
 20
242.3228310651466
 30
0.0
 11
258.1193942477416
 21
237.7761643258854
 31
0.0
  0
LINE
  5
3369
330
1A
100
AcDbEntity
  8
1
 48
0.3
100
AcDbLine
 10
243.0164655878861
 20
242.3228310651484
 30
0.0
 11
241.8806057522592
 21
237.7761643258891
 31
0.0
  0
LINE
  5
336A
330
1A
100
AcDbEntity
  8
1
 48
0.3
100
AcDbLine
 10
241.0000000000009
 20
247.9999999999963
 30
0.0
 11
239.3468314575138
 21
247.9999999999963
 31
0.0
  0
LINE
  5
336B
330
1A
100
AcDbEntity
  8
1
 48
0.3
100
AcDbLine
 10
224.5000000000008
 20
232.9999999999963
 30
0.0
 11
232.5000000000009
 21
224.9999999999963
 31
0.0
  0
LINE
  5
336C
330
1A
100
AcDbEntity
  8
1
 48
0.3
100
AcDbLine
 10
172.0000000000013
 20
288.0
 30
0.0
 11
172.0000000000013
 21
302.9999999999982
 31
0.0
  0
LINE
  5
336D
330
1A
100
AcDbEntity
  8
1
 48
0.3
100
AcDbLine
 10
174.0000000000013
 20
288.0
 30
0.0
 11
174.0000000000013
 21
302.9999999999982
 31
0.0
  0
LINE
  5
3370
330
1A
100
AcDbEntity
  8
1
 48
0.3
100
AcDbLine
 10
189.9999999999986
 20
232.4999999999981
 30
0.0
 11
189.9999999999991
 21
263.4999999999963
 31
0.0
  0
LINE
  5
3371
330
1A
100
AcDbEntity
  8
1
 48
0.3
100
AcDbLine
 10
190.0000000000009
 20
263.4999999999982
 30
0.0
 11
180.0000000000009
 21
263.4999999999982
 31
0.0
  0
LINE
  5
3372
330
1A
100
AcDbEntity
  8
1
 48
0.3
100
AcDbLine
 10
190.0000000000004
 20
232.4999999999981
 30
0.0
 11
180.0000000000004
 21
232.4999999999981
 31
0.0
  0
LINE
  5
3373
330
1A
100
AcDbEntity
  8
1
 48
0.3
100
AcDbLine
 10
180.0000000000009
 20
255.6157731058628
 30
0.0
 11
189.9999999999991
 21
255.6157731058628
 31
0.0
  0
LINE
  5
3374
330
1A
100
AcDbEntity
  8
1
 48
0.3
100
AcDbLine
 10
180.0000000000009
 20
240.3842268941334
 30
0.0
 11
189.9999999999991
 21
240.3842268941334
 31
0.0
  0
LINE
  5
3375
330
1A
100
AcDbEntity
  8
1
 48
0.3
100
AcDbLine
 10
189.9999999999991
 20
240.3842268941334
 30
0.0
 11
180.0000000000009
 21
255.6157731058628
 31
0.0
  0
LINE
  5
3376
330
1A
100
AcDbEntity
  8
1
 48
0.3
100
AcDbLine
 10
189.9999999999991
 20
255.6157731058628
 30
0.0
 11
180.0000000000009
 21
240.3842268941334
 31
0.0
  0
LINE
  5
3380
330
1A
100
AcDbEntity
  8
1
 48
0.3
100
AcDbLine
 10
224.5000000000013
 20
260.4999999999981
 30
0.0
 11
189.9999999999991
 21
260.4999999999981
 31
0.0
  0
LINE
  5
3381
330
1A
100
AcDbEntity
  8
1
 48
0.3
100
AcDbLine
 10
224.5000000000008
 20
235.4999999999981
 30
0.0
 11
189.9999999999986
 21
235.4999999999981
 31
0.0
  0
LINE
  5
3383
330
1A
100
AcDbEntity
  8
1
 48
0.3
100
AcDbLine
 10
328.0
 20
-0.000000000001819
 30
0.0
 11
328.0
 21
29.99999999999818
 31
0.0
  0
LINE
  5
3384
330
1A
100
AcDbEntity
  8
1
 48
0.3
100
AcDbLine
 10
330.0
 20
-0.000000000001819
 30
0.0
 11
330.0
 21
29.99999999999818
 31
0.0
  0
LINE
  5
3387
330
1A
100
AcDbEntity
  8
1
 48
0.3
100
AcDbLine
 10
330.0000000000009
 20
288.0
 30
0.0
 11
330.0000000000013
 21
302.9999999999982
 31
0.0
  0
LINE
  5
3388
330
1A
100
AcDbEntity
  8
1
 48
0.3
100
AcDbLine
 10
332.0000000000009
 20
288.0
 30
0.0
 11
332.0000000000013
 21
302.9999999999982
 31
0.0
  0
LINE
  5
338B
330
1A
100
AcDbEntity
  8
1
 48
0.3
100
AcDbLine
 10
275.4999999999999
 20
232.9999999999963
 30
0.0
 11
267.5
 21
224.9999999999963
 31
0.0
  0
LINE
  5
338C
330
1A
100
AcDbEntity
  8
1
 48
0.3
100
AcDbLine
 10
275.5000000000004
 20
273.0
 30
0.0
 11
275.4999999999999
 21
232.9999999999963
 31
0.0
  0
LINE
  5
338D
330
1A
100
AcDbEntity
  8
1
  6
HIDDEN
 48
0.3
100
AcDbLine
 10
230.0000000000004
 20
541.5774615102399
 30
0.0
 11
269.9999999999986
 21
541.5774615102382
 31
0.0
  0
LINE
  5
338E
330
1A
100
AcDbEntity
  8
1
  6
HIDDEN
 48
0.3
100
AcDbLine
 10
230.0000000000004
 20
553.57746151024
 30
0.0
 11
269.9999999999986
 21
553.5774615102382
 31
0.0
  0
LINE
  5
338F
330
1A
100
AcDbEntity
  8
1
  6
HIDDEN
 48
0.3
100
AcDbLine
 10
264.4999999999995
 20
536.6524615102407
 30
0.0
 11
235.5000000000004
 21
536.6524615102407
 31
0.0
  0
LINE
  5
3390
330
1A
100
AcDbEntity
  8
1
  6
HIDDEN
 48
0.3
100
AcDbLine
 10
264.4999999999995
 20
538.252461510241
 30
0.0
 11
235.5000000000004
 21
538.252461510241
 31
0.0
  0
LINE
  5
3391
330
1A
100
AcDbEntity
  8
1
  6
HIDDEN
 48
0.3
100
AcDbLine
 10
230.0000000000009
 20
593.5774615102418
 30
0.0
 11
269.9999999999986
 21
593.5774615102418
 31
0.0
  0
LINE
  5
3392
330
1A
100
AcDbEntity
  8
1
  6
HIDDEN
 48
0.3
100
AcDbLine
 10
230.0
 20
581.57746151024
 30
0.0
 11
269.9999999999986
 21
581.5774615102418
 31
0.0
  0
LINE
  5
3393
330
1A
100
AcDbEntity
  8
1
  6
HIDDEN
 48
0.3
100
AcDbLine
 10
269.2028643696726
 20
576.07746151024
 30
0.0
 11
229.0000000000004
 21
576.07746151024
 31
0.0
  0
LINE
  5
3394
330
1A
100
AcDbEntity
  8
1
  6
HIDDEN
 48
0.3
100
AcDbLine
 10
269.2028643696726
 20
559.07746151024
 30
0.0
 11
229.0000000000004
 21
559.07746151024
 31
0.0
  0
LINE
  5
3395
330
1A
100
AcDbEntity
  8
1
  6
HIDDEN
 48
0.3
100
AcDbLine
 10
264.4999999999995
 20
596.9024615102462
 30
0.0
 11
235.5000000000004
 21
596.9024615102462
 31
0.0
  0
LINE
  5
3396
330
1A
100
AcDbEntity
  8
1
  6
HIDDEN
 48
0.3
100
AcDbLine
 10
264.4999999999995
 20
598.5024615102465
 30
0.0
 11
235.5000000000004
 21
598.5024615102465
 31
0.0
  0
ARC
  5
3397
330
1A
100
AcDbEntity
  8
1
  6
HIDDEN
 48
0.3
100
AcDbCircle
 10
249.9999999999995
 20
567.57746151024
 30
0.0
 40
15.875
100
AcDbArc
 50
313.5802569142327
 51
327.6267140208685
  0
ARC
  5
3398
330
1A
100
AcDbEntity
  8
1
  6
HIDDEN
 48
0.3
100
AcDbCircle
 10
249.9999999999995
 20
567.57746151024
 30
0.0
 40
15.875
100
AcDbArc
 50
32.37328597913278
 51
46.41974308577431
  0
LINE
  5
3399
330
1A
100
AcDbEntity
  8
CENTER
 48
0.2
100
AcDbLine
 10
-10.59761429665059
 20
452.57746151024
 30
0.0
 11
336.4532269011065
 21
452.57746151024
 31
0.0
  0
LINE
  5
339C
330
1A
100
AcDbEntity
  8
CENTER
 48
0.2
100
AcDbLine
 10
187.5
 20
502.6177073711896
 30
0.0
 11
187.5
 21
527.5372156492903
 31
0.0
  0
LINE
  5
339D
330
1A
100
AcDbEntity
  8
1
 48
0.3
100
AcDbLine
 10
170.0
 20
374.57746151024
 30
0.0
 11
169.9999999999995
 21
600.57746151024
 31
0.0
  0
LINE
  5
339E
330
1A
100
AcDbEntity
  8
CENTER
 48
0.2
100
AcDbLine
 10
250.0000000000004
 20
357.1885971303909
 30
0.0
 11
250.0
 21
622.57746151024
 31
0.0
  0
LINE
  5
339F
330
1A
100
AcDbEntity
  8
CENTER
 48
0.2
100
AcDbLine
 10
175.0402458609496
 20
515.07746151024
 30
0.0
 11
199.9597541390503
 21
515.07746151024
 31
0.0
  0
LINE
  5
33A0
330
1A
100
AcDbEntity
  8
CENTER
 48
0.2
100
AcDbLine
 10
187.5
 20
377.6177073711896
 30
0.0
 11
187.5
 21
402.5372156492903
 31
0.0
  0
CIRCLE
  5
33A1
330
1A
100
AcDbEntity
  8
1
 48
0.3
100
AcDbCircle
 10
187.5000000000004
 20
390.0774615102382
 30
0.0
 40
7.0
  0
LINE
  5
33A2
330
1A
100
AcDbEntity
  8
CENTER
 48
0.2
100
AcDbLine
 10
175.0402458609496
 20
390.07746151024
 30
0.0
 11
199.9597541390503
 21
390.07746151024
 31
0.0
  0
LINE
  5
33A3
330
1A
100
AcDbEntity
  8
1
 48
0.3
100
AcDbLine
 10
170.0
 20
374.57746151024
 30
0.0
 11
172.0
 21
372.57746151024
 31
0.0
  0
CIRCLE
  5
33A4
330
1A
100
AcDbEntity
  8
1
 48
0.3
100
AcDbCircle
 10
187.5000000000004
 20
515.0774615102382
 30
0.0
 40
7.0
  0
LINE
  5
33A5
330
1A
100
AcDbEntity
  8
1
 48
0.3
100
AcDbLine
 10
149.9999974150018
 20
576.57746151024
 30
0.0
 11
164.9999974150009
 21
576.57746151024
 31
0.0
  0
LINE
  5
33A6
330
1A
100
AcDbEntity
  8
1
 48
0.3
100
AcDbLine
 10
149.9999974150018
 20
558.5774615102418
 30
0.0
 11
164.9999974150009
 21
558.5774615102418
 31
0.0
  0
ARC
  5
33A7
330
1A
100
AcDbEntity
  8
1
100
AcDbCircle
 10
179.1133323803965
 20
554.0674589252412
 30
0.0
 40
14.11333496539884
100
AcDbArc
 50
156.1350745839501
 51
180.0
  0
ARC
  5
33A8
330
1A
100
AcDbEntity
  8
1
100
AcDbCircle
 10
179.1133323803965
 20
581.0874640952406
 30
0.0
 40
14.11333496539884
100
AcDbArc
 50
180.0
 51
203.8649254160499
  0
LINE
  5
33A9
330
1A
100
AcDbEntity
  8
1
 48
0.3
100
AcDbLine
 10
154.9999974150018
 20
575.0774615102399
 30
0.0
 11
164.9999974150009
 21
575.0774615102399
 31
0.0
  0
LINE
  5
33AA
330
1A
100
AcDbEntity
  8
1
 48
0.3
100
AcDbLine
 10
154.9999974150009
 20
560.0774615102418
 30
0.0
 11
164.9999974150009
 21
560.0774615102418
 31
0.0
  0
LINE
  5
33B4
330
1A
100
AcDbEntity
  8
1
100
AcDbLine
 10
154.9999974150009
 20
558.5774615102436
 30
0.0
 11
154.9999974150018
 21
576.5774615102418
 31
0.0
  0
LINE
  5
33B5
330
1A
100
AcDbEntity
  8
1
 48
0.3
100
AcDbLine
 10
154.9999974150009
 20
560.0774615102418
 30
0.0
 11
153.4999974150009
 21
558.5774615102436
 31
0.0
  0
LINE
  5
33B6
330
1A
100
AcDbEntity
  8
1
 48
0.3
100
AcDbLine
 10
154.9999974150018
 20
575.0774615102399
 30
0.0
 11
153.4999974150018
 21
576.57746151024
 31
0.0
  0
LINE
  5
33B7
330
1A
100
AcDbEntity
  8
1
 48
0.3
100
AcDbLine
 10
90.0000000000041
 20
554.0774615102399
 30
0.0
 11
100.0000000000004
 21
554.0774615102399
 31
0.0
  0
LINE
  5
33B8
330
1A
100
AcDbEntity
  8
1
 48
0.3
100
AcDbLine
 10
90.0000000000041
 20
581.07746151024
 30
0.0
 11
100.0000000000004
 21
581.07746151024
 31
0.0
  0
LINE
  5
33B9
330
1A
100
AcDbEntity
  8
1
 48
0.3
100
AcDbLine
 10
100.0000000000004
 20
581.07746151024
 30
0.0
 11
100.0000000000004
 21
554.0774615102399
 31
0.0
  0
LINE
  5
33C5
330
1A
100
AcDbEntity
  8
1
 48
0.3
100
AcDbLine
 10
90.0000000000041
 20
581.07746151024
 30
0.0
 11
90.0000000000041
 21
554.0774615102399
 31
0.0
  0
LINE
  5
33CC
330
1A
100
AcDbEntity
  8
1
  6
HIDDEN
 48
0.3
100
AcDbLine
 10
258.9999999999931
 20
533.57746151024
 30
0.0
 11
240.9999999999931
 21
533.5774615102436
 31
0.0
  0
LINE
  5
33CF
330
1A
100
AcDbEntity
  8
1
  6
HIDDEN
 48
0.3
100
AcDbLine
 10
260.9437482153066
 20
556.07746151024
 30
0.0
 11
239.0562517846942
 21
556.07746151024
 31
0.0
  0
LINE
  5
33D2
330
1A
100
AcDbEntity
  8
1
  6
HIDDEN
 48
0.3
100
AcDbLine
 10
259.0000000000004
 20
601.5774615102454
 30
0.0
 11
241.0000000000004
 21
601.5774615102454
 31
0.0
  0
LINE
  5
33D3
330
1A
100
AcDbEntity
  8
1
  6
HIDDEN
 48
0.3
100
AcDbLine
 10
260.9437482153048
 20
579.0774615102399
 30
0.0
 11
239.056251784696
 21
579.0774615102399
 31
0.0
  0
ARC
  5
33D6
330
1A
100
AcDbEntity
  8
1
  6
HIDDEN
 48
0.3
100
AcDbCircle
 10
249.9999999999995
 20
567.57746151024
 30
0.0
 40
15.875
100
AcDbArc
 50
212.3732859791314
 51
226.4197430857673
  0
LINE
  5
33D7
330
1A
100
AcDbEntity
  8
1
  6
HIDDEN
 48
0.3
100
AcDbLine
 10
229.0000000000004
 20
559.07746151024
 30
0.0
 11
221.0000000000004
 21
555.07746151024
 31
0.0
  0
LINE
  5
33D8
330
1A
100
AcDbEntity
  8
1
  6
HIDDEN
 48
0.3
100
AcDbLine
 10
228.0000000000004
 20
551.57746151024
 30
0.0
 11
228.0000000000004
 21
543.57746151024
 31
0.0
  0
LINE
  5
33DB
330
1A
100
AcDbEntity
  8
1
  6
HIDDEN
 48
0.3
100
AcDbLine
 10
235.5000000000004
 20
538.252461510241
 30
0.0
 11
235.5000000000004
 21
536.6524615102407
 31
0.0
  0
LINE
  5
33DC
330
1A
100
AcDbEntity
  8
1
  6
HIDDEN
 48
0.3
100
AcDbLine
 10
240.9999999999941
 20
538.3274615102436
 30
0.0
 11
240.9999999999949
 21
541.5774615102382
 31
0.0
  0
LINE
  5
33DD
330
1A
100
AcDbEntity
  8
1
  6
HIDDEN
 48
0.3
100
AcDbLine
 10
240.9999999999931
 20
533.5774615102436
 30
0.0
 11
240.9999999999941
 21
536.5774615102436
 31
0.0
  0
LINE
  5
33DE
330
1A
100
AcDbEntity
  8
1
  6
HIDDEN
 48
0.3
100
AcDbLine
 10
240.9999999999977
 20
553.57746151024
 30
0.0
 11
240.9999999999977
 21
556.07746151024
 31
0.0
  0
LINE
  5
33DF
330
1A
100
AcDbEntity
  8
1
  6
HIDDEN
 48
0.3
100
AcDbLine
 10
228.0000000000009
 20
591.5774615102418
 30
0.0
 11
228.0
 21
583.57746151024
 31
0.0
  0
ARC
  5
33E0
330
1A
100
AcDbEntity
  8
1
  6
HIDDEN
 48
0.3
100
AcDbCircle
 10
249.9999999999995
 20
567.57746151024
 30
0.0
 40
15.875
100
AcDbArc
 50
133.5802569142256
 51
147.6267140208671
  0
LINE
  5
33E1
330
1A
100
AcDbEntity
  8
1
  6
HIDDEN
 48
0.3
100
AcDbLine
 10
229.0000000000004
 20
576.07746151024
 30
0.0
 11
221.0000000000004
 21
580.07746151024
 31
0.0
  0
LINE
  5
33E4
330
1A
100
AcDbEntity
  8
1
  6
HIDDEN
 48
0.3
100
AcDbLine
 10
235.5000000000004
 20
598.5024615102465
 30
0.0
 11
235.5000000000004
 21
596.9024615102462
 31
0.0
  0
LINE
  5
33E5
330
1A
100
AcDbEntity
  8
1
  6
HIDDEN
 48
0.3
100
AcDbLine
 10
241.0000000000004
 20
601.5774615102454
 30
0.0
 11
241.0000000000004
 21
598.5774615102455
 31
0.0
  0
LINE
  5
33E6
330
1A
100
AcDbEntity
  8
1
  6
HIDDEN
 48
0.3
100
AcDbLine
 10
241.0000000000004
 20
596.8274615102455
 30
0.0
 11
241.0000000000004
 21
593.57746151024
 31
0.0
  0
LINE
  5
33E7
330
1A
100
AcDbEntity
  8
1
  6
HIDDEN
 48
0.3
100
AcDbLine
 10
241.0000000000004
 20
581.57746151024
 30
0.0
 11
241.0000000000004
 21
579.0774615102418
 31
0.0
  0
LINE
  5
33E8
330
1A
100
AcDbEntity
  8
1
  6
HIDDEN
 48
0.3
100
AcDbLine
 10
250.0000000000004
 20
600.5304628324648
 30
0.0
 11
250.0000000000004
 21
532.57746151024
 31
0.0
  0
LINE
  5
33EB
330
1A
100
AcDbEntity
  8
1
  6
HIDDEN
 48
0.3
100
AcDbLine
 10
258.9999999999977
 20
556.07746151024
 30
0.0
 11
258.9999999999977
 21
553.57746151024
 31
0.0
  0
LINE
  5
33EC
330
1A
100
AcDbEntity
  8
1
  6
HIDDEN
 48
0.3
100
AcDbLine
 10
258.999999999994
 20
536.57746151024
 30
0.0
 11
258.9999999999931
 21
533.57746151024
 31
0.0
  0
LINE
  5
33ED
330
1A
100
AcDbEntity
  8
1
  6
HIDDEN
 48
0.3
100
AcDbLine
 10
258.999999999995
 20
541.5774615102382
 30
0.0
 11
258.999999999994
 21
538.32746151024
 31
0.0
  0
LINE
  5
33F0
330
1A
100
AcDbEntity
  8
1
  6
HIDDEN
 48
0.3
100
AcDbLine
 10
259.0000000000004
 20
598.5774615102455
 30
0.0
 11
259.0000000000004
 21
601.5774615102454
 31
0.0
  0
LINE
  5
33F1
330
1A
100
AcDbEntity
  8
1
  6
HIDDEN
 48
0.3
100
AcDbLine
 10
259.0000000000004
 20
579.0774615102418
 30
0.0
 11
259.0000000000004
 21
581.57746151024
 31
0.0
  0
LINE
  5
33F2
330
1A
100
AcDbEntity
  8
1
  6
HIDDEN
 48
0.3
100
AcDbLine
 10
259.0000000000004
 20
593.57746151024
 30
0.0
 11
259.0000000000004
 21
596.8274615102455
 31
0.0
  0
LINE
  5
33F3
330
1A
100
AcDbEntity
  8
1
 48
0.3
100
AcDbLine
 10
171.9999999999995
 20
602.57746151024
 30
0.0
 11
169.9999999999995
 21
600.57746151024
 31
0.0
  0
LINE
  5
33FC
330
1A
100
AcDbEntity
  8
1
  6
HIDDEN
 48
0.3
100
AcDbLine
 10
189.9999999999968
 20
554.0774615102399
 30
0.0
 11
189.9999999999968
 21
581.07746151024
 31
0.0
  0
LINE
  5
33FE
330
1A
100
AcDbEntity
  8
1
  6
HIDDEN
 48
0.3
100
AcDbLine
 10
180.0000000000004
 20
583.1774687686447
 30
0.0
 11
180.0000000000004
 21
551.9774542518352
 31
0.0
  0
LINE
  5
33FF
330
1A
100
AcDbEntity
  8
1
  6
HIDDEN
 48
0.3
100
AcDbLine
 10
189.9999999999968
 20
554.0774615102399
 30
0.0
 11
180.0000000000004
 21
554.0774615102399
 31
0.0
  0
LINE
  5
3400
330
1A
100
AcDbEntity
  8
1
  6
HIDDEN
 48
0.3
100
AcDbLine
 10
189.9999999999968
 20
581.07746151024
 30
0.0
 11
180.0000000000004
 21
581.07746151024
 31
0.0
  0
LINE
  5
3401
330
1A
100
AcDbEntity
  8
1
100
AcDbLine
 10
164.999997415
 20
581.0874640952406
 30
0.0
 11
164.999997415
 21
554.0674589252412
 31
0.0
  0
LINE
  5
3402
330
1A
100
AcDbEntity
  8
1
100
AcDbLine
 10
164.999997415
 20
554.0674589252412
 30
0.0
 11
166.2066621758008
 21
551.9774542518352
 31
0.0
  0
LINE
  5
3403
330
1A
100
AcDbEntity
  8
1
100
AcDbLine
 10
164.999997415
 20
581.0874640952406
 30
0.0
 11
166.2066621758008
 21
583.1774687686447
 31
0.0
  0
ARC
  5
3404
330
1A
100
AcDbEntity
  8
1
100
AcDbCircle
 10
190.8133378241996
 20
567.57746151024
 30
0.0
 40
25.81334040920221
100
AcDbArc
 50
162.4120462260061
 51
197.5879537739938
  0
LINE
  5
3405
330
1A
100
AcDbEntity
  8
1
100
AcDbLine
 10
166.2066621758008
 20
551.9774542518352
 30
0.0
 11
170.0
 21
551.9774542518352
 31
0.0
  0
LINE
  5
3406
330
1A
100
AcDbEntity
  8
1
100
AcDbLine
 10
166.2066621758008
 20
583.1774687686447
 30
0.0
 11
170.0
 21
583.1774687686447
 31
0.0
  0
LINE
  5
3407
330
1A
100
AcDbEntity
  8
1
100
AcDbLine
 10
166.2066621758008
 20
575.3774651394433
 30
0.0
 11
170.0
 21
575.3774651394433
 31
0.0
  0
LINE
  5
3408
330
1A
100
AcDbEntity
  8
1
100
AcDbLine
 10
166.2066621758008
 20
559.7774578810385
 30
0.0
 11
170.0
 21
559.7774578810385
 31
0.0
  0
LINE
  5
340D
330
1A
100
AcDbEntity
  8
1
  6
HIDDEN
 48
0.3
100
AcDbLine
 10
221.0000000000004
 20
555.07746151024
 30
0.0
 11
189.9999999999968
 21
555.07746151024
 31
0.0
  0
LINE
  5
340E
330
1A
100
AcDbEntity
  8
1
  6
HIDDEN
 48
0.3
100
AcDbLine
 10
221.0000000000004
 20
580.0774615102418
 30
0.0
 11
189.9999999999968
 21
580.07746151024
 31
0.0
  0
LINE
  5
340F
330
1A
100
AcDbEntity
  8
1
 48
0.3
100
AcDbLine
 10
330.0
 20
374.57746151024
 30
0.0
 11
330.0
 21
600.57746151024
 31
0.0
  0
LINE
  5
3410
330
1A
100
AcDbEntity
  8
CENTER
 48
0.2
100
AcDbLine
 10
312.5
 20
502.6177073711896
 30
0.0
 11
312.5
 21
527.5372156492903
 31
0.0
  0
LINE
  5
3411
330
1A
100
AcDbEntity
  8
1
 48
0.3
100
AcDbLine
 10
328.0
 20
372.57746151024
 30
0.0
 11
330.0
 21
374.57746151024
 31
0.0
  0
LINE
  5
3412
330
1A
100
AcDbEntity
  8
CENTER
 48
0.2
100
AcDbLine
 10
312.5
 20
377.6177073711896
 30
0.0
 11
312.5
 21
402.5372156492903
 31
0.0
  0
LINE
  5
3413
330
1A
100
AcDbEntity
  8
CENTER
 48
0.2
100
AcDbLine
 10
300.0402458609496
 20
390.07746151024
 30
0.0
 11
324.9597541390503
 21
390.07746151024
 31
0.0
  0
CIRCLE
  5
3414
330
1A
100
AcDbEntity
  8
1
 48
0.3
100
AcDbCircle
 10
312.5000000000004
 20
390.0774615102382
 30
0.0
 40
7.0
  0
LINE
  5
3415
330
1A
100
AcDbEntity
  8
CENTER
 48
0.2
100
AcDbLine
 10
300.0402458609496
 20
515.07746151024
 30
0.0
 11
324.9597541390503
 21
515.07746151024
 31
0.0
  0
CIRCLE
  5
3416
330
1A
100
AcDbEntity
  8
1
 48
0.3
100
AcDbCircle
 10
312.5000000000004
 20
515.0774615102382
 30
0.0
 40
7.0
  0
LINE
  5
3417
330
1A
100
AcDbEntity
  8
1
 48
0.3
100
AcDbLine
 10
328.0
 20
602.57746151024
 30
0.0
 11
330.0
 21
600.57746151024
 31
0.0
  0
LINE
  5
3426
330
1A
100
AcDbEntity
  8
1
  6
HIDDEN
 48
0.3
100
AcDbLine
 10
271.9999999999986
 20
551.5774615102381
 30
0.0
 11
271.9999999999986
 21
543.5774615102381
 31
0.0
  0
LINE
  5
3427
330
1A
100
AcDbEntity
  8
1
  6
HIDDEN
 48
0.3
100
AcDbLine
 10
264.5000000000004
 20
538.252461510241
 30
0.0
 11
264.5000000000004
 21
536.6524615102389
 31
0.0
  0
LINE
  5
3428
330
1A
100
AcDbEntity
  8
1
  6
HIDDEN
 48
0.3
100
AcDbLine
 10
271.9999999999986
 20
591.5774615102418
 30
0.0
 11
271.9999999999986
 21
583.5774615102418
 31
0.0
  0
ARC
  5
3429
330
1A
100
AcDbEntity
  8
1
  6
HIDDEN
 48
0.3
100
AcDbCircle
 10
249.9999999999995
 20
567.57746151024
 30
0.0
 40
21.0
100
AcDbArc
 50
336.1237922694498
 51
23.87620773055138
  0
LINE
  5
342A
330
1A
100
AcDbEntity
  8
1
  6
HIDDEN
 48
0.3
100
AcDbLine
 10
264.5000000000004
 20
598.5024615102465
 30
0.0
 11
264.5000000000004
 21
596.9024615102443
 31
0.0
  0
LINE
  5
342B
330
1A
100
AcDbEntity
  8
1
  6
HIDDEN
 48
0.3
100
AcDbLine
 10
170.0
 20
583.1774687686447
 30
0.0
 11
180.0000000000004
 21
583.1774687686447
 31
0.0
  0
LINE
  5
342C
330
1A
100
AcDbEntity
  8
1
  6
HIDDEN
 48
0.3
100
AcDbLine
 10
170.0
 20
575.3774651394433
 30
0.0
 11
180.0000000000004
 21
575.3774651394433
 31
0.0
  0
LINE
  5
342D
330
1A
100
AcDbEntity
  8
1
  6
HIDDEN
 48
0.3
100
AcDbLine
 10
169.9999999999995
 20
559.7774578810385
 30
0.0
 11
180.0000000000004
 21
559.7774578810385
 31
0.0
  0
LINE
  5
342E
330
1A
100
AcDbEntity
  8
1
  6
HIDDEN
 48
0.3
100
AcDbLine
 10
169.9999999999995
 20
551.9774542518352
 30
0.0
 11
180.0000000000004
 21
551.9774542518352
 31
0.0
  0
LINE
  5
36E5
330
1A
100
AcDbEntity
  8
1
 48
0.3
100
AcDbLine
 10
220.0000000000004
 20
288.0
 30
0.0
 11
220.0000000000004
 21
273.0
 31
0.0
  0
LINE
  5
36E9
330
1A
100
AcDbEntity
  8
1
 48
0.3
100
AcDbLine
 10
280.0000000000009
 20
287.9999999999981
 30
0.0
 11
279.9999999999986
 21
273.0000000000018
 31
0.0
  0
LINE
  5
36EC
330
1A
100
AcDbEntity
  8
1
  6
HIDDEN
 48
0.3
100
AcDbLine
 10
280.0000000000018
 20
293.0
 30
0.0
 11
220.0000000000004
 21
293.0
 31
0.0
  0
LINE
  5
36EE
330
1A
100
AcDbEntity
  8
1
 48
0.3
100
AcDbLine
 10
332.0000000000013
 20
303.0
 30
0.0
 11
172.0000000000013
 21
303.0
 31
0.0
  0
LINE
  5
36F1
330
1A
100
AcDbEntity
  8
1
  6
HIDDEN
 48
0.3
100
AcDbLine
 10
220.0000000000004
 20
288.0
 30
0.0
 11
220.0000000000004
 21
293.0
 31
0.0
  0
LINE
  5
36F2
330
1A
100
AcDbEntity
  8
1
  6
HIDDEN
 48
0.3
100
AcDbLine
 10
280.0000000000009
 20
287.9999999999981
 30
0.0
 11
280.0000000000013
 21
293.0
 31
0.0
  0
CIRCLE
  5
3709
330
1A
100
AcDbEntity
  8
1
  6
HIDDEN
 48
0.3
100
AcDbCircle
 10
250.0000000000004
 20
452.57746151024
 30
0.0
 40
25.5
  0
LINE
  5
382E
330
1A
100
AcDbEntity
  8
1
 48
0.5
100
AcDbLine
 10
64.99999999999909
 20
217.9999999999981
 30
0.0
 11
169.9999999999986
 21
95.00000000000364
 31
0.0
  0
LINE
  5
382F
330
1A
100
AcDbEntity
  8
1
 48
0.5
100
AcDbLine
 10
170.0000000000009
 20
30.00000000000364
 30
0.0
 11
0.0
 21
29.99999999999818
 31
0.0
  0
LINE
  5
3830
330
1A
100
AcDbEntity
  8
1
 48
0.3
100
AcDbLine
 10
170.0
 20
95.00000000000364
 30
0.0
 11
170.0000000000009
 21
30.00000000000364
 31
0.0
  0
LINE
  5
3831
330
1A
100
AcDbEntity
  8
1
 48
0.3
100
AcDbLine
 10
64.99999999999909
 20
217.9999999999981
 30
0.0
 11
55.49999999999954
 21
217.9999999999981
 31
0.0
  0
LINE
  5
3832
330
1A
100
AcDbEntity
  8
1
 48
0.3
100
AcDbLine
 10
-0.0000000000009095
 20
218.0
 30
0.0
 11
0.0000000000004547
 21
29.99999999999818
 31
0.0
  0
LINE
  5
3879
330
1A
100
AcDbEntity
  8
1
 48
0.3
100
AcDbLine
 10
4.499999999999545
 20
217.9999999999963
 30
0.0
 11
-0.0000000000009095
 21
217.9999999999981
 31
0.0
  0
LINE
  5
3BE3
330
1A
100
AcDbEntity
  8
1
 48
0.3
100
AcDbLine
 10
226.5000000000009
 20
232.9999999999963
 30
0.0
 11
226.5000000000013
 21
273.0
 31
0.0
  0
LINE
  5
3BE4
330
1A
100
AcDbEntity
  8
1
 48
0.3
100
AcDbLine
 10
273.5000000000004
 20
273.0
 30
0.0
 11
273.4999999999999
 21
232.9999999999963
 31
0.0
  0
LINE
  5
3BE5
330
1A
100
AcDbEntity
  8
1
 48
0.3
100
AcDbLine
 10
279.9999999999982
 20
273.0
 30
0.0
 11
220.0000000000004
 21
273.0
 31
0.0
  0
LINE
  5
3BE6
330
1A
100
AcDbEntity
  8
1
 48
0.3
100
AcDbLine
 10
6.49999999999909
 20
181.0
 30
0.0
 11
6.500000000000454
 21
265.0
 31
0.0
  0
LINE
  5
3BE7
330
1A
100
AcDbEntity
  8
1
 48
0.3
100
AcDbLine
 10
53.49999999999955
 20
265.0
 30
0.0
 11
53.49999999999909
 21
181.0
 31
0.0
  0
LINE
  5
3BE8
330
1A
100
AcDbEntity
  8
1
 48
0.3
100
AcDbLine
 10
10.00000000000045
 20
593.57746151024
 30
0.0
 11
10.00000000000045
 21
581.57746151024
 31
0.0
  0
LINE
  5
3BE9
330
1A
100
AcDbEntity
  8
1
 48
0.3
100
AcDbLine
 10
49.99999999999864
 20
593.57746151024
 30
0.0
 11
49.99999999999864
 21
581.57746151024
 31
0.0
  0
LINE
  5
3BEA
330
1A
100
AcDbEntity
  8
1
 48
0.3
100
AcDbLine
 10
10.00000000000045
 20
553.57746151024
 30
0.0
 11
10.00000000000045
 21
541.5774615102399
 31
0.0
  0
LINE
  5
3BEB
330
1A
100
AcDbEntity
  8
1
 48
0.3
100
AcDbLine
 10
49.99999999999864
 20
553.57746151024
 30
0.0
 11
49.99999999999864
 21
541.5774615102399
 31
0.0
  0
LINE
  5
3BEC
330
1A
100
AcDbEntity
  8
1
 48
0.3
100
AcDbLine
 10
16.00000000000045
 20
593.57746151024
 30
0.0
 11
16.00000000000045
 21
581.57746151024
 31
0.0
  0
LINE
  5
3BED
330
1A
100
AcDbEntity
  8
1
 48
0.3
100
AcDbLine
 10
43.99999999999863
 20
593.57746151024
 30
0.0
 11
43.99999999999863
 21
581.57746151024
 31
0.0
  0
LINE
  5
3BEE
330
1A
100
AcDbEntity
  8
1
 48
0.3
100
AcDbLine
 10
43.99999999999863
 20
553.57746151024
 30
0.0
 11
43.99999999999863
 21
541.5774615102399
 31
0.0
  0
LINE
  5
3BEF
330
1A
100
AcDbEntity
  8
1
 48
0.3
100
AcDbLine
 10
16.00000000000045
 20
553.57746151024
 30
0.0
 11
16.00000000000045
 21
541.5774615102399
 31
0.0
  0
LINE
  5
3BF0
330
1A
100
AcDbEntity
  8
1
 48
0.3
100
AcDbLine
 10
10.00000000000045
 20
593.5774615102418
 30
0.0
 11
8.000000000000454
 21
591.5774615102418
 31
0.0
  0
LINE
  5
3BF1
330
1A
100
AcDbEntity
  8
1
 48
0.3
100
AcDbLine
 10
8.000000000000454
 20
543.5774615102381
 30
0.0
 11
10.00000000000045
 21
541.5774615102382
 31
0.0
  0
LINE
  5
3BF2
330
1A
100
AcDbEntity
  8
1
 48
0.3
100
AcDbLine
 10
49.99999999999818
 20
541.5774615102382
 30
0.0
 11
51.99999999999818
 21
543.5774615102381
 31
0.0
  0
LINE
  5
3BF3
330
1A
100
AcDbEntity
  8
1
 48
0.3
100
AcDbLine
 10
49.99999999999818
 20
593.57746151024
 30
0.0
 11
51.99999999999818
 21
591.5774615102399
 31
0.0
  0
LINE
  5
3BF4
330
1A
100
AcDbEntity
  8
1
  6
HIDDEN
 48
0.3
100
AcDbLine
 10
230.0000000000009
 20
593.5774615102418
 30
0.0
 11
228.0000000000009
 21
591.5774615102418
 31
0.0
  0
LINE
  5
3BF5
330
1A
100
AcDbEntity
  8
1
  6
HIDDEN
 48
0.3
100
AcDbLine
 10
228.0
 20
583.57746151024
 30
0.0
 11
230.0
 21
581.57746151024
 31
0.0
  0
LINE
  5
3BF6
330
1A
100
AcDbEntity
  8
1
  6
HIDDEN
 48
0.3
100
AcDbLine
 10
269.9999999999986
 20
593.5774615102418
 30
0.0
 11
271.9999999999986
 21
591.5774615102418
 31
0.0
  0
LINE
  5
3BF7
330
1A
100
AcDbEntity
  8
1
  6
HIDDEN
 48
0.3
100
AcDbLine
 10
271.9999999999986
 20
583.5774615102418
 30
0.0
 11
269.9999999999986
 21
581.5774615102418
 31
0.0
  0
LINE
  5
3BF8
330
1A
100
AcDbEntity
  8
1
  6
HIDDEN
 48
0.3
100
AcDbLine
 10
269.9999999999986
 20
553.5774615102382
 30
0.0
 11
271.9999999999986
 21
551.5774615102381
 31
0.0
  0
LINE
  5
3BF9
330
1A
100
AcDbEntity
  8
1
  6
HIDDEN
 48
0.3
100
AcDbLine
 10
271.9999999999986
 20
543.5774615102381
 30
0.0
 11
269.9999999999986
 21
541.5774615102382
 31
0.0
  0
LINE
  5
3BFA
330
1A
100
AcDbEntity
  8
1
  6
HIDDEN
 48
0.3
100
AcDbLine
 10
230.0000000000004
 20
541.5774615102399
 30
0.0
 11
228.0000000000004
 21
543.57746151024
 31
0.0
  0
LINE
  5
3BFB
330
1A
100
AcDbEntity
  8
1
  6
HIDDEN
 48
0.3
100
AcDbLine
 10
230.0000000000004
 20
553.57746151024
 30
0.0
 11
228.0000000000004
 21
551.57746151024
 31
0.0
  0
LINE
  5
3BFC
330
1A
100
AcDbEntity
  8
1
 48
0.3
100
AcDbLine
 10
99.99999999999955
 20
263.5
 30
0.0
 11
99.99999999999909
 21
232.5
 31
0.0
  0
LINE
  5
3BFD
330
1A
100
AcDbEntity
  8
1
 48
0.3
100
AcDbLine
 10
180.0000000000009
 20
263.4999999999982
 30
0.0
 11
180.0000000000004
 21
232.4999999999981
 31
0.0
  0
LINE
  5
3C5E
330
1A
100
AcDbEntity
  8
1
 48
0.3
100
AcDbLine
 10
129.9999974150005
 20
266.1000000000003
 30
0.0
 11
149.9999974150005
 21
266.1000000000003
 31
0.0
  0
LINE
  5
3C5F
330
1A
100
AcDbEntity
  8
1
 48
0.3
100
AcDbLine
 10
129.9999974150005
 20
229.8999999999996
 30
0.0
 11
149.9999974150005
 21
229.8999999999996
 31
0.0
  0
LINE
  5
3C60
330
1A
100
AcDbEntity
  8
1
 48
0.3
100
AcDbLine
 10
149.9999974150005
 20
255.7942286340566
 30
0.0
 11
129.9999974150005
 21
255.7942286340566
 31
0.0
  0
LINE
  5
3C61
330
1A
100
AcDbEntity
  8
1
 48
0.3
100
AcDbLine
 10
149.9999974150005
 20
240.205771365936
 30
0.0
 11
129.9999974150005
 21
240.205771365936
 31
0.0
  0
LINE
  5
3C62
330
1A
100
AcDbEntity
  8
1
100
AcDbLine
 10
113.8000025850005
 20
261.5000072584043
 30
0.0
 11
101.1999999999998
 21
261.5000072584062
 31
0.0
  0
LINE
  5
3C63
330
1A
100
AcDbEntity
  8
1
100
AcDbLine
 10
113.8000025850005
 20
234.4999927415938
 30
0.0
 11
101.199999999998
 21
234.4999927415974
 31
0.0
  0
LINE
  5
3C64
330
1A
100
AcDbEntity
  8
1
100
AcDbLine
 10
113.8000052499874
 20
247.9999999999981
 30
0.0
 11
101.199999999998
 21
248.0000072584043
 31
0.0
  0
LINE
  5
3C65
330
1A
100
AcDbEntity
  8
1
100
AcDbLine
 10
99.99999999999909
 20
232.3999927415952
 30
0.0
 11
100.0
 21
263.6000072584047
 31
0.0
  0
ARC
  5
3C66
330
1A
100
AcDbEntity
  8
1
 48
0.3
100
AcDbCircle
 10
119.5843749999894
 20
254.7500072584025
 30
0.0
 40
19.58437499999089
100
AcDbArc
 50
159.8388040248998
 51
200.1611959750896
  0
ARC
  5
3C67
330
1A
100
AcDbEntity
  8
1
 48
0.3
100
AcDbCircle
 10
119.584415828529
 20
241.2499999999981
 30
0.0
 40
19.58441582853068
100
AcDbArc
 50
159.8388252599647
 51
200.1611747400299
  0
LINE
  5
3C68
330
1A
100
AcDbEntity
  8
1
100
AcDbLine
 10
115.0000025850013
 20
241.2499999999963
 30
0.0
 11
115.0000025850013
 21
254.7500072584043
 31
0.0
  0
LINE
  5
3C69
330
1A
100
AcDbEntity
  8
1
100
AcDbLine
 10
129.9999974150005
 20
229.8999999999996
 30
0.0
 11
129.9999974150005
 21
266.1000000000003
 31
0.0
  0
LINE
  5
3C6A
330
1A
100
AcDbEntity
  8
1
 48
0.3
100
AcDbLine
 10
115.0000025850004
 20
257.0
 30
0.0
 11
129.9999974150005
 21
257.0
 31
0.0
  0
LINE
  5
3C6B
330
1A
100
AcDbEntity
  8
1
 48
0.3
100
AcDbLine
 10
115.0000025850004
 20
239.0000000000018
 30
0.0
 11
129.9999974150005
 21
239.0000000000018
 31
0.0
  0
LINE
  5
3C6C
330
1A
100
AcDbEntity
  8
1
100
AcDbLine
 10
124.9999974150005
 20
239.0000000000018
 30
0.0
 11
124.9999974150005
 21
257.0
 31
0.0
  0
LINE
  5
3C6D
330
1A
100
AcDbEntity
  8
1
 48
0.3
100
AcDbLine
 10
115.0000025850004
 20
255.5
 30
0.0
 11
124.9999974150005
 21
255.5
 31
0.0
  0
LINE
  5
3C6E
330
1A
100
AcDbEntity
  8
1
 48
0.3
100
AcDbLine
 10
115.0000025850004
 20
240.5000000000018
 30
0.0
 11
124.9999974150014
 21
240.5000000000036
 31
0.0
  0
LINE
  5
3C6F
330
1A
100
AcDbEntity
  8
1
 48
0.3
100
AcDbLine
 10
124.9999974150014
 20
240.5000000000036
 30
0.0
 11
126.4999974150005
 21
239.0000000000018
 31
0.0
  0
LINE
  5
3C70
330
1A
100
AcDbEntity
  8
1
 48
0.3
100
AcDbLine
 10
124.9999974150005
 20
255.5
 30
0.0
 11
126.4999974150005
 21
257.0
 31
0.0
  0
ARC
  5
3C71
330
1A
100
AcDbEntity
  8
1
 48
0.3
100
AcDbCircle
 10
95.41558675647957
 20
241.2499999999963
 30
0.0
 40
19.58441582852132
100
AcDbArc
 50
339.838825259966
 51
20.16117474004945
  0
ARC
  5
3C72
330
1A
100
AcDbEntity
  8
1
 48
0.3
100
AcDbCircle
 10
95.41562758498002
 20
254.7500072584043
 30
0.0
 40
19.58437500001992
100
AcDbArc
 50
339.8388040249311
 51
20.16119597505939
  0
LINE
  5
3C73
330
1A
100
AcDbEntity
  8
1
100
AcDbLine
 10
180.0000000000009
 20
263.600007258401
 30
0.0
 11
180.0000000000009
 21
232.3999927415916
 31
0.0
  0
LINE
  5
3C74
330
1A
100
AcDbEntity
  8
1
100
AcDbLine
 10
149.9999974150005
 20
229.8999999999996
 30
0.0
 11
149.9999974150005
 21
266.1000000000003
 31
0.0
  0
LINE
  5
3C75
330
1A
100
AcDbEntity
  8
1
 48
0.3
100
AcDbLine
 10
149.9999974150005
 20
239.0000000000018
 30
0.0
 11
164.9999974150005
 21
239.0
 31
0.0
  0
LINE
  5
3C76
330
1A
100
AcDbEntity
  8
1
 48
0.3
100
AcDbLine
 10
149.9999974150005
 20
257.0
 30
0.0
 11
164.9999974150005
 21
256.9999999999982
 31
0.0
  0
LINE
  5
3C77
330
1A
100
AcDbEntity
  8
1
100
AcDbLine
 10
154.9999974150004
 20
239.0000000000018
 30
0.0
 11
154.9999974150004
 21
257.0
 31
0.0
  0
LINE
  5
3C78
330
1A
100
AcDbEntity
  8
1
 48
0.3
100
AcDbLine
 10
154.9999974150004
 20
255.4999999999981
 30
0.0
 11
164.9999974150005
 21
255.4999999999981
 31
0.0
  0
LINE
  5
3C79
330
1A
100
AcDbEntity
  8
1
 48
0.3
100
AcDbLine
 10
154.9999974150004
 20
240.5
 30
0.0
 11
164.9999974150005
 21
240.5
 31
0.0
  0
LINE
  5
3C7A
330
1A
100
AcDbEntity
  8
1
 48
0.3
100
AcDbLine
 10
154.9999974150004
 20
255.4999999999981
 30
0.0
 11
153.4999974150005
 21
256.9999999999982
 31
0.0
  0
LINE
  5
3C7B
330
1A
100
AcDbEntity
  8
1
 48
0.3
100
AcDbLine
 10
154.9999974150004
 20
240.5
 30
0.0
 11
153.4999974150005
 21
239.0000000000018
 31
0.0
  0
ARC
  5
3C7C
330
1A
100
AcDbEntity
  8
1
 48
0.3
100
AcDbCircle
 10
184.5843724149899
 20
254.7500072583989
 30
0.0
 40
19.58437499999089
100
AcDbArc
 50
159.8388040248998
 51
200.1611959750896
  0
LINE
  5
3C7D
330
1A
100
AcDbEntity
  8
1
100
AcDbLine
 10
178.8000000000019
 20
261.5000072584007
 30
0.0
 11
166.1999974150012
 21
261.5000072584025
 31
0.0
  0
ARC
  5
3C7E
330
1A
100
AcDbEntity
  8
1
 48
0.3
100
AcDbCircle
 10
184.5844132435295
 20
241.2499999999945
 30
0.0
 40
19.58441582853068
100
AcDbArc
 50
159.8388252599647
 51
200.1611747400299
  0
LINE
  5
3C7F
330
1A
100
AcDbEntity
  8
1
100
AcDbLine
 10
178.8000000000019
 20
234.4999927415901
 30
0.0
 11
166.1999974149994
 21
234.4999927415938
 31
0.0
  0
ARC
  5
3C80
330
1A
100
AcDbEntity
  8
1
 48
0.3
100
AcDbCircle
 10
160.4155841714809
 20
241.2499999999927
 30
0.0
 40
19.58441582852132
100
AcDbArc
 50
339.838825259966
 51
20.16117474004945
  0
LINE
  5
3C81
330
1A
100
AcDbEntity
  8
1
100
AcDbLine
 10
180.0000000000018
 20
241.2499999999927
 30
0.0
 11
180.0000000000018
 21
254.7500072584007
 31
0.0
  0
ARC
  5
3C82
330
1A
100
AcDbEntity
  8
1
 48
0.3
100
AcDbCircle
 10
160.4156249999805
 20
254.7500072584007
 30
0.0
 40
19.58437500001992
100
AcDbArc
 50
339.8388040249311
 51
20.16119597505939
  0
LINE
  5
3C83
330
1A
100
AcDbEntity
  8
1
 48
0.3
100
AcDbLine
 10
164.9999974150005
 20
255.4999999999981
 30
0.0
 11
164.9999974150005
 21
240.5
 31
0.0
  0
LINE
  5
3C84
330
1A
100
AcDbEntity
  8
1
100
AcDbLine
 10
178.8000000000001
 20
248.000007258397
 30
0.0
 11
166.1999974149994
 21
248.0000072583989
 31
0.0
  0
LINE
  5
3C85
330
1A
100
AcDbEntity
  8
1
100
AcDbLine
 10
99.9999974149996
 20
581.0759118143559
 30
0.0
 11
99.9999974149996
 21
554.0559066443566
 31
0.0
  0
ARC
  5
3C86
330
1A
100
AcDbEntity
  8
1
100
AcDbCircle
 10
125.8133378241982
 20
567.5659092293553
 30
0.0
 40
25.81334040920221
100
AcDbArc
 50
162.412046226005
 51
197.5879537739927
  0
LINE
  5
3C87
330
1A
100
AcDbEntity
  8
1
100
AcDbLine
 10
129.9999974150014
 20
583.1659092293575
 30
0.0
 11
129.9999974149995
 21
551.965909229355
 31
0.0
  0
LINE
  5
3C88
330
1A
100
AcDbEntity
  8
1
100
AcDbLine
 10
124.9999974150014
 20
576.5659092293535
 30
0.0
 11
124.9999974150005
 21
558.5659092293553
 31
0.0
  0
LINE
  5
3C89
330
1A
100
AcDbEntity
  8
1
100
AcDbLine
 10
100.0000000000009
 20
581.0759162917074
 30
0.0
 11
99.99999999999909
 21
554.0559021670069
 31
0.0
  0
ARC
  5
3C8A
330
1A
100
AcDbEntity
  8
1
100
AcDbCircle
 10
89.18666217580176
 20
567.5659092293572
 30
0.0
 40
25.81334040920221
100
AcDbArc
 50
342.4120462260039
 51
17.58795377399159
  0
LINE
  5
3C8B
330
1A
100
AcDbEntity
  8
1
100
AcDbLine
 10
115.0000025850004
 20
581.0759118143559
 30
0.0
 11
115.0000025850004
 21
554.0559066443566
 31
0.0
  0
LINE
  5
3C8C
330
1A
100
AcDbEntity
  8
1
100
AcDbLine
 10
149.9999974150005
 20
583.1659092293539
 30
0.0
 11
149.9999974149996
 21
551.965909229355
 31
0.0
  0
LINE
  5
3C8D
330
1A
100
AcDbEntity
  8
1
 48
0.3
100
AcDbLine
 10
129.9999974150005
 20
551.965909229355
 30
0.0
 11
149.9999974150005
 21
551.9659092293531
 31
0.0
  0
LINE
  5
3C8E
330
1A
100
AcDbEntity
  8
1
 48
0.3
100
AcDbLine
 10
115.0000025850004
 20
558.5659092293553
 30
0.0
 11
129.9999974150014
 21
558.5659092293553
 31
0.0
  0
LINE
  5
3C8F
330
1A
100
AcDbEntity
  8
1
 48
0.3
100
AcDbLine
 10
115.0000025850004
 20
560.0659092293553
 30
0.0
 11
124.9999974150014
 21
560.0659092293553
 31
0.0
  0
LINE
  5
3C90
330
1A
100
AcDbEntity
  8
1
 48
0.3
100
AcDbLine
 10
124.9999974150005
 20
560.0659092293553
 30
0.0
 11
126.4999974150005
 21
558.5659092293553
 31
0.0
  0
LINE
  5
3C91
330
1A
100
AcDbEntity
  8
1
100
AcDbLine
 10
115.0000025850004
 20
554.0559066443566
 30
0.0
 11
113.7933378241996
 21
551.9659019709506
 31
0.0
  0
ARC
  5
3C92
330
1A
100
AcDbEntity
  8
1
100
AcDbCircle
 10
100.886667619603
 20
554.0559066443583
 30
0.0
 40
14.11333496539884
100
AcDbArc
 50
359.9999999999977
 51
23.86492541604769
  0
ARC
  5
3C93
330
1A
100
AcDbEntity
  8
1
100
AcDbCircle
 10
114.1133323803951
 20
554.0559066443583
 30
0.0
 40
14.11333496539884
100
AcDbArc
 50
156.1350745839489
 51
179.9999999999988
  0
LINE
  5
3C94
330
1A
100
AcDbEntity
  8
1
100
AcDbLine
 10
99.9999974149996
 20
554.0559066443566
 30
0.0
 11
101.2066621758003
 21
551.9659019709506
 31
0.0
  0
LINE
  5
3C95
330
1A
100
AcDbEntity
  8
1
100
AcDbLine
 10
113.7933378241996
 20
551.9659019709506
 30
0.0
 11
101.2066621757994
 21
551.9659019709524
 31
0.0
  0
LINE
  5
3C96
330
1A
100
AcDbEntity
  8
1
100
AcDbLine
 10
113.7933378241996
 20
559.7659056001539
 30
0.0
 11
101.206662175794
 21
559.7659056001539
 31
0.0
  0
LINE
  5
3C97
330
1A
100
AcDbEntity
  8
1
 48
0.3
100
AcDbLine
 10
129.9999974150005
 20
567.5659092293553
 30
0.0
 11
149.9999974150005
 21
567.5659092293517
 31
0.0
  0
LINE
  5
3C98
330
1A
100
AcDbEntity
  8
1
 48
0.3
100
AcDbLine
 10
129.9999974150014
 20
583.1659092293575
 30
0.0
 11
149.9999974150014
 21
583.1659092293539
 31
0.0
  0
LINE
  5
3C99
330
1A
100
AcDbEntity
  8
1
 48
0.3
100
AcDbLine
 10
115.0000025850004
 20
575.0659092293536
 30
0.0
 11
124.9999974150014
 21
575.0659092293517
 31
0.0
  0
LINE
  5
3C9A
330
1A
100
AcDbEntity
  8
1
 48
0.3
100
AcDbLine
 10
115.0000025850004
 20
576.5659092293535
 30
0.0
 11
129.9999974150014
 21
576.5659092293535
 31
0.0
  0
LINE
  5
3C9B
330
1A
100
AcDbEntity
  8
1
 48
0.3
100
AcDbLine
 10
124.9999974150014
 20
575.0659092293517
 30
0.0
 11
126.4999974150014
 21
576.5659092293535
 31
0.0
  0
ARC
  5
3C9C
330
1A
100
AcDbEntity
  8
1
100
AcDbCircle
 10
100.8866676196048
 20
581.0759118143578
 30
0.0
 40
14.11333496539884
100
AcDbArc
 50
336.1350745839478
 51
359.9999999999977
  0
LINE
  5
3C9D
330
1A
100
AcDbEntity
  8
1
100
AcDbLine
 10
115.0000025850004
 20
581.0759118143559
 30
0.0
 11
113.7933378242005
 21
583.1659164877601
 31
0.0
  0
LINE
  5
3C9E
330
1A
100
AcDbEntity
  8
1
100
AcDbLine
 10
99.9999974149996
 20
581.0759118143559
 30
0.0
 11
101.2066621758003
 21
583.1659164877601
 31
0.0
  0
ARC
  5
3C9F
330
1A
100
AcDbEntity
  8
1
100
AcDbCircle
 10
114.1133323803969
 20
581.0759118143578
 30
0.0
 40
14.11333496539884
100
AcDbArc
 50
179.9999999999988
 51
203.8649254160488
  0
LINE
  5
3CA0
330
1A
100
AcDbEntity
  8
1
100
AcDbLine
 10
113.7933378241996
 20
575.3659128585586
 30
0.0
 11
101.2066621757949
 21
575.3659128585605
 31
0.0
  0
LINE
  5
3CA1
330
1A
100
AcDbEntity
  8
1
100
AcDbLine
 10
113.7933378242005
 20
583.1659164877601
 30
0.0
 11
101.2066621758021
 21
583.1659164877619
 31
0.0
  0
CIRCLE
  5
3CA3
330
1A
100
AcDbEntity
  8
1
 48
0.3
100
AcDbCircle
 10
50.0
 20
427.57746151024
 30
0.0
 40
7.0
  0
CIRCLE
  5
3CA4
330
1A
100
AcDbEntity
  8
1
 48
0.3
100
AcDbCircle
 10
50.0
 20
427.57746151024
 30
0.0
 40
8.0
  0
LINE
  5
3CA5
330
1A
100
AcDbEntity
  8
CENTER
 48
0.3
100
AcDbLine
 10
50.0
 20
407.9839179938881
 30
0.0
 11
50.0
 21
447.1710050265919
 31
0.0
  0
LINE
  5
3D94
330
1A
100
AcDbEntity
  8
CENTER
 48
0.3
100
AcDbLine
 10
30.40645648364807
 20
427.57746151024
 30
0.0
 11
69.59354351635193
 21
427.57746151024
 31
0.0
  0
VIEWPORT
  5
22
330
17
100
AcDbEntity
 67
     1
  8
0
100
AcDbViewport
 10
172.8602239586535
 20
96.81786540245639
 30
0.0
 40
681.9861671510594
 41
420.4935019233582
 68
     1
 69
     1
 12
172.8602239586535
 22
96.81786540245639
 13
0.0
 23
0.0
 14
1.0
 24
1.0
 15
10.0
 25
10.0
 16
0.0
 26
0.0
 36
1.0
 17
0.0
 27
0.0
 37
0.0
 42
50.0
 43
0.0
 44
0.0
 45
420.4935019233582
 50
0.0
 51
0.0
 72
   100
 90
    32768
  1

281
     0
 71
     1
 74
     0
110
0.0
120
0.0
130
0.0
111
1.0
121
0.0
131
0.0
112
0.0
122
1.0
132
0.0
 79
     0
146
0.0
  0
VIEWPORT
  5
2A3
330
17
100
AcDbEntity
 67
     1
  8
0
100
AcDbViewport
 10
212.4999999999999
 20
129.2396321014521
 30
0.0
 40
384.9999999999998
 41
305.5207357970956
 68
     2
 69
     2
 12
162.8495040724865
 22
301.0409112210836
 13
0.0
 23
0.0
 14
168.0
 24
168.0
 15
0.0
 25
0.0
 16
0.0
 26
0.0
 36
1.0
 17
0.0
 27
0.0
 37
0.0
 42
50.0
 43
0.0
 44
0.0
 45
651.5206141429769
 50
0.0
 51
0.0
 72
   100
 90
    36864
  1

281
     0
 71
     1
 74
     0
110
0.0
120
0.0
130
0.0
111
1.0
121
0.0
131
0.0
112
0.0
122
1.0
132
0.0
 79
     0
146
0.0
  0
ENDSEC
  0
SECTION
  2
OBJECTS
  0
DICTIONARY
  5
C
330
0
100
AcDbDictionary
281
     1
  3
ACAD_GROUP
350
D
  3
ACAD_MLINESTYLE
350
E
  3
CONTENTDICTIONARY
350
DFB
  3
ACAD_PLOTSTYLENAME
350
3E14
  3
ACAD_LAYOUT
350
3E16
  3
ACAD_PLOTSETTINGS
350
3E17
  0
DICTIONARY
  5
D
102
{ACAD_REACTORS
330
C
102
}
330
C
100
AcDbDictionary
281
     1
  0
DICTIONARY
  5
E
102
{ACAD_REACTORS
330
C
102
}
330
C
100
AcDbDictionary
281
     1
  3
STANDARD
350
13
  0
DICTIONARY
  5
DFB
102
{ACAD_REACTORS
330
C
102
}
330
C
100
AcDbDictionary
281
     1
  0
ACDBDICTIONARYWDFLT
  5
3E14
102
{ACAD_REACTORS
330
C
102
}
330
C
100
AcDbDictionary
281
     1
  3
Normal
350
3E15
100
AcDbDictionaryWithDefault
340
3E15
  0
DICTIONARY
  5
3E16
102
{ACAD_REACTORS
330
C
102
}
330
C
100
AcDbDictionary
281
     1
  3
Model
350
3E18
  3
ﾚｲｱｳﾄ1
350
3E19
  0
DICTIONARY
  5
3E17
102
{ACAD_REACTORS
330
C
102
}
330
C
100
AcDbDictionary
281
     1
  0
MLINESTYLE
  5
13
102
{ACAD_REACTORS
330
E
102
}
330
E
100
AcDbMlineStyle
  2
STANDARD
 70
     0
  3

 62
     0
 51
90.0
 52
90.0
 71
     2
 49
0.5
 62
   256
  6
BYLAYER
 49
-0.5
 62
   256
  6
BYLAYER
  0
ACDBPLACEHOLDER
  5
3E15
102
{ACAD_REACTORS
330
3E14
102
}
330
3E14
  0
LAYOUT
  5
3E18
102
{ACAD_REACTORS
330
3E16
102
}
330
3E16
100
AcDbPlotSettings
  1

  2
C:\Program Files\ACAD LT 2000\plotters\DWF Classic.pc3
  4

  6

 40
0.0
 41
0.0
 42
0.0
 43
0.0
 44
0.0
 45
0.0
 46
0.0
 47
0.0
 48
0.0
 49
0.0
140
0.0
141
0.0
142
1.0
143
1.0
 70
  1712
 72
     0
 73
     0
 74
     0
  7

 75
     0
147
1.0
148
0.0
149
0.0
100
AcDbLayout
  1
Model
 70
     1
 71
     0
 10
0.0
 20
0.0
 11
12.0
 21
9.0
 12
0.0
 22
0.0
 32
0.0
 14
0.0
 24
0.0
 34
0.0
 15
0.0
 25
0.0
 35
0.0
146
0.0
 13
0.0
 23
0.0
 33
0.0
 16
1.0
 26
0.0
 36
0.0
 17
0.0
 27
1.0
 37
0.0
 76
     0
330
1A
  0
LAYOUT
  5
3E19
102
{ACAD_REACTORS
330
3E16
102
}
330
3E16
100
AcDbPlotSettings
  1

  2
C:\Program Files\ACAD LT 2000\plotters\DWF Classic.pc3
  4
ANSI_A_(8.50_x_11.00_Inches)
  6

 40
5.793749809265136
 41
17.79375076293945
 42
5.793746948242187
 43
17.79376220703125
 44
215.8999938964843
 45
279.3999938964843
 46
0.0
 47
0.0
 48
0.0
 49
0.0
140
0.0
141
0.0
142
1.0
143
1.581325424747624
 70
   688
 72
     1
 73
     1
 74
     1
  7

 75
     0
147
0.6323809029754881
148
-19.82208352049588
149
26.38321416586189
100
AcDbLayout
  1
ﾚｲｱｳﾄ1
 70
     1
 71
     1
 10
-8.31564505939604
 20
-35.54501804387955
 11
433.5066689634458
 21
305.863131507488
 12
0.0
 22
0.0
 32
0.0
 14
20.0
 24
-23.52073579709565
 34
0.0
 15
404.9999999999998
 25
281.9999999999999
 35
0.0
146
0.0
 13
0.0
 23
0.0
 33
0.0
 16
1.0
 26
0.0
 36
0.0
 17
0.0
 27
1.0
 37
0.0
 76
     0
330
17
331
22
  0
ENDSEC
  0
EOF
