  0
SECTION
  2
HEADER
  9
$ACADVER
  1
AC1015
  9
$ACADMAINTVER
 70
     6
  9
$DWGCODEPAGE
  3
ANSI_932
  9
$INSBASE
 10
0.0
 20
0.0
 30
0.0
  9
$EXTMIN
 10
-15.00185614141355
 20
-9.936097381179934
 30
0.0
  9
$EXTMAX
 10
335.4394292970682
 20
515.4865635187161
 30
0.0
  9
$LIMMIN
 10
0.0
 20
0.0
  9
$LIMMAX
 10
10000.0
 20
10000.0
  9
$ORTHOMODE
 70
     1
  9
$REGENMODE
 70
     1
  9
$FILLMODE
 70
     1
  9
$QTEXTMODE
 70
     0
  9
$MIRRTEXT
 70
     1
  9
$LTSCALE
 40
33.67003367003366
  9
$ATTMODE
 70
     1
  9
$TEXTSIZE
 40
3.5
  9
$TRACEWID
 40
1.0
  9
$TEXTSTYLE
  7
AD-STANDARD
  9
$CLAYER
  8
0
  9
$CELTYPE
  6
BYLAYER
  9
$CECOLOR
 62
   256
  9
$CELTSCALE
 40
0.3
  9
$DISPSILH
 70
     0
  9
$DIMSCALE
 40
0.0
  9
$DIMASZ
 40
2.5
  9
$DIMEXO
 40
1.0
  9
$DIMDLI
 40
0.38
  9
$DIMRND
 40
0.0
  9
$DIMDLE
 40
0.0
  9
$DIMEXE
 40
2.0
  9
$DIMTP
 40
0.5
  9
$DIMTM
 40
0.5
  9
$DIMTXT
 40
10.0
  9
$DIMCEN
 40
-2.0
  9
$DIMTSZ
 40
0.0
  9
$DIMTOL
 70
     0
  9
$DIMLIM
 70
     0
  9
$DIMTIH
 70
     0
  9
$DIMTOH
 70
     0
  9
$DIMSE1
 70
     0
  9
$DIMSE2
 70
     0
  9
$DIMTAD
 70
     1
  9
$DIMZIN
 70
     8
  9
$DIMBLK
  1

  9
$DIMASO
 70
     1
  9
$DIMSHO
 70
     1
  9
$DIMPOST
  1

  9
$DIMAPOST
  1

  9
$DIMALT
 70
     0
  9
$DIMALTD
 70
     2
  9
$DIMALTF
 40
25.4
  9
$DIMLFAC
 40
1.0
  9
$DIMTOFL
 70
     1
  9
$DIMTVP
 40
0.0
  9
$DIMTIX
 70
     0
  9
$DIMSOXD
 70
     0
  9
$DIMSAH
 70
     1
  9
$DIMBLK1
  1
DOT
  9
$DIMBLK2
  1
DOT
  9
$DIMSTYLE
  2
AD-STANDARD
  9
$DIMCLRD
 70
     9
  9
$DIMCLRE
 70
     9
  9
$DIMCLRT
 70
     2
  9
$DIMTFAC
 40
0.6
  9
$DIMGAP
 40
0.5
  9
$DIMJUST
 70
     0
  9
$DIMSD1
 70
     0
  9
$DIMSD2
 70
     0
  9
$DIMTOLJ
 70
     2
  9
$DIMTZIN
 70
     8
  9
$DIMALTZ
 70
     0
  9
$DIMALTTZ
 70
     0
  9
$DIMUPT
 70
     0
  9
$DIMDEC
 70
     4
  9
$DIMTDEC
 70
     4
  9
$DIMALTU
 70
     2
  9
$DIMALTTD
 70
     2
  9
$DIMTXSTY
  7
BIGFONT
  9
$DIMAUNIT
 70
     0
  9
$DIMADEC
 70
     0
  9
$DIMALTRND
 40
0.0
  9
$DIMAZIN
 70
     0
  9
$DIMDSEP
 70
    46
  9
$DIMATFIT
 70
     3
  9
$DIMFRAC
 70
     0
  9
$DIMLDRBLK
  1
DOT
  9
$DIMLUNIT
 70
     2
  9
$DIMLWD
 70
    -2
  9
$DIMLWE
 70
    -2
  9
$DIMTMOVE
 70
     0
  9
$LUNITS
 70
     2
  9
$LUPREC
 70
     4
  9
$SKETCHINC
 40
1.0
  9
$FILLETRAD
 40
1.0
  9
$AUNITS
 70
     0
  9
$AUPREC
 70
     0
  9
$MENU
  1
.
  9
$ELEVATION
 40
0.0
  9
$PELEVATION
 40
0.0
  9
$THICKNESS
 40
0.0
  9
$LIMCHECK
 70
     0
  9
$CHAMFERA
 40
2.0
  9
$CHAMFERB
 40
2.0
  9
$CHAMFERC
 40
673.4006734006733
  9
$CHAMFERD
 40
0.0
  9
$SKPOLY
 70
     0
  9
$TDCREATE
 40
2450858.806556018
  9
$TDUCREATE
 40
2450858.431556018
  9
$TDUPDATE
 40
2455610.801218715
  9
$TDUUPDATE
 40
2455610.426218715
  9
$TDINDWG
 40
0.8221745718
  9
$TDUSRTIMER
 40
0.8221745718
  9
$USRTIMER
 70
     1
  9
$ANGBASE
 50
0.0
  9
$ANGDIR
 70
     0
  9
$PDMODE
 70
     0
  9
$PDSIZE
 40
0.0
  9
$PLINEWID
 40
0.0
  9
$SPLFRAME
 70
     0
  9
$SPLINETYPE
 70
     6
  9
$SPLINESEGS
 70
     8
  9
$HANDSEED
  5
395E
  9
$SURFTAB1
 70
     6
  9
$SURFTAB2
 70
     6
  9
$SURFTYPE
 70
     6
  9
$SURFU
 70
     6
  9
$SURFV
 70
     6
  9
$UCSBASE
  2

  9
$UCSNAME
  2

  9
$UCSORG
 10
0.0
 20
0.0
 30
0.0
  9
$UCSXDIR
 10
1.0
 20
0.0
 30
0.0
  9
$UCSYDIR
 10
0.0
 20
1.0
 30
0.0
  9
$UCSORTHOREF
  2

  9
$UCSORTHOVIEW
 70
     0
  9
$UCSORGTOP
 10
0.0
 20
0.0
 30
0.0
  9
$UCSORGBOTTOM
 10
0.0
 20
0.0
 30
0.0
  9
$UCSORGLEFT
 10
0.0
 20
0.0
 30
0.0
  9
$UCSORGRIGHT
 10
0.0
 20
0.0
 30
0.0
  9
$UCSORGFRONT
 10
0.0
 20
0.0
 30
0.0
  9
$UCSORGBACK
 10
0.0
 20
0.0
 30
0.0
  9
$PUCSBASE
  2

  9
$PUCSNAME
  2

  9
$PUCSORG
 10
0.0
 20
0.0
 30
0.0
  9
$PUCSXDIR
 10
1.0
 20
0.0
 30
0.0
  9
$PUCSYDIR
 10
0.0
 20
1.0
 30
0.0
  9
$PUCSORTHOREF
  2

  9
$PUCSORTHOVIEW
 70
     0
  9
$PUCSORGTOP
 10
0.0
 20
0.0
 30
0.0
  9
$PUCSORGBOTTOM
 10
0.0
 20
0.0
 30
0.0
  9
$PUCSORGLEFT
 10
0.0
 20
0.0
 30
0.0
  9
$PUCSORGRIGHT
 10
0.0
 20
0.0
 30
0.0
  9
$PUCSORGFRONT
 10
0.0
 20
0.0
 30
0.0
  9
$PUCSORGBACK
 10
0.0
 20
0.0
 30
0.0
  9
$USERI1
 70
     0
  9
$USERI2
 70
     0
  9
$USERI3
 70
     0
  9
$USERI4
 70
     0
  9
$USERI5
 70
     0
  9
$USERR1
 40
0.0
  9
$USERR2
 40
0.0
  9
$USERR3
 40
0.0
  9
$USERR4
 40
0.0
  9
$USERR5
 40
0.0
  9
$WORLDVIEW
 70
     1
  9
$SHADEDGE
 70
     3
  9
$SHADEDIF
 70
    70
  9
$TILEMODE
 70
     1
  9
$MAXACTVP
 70
    16
  9
$PINSBASE
 10
0.0
 20
0.0
 30
0.0
  9
$PLIMCHECK
 70
     0
  9
$PEXTMIN
 10
20.0
 20
-24.69597485252495
 30
0.0
  9
$PEXTMAX
 10
404.9999999999998
 20
281.9999999999999
 30
0.0
  9
$PLIMMIN
 10
-8.315645059396043
 20
-35.53021887603954
  9
$PLIMMAX
 10
433.5066689634458
 20
305.8779306753281
  9
$UNITMODE
 70
     0
  9
$VISRETAIN
 70
     0
  9
$PLINEGEN
 70
     0
  9
$PSLTSCALE
 70
     1
  9
$TREEDEPTH
 70
  3020
  9
$CMLSTYLE
  2
STANDARD
  9
$CMLJUST
 70
     0
  9
$CMLSCALE
 40
1.0
  9
$PROXYGRAPHICS
 70
     1
  9
$MEASUREMENT
 70
     0
  9
$CELWEIGHT
370
    -1
  9
$ENDCAPS
280
     0
  9
$JOINSTYLE
280
     0
  9
$LWDISPLAY
290
     0
  9
$INSUNITS
 70
     0
  9
$HYPERLINKBASE
  1

  9
$STYLESHEET
  1

  9
$XEDIT
290
     1
  9
$CEPSNTYPE
380
     0
  9
$PSTYLEMODE
290
     1
  9
$FINGERPRINTGUID
  2
{0298312C-AE2B-40C0-9664-A5D91C259C6C}
  9
$VERSIONGUID
  2
{0A632318-70DB-4454-99C9-03467A8B8BCE}
  9
$EXTNAMES
290
     1
  9
$PSVPSCALE
 40
0.0
  9
$OLESTARTUP
290
     0
  0
ENDSEC
  0
SECTION
  2
CLASSES
  0
CLASS
  1
LWPOLYLINE
  2
AcDbPolyline
  3
AutoCAD 2000
 90
    32768
280
     0
281
     1
  0
CLASS
  1
HATCH
  2
AcDbHatch
  3
AutoCAD 2000
 90
    32768
280
     0
281
     1
  0
CLASS
  1
ACDBDICTIONARYWDFLT
  2
AcDbDictionaryWithDefault
  3
AutoCAD 2000
 90
        0
280
     0
281
     0
  0
CLASS
  1
ACDBPLACEHOLDER
  2
AcDbPlaceHolder
  3
AutoCAD 2000
 90
        0
280
     0
281
     0
  0
CLASS
  1
LAYOUT
  2
AcDbLayout
  3
AutoCAD 2000
 90
        0
280
     0
281
     0
  0
ENDSEC
  0
SECTION
  2
TABLES
  0
TABLE
  2
VPORT
  5
8
330
0
100
AcDbSymbolTable
 70
     5
  0
VPORT
  5
395D
330
8
100
AcDbSymbolTableRecord
100
AcDbViewportTableRecord
  2
*Active
 70
     0
 10
0.0
 20
0.0
 11
1.0
 21
1.0
 12
143.9008622720515
 22
241.6149324574071
 13
0.0
 23
0.0
 14
168.0
 24
168.0
 15
0.0
 25
0.0
 16
0.0
 26
0.0
 36
1.0
 17
0.0
 27
0.0
 37
0.0
 40
639.7399404888929
 41
1.621870882740448
 42
50.0
 43
0.0
 44
0.0
 50
0.0
 51
0.0
 71
     0
 72
   100
 73
     1
 74
     0
 75
     0
 76
     0
 77
     0
 78
     1
281
     0
 65
     1
110
0.0
120
0.0
130
0.0
111
1.0
121
0.0
131
0.0
112
0.0
122
1.0
132
0.0
 79
     0
146
0.0
  0
ENDTAB
  0
TABLE
  2
LTYPE
  5
5
330
0
100
AcDbSymbolTable
 70
     3
  0
LTYPE
  5
14
330
5
100
AcDbSymbolTableRecord
100
AcDbLinetypeTableRecord
  2
BYBLOCK
 70
     0
  3

 72
    65
 73
     0
 40
0.0
  0
LTYPE
  5
15
330
5
100
AcDbSymbolTableRecord
100
AcDbLinetypeTableRecord
  2
BYLAYER
 70
     0
  3

 72
    65
 73
     0
 40
0.0
  0
LTYPE
  5
16
330
5
100
AcDbSymbolTableRecord
100
AcDbLinetypeTableRecord
  2
CONTINUOUS
 70
     0
  3
Solid line
 72
    65
 73
     0
 40
0.0
  0
LTYPE
  5
6E
330
5
100
AcDbSymbolTableRecord
100
AcDbLinetypeTableRecord
  2
CENTER
 70
     0
  3
____ _ ____ _ ____ _ ____ _ ____ _ ____ _ ____ 
 72
    65
 73
     4
 40
2.0
 49
1.25
 74
     0
 49
-0.25
 74
     0
 49
0.25
 74
     0
 49
-0.25
 74
     0
  0
LTYPE
  5
6F
330
5
100
AcDbSymbolTableRecord
100
AcDbLinetypeTableRecord
  2
HIDDEN
 70
     0
  3
__ __ __ __ __ __ __ __ __ __ __ __ __ __ __ __
 72
    65
 73
     2
 40
0.375
 49
0.25
 74
     0
 49
-0.125
 74
     0
  0
ENDTAB
  0
TABLE
  2
LAYER
  5
2
330
0
100
AcDbSymbolTable
 70
    12
  0
LAYER
  5
F
330
2
100
AcDbSymbolTableRecord
100
AcDbLayerTableRecord
  2
0
 70
     0
 62
     3
  6
CONTINUOUS
370
    -3
390
394E
  0
LAYER
  5
72
330
2
100
AcDbSymbolTableRecord
100
AcDbLayerTableRecord
  2
DEFPOINTS
 70
     0
 62
     7
  6
CONTINUOUS
290
     0
370
    -3
390
394E
  0
LAYER
  5
74
330
2
100
AcDbSymbolTableRecord
100
AcDbLayerTableRecord
  2
CENTER
 70
     0
 62
     8
  6
CENTER
370
    -3
390
394E
  0
LAYER
  5
1060
330
2
100
AcDbSymbolTableRecord
100
AcDbLayerTableRecord
  2
1
 70
     0
 62
   210
  6
CONTINUOUS
370
    -3
390
394E
  0
ENDTAB
  0
TABLE
  2
STYLE
  5
3
330
0
100
AcDbSymbolTable
 70
     5
  0
STYLE
  5
10
330
3
100
AcDbSymbolTableRecord
100
AcDbTextStyleTableRecord
  2
STANDARD
 70
     0
 40
0.0
 41
0.8
 50
0.0
 71
     0
 42
84.17508417508416
  3
TXT
  4
bigfont.shx
  0
STYLE
  5
63
330
3
100
AcDbSymbolTableRecord
100
AcDbTextStyleTableRecord
  2
AD-STANDARD
 70
     0
 40
0.0
 41
0.6
 50
0.0
 71
     0
 42
3.5
  3
romans.shx
  4
bigfont.shx
  0
STYLE
  5
22A
330
3
100
AcDbSymbolTableRecord
100
AcDbTextStyleTableRecord
  2
BIGFONT
 70
     0
 40
0.0
 41
0.8
 50
15.0
 71
     0
 42
6.0
  3
ROMANS.SHX
  4
BIGFONT.SHX
  0
ENDTAB
  0
TABLE
  2
VIEW
  5
6
330
0
100
AcDbSymbolTable
 70
     0
  0
ENDTAB
  0
TABLE
  2
UCS
  5
7
330
0
100
AcDbSymbolTable
 70
     0
  0
ENDTAB
  0
TABLE
  2
APPID
  5
9
330
0
100
AcDbSymbolTable
 70
     4
  0
APPID
  5
11
330
9
100
AcDbSymbolTableRecord
100
AcDbRegAppTableRecord
  2
ACAD
 70
     0
  0
APPID
  5
DFC
330
9
100
AcDbSymbolTableRecord
100
AcDbRegAppTableRecord
  2
CONTENTTABDATA
 70
     0
  0
APPID
  5
DFD
330
9
100
AcDbSymbolTableRecord
100
AcDbRegAppTableRecord
  2
CONTENTCURRENTTAB
 70
     0
  0
APPID
  5
F72
330
9
100
AcDbSymbolTableRecord
100
AcDbRegAppTableRecord
  2
CONTENTBLOCKDESCRIPTION
 70
     0
  0
ENDTAB
  0
TABLE
  2
DIMSTYLE
  5
A
330
0
100
AcDbSymbolTable
 70
     2
100
AcDbDimStyleTable
 71
     0
  0
DIMSTYLE
105
1D
330
A
100
AcDbSymbolTableRecord
100
AcDbDimStyleTableRecord
  2
STANDARD
 70
     0
340
10
  0
DIMSTYLE
105
68
330
A
100
AcDbSymbolTableRecord
100
AcDbDimStyleTableRecord
  2
AD-STANDARD
 70
     0
 41
2.5
 42
1.0
 44
2.0
 73
     0
 74
     0
 77
     1
 78
     8
140
3.5
141
-2.0
147
0.5
172
     1
176
     9
177
     9
178
     2
284
     8
340
63
  0
ENDTAB
  0
TABLE
  2
BLOCK_RECORD
  5
1
330
0
100
AcDbSymbolTable
 70
     4
  0
BLOCK_RECORD
  5
1A
330
1
100
AcDbSymbolTableRecord
100
AcDbBlockTableRecord
  2
*MODEL_SPACE
340
3951
  0
BLOCK_RECORD
  5
17
330
1
100
AcDbSymbolTableRecord
100
AcDbBlockTableRecord
  2
*PAPER_SPACE
340
3952
  0
BLOCK_RECORD
  5
88
330
1
100
AcDbSymbolTableRecord
100
AcDbBlockTableRecord
  2
_DOT
340
0
  0
ENDTAB
  0
ENDSEC
  0
SECTION
  2
BLOCKS
  0
BLOCK
  5
1B
330
1A
100
AcDbEntity
  8
0
100
AcDbBlockBegin
  2
*MODEL_SPACE
 70
     0
 10
0.0
 20
0.0
 30
0.0
  3
*MODEL_SPACE
  1

  0
ENDBLK
  5
1C
330
1A
100
AcDbEntity
  8
0
100
AcDbBlockEnd
  0
BLOCK
  5
18
330
17
100
AcDbEntity
 67
     1
  8
0
100
AcDbBlockBegin
  2
*PAPER_SPACE
 70
     0
 10
0.0
 20
0.0
 30
0.0
  3
*PAPER_SPACE
  1

  0
ENDBLK
  5
19
330
17
100
AcDbEntity
 67
     1
  8
0
100
AcDbBlockEnd
  0
BLOCK
  5
AE
330
88
100
AcDbEntity
  8
0
100
AcDbBlockBegin
  2
_DOT
 70
     0
 10
0.0
 20
0.0
 30
0.0
  3
_DOT
  1

  0
LINE
  5
AF
330
88
100
AcDbEntity
  8
0
  6
ByBlock
 62
     0
100
AcDbLine
 10
-0.0625
 20
0.0
 30
0.0
 11
-1.0
 21
0.0
 31
0.0
  0
LWPOLYLINE
  5
B0
330
88
100
AcDbEntity
  8
0
  6
ByBlock
 62
     0
100
AcDbPolyline
 90
        2
 70
     1
 43
0.125
 10
-0.0625
 20
0.0
 42
1.0
 10
0.0625
 20
0.0
 42
1.0
  0
ENDBLK
  5
B4
330
88
100
AcDbEntity
  8
0
100
AcDbBlockEnd
  0
ENDSEC
  0
SECTION
  2
ENTITIES
  0
LINE
  5
287A
330
1A
100
AcDbEntity
  8
CENTER
 48
0.3
100
AcDbLine
 10
-7.305487225256911
 20
464.2495345604638
 30
0.0
 11
286.6957657280554
 21
464.2495345604638
 31
0.0
  0
LINE
  5
287B
330
1A
100
AcDbEntity
  8
1
 48
0.3
100
AcDbLine
 10
2.000000000003183
 20
499.2495345604639
 30
0.0
 11
313.0000000000036
 21
499.2495345604639
 31
0.0
  0
LINE
  5
287C
330
1A
100
AcDbEntity
  8
1
 48
0.3
100
AcDbLine
 10
0.0
 20
478.2495345604639
 30
0.0
 11
100.0000000000022
 21
478.249534560462
 31
0.0
  0
LINE
  5
287D
330
1A
100
AcDbEntity
  8
1
 48
0.3
100
AcDbLine
 10
0.0
 20
450.2495345604638
 30
0.0
 11
100.0000000000022
 21
450.2495345604621
 31
0.0
  0
LINE
  5
287F
330
1A
100
AcDbEntity
  8
1
 48
0.3
100
AcDbLine
 10
59.00000000000227
 20
476.7495345604638
 30
0.0
 11
90.00000000000591
 21
476.7495345604638
 31
0.0
  0
LINE
  5
2880
330
1A
100
AcDbEntity
  8
1
 48
0.3
100
AcDbLine
 10
59.00000000000227
 20
451.749534560462
 30
0.0
 11
90.00000000000591
 21
451.7495345604638
 31
0.0
  0
LINE
  5
2881
330
1A
100
AcDbEntity
  8
1
 48
0.3
100
AcDbLine
 10
2.000000000003183
 20
299.2495345604638
 30
0.0
 11
313.0000000000031
 21
299.2495345604638
 31
0.0
  0
LINE
  5
2882
330
1A
100
AcDbEntity
  8
1
 48
0.3
100
AcDbLine
 10
0.000000000001819
 20
23.0
 30
0.0
 11
315.0000000000018
 21
22.99999999999818
 31
0.0
  0
LINE
  5
2883
330
1A
100
AcDbEntity
  8
1
 48
0.3
100
AcDbLine
 10
0.000000000001819
 20
0.0
 30
0.0
 11
315.0000000000018
 21
0.0
 31
0.0
  0
LINE
  5
2884
330
1A
100
AcDbEntity
  8
1
 48
0.3
100
AcDbLine
 10
135.0000000000004
 20
72.99999999999818
 30
0.0
 11
65.00000000000046
 21
128.0
 31
0.0
  0
LINE
  5
2885
330
1A
100
AcDbEntity
  8
1
 48
0.3
100
AcDbLine
 10
55.49999999999909
 20
170.5
 30
0.0
 11
90.00000000000136
 21
170.5
 31
0.0
  0
LINE
  5
2886
330
1A
100
AcDbEntity
  8
1
 48
0.3
100
AcDbLine
 10
55.49999999999863
 20
145.5
 30
0.0
 11
90.0000000000009
 21
145.5
 31
0.0
  0
LINE
  5
2887
330
1A
100
AcDbEntity
  8
1
 48
0.3
100
AcDbLine
 10
0.0000000000013642
 20
128.0
 30
0.0
 11
0.0
 21
0.000000000003638
 31
0.0
  0
LINE
  5
2888
330
1A
100
AcDbEntity
  8
1
 48
0.3
100
AcDbLine
 10
2.000000000001818
 20
23.0
 30
0.0
 11
2.000000000001818
 21
0.0
 31
0.0
  0
LINE
  5
2889
330
1A
100
AcDbEntity
  8
1
 48
0.3
100
AcDbLine
 10
0.000000000001819
 20
23.0
 30
0.0
 11
0.000000000001819
 21
0.0
 31
0.0
  0
ARC
  5
288A
330
1A
100
AcDbEntity
  8
1
 48
0.3
100
AcDbCircle
 10
45.234375
 20
158.0
 30
0.0
 40
11.96852500000041
100
AcDbArc
 50
329.0613703895099
 51
30.93862961048896
  0
LINE
  5
288B
330
1A
100
AcDbEntity
  8
1
 48
0.3
100
AcDbLine
 10
55.49999999999863
 20
91.0
 30
0.0
 11
4.499999999999545
 21
91.0
 31
0.0
  0
LINE
  5
288C
330
1A
100
AcDbEntity
  8
1
 48
0.3
100
AcDbLine
 10
12.5
 20
181.0000000000018
 30
0.0
 11
47.49999999999817
 21
181.0000000000018
 31
0.0
  0
LINE
  5
288D
330
1A
100
AcDbEntity
  8
1
 48
0.3
100
AcDbLine
 10
55.49999999999954
 20
173.0
 30
0.0
 11
55.49999999999909
 21
91.0
 31
0.0
  0
LINE
  5
288E
330
1A
100
AcDbEntity
  8
1
 48
0.3
100
AcDbLine
 10
4.49999999999909
 20
91.0
 30
0.0
 11
4.5
 21
173.0
 31
0.0
  0
LINE
  5
288F
330
1A
100
AcDbEntity
  8
1
 48
0.3
100
AcDbLine
 10
47.49999999999954
 20
181.0
 30
0.0
 11
55.49999999999954
 21
173.0
 31
0.0
  0
LINE
  5
2890
330
1A
100
AcDbEntity
  8
1
 48
0.3
100
AcDbLine
 10
12.5
 20
181.0
 30
0.0
 11
4.5
 21
173.0
 31
0.0
  0
LINE
  5
2891
330
1A
100
AcDbEntity
  8
1
 48
0.3
100
AcDbLine
 10
20.91042275548397
 20
147.0185379069007
 30
0.0
 11
20.91042275548397
 21
147.0185379069007
 31
0.0
  0
ARC
  5
2892
330
1A
100
AcDbEntity
  8
1
 48
0.3
100
AcDbCircle
 10
20.91042275548397
 20
148.0185379069007
 30
0.0
 40
1.0
100
AcDbArc
 50
227.6775694296992
 51
345.9733265128948
  0
ARC
  5
2893
330
1A
100
AcDbEntity
  8
1
 48
0.3
100
AcDbCircle
 10
29.99999999999954
 20
158.0
 30
0.0
 40
14.5
100
AcDbArc
 50
312.3224305702665
 51
227.6775694297239
  0
LINE
  5
2894
330
1A
100
AcDbEntity
  8
1
 48
0.3
100
AcDbLine
 10
23.01646558788479
 20
152.322831065152
 30
0.0
 11
21.8806057522579
 21
147.7761643258927
 31
0.0
  0
ARC
  5
2895
330
1A
100
AcDbEntity
  8
1
 48
0.3
100
AcDbCircle
 10
39.08957724451374
 20
148.0185379068989
 30
0.0
 40
1.0
100
AcDbArc
 50
194.0266734872119
 51
312.3224305702616
  0
LINE
  5
2896
330
1A
100
AcDbEntity
  8
1
 48
0.3
100
AcDbLine
 10
36.98353441211384
 20
152.3228310651502
 30
0.0
 11
38.11939424774027
 21
147.7761643258891
 31
0.0
  0
ARC
  5
2897
330
1A
100
AcDbEntity
  8
1
 48
0.3
100
AcDbCircle
 10
19.3468314575125
 20
159.0000000000018
 30
0.0
 40
1.0
100
AcDbArc
 50
174.6374283818912
 51
269.9999999999997
  0
ARC
  5
2898
330
1A
100
AcDbEntity
  8
1
 48
0.3
100
AcDbCircle
 10
29.99999999999954
 20
158.0
 30
0.0
 40
11.69999999999999
100
AcDbArc
 50
114.6270360418343
 51
174.6374283818829
  0
LINE
  5
2899
330
1A
100
AcDbEntity
  8
1
 48
0.3
100
AcDbLine
 10
20.99999999999954
 20
158.0
 30
0.0
 11
19.3468314575125
 21
158.0
 31
0.0
  0
ARC
  5
289A
330
1A
100
AcDbEntity
  8
1
 48
0.3
100
AcDbCircle
 10
40.65316854248658
 20
159.0000000000018
 30
0.0
 40
1.0
100
AcDbArc
 50
269.9999999999997
 51
5.362571618108096
  0
ARC
  5
289B
330
1A
100
AcDbEntity
  8
1
 48
0.3
100
AcDbCircle
 10
29.99999999999954
 20
158.0
 30
0.0
 40
11.69999999999999
100
AcDbArc
 50
5.362571618116416
 51
65.372963958167
  0
LINE
  5
289C
330
1A
100
AcDbEntity
  8
1
 48
0.3
100
AcDbLine
 10
40.65316854248658
 20
158.0
 30
0.0
 11
38.99999999999954
 21
158.0
 31
0.0
  0
ARC
  5
289D
330
1A
100
AcDbEntity
  8
1
 48
0.3
100
AcDbCircle
 10
25.54120529765168
 20
167.7267234872251
 30
0.0
 40
1.0
100
AcDbArc
 50
27.96764444586342
 51
114.6270360418308
  0
LINE
  5
289E
330
1A
100
AcDbEntity
  8
1
 48
0.3
100
AcDbLine
 10
26.42441786544486
 20
168.1956963650063
 30
0.0
 11
27.28238545193017
 21
166.5798934240538
 31
0.0
  0
ARC
  5
289F
330
1A
100
AcDbEntity
  8
1
 48
0.3
100
AcDbCircle
 10
34.45879470234695
 20
167.7267234872251
 30
0.0
 40
1.0
100
AcDbArc
 50
65.37296395816847
 51
152.0323555541237
  0
LINE
  5
28A0
330
1A
100
AcDbEntity
  8
1
 48
0.3
100
AcDbLine
 10
33.57558213455422
 20
168.1956963650063
 30
0.0
 11
32.71761454806846
 21
166.5798934240538
 31
0.0
  0
CIRCLE
  5
28A1
330
1A
100
AcDbEntity
  8
1
 48
0.3
100
AcDbCircle
 10
29.99999999999954
 20
158.0
 30
0.0
 40
9.0
  0
LINE
  5
28A2
330
1A
100
AcDbEntity
  8
1
 48
0.3
100
AcDbLine
 10
65.00000000000046
 20
128.0
 30
0.0
 11
55.49999999999954
 21
128.0
 31
0.0
  0
LINE
  5
28A3
330
1A
100
AcDbEntity
  8
1
 48
0.3
100
AcDbLine
 10
4.500000000000454
 20
128.0
 30
0.0
 11
0.0000000000013642
 21
128.0
 31
0.0
  0
LINE
  5
28A5
330
1A
100
AcDbEntity
  8
1
 48
0.3
100
AcDbLine
 10
0.0000000000031832
 20
497.2495345604638
 30
0.0
 11
0.0000000000031832
 21
301.2495345604638
 31
0.0
  0
LINE
  5
28A6
330
1A
100
AcDbEntity
  8
CENTER
 48
0.3
100
AcDbLine
 10
1.921755528111589
 20
311.7495345604638
 30
0.0
 11
23.07824447189477
 21
311.7495345604638
 31
0.0
  0
LINE
  5
28A7
330
1A
100
AcDbEntity
  8
1
 48
0.3
100
AcDbLine
 10
0.0000000000031832
 20
301.2495345604638
 30
0.0
 11
2.000000000003183
 21
299.2495345604638
 31
0.0
  0
CIRCLE
  5
28A8
330
1A
100
AcDbEntity
  8
1
 48
0.3
100
AcDbCircle
 10
12.50000000000409
 20
311.7495345604638
 30
0.0
 40
6.0
  0
LINE
  5
28A9
330
1A
100
AcDbEntity
  8
CENTER
 48
0.3
100
AcDbLine
 10
12.50000000000318
 20
322.3277790323554
 30
0.0
 11
12.50000000000318
 21
301.1712900885722
 31
0.0
  0
LINE
  5
28AA
330
1A
100
AcDbEntity
  8
1
 48
0.3
100
AcDbLine
 10
21.00000000000182
 20
478.2495345604639
 30
0.0
 11
21.00000000000227
 21
475.7495345604638
 31
0.0
  0
LINE
  5
28AB
330
1A
100
AcDbEntity
  8
1
 48
0.3
100
AcDbLine
 10
39.00000000000273
 20
490.2495345604639
 30
0.0
 11
39.00000000000227
 21
493.4995345604675
 31
0.0
  0
LINE
  5
28AC
330
1A
100
AcDbEntity
  8
1
 48
0.3
100
AcDbLine
 10
39.00000000000273
 20
475.7495345604638
 30
0.0
 11
39.00000000000318
 21
478.2495345604639
 31
0.0
  0
LINE
  5
28AD
330
1A
100
AcDbEntity
  8
1
 48
0.3
100
AcDbLine
 10
21.00000000000227
 20
493.4995345604675
 30
0.0
 11
21.00000000000227
 21
490.2495345604639
 31
0.0
  0
LINE
  5
28AE
330
1A
100
AcDbEntity
  8
1
 48
0.3
100
AcDbLine
 10
21.00000000000227
 20
498.2495345604674
 30
0.0
 11
21.00000000000227
 21
495.2495345604675
 31
0.0
  0
LINE
  5
28AF
330
1A
100
AcDbEntity
  8
1
 48
0.3
100
AcDbLine
 10
39.00000000000227
 20
495.2495345604675
 30
0.0
 11
39.00000000000227
 21
498.2495345604674
 31
0.0
  0
LINE
  5
28B0
330
1A
100
AcDbEntity
  8
1
 48
0.3
100
AcDbLine
 10
39.00000000000227
 20
498.2495345604674
 30
0.0
 11
21.00000000000227
 21
498.2495345604674
 31
0.0
  0
LINE
  5
28B1
330
1A
100
AcDbEntity
  8
1
 48
0.3
100
AcDbLine
 10
39.00000000000227
 20
495.2495345604675
 30
0.0
 11
21.00000000000227
 21
495.2495345604675
 31
0.0
  0
LINE
  5
28B2
330
1A
100
AcDbEntity
  8
1
 48
0.3
100
AcDbLine
 10
39.00000000000227
 20
493.4995345604675
 30
0.0
 11
21.00000000000227
 21
493.4995345604675
 31
0.0
  0
LINE
  5
28B3
330
1A
100
AcDbEntity
  8
1
 48
0.3
100
AcDbLine
 10
15.50000000000227
 20
495.1745345604686
 30
0.0
 11
15.50000000000227
 21
493.5745345604682
 31
0.0
  0
LINE
  5
28B4
330
1A
100
AcDbEntity
  8
1
 48
0.3
100
AcDbLine
 10
44.50000000000182
 20
495.1745345604686
 30
0.0
 11
15.50000000000227
 21
495.1745345604686
 31
0.0
  0
LINE
  5
28B5
330
1A
100
AcDbEntity
  8
1
 48
0.3
100
AcDbLine
 10
44.50000000000182
 20
493.5745345604682
 30
0.0
 11
15.50000000000227
 21
493.5745345604682
 31
0.0
  0
LINE
  5
28B6
330
1A
100
AcDbEntity
  8
1
 48
0.3
100
AcDbLine
 10
44.50000000000227
 20
495.1745345604686
 30
0.0
 11
44.50000000000272
 21
493.5745345604664
 31
0.0
  0
LINE
  5
28B7
330
1A
100
AcDbEntity
  8
1
 48
0.3
100
AcDbLine
 10
37.50000000000227
 20
493.4995345604675
 30
0.0
 11
37.50000000000227
 21
493.57453456047
 31
0.0
  0
LINE
  5
28B8
330
1A
100
AcDbEntity
  8
1
 48
0.3
100
AcDbLine
 10
37.50000000000227
 20
495.1745345604668
 30
0.0
 11
37.50000000000227
 21
495.2495345604675
 31
0.0
  0
LINE
  5
28B9
330
1A
100
AcDbEntity
  8
1
 48
0.3
100
AcDbLine
 10
22.50000000000227
 20
495.2495345604656
 30
0.0
 11
22.50000000000182
 21
495.1745345604686
 31
0.0
  0
LINE
  5
28BA
330
1A
100
AcDbEntity
  8
1
 48
0.3
100
AcDbLine
 10
22.50000000000182
 20
493.57453456047
 30
0.0
 11
22.50000000000227
 21
493.4995345604675
 31
0.0
  0
LINE
  5
28BB
330
1A
100
AcDbEntity
  8
1
 48
0.3
100
AcDbLine
 10
19.05625178469608
 20
475.7495345604638
 30
0.0
 11
40.94374821530846
 21
475.7495345604638
 31
0.0
  0
ARC
  5
28BC
330
1A
100
AcDbEntity
  8
1
 48
0.3
100
AcDbCircle
 10
30.00000000000318
 20
464.2495345604638
 30
0.0
 40
15.875
100
AcDbArc
 50
32.37328597913148
 51
46.41974308576734
  0
ARC
  5
28BD
330
1A
100
AcDbEntity
  8
1
 48
0.3
100
AcDbCircle
 10
30.00000000000318
 20
464.2495345604638
 30
0.0
 40
15.875
100
AcDbArc
 50
133.5802569142326
 51
147.6267140208685
  0
ARC
  5
28BE
330
1A
100
AcDbEntity
  8
1
 48
0.3
100
AcDbCircle
 10
30.00000000000318
 20
464.2495345604638
 30
0.0
 40
21.0
100
AcDbArc
 50
156.1237922694498
 51
203.8762077305512
  0
LINE
  5
28BF
330
1A
100
AcDbEntity
  8
1
 48
0.3
100
AcDbLine
 10
51.00000000000227
 20
472.7495345604638
 30
0.0
 11
59.00000000000227
 21
476.7495345604638
 31
0.0
  0
LINE
  5
28C0
330
1A
100
AcDbEntity
  8
1
 48
0.3
100
AcDbLine
 10
10.7971356303301
 20
472.7495345604638
 30
0.0
 11
51.00000000000227
 21
472.7495345604638
 31
0.0
  0
LINE
  5
28C1
330
1A
100
AcDbEntity
  8
1
 48
0.3
100
AcDbLine
 10
10.7971356303301
 20
455.7495345604638
 30
0.0
 11
51.00000000000227
 21
455.7495345604638
 31
0.0
  0
LINE
  5
28C2
330
1A
100
AcDbEntity
  8
1
 48
0.3
100
AcDbLine
 10
55.5
 20
488.2495345604638
 30
0.0
 11
55.5
 21
478.2495345604639
 31
0.0
  0
LINE
  5
28C3
330
1A
100
AcDbEntity
  8
1
 48
0.3
100
AcDbLine
 10
65.00000000000136
 20
476.7495345604638
 30
0.0
 11
65.00000000000136
 21
478.249534560462
 31
0.0
  0
LINE
  5
28C4
330
1A
100
AcDbEntity
  8
1
 48
0.3
100
AcDbLine
 10
20.99999999999909
 20
450.2495345604638
 30
0.0
 11
20.99999999999954
 21
452.7495345604639
 31
0.0
  0
LINE
  5
28C5
330
1A
100
AcDbEntity
  8
1
 48
0.3
100
AcDbLine
 10
38.99999999999727
 20
438.249534560462
 30
0.0
 11
38.99999999999636
 21
434.999534560462
 31
0.0
  0
LINE
  5
28C6
330
1A
100
AcDbEntity
  8
1
 48
0.3
100
AcDbLine
 10
39.0
 20
452.7495345604639
 30
0.0
 11
38.99999999999954
 21
450.2495345604638
 31
0.0
  0
LINE
  5
28C7
330
1A
100
AcDbEntity
  8
1
 48
0.3
100
AcDbLine
 10
20.99999999999636
 20
434.9995345604656
 30
0.0
 11
20.99999999999727
 21
438.2495345604638
 31
0.0
  0
LINE
  5
28C8
330
1A
100
AcDbEntity
  8
1
 48
0.3
100
AcDbLine
 10
38.99999999999636
 20
434.999534560462
 30
0.0
 11
20.99999999999636
 21
434.9995345604656
 31
0.0
  0
LINE
  5
28C9
330
1A
100
AcDbEntity
  8
1
 48
0.3
100
AcDbLine
 10
38.99999999999636
 20
433.249534560462
 30
0.0
 11
20.99999999999636
 21
433.2495345604656
 31
0.0
  0
LINE
  5
28CA
330
1A
100
AcDbEntity
  8
1
 48
0.3
100
AcDbLine
 10
38.99999999999545
 20
430.249534560462
 30
0.0
 11
20.99999999999545
 21
430.2495345604657
 31
0.0
  0
LINE
  5
28CB
330
1A
100
AcDbEntity
  8
1
 48
0.3
100
AcDbLine
 10
38.99999999999636
 20
433.249534560462
 30
0.0
 11
38.99999999999545
 21
430.249534560462
 31
0.0
  0
LINE
  5
28CC
330
1A
100
AcDbEntity
  8
1
 48
0.3
100
AcDbLine
 10
20.99999999999545
 20
430.2495345604657
 30
0.0
 11
20.99999999999636
 21
433.2495345604656
 31
0.0
  0
LINE
  5
28CD
330
1A
100
AcDbEntity
  8
1
 48
0.3
100
AcDbLine
 10
15.50000000000227
 20
434.9245345604631
 30
0.0
 11
15.50000000000227
 21
433.3245345604628
 31
0.0
  0
LINE
  5
28CE
330
1A
100
AcDbEntity
  8
1
 48
0.3
100
AcDbLine
 10
44.50000000000182
 20
434.9245345604631
 30
0.0
 11
15.50000000000227
 21
434.9245345604631
 31
0.0
  0
LINE
  5
28CF
330
1A
100
AcDbEntity
  8
1
 48
0.3
100
AcDbLine
 10
44.50000000000182
 20
433.3245345604628
 30
0.0
 11
15.50000000000227
 21
433.3245345604628
 31
0.0
  0
LINE
  5
28D0
330
1A
100
AcDbEntity
  8
1
 48
0.3
100
AcDbLine
 10
44.50000000000227
 20
434.9245345604631
 30
0.0
 11
44.50000000000272
 21
433.3245345604609
 31
0.0
  0
LINE
  5
28D1
330
1A
100
AcDbEntity
  8
1
 48
0.3
100
AcDbLine
 10
37.49999999999636
 20
434.999534560462
 30
0.0
 11
37.49999999999636
 21
434.9245345604631
 31
0.0
  0
LINE
  5
28D2
330
1A
100
AcDbEntity
  8
1
 48
0.3
100
AcDbLine
 10
37.49999999999636
 20
433.3245345604628
 30
0.0
 11
37.49999999999636
 21
433.249534560462
 31
0.0
  0
LINE
  5
28D3
330
1A
100
AcDbEntity
  8
1
 48
0.3
100
AcDbLine
 10
22.49999999999636
 20
433.2495345604675
 30
0.0
 11
22.49999999999636
 21
433.3245345604628
 31
0.0
  0
LINE
  5
28D4
330
1A
100
AcDbEntity
  8
1
 48
0.3
100
AcDbLine
 10
22.49999999999636
 20
434.9245345604631
 30
0.0
 11
22.49999999999636
 21
434.9995345604656
 31
0.0
  0
LINE
  5
28D5
330
1A
100
AcDbEntity
  8
1
 48
0.3
100
AcDbLine
 10
19.0562517846979
 20
452.7495345604639
 30
0.0
 11
40.94374821530664
 21
452.7495345604639
 31
0.0
  0
LINE
  5
28D6
330
1A
100
AcDbEntity
  8
1
 48
0.3
100
AcDbLine
 10
55.5
 20
450.2495345604638
 30
0.0
 11
55.5
 21
440.249534560462
 31
0.0
  0
LINE
  5
28D7
330
1A
100
AcDbEntity
  8
1
 48
0.3
100
AcDbLine
 10
65.00000000000182
 20
450.2495345604621
 30
0.0
 11
65.00000000000136
 21
451.749534560462
 31
0.0
  0
ARC
  5
28D8
330
1A
100
AcDbEntity
  8
1
 48
0.3
100
AcDbCircle
 10
30.00000000000318
 20
464.2495345604638
 30
0.0
 40
15.875
100
AcDbArc
 50
313.5802569142256
 51
327.6267140208671
  0
ARC
  5
28D9
330
1A
100
AcDbEntity
  8
1
 48
0.3
100
AcDbCircle
 10
30.00000000000318
 20
464.2495345604638
 30
0.0
 40
15.875
100
AcDbArc
 50
212.3732859791328
 51
226.4197430857743
  0
LINE
  5
28DA
330
1A
100
AcDbEntity
  8
1
 48
0.3
100
AcDbLine
 10
51.00000000000227
 20
455.7495345604638
 30
0.0
 11
59.00000000000227
 21
451.7495345604638
 31
0.0
  0
LINE
  5
28DB
330
1A
100
AcDbEntity
  8
1
 48
0.3
100
AcDbLine
 10
4.500000000001818
 20
488.2495345604657
 30
0.0
 11
4.500000000001818
 21
478.2495345604639
 31
0.0
  0
LINE
  5
28DC
330
1A
100
AcDbEntity
  8
1
 48
0.3
100
AcDbLine
 10
4.500000000001818
 20
450.2495345604638
 30
0.0
 11
4.500000000001818
 21
440.249534560462
 31
0.0
  0
LINE
  5
28DD
330
1A
100
AcDbEntity
  8
1
 48
0.3
100
AcDbLine
 10
6.500000000001818
 20
490.2495345604656
 30
0.0
 11
53.5
 21
490.2495345604639
 31
0.0
  0
LINE
  5
28DE
330
1A
100
AcDbEntity
  8
1
 48
0.3
100
AcDbLine
 10
6.500000000001818
 20
438.249534560462
 30
0.0
 11
53.5
 21
438.249534560462
 31
0.0
  0
LINE
  5
28DF
330
1A
100
AcDbEntity
  8
CENTER
 48
0.3
100
AcDbLine
 10
1.921755528111589
 20
416.7495345604638
 30
0.0
 11
23.07824447189477
 21
416.7495345604638
 31
0.0
  0
LINE
  5
28E0
330
1A
100
AcDbEntity
  8
1
 48
0.3
100
AcDbLine
 10
0.0000000000031832
 20
497.2495345604638
 30
0.0
 11
2.000000000003183
 21
499.2495345604639
 31
0.0
  0
LINE
  5
28E1
330
1A
100
AcDbEntity
  8
CENTER
 48
0.3
100
AcDbLine
 10
12.50000000000318
 20
427.3277790323554
 30
0.0
 11
12.50000000000318
 21
406.1712900885722
 31
0.0
  0
CIRCLE
  5
28E2
330
1A
100
AcDbEntity
  8
1
 48
0.3
100
AcDbCircle
 10
12.50000000000409
 20
416.7495345604638
 30
0.0
 40
6.0
  0
LINE
  5
28E3
330
1A
100
AcDbEntity
  8
1
 48
0.5
100
AcDbLine
 10
315.0000000000013
 20
212.9999999999981
 30
0.0
 11
185.0000000000022
 21
212.9999999999981
 31
0.0
  0
LINE
  5
28E4
330
1A
100
AcDbEntity
  8
1
 48
0.5
100
AcDbLine
 10
315.0000000000013
 20
197.9999999999981
 30
0.0
 11
185.0000000000022
 21
197.9999999999981
 31
0.0
  0
LINE
  5
28E5
330
1A
100
AcDbEntity
  8
1
 48
0.3
100
AcDbLine
 10
135.0000000000004
 20
72.99999999999818
 30
0.0
 11
135.0000000000004
 21
23.00000000000363
 31
0.0
  0
LINE
  5
28E7
330
1A
100
AcDbEntity
  8
CENTER
 48
0.5
100
AcDbLine
 10
250.0000000000013
 20
224.4801685491383
 30
0.0
 11
250.0000000000013
 21
-9.936097381179934
 31
0.0
  0
LINE
  5
28ED
330
1A
100
AcDbEntity
  8
1
 48
0.3
100
AcDbLine
 10
90.00000000000136
 20
150.3842268941352
 30
0.0
 11
99.99999999999955
 21
165.6157731058647
 31
0.0
  0
LINE
  5
28EE
330
1A
100
AcDbEntity
  8
1
 48
0.3
100
AcDbLine
 10
90.00000000000136
 20
165.6157731058647
 30
0.0
 11
99.99999999999955
 21
150.3842268941352
 31
0.0
  0
LINE
  5
28EF
330
1A
100
AcDbEntity
  8
1
 48
0.3
100
AcDbLine
 10
99.99999999999955
 20
165.6157731058647
 30
0.0
 11
90.00000000000136
 21
165.6157731058647
 31
0.0
  0
LINE
  5
28F0
330
1A
100
AcDbEntity
  8
1
 48
0.3
100
AcDbLine
 10
99.99999999999955
 20
150.3842268941352
 30
0.0
 11
90.00000000000136
 21
150.3842268941352
 31
0.0
  0
LINE
  5
28F1
330
1A
100
AcDbEntity
  8
1
 48
0.3
100
AcDbLine
 10
89.99999999999955
 20
173.5
 30
0.0
 11
99.99999999999955
 21
173.5
 31
0.0
  0
LINE
  5
28F2
330
1A
100
AcDbEntity
  8
1
 48
0.3
100
AcDbLine
 10
89.99999999999909
 20
142.5
 30
0.0
 11
99.99999999999909
 21
142.5
 31
0.0
  0
LINE
  5
28F3
330
1A
100
AcDbEntity
  8
1
 48
0.3
100
AcDbLine
 10
90.00000000000136
 20
173.5
 30
0.0
 11
90.0000000000009
 21
142.5000000000018
 31
0.0
  0
LINE
  5
2917
330
1A
100
AcDbEntity
  8
1
 48
0.3
100
AcDbLine
 10
99.99999999999955
 20
173.5
 30
0.0
 11
99.99999999999909
 21
142.5000000000018
 31
0.0
  0
LINE
  5
291C
330
1A
100
AcDbEntity
  8
1
 48
0.3
100
AcDbLine
 10
224.5000000000013
 20
145.4999999999963
 30
0.0
 11
189.9999999999986
 21
145.4999999999981
 31
0.0
  0
LINE
  5
291D
330
1A
100
AcDbEntity
  8
1
 48
0.3
100
AcDbLine
 10
224.5000000000013
 20
170.4999999999963
 30
0.0
 11
189.9999999999991
 21
170.4999999999981
 31
0.0
  0
LINE
  5
291E
330
1A
100
AcDbEntity
  8
1
 48
0.3
100
AcDbLine
 10
189.9999999999991
 20
165.6157731058629
 30
0.0
 11
180.0000000000009
 21
150.3842268941334
 31
0.0
  0
LINE
  5
291F
330
1A
100
AcDbEntity
  8
1
 48
0.3
100
AcDbLine
 10
189.9999999999991
 20
150.3842268941334
 30
0.0
 11
180.0000000000009
 21
165.6157731058629
 31
0.0
  0
LINE
  5
2920
330
1A
100
AcDbEntity
  8
1
 48
0.3
100
AcDbLine
 10
180.0000000000009
 20
150.3842268941334
 30
0.0
 11
189.9999999999991
 21
150.3842268941334
 31
0.0
  0
LINE
  5
2921
330
1A
100
AcDbEntity
  8
1
 48
0.3
100
AcDbLine
 10
180.0000000000009
 20
165.6157731058629
 30
0.0
 11
189.9999999999991
 21
165.6157731058629
 31
0.0
  0
LINE
  5
2922
330
1A
100
AcDbEntity
  8
1
 48
0.3
100
AcDbLine
 10
190.0000000000004
 20
142.4999999999981
 30
0.0
 11
180.0000000000004
 21
142.4999999999981
 31
0.0
  0
LINE
  5
2923
330
1A
100
AcDbEntity
  8
1
 48
0.3
100
AcDbLine
 10
190.0000000000009
 20
173.4999999999981
 30
0.0
 11
180.0000000000009
 21
173.4999999999981
 31
0.0
  0
LINE
  5
2924
330
1A
100
AcDbEntity
  8
1
 48
0.3
100
AcDbLine
 10
189.9999999999986
 20
142.4999999999981
 30
0.0
 11
189.9999999999991
 21
173.4999999999963
 31
0.0
  0
LINE
  5
2926
330
1A
100
AcDbEntity
  8
1
 48
0.3
100
AcDbLine
 10
180.0000000000004
 20
142.4999999999981
 30
0.0
 11
180.0000000000009
 21
173.4999999999963
 31
0.0
  0
LINE
  5
2927
330
1A
100
AcDbEntity
  8
1
 48
0.5
100
AcDbLine
 10
185.0000000000022
 20
212.9999999999981
 30
0.0
 11
185.0000000000022
 21
197.9999999999981
 31
0.0
  0
LINE
  5
2928
330
1A
100
AcDbEntity
  8
1
 48
0.5
100
AcDbLine
 10
187.0000000000022
 20
212.9999999999981
 30
0.0
 11
187.0000000000022
 21
197.9999999999981
 31
0.0
  0
LINE
  5
2929
330
1A
100
AcDbEntity
  8
1
 48
0.3
100
AcDbLine
 10
224.5000000000008
 20
142.9999999999963
 30
0.0
 11
224.5000000000013
 21
197.9999999999963
 31
0.0
  0
LINE
  5
292A
330
1A
100
AcDbEntity
  8
1
 48
0.3
100
AcDbLine
 10
275.5000000000013
 20
197.9999999999945
 30
0.0
 11
275.4999999999999
 21
142.9999999999963
 31
0.0
  0
ARC
  5
292B
330
1A
100
AcDbEntity
  8
1
 48
0.3
100
AcDbCircle
 10
234.7656250000004
 20
157.9999999999963
 30
0.0
 40
11.96852500000041
100
AcDbArc
 50
149.0613703895099
 51
210.93862961049
  0
LINE
  5
292C
330
1A
100
AcDbEntity
  8
1
 48
0.3
100
AcDbLine
 10
224.5000000000008
 20
142.9999999999963
 30
0.0
 11
232.5000000000009
 21
134.9999999999963
 31
0.0
  0
LINE
  5
292D
330
1A
100
AcDbEntity
  8
1
 48
0.3
100
AcDbLine
 10
241.0000000000009
 20
157.9999999999963
 30
0.0
 11
239.3468314575138
 21
157.9999999999963
 31
0.0
  0
LINE
  5
292E
330
1A
100
AcDbEntity
  8
1
 48
0.3
100
AcDbLine
 10
243.0164655878861
 20
152.3228310651484
 30
0.0
 11
241.8806057522592
 21
147.7761643258891
 31
0.0
  0
LINE
  5
292F
330
1A
100
AcDbEntity
  8
1
 48
0.3
100
AcDbLine
 10
256.9835344121151
 20
152.3228310651466
 30
0.0
 11
258.1193942477416
 21
147.7761643258854
 31
0.0
  0
LINE
  5
2930
330
1A
100
AcDbEntity
  8
1
 48
0.3
100
AcDbLine
 10
253.5755821345555
 20
168.1956963650027
 30
0.0
 11
252.7176145480698
 21
166.5798934240501
 31
0.0
  0
LINE
  5
2931
330
1A
100
AcDbEntity
  8
1
 48
0.3
100
AcDbLine
 10
246.4244178654462
 20
168.1956963650027
 30
0.0
 11
247.2823854519315
 21
166.5798934240501
 31
0.0
  0
CIRCLE
  5
2932
330
1A
100
AcDbEntity
  8
1
 48
0.3
100
AcDbCircle
 10
250.0000000000009
 20
157.9999999999963
 30
0.0
 40
9.0
  0
ARC
  5
2933
330
1A
100
AcDbEntity
  8
1
 48
0.3
100
AcDbCircle
 10
254.4587947023483
 20
167.7267234872215
 30
0.0
 40
1.0
100
AcDbArc
 50
65.37296395816847
 51
152.0323555541237
  0
ARC
  5
2934
330
1A
100
AcDbEntity
  8
1
 48
0.3
100
AcDbCircle
 10
245.541205297653
 20
167.7267234872215
 30
0.0
 40
1.0
100
AcDbArc
 50
27.96764444586342
 51
114.6270360418308
  0
ARC
  5
2935
330
1A
100
AcDbEntity
  8
1
 48
0.3
100
AcDbCircle
 10
250.0000000000009
 20
157.9999999999963
 30
0.0
 40
11.69999999999999
100
AcDbArc
 50
114.6270360418343
 51
174.6374283818829
  0
ARC
  5
2936
330
1A
100
AcDbEntity
  8
1
 48
0.3
100
AcDbCircle
 10
239.3468314575138
 20
158.9999999999981
 30
0.0
 40
1.0
100
AcDbArc
 50
174.6374283818912
 51
269.9999999999997
  0
ARC
  5
2937
330
1A
100
AcDbEntity
  8
1
 48
0.3
100
AcDbCircle
 10
259.0895772445151
 20
148.0185379068952
 30
0.0
 40
1.0
100
AcDbArc
 50
194.0266734872119
 51
312.3224305702616
  0
ARC
  5
2938
330
1A
100
AcDbEntity
  8
1
 48
0.3
100
AcDbCircle
 10
240.9104227554853
 20
148.0185379068971
 30
0.0
 40
1.0
100
AcDbArc
 50
227.6775694296992
 51
345.9733265128948
  0
LINE
  5
2939
330
1A
100
AcDbEntity
  8
1
 48
0.3
100
AcDbLine
 10
240.9104227554853
 20
147.0185379068971
 30
0.0
 11
240.9104227554853
 21
147.0185379068971
 31
0.0
  0
CIRCLE
  5
293A
330
1A
100
AcDbEntity
  8
1
 48
0.3
100
AcDbCircle
 10
250.0000000000013
 20
157.9999999999963
 30
0.0
 40
9.0
  0
LINE
  5
293B
330
1A
100
AcDbEntity
  8
1
 48
0.3
100
AcDbLine
 10
275.4999999999999
 20
142.9999999999963
 30
0.0
 11
267.5
 21
134.9999999999963
 31
0.0
  0
ARC
  5
293C
330
1A
100
AcDbEntity
  8
1
 48
0.3
100
AcDbCircle
 10
260.6531685424879
 20
158.9999999999981
 30
0.0
 40
1.0
100
AcDbArc
 50
269.9999999999997
 51
5.362571618108096
  0
LINE
  5
293D
330
1A
100
AcDbEntity
  8
1
 48
0.3
100
AcDbLine
 10
267.5000000000004
 20
134.9999999999963
 30
0.0
 11
232.4999999999986
 21
134.9999999999963
 31
0.0
  0
LINE
  5
293E
330
1A
100
AcDbEntity
  8
1
 48
0.3
100
AcDbLine
 10
260.6531685424879
 20
157.9999999999963
 30
0.0
 11
259.0000000000009
 21
157.9999999999963
 31
0.0
  0
ARC
  5
293F
330
1A
100
AcDbEntity
  8
1
 48
0.3
100
AcDbCircle
 10
250.0000000000009
 20
157.9999999999963
 30
0.0
 40
11.69999999999999
100
AcDbArc
 50
5.362571618116416
 51
65.372963958167
  0
ARC
  5
2940
330
1A
100
AcDbEntity
  8
1
 48
0.3
100
AcDbCircle
 10
250.0000000000009
 20
157.9999999999963
 30
0.0
 40
14.5
100
AcDbArc
 50
312.3224305702665
 51
227.6775694297239
  0
LINE
  5
2943
330
1A
100
AcDbEntity
  8
1
 48
0.3
100
AcDbLine
 10
313.0000000000018
 20
22.99999999999818
 30
0.0
 11
313.0000000000018
 21
-0.000000000001819
 31
0.0
  0
LINE
  5
2944
330
1A
100
AcDbEntity
  8
1
 48
0.3
100
AcDbLine
 10
315.0000000000018
 20
22.99999999999818
 30
0.0
 11
315.0000000000018
 21
-0.000000000001819
 31
0.0
  0
LINE
  5
2947
330
1A
100
AcDbEntity
  8
1
 48
0.5
100
AcDbLine
 10
315.0000000000013
 20
212.9999999999981
 30
0.0
 11
315.0000000000009
 21
197.9999999999981
 31
0.0
  0
LINE
  5
2948
330
1A
100
AcDbEntity
  8
1
 48
0.5
100
AcDbLine
 10
313.0000000000013
 20
212.9999999999981
 30
0.0
 11
313.0000000000013
 21
197.9999999999981
 31
0.0
  0
LINE
  5
294C
330
1A
100
AcDbEntity
  8
CENTER
 48
0.3
100
AcDbLine
 10
-15.00185614141355
 20
364.2495345604638
 30
0.0
 11
335.4394292970682
 21
364.2495345604638
 31
0.0
  0
LINE
  5
294D
330
1A
100
AcDbEntity
  8
CENTER
 48
0.3
100
AcDbLine
 10
250.0000000000018
 20
515.4865635187161
 30
0.0
 11
250.0000000000018
 21
282.0534450411105
 31
0.0
  0
LINE
  5
294E
330
1A
100
AcDbEntity
  8
1
 48
0.5
100
AcDbLine
 10
185.0000000000018
 20
497.2495345604674
 30
0.0
 11
184.9999999999968
 21
301.2495345604656
 31
0.0
  0
LINE
  5
294F
330
1A
100
AcDbEntity
  8
CENTER
 48
0.3
100
AcDbLine
 10
186.9217555281115
 20
311.7495345604638
 30
0.0
 11
208.0782444718948
 21
311.7495345604638
 31
0.0
  0
CIRCLE
  5
2950
330
1A
100
AcDbEntity
  8
1
 48
0.3
100
AcDbCircle
 10
197.500000000004
 20
311.749534560462
 30
0.0
 40
6.0
  0
LINE
  5
2951
330
1A
100
AcDbEntity
  8
1
 48
0.5
100
AcDbLine
 10
186.9999999999963
 20
299.2495345604656
 30
0.0
 11
184.9999999999963
 21
301.2495345604656
 31
0.0
  0
LINE
  5
2952
330
1A
100
AcDbEntity
  8
CENTER
 48
0.2
100
AcDbLine
 10
197.4999999999972
 20
322.1902452129779
 30
0.0
 11
197.4999999999963
 21
301.2495345604656
 31
0.0
  0
LINE
  5
2953
330
1A
100
AcDbEntity
  8
CENTER
 48
0.3
100
AcDbLine
 10
197.5000000000031
 20
322.3277790323536
 30
0.0
 11
197.5000000000031
 21
301.1712900885704
 31
0.0
  0
LINE
  5
2958
330
1A
100
AcDbEntity
  8
1
 48
0.3
100
AcDbLine
 10
90.00000000000591
 20
477.7495345604639
 30
0.0
 11
100.0000000000022
 21
477.7495345604639
 31
0.0
  0
LINE
  5
2959
330
1A
100
AcDbEntity
  8
1
 48
0.3
100
AcDbLine
 10
90.00000000000591
 20
450.7495345604638
 30
0.0
 11
100.0000000000022
 21
450.7495345604638
 31
0.0
  0
LINE
  5
295A
330
1A
100
AcDbEntity
  8
1
 48
0.3
100
AcDbLine
 10
90.00000000000591
 20
477.7495345604639
 30
0.0
 11
90.00000000000591
 21
450.7495345604638
 31
0.0
  0
LINE
  5
2970
330
1A
100
AcDbEntity
  8
1
 48
0.3
100
AcDbLine
 10
130.0000000000022
 20
478.2495345604639
 30
0.0
 11
130.0000000000022
 21
477.7495345604639
 31
0.0
  0
LINE
  5
2971
330
1A
100
AcDbEntity
  8
1
 48
0.3
100
AcDbLine
 10
114.7171024455497
 20
478.249534560462
 30
0.0
 11
130.0000000000022
 21
478.2495345604639
 31
0.0
  0
LINE
  5
2975
330
1A
100
AcDbEntity
  8
1
 48
0.3
100
AcDbLine
 10
130.0000000000022
 20
450.749534560462
 30
0.0
 11
130.0000000000022
 21
450.2495345604638
 31
0.0
  0
LINE
  5
2976
330
1A
100
AcDbEntity
  8
1
 48
0.3
100
AcDbLine
 10
114.7171024455506
 20
450.2495345604638
 30
0.0
 11
130.0000000000022
 21
450.2495345604638
 31
0.0
  0
LINE
  5
297E
330
1A
100
AcDbEntity
  8
1
 48
0.3
100
AcDbLine
 10
100.0000000000022
 20
477.7495345604639
 30
0.0
 11
100.0000000000022
 21
450.7495345604638
 31
0.0
  0
LINE
  5
2983
330
1A
100
AcDbEntity
  8
1
  6
HIDDEN
 48
0.3
100
AcDbLine
 10
221.0000000000018
 20
476.7495345604657
 30
0.0
 11
189.9999999999981
 21
476.7495345604638
 31
0.0
  0
LINE
  5
2984
330
1A
100
AcDbEntity
  8
1
  6
HIDDEN
 48
0.3
100
AcDbLine
 10
221.0000000000018
 20
451.7495345604638
 30
0.0
 11
189.9999999999981
 21
451.7495345604638
 31
0.0
  0
LINE
  5
2985
330
1A
100
AcDbEntity
  8
CENTER
 48
0.3
100
AcDbLine
 10
186.9217555281115
 20
416.7495345604638
 30
0.0
 11
208.0782444718948
 21
416.7495345604638
 31
0.0
  0
LINE
  5
2986
330
1A
100
AcDbEntity
  8
1
 48
0.3
100
AcDbLine
 10
185.0000000000018
 20
477.7495345604656
 30
0.0
 11
180.0000000000018
 21
477.7495345604639
 31
0.0
  0
LINE
  5
2987
330
1A
100
AcDbEntity
  8
1
 48
0.3
100
AcDbLine
 10
185.0000000000013
 20
450.7495345604638
 30
0.0
 11
180.0000000000018
 21
450.7495345604638
 31
0.0
  0
LINE
  5
2989
330
1A
100
AcDbEntity
  8
1
 48
0.3
100
AcDbLine
 10
180.0000000000018
 20
450.7495345604638
 30
0.0
 11
180.0000000000018
 21
477.7495345604639
 31
0.0
  0
LINE
  5
298A
330
1A
100
AcDbEntity
  8
1
  6
HIDDEN
 48
0.3
100
AcDbLine
 10
189.9999999999981
 20
450.7495345604638
 30
0.0
 11
189.9999999999981
 21
477.7495345604639
 31
0.0
  0
LINE
  5
298B
330
1A
100
AcDbEntity
  8
1
 48
0.5
100
AcDbLine
 10
187.0000000000018
 20
499.2495345604656
 30
0.0
 11
185.0000000000018
 21
497.2495345604657
 31
0.0
  0
LINE
  5
298C
330
1A
100
AcDbEntity
  8
1
  6
HIDDEN
 48
0.3
100
AcDbLine
 10
264.5000000000013
 20
495.1745345604704
 30
0.0
 11
235.5000000000018
 21
495.1745345604704
 31
0.0
  0
LINE
  5
298D
330
1A
100
AcDbEntity
  8
1
  6
HIDDEN
 48
0.3
100
AcDbLine
 10
264.5000000000013
 20
493.57453456047
 30
0.0
 11
235.5000000000018
 21
493.57453456047
 31
0.0
  0
LINE
  5
298E
330
1A
100
AcDbEntity
  8
1
  6
HIDDEN
 48
0.3
100
AcDbLine
 10
269.2028643696739
 20
455.7495345604638
 30
0.0
 11
229.0000000000018
 21
455.7495345604638
 31
0.0
  0
LINE
  5
298F
330
1A
100
AcDbEntity
  8
1
  6
HIDDEN
 48
0.3
100
AcDbLine
 10
269.2028643696739
 20
472.7495345604638
 30
0.0
 11
229.0000000000018
 21
472.7495345604638
 31
0.0
  0
LINE
  5
2990
330
1A
100
AcDbEntity
  8
1
  6
HIDDEN
 48
0.3
100
AcDbLine
 10
260.9437482153061
 20
475.7495345604638
 30
0.0
 11
239.0562517846974
 21
475.7495345604638
 31
0.0
  0
LINE
  5
2991
330
1A
100
AcDbEntity
  8
1
  6
HIDDEN
 48
0.3
100
AcDbLine
 10
226.5000000000018
 20
478.249534560462
 30
0.0
 11
273.4999999999999
 21
478.2495345604656
 31
0.0
  0
LINE
  5
2992
330
1A
100
AcDbEntity
  8
1
  6
HIDDEN
 48
0.3
100
AcDbLine
 10
226.5000000000022
 20
490.2495345604639
 30
0.0
 11
273.4999999999999
 21
490.2495345604656
 31
0.0
  0
LINE
  5
2993
330
1A
100
AcDbEntity
  8
1
  6
HIDDEN
 48
0.3
100
AcDbLine
 10
264.5000000000018
 20
495.1745345604704
 30
0.0
 11
264.5000000000022
 21
493.5745345604682
 31
0.0
  0
ARC
  5
2994
330
1A
100
AcDbEntity
  8
1
  6
HIDDEN
 48
0.3
100
AcDbCircle
 10
250.0000000000009
 20
464.2495345604638
 30
0.0
 40
15.875
100
AcDbArc
 50
32.37328597913278
 51
46.41974308577431
  0
ARC
  5
2995
330
1A
100
AcDbEntity
  8
1
  6
HIDDEN
 48
0.3
100
AcDbCircle
 10
250.0000000000009
 20
464.2495345604638
 30
0.0
 40
21.0
100
AcDbArc
 50
336.1237922694498
 51
23.87620773055138
  0
LINE
  5
2996
330
1A
100
AcDbEntity
  8
1
  6
HIDDEN
 48
0.3
100
AcDbLine
 10
275.4999999999999
 20
488.2495345604657
 30
0.0
 11
275.4999999999999
 21
480.2495345604657
 31
0.0
  0
LINE
  5
2997
330
1A
100
AcDbEntity
  8
1
  6
HIDDEN
 48
0.3
100
AcDbLine
 10
241.0000000000022
 20
478.2495345604639
 30
0.0
 11
241.0000000000018
 21
475.7495345604657
 31
0.0
  0
LINE
  5
2998
330
1A
100
AcDbEntity
  8
1
  6
HIDDEN
 48
0.3
100
AcDbLine
 10
259.0000000000018
 20
490.2495345604639
 30
0.0
 11
259.0000000000018
 21
493.4995345604693
 31
0.0
  0
LINE
  5
2999
330
1A
100
AcDbEntity
  8
1
  6
HIDDEN
 48
0.3
100
AcDbLine
 10
259.0000000000018
 20
475.7495345604657
 30
0.0
 11
259.0000000000018
 21
478.2495345604639
 31
0.0
  0
LINE
  5
299A
330
1A
100
AcDbEntity
  8
1
  6
HIDDEN
 48
0.3
100
AcDbLine
 10
241.0000000000018
 20
493.4995345604693
 30
0.0
 11
241.0000000000022
 21
490.2495345604639
 31
0.0
  0
LINE
  5
299B
330
1A
100
AcDbEntity
  8
1
  6
HIDDEN
 48
0.3
100
AcDbLine
 10
241.0000000000018
 20
498.2495345604693
 30
0.0
 11
241.0000000000018
 21
495.2495345604693
 31
0.0
  0
LINE
  5
299C
330
1A
100
AcDbEntity
  8
1
  6
HIDDEN
 48
0.3
100
AcDbLine
 10
259.0000000000018
 20
495.2495345604693
 30
0.0
 11
259.0000000000018
 21
498.2495345604693
 31
0.0
  0
LINE
  5
299D
330
1A
100
AcDbEntity
  8
1
  6
HIDDEN
 48
0.3
100
AcDbLine
 10
259.0000000000018
 20
498.2495345604693
 30
0.0
 11
241.0000000000018
 21
498.2495345604693
 31
0.0
  0
LINE
  5
29A0
330
1A
100
AcDbEntity
  8
1
  6
HIDDEN
 48
0.3
100
AcDbLine
 10
235.5000000000018
 20
495.1745345604704
 30
0.0
 11
235.5000000000018
 21
493.57453456047
 31
0.0
  0
LINE
  5
29A5
330
1A
100
AcDbEntity
  8
1
  6
HIDDEN
 48
0.3
100
AcDbLine
 10
229.0000000000018
 20
472.7495345604638
 30
0.0
 11
221.0000000000018
 21
476.7495345604638
 31
0.0
  0
ARC
  5
29A6
330
1A
100
AcDbEntity
  8
1
  6
HIDDEN
 48
0.3
100
AcDbCircle
 10
250.0000000000009
 20
464.2495345604638
 30
0.0
 40
15.875
100
AcDbArc
 50
133.5802569142256
 51
147.6267140208671
  0
LINE
  5
29A7
330
1A
100
AcDbEntity
  8
1
  6
HIDDEN
 48
0.3
100
AcDbLine
 10
224.5000000000022
 20
488.2495345604638
 30
0.0
 11
224.5000000000018
 21
480.249534560462
 31
0.0
  0
LINE
  5
29A8
330
1A
100
AcDbEntity
  8
1
  6
HIDDEN
 48
0.3
100
AcDbLine
 10
264.5000000000013
 20
434.9245345604649
 30
0.0
 11
235.5000000000018
 21
434.9245345604649
 31
0.0
  0
LINE
  5
29A9
330
1A
100
AcDbEntity
  8
1
  6
HIDDEN
 48
0.3
100
AcDbLine
 10
264.5000000000013
 20
433.3245345604646
 30
0.0
 11
235.5000000000018
 21
433.3245345604646
 31
0.0
  0
LINE
  5
29AA
330
1A
100
AcDbEntity
  8
1
  6
HIDDEN
 48
0.3
100
AcDbLine
 10
260.9437482153079
 20
452.7495345604639
 30
0.0
 11
239.0562517846956
 21
452.7495345604639
 31
0.0
  0
LINE
  5
29AB
330
1A
100
AcDbEntity
  8
1
  6
HIDDEN
 48
0.3
100
AcDbLine
 10
226.5000000000022
 20
450.2495345604638
 30
0.0
 11
273.4999999999999
 21
450.2495345604638
 31
0.0
  0
LINE
  5
29AC
330
1A
100
AcDbEntity
  8
1
  6
HIDDEN
 48
0.3
100
AcDbLine
 10
226.5000000000022
 20
438.2495345604638
 30
0.0
 11
273.4999999999999
 21
438.249534560462
 31
0.0
  0
LINE
  5
29AD
330
1A
100
AcDbEntity
  8
1
  6
HIDDEN
 48
0.3
100
AcDbLine
 10
264.5000000000018
 20
434.9245345604649
 30
0.0
 11
264.5000000000022
 21
433.3245345604628
 31
0.0
  0
LINE
  5
29AE
330
1A
100
AcDbEntity
  8
1
  6
HIDDEN
 48
0.3
100
AcDbLine
 10
275.4999999999999
 20
448.2495345604639
 30
0.0
 11
275.4999999999999
 21
440.249534560462
 31
0.0
  0
LINE
  5
29AF
330
1A
100
AcDbEntity
  8
1
  6
HIDDEN
 48
0.3
100
AcDbLine
 10
240.999999999999
 20
450.2495345604638
 30
0.0
 11
240.9999999999995
 21
452.7495345604639
 31
0.0
  0
LINE
  5
29B0
330
1A
100
AcDbEntity
  8
1
  6
HIDDEN
 48
0.3
100
AcDbLine
 10
258.9999999999963
 20
438.249534560462
 30
0.0
 11
258.9999999999959
 21
434.9995345604638
 31
0.0
  0
LINE
  5
29B3
330
1A
100
AcDbEntity
  8
1
  6
HIDDEN
 48
0.3
100
AcDbLine
 10
258.999999999995
 20
430.2495345604638
 30
0.0
 11
240.9999999999949
 21
430.2495345604675
 31
0.0
  0
LINE
  5
29B4
330
1A
100
AcDbEntity
  8
1
  6
HIDDEN
 48
0.3
100
AcDbLine
 10
258.9999999999959
 20
433.2495345604638
 30
0.0
 11
258.999999999995
 21
430.2495345604638
 31
0.0
  0
LINE
  5
29B5
330
1A
100
AcDbEntity
  8
1
  6
HIDDEN
 48
0.3
100
AcDbLine
 10
240.9999999999949
 20
430.2495345604675
 30
0.0
 11
240.9999999999959
 21
433.2495345604675
 31
0.0
  0
LINE
  5
29B6
330
1A
100
AcDbEntity
  8
1
  6
HIDDEN
 48
0.3
100
AcDbLine
 10
240.9999999999959
 20
434.9995345604675
 30
0.0
 11
240.9999999999963
 21
438.249534560462
 31
0.0
  0
LINE
  5
29B7
330
1A
100
AcDbEntity
  8
1
  6
HIDDEN
 48
0.3
100
AcDbLine
 10
258.999999999999
 20
452.7495345604639
 30
0.0
 11
258.999999999999
 21
450.2495345604638
 31
0.0
  0
LINE
  5
29B8
330
1A
100
AcDbEntity
  8
1
  6
HIDDEN
 48
0.3
100
AcDbLine
 10
235.5000000000018
 20
434.9245345604649
 30
0.0
 11
235.5000000000018
 21
433.3245345604646
 31
0.0
  0
LINE
  5
29BD
330
1A
100
AcDbEntity
  8
1
  6
HIDDEN
 48
0.3
100
AcDbLine
 10
224.5000000000022
 20
448.2495345604639
 30
0.0
 11
224.5000000000022
 21
440.2495345604639
 31
0.0
  0
ARC
  5
29BE
330
1A
100
AcDbEntity
  8
1
  6
HIDDEN
 48
0.3
100
AcDbCircle
 10
250.0000000000009
 20
464.2495345604638
 30
0.0
 40
15.875
100
AcDbArc
 50
313.5802569142327
 51
327.6267140208685
  0
LINE
  5
29BF
330
1A
100
AcDbEntity
  8
1
  6
HIDDEN
 48
0.3
100
AcDbLine
 10
229.0000000000018
 20
455.7495345604638
 30
0.0
 11
221.0000000000018
 21
451.7495345604638
 31
0.0
  0
ARC
  5
29C0
330
1A
100
AcDbEntity
  8
1
  6
HIDDEN
 48
0.3
100
AcDbCircle
 10
250.0000000000009
 20
464.2495345604638
 30
0.0
 40
15.875
100
AcDbArc
 50
212.3732859791314
 51
226.4197430857673
  0
LINE
  5
29C1
330
1A
100
AcDbEntity
  8
CENTER
 48
0.3
100
AcDbLine
 10
250.0000000000018
 20
497.2025358826885
 30
0.0
 11
250.0000000000018
 21
429.2495345604638
 31
0.0
  0
LINE
  5
29D0
330
1A
100
AcDbEntity
  8
CENTER
 48
0.2
100
AcDbLine
 10
197.4999999999995
 20
427.1902452129779
 30
0.0
 11
197.499999999999
 21
406.3088239079515
 31
0.0
  0
LINE
  5
29D1
330
1A
100
AcDbEntity
  8
CENTER
 48
0.3
100
AcDbLine
 10
197.5000000000031
 20
427.3277790323536
 30
0.0
 11
197.5000000000031
 21
406.1712900885704
 31
0.0
  0
CIRCLE
  5
29D2
330
1A
100
AcDbEntity
  8
1
 48
0.3
100
AcDbCircle
 10
197.500000000004
 20
416.749534560462
 30
0.0
 40
6.0
  0
LINE
  5
29D3
330
1A
100
AcDbEntity
  8
1
 48
0.3
100
AcDbLine
 10
315.0000000000031
 20
497.2495345604638
 30
0.0
 11
315.0000000000031
 21
301.2495345604638
 31
0.0
  0
LINE
  5
29D4
330
1A
100
AcDbEntity
  8
CENTER
 48
0.3
100
AcDbLine
 10
291.9217555281115
 20
311.749534560462
 30
0.0
 11
313.0782444718947
 21
311.7495345604638
 31
0.0
  0
LINE
  5
29D5
330
1A
100
AcDbEntity
  8
1
 48
0.3
100
AcDbLine
 10
313.0000000000031
 20
299.2495345604638
 30
0.0
 11
315.0000000000031
 21
301.2495345604638
 31
0.0
  0
CIRCLE
  5
29D6
330
1A
100
AcDbEntity
  8
1
 48
0.3
100
AcDbCircle
 10
302.5000000000041
 20
311.749534560462
 30
0.0
 40
6.0
  0
LINE
  5
29D7
330
1A
100
AcDbEntity
  8
CENTER
 48
0.3
100
AcDbLine
 10
302.5000000000031
 20
322.3277790323536
 30
0.0
 11
302.5000000000031
 21
301.1712900885704
 31
0.0
  0
LINE
  5
29D8
330
1A
100
AcDbEntity
  8
CENTER
 48
0.3
100
AcDbLine
 10
291.9217555281115
 20
416.7495345604638
 30
0.0
 11
313.0782444718947
 21
416.7495345604638
 31
0.0
  0
LINE
  5
29D9
330
1A
100
AcDbEntity
  8
1
 48
0.3
100
AcDbLine
 10
313.0000000000031
 20
499.2495345604639
 30
0.0
 11
315.0000000000031
 21
497.2495345604638
 31
0.0
  0
CIRCLE
  5
29E8
330
1A
100
AcDbEntity
  8
1
 48
0.3
100
AcDbCircle
 10
302.5000000000041
 20
416.749534560462
 30
0.0
 40
6.0
  0
LINE
  5
29E9
330
1A
100
AcDbEntity
  8
CENTER
 48
0.3
100
AcDbLine
 10
302.5000000000031
 20
427.3277790323536
 30
0.0
 11
302.5000000000031
 21
406.1712900885704
 31
0.0
  0
LINE
  5
29EA
330
1A
100
AcDbEntity
  8
1
  6
HIDDEN
 48
0.3
100
AcDbLine
 10
189.9999999999981
 20
477.7495345604639
 30
0.0
 11
185.0000000000018
 21
477.7495345604656
 31
0.0
  0
LINE
  5
29EB
330
1A
100
AcDbEntity
  8
1
  6
HIDDEN
 48
0.3
100
AcDbLine
 10
189.9999999999981
 20
450.7495345604638
 30
0.0
 11
185.0000000000013
 21
450.7495345604638
 31
0.0
  0
LINE
  5
2AAF
330
1A
100
AcDbEntity
  8
CENTER
 48
0.3
100
AcDbLine
 10
319.5877367559087
 20
157.9999999999963
 30
0.0
 11
-2.761807888049588
 21
157.9999999999963
 31
0.0
  0
LINE
  5
2D40
330
1A
100
AcDbEntity
  8
1
  6
HIDDEN
 48
0.3
100
AcDbLine
 10
270.0000000000022
 20
200.9999999999982
 30
0.0
 11
230.0000000000018
 21
200.9999999999982
 31
0.0
  0
LINE
  5
2D43
330
1A
100
AcDbEntity
  8
1
  6
HIDDEN
 48
0.3
100
AcDbLine
 10
230.0000000000018
 20
200.9999999999982
 30
0.0
 11
230.0000000000018
 21
197.9999999999981
 31
0.0
  0
LINE
  5
2D44
330
1A
100
AcDbEntity
  8
1
  6
HIDDEN
 48
0.3
100
AcDbLine
 10
270.0000000000027
 20
200.9999999999982
 30
0.0
 11
270.0000000000027
 21
197.9999999999981
 31
0.0
  0
LINE
  5
2D98
330
1A
100
AcDbEntity
  8
1
 48
0.3
100
AcDbLine
 10
230.0000000000018
 20
189.9999999999981
 30
0.0
 11
270.0000000000027
 21
189.9999999999981
 31
0.0
  0
LINE
  5
2D99
330
1A
100
AcDbEntity
  8
1
 48
0.3
100
AcDbLine
 10
230.0000000000018
 20
189.9999999999981
 30
0.0
 11
230.0000000000018
 21
197.9999999999981
 31
0.0
  0
LINE
  5
2D9A
330
1A
100
AcDbEntity
  8
1
 48
0.3
100
AcDbLine
 10
270.0000000000027
 20
189.9999999999981
 30
0.0
 11
270.0000000000027
 21
197.9999999999981
 31
0.0
  0
LINE
  5
3183
330
1A
100
AcDbEntity
  8
CENTER
 48
0.3
100
AcDbLine
 10
30.0
 20
509.3096312898942
 30
0.0
 11
29.99999999999727
 21
421.4293612577021
 31
0.0
  0
LINE
  5
3184
330
1A
100
AcDbEntity
  8
1
  6
HIDDEN
 48
0.3
100
AcDbLine
 10
226.5000000000022
 20
490.2495345604639
 30
0.0
 11
224.5000000000022
 21
488.2495345604638
 31
0.0
  0
LINE
  5
3185
330
1A
100
AcDbEntity
  8
1
  6
HIDDEN
 48
0.3
100
AcDbLine
 10
224.5000000000018
 20
480.249534560462
 30
0.0
 11
226.5000000000018
 21
478.249534560462
 31
0.0
  0
LINE
  5
3186
330
1A
100
AcDbEntity
  8
1
  6
HIDDEN
 48
0.3
100
AcDbLine
 10
273.4999999999999
 20
490.2495345604656
 30
0.0
 11
275.4999999999999
 21
488.2495345604657
 31
0.0
  0
LINE
  5
3187
330
1A
100
AcDbEntity
  8
1
  6
HIDDEN
 48
0.3
100
AcDbLine
 10
275.4999999999999
 20
480.2495345604657
 30
0.0
 11
273.4999999999999
 21
478.2495345604656
 31
0.0
  0
LINE
  5
3188
330
1A
100
AcDbEntity
  8
1
  6
HIDDEN
 48
0.3
100
AcDbLine
 10
226.5000000000022
 20
450.2495345604638
 30
0.0
 11
224.5000000000022
 21
448.2495345604639
 31
0.0
  0
LINE
  5
3189
330
1A
100
AcDbEntity
  8
1
  6
HIDDEN
 48
0.3
100
AcDbLine
 10
224.5000000000022
 20
440.2495345604639
 30
0.0
 11
226.5000000000022
 21
438.2495345604638
 31
0.0
  0
LINE
  5
318A
330
1A
100
AcDbEntity
  8
1
  6
HIDDEN
 48
0.3
100
AcDbLine
 10
273.4999999999999
 20
450.2495345604638
 30
0.0
 11
275.4999999999999
 21
448.2495345604639
 31
0.0
  0
LINE
  5
318B
330
1A
100
AcDbEntity
  8
1
  6
HIDDEN
 48
0.3
100
AcDbLine
 10
275.4999999999999
 20
440.249534560462
 30
0.0
 11
273.4999999999999
 21
438.249534560462
 31
0.0
  0
LINE
  5
318C
330
1A
100
AcDbEntity
  8
1
 48
0.3
100
AcDbLine
 10
53.5
 20
490.2495345604639
 30
0.0
 11
55.5
 21
488.2495345604638
 31
0.0
  0
LINE
  5
318D
330
1A
100
AcDbEntity
  8
1
 48
0.3
100
AcDbLine
 10
55.5
 20
440.249534560462
 30
0.0
 11
53.5
 21
438.249534560462
 31
0.0
  0
LINE
  5
318E
330
1A
100
AcDbEntity
  8
1
 48
0.3
100
AcDbLine
 10
6.500000000001818
 20
490.2495345604656
 30
0.0
 11
4.500000000001818
 21
488.2495345604657
 31
0.0
  0
LINE
  5
318F
330
1A
100
AcDbEntity
  8
1
 48
0.3
100
AcDbLine
 10
4.500000000001818
 20
440.249534560462
 30
0.0
 11
6.500000000001818
 21
438.249534560462
 31
0.0
  0
CIRCLE
  5
319D
330
1A
100
AcDbEntity
  8
1
  6
HIDDEN
 48
0.3
100
AcDbCircle
 10
250.0000000000018
 20
364.2495345604638
 30
0.0
 40
20.0
  0
LINE
  5
34F3
330
1A
100
AcDbEntity
  8
1
100
AcDbLine
 10
99.99999741500188
 20
477.7710894251395
 30
0.0
 11
99.99999741500097
 21
450.75108425514
 31
0.0
  0
ARC
  5
34F4
330
1A
100
AcDbEntity
  8
1
100
AcDbCircle
 10
125.8133378242005
 20
464.2610868401389
 30
0.0
 40
25.81334040920221
100
AcDbArc
 50
162.412046226005
 51
197.5879537739927
  0
LINE
  5
34F5
330
1A
100
AcDbEntity
  8
1
100
AcDbLine
 10
129.9999974150027
 20
479.861086840141
 30
0.0
 11
129.9999974150018
 21
448.6610868401385
 31
0.0
  0
LINE
  5
34F6
330
1A
100
AcDbEntity
  8
1
100
AcDbLine
 10
124.9999974150032
 20
473.261086840137
 30
0.0
 11
124.9999974150023
 21
455.2610868401388
 31
0.0
  0
LINE
  5
34F7
330
1A
100
AcDbEntity
  8
1
100
AcDbLine
 10
100.0000000000027
 20
477.771093902491
 30
0.0
 11
100.0000000000009
 21
450.7510797777904
 31
0.0
  0
ARC
  5
34F8
330
1A
100
AcDbEntity
  8
1
100
AcDbCircle
 10
89.18666217580312
 20
464.2610868401407
 30
0.0
 40
25.81334040920221
100
AcDbArc
 50
342.4120462260039
 51
17.58795377399159
  0
LINE
  5
34F9
330
1A
100
AcDbEntity
  8
1
100
AcDbLine
 10
115.0000025850026
 20
477.7710894251395
 30
0.0
 11
115.0000025850017
 21
450.75108425514
 31
0.0
  0
LINE
  5
34FA
330
1A
100
AcDbEntity
  8
1
100
AcDbLine
 10
180.0000025850017
 20
477.7710894251376
 30
0.0
 11
180.0000025850008
 21
450.7510842551382
 31
0.0
  0
ARC
  5
34FB
330
1A
100
AcDbEntity
  8
1
100
AcDbCircle
 10
154.1866621758022
 20
464.2610868401389
 30
0.0
 40
25.81334040920221
100
AcDbArc
 50
342.4120462260039
 51
17.58795377399159
  0
LINE
  5
34FC
330
1A
100
AcDbEntity
  8
1
100
AcDbLine
 10
149.9999974150023
 20
479.8610868401374
 30
0.0
 11
149.9999974150014
 21
448.6610868401385
 31
0.0
  0
LINE
  5
34FD
330
1A
100
AcDbEntity
  8
1
100
AcDbLine
 10
154.9999974150027
 20
473.2610868401352
 30
0.0
 11
154.9999974150027
 21
455.261086840137
 31
0.0
  0
ARC
  5
34FE
330
1A
100
AcDbEntity
  8
1
100
AcDbCircle
 10
190.8133378242009
 20
464.261086840137
 30
0.0
 40
25.81334040920221
100
AcDbArc
 50
162.4120462260039
 51
197.5879537739915
  0
LINE
  5
34FF
330
1A
100
AcDbEntity
  8
1
100
AcDbLine
 10
164.9999974150005
 20
450.7510842551382
 30
0.0
 11
164.9999974150014
 21
477.7710894251376
 31
0.0
  0
LINE
  5
3500
330
1A
100
AcDbEntity
  8
1
 48
0.3
100
AcDbLine
 10
129.9999974150023
 20
448.6610868401385
 30
0.0
 11
149.9999974150023
 21
448.6610868401367
 31
0.0
  0
LINE
  5
3501
330
1A
100
AcDbEntity
  8
1
 48
0.3
100
AcDbLine
 10
115.0000025850022
 20
455.2610868401388
 30
0.0
 11
129.9999974150027
 21
455.2610868401388
 31
0.0
  0
LINE
  5
3502
330
1A
100
AcDbEntity
  8
1
 48
0.3
100
AcDbLine
 10
115.0000025850022
 20
456.7610868401389
 30
0.0
 11
124.9999974150027
 21
456.7610868401389
 31
0.0
  0
LINE
  5
3503
330
1A
100
AcDbEntity
  8
1
 48
0.3
100
AcDbLine
 10
124.9999974150023
 20
456.7610868401389
 30
0.0
 11
126.4999974150023
 21
455.2610868401388
 31
0.0
  0
LINE
  5
3504
330
1A
100
AcDbEntity
  8
1
100
AcDbLine
 10
115.0000025850017
 20
450.75108425514
 30
0.0
 11
113.793337824201
 21
448.6610795817341
 31
0.0
  0
ARC
  5
3505
330
1A
100
AcDbEntity
  8
1
100
AcDbCircle
 10
100.8866676196052
 20
450.7510842551418
 30
0.0
 40
14.11333496539884
100
AcDbArc
 50
359.9999999999977
 51
23.86492541604769
  0
ARC
  5
3506
330
1A
100
AcDbEntity
  8
1
100
AcDbCircle
 10
165.8866676196043
 20
450.75108425514
 30
0.0
 40
14.11333496539884
100
AcDbArc
 50
359.9999999999977
 51
23.86492541604769
  0
LINE
  5
3507
330
1A
100
AcDbEntity
  8
1
100
AcDbLine
 10
180.0000025850008
 20
450.7510842551382
 30
0.0
 11
178.7933378242
 21
448.6610795817323
 31
0.0
  0
LINE
  5
3508
330
1A
100
AcDbEntity
  8
1
100
AcDbLine
 10
178.7933378242
 20
448.6610795817323
 30
0.0
 11
166.2066621758003
 21
448.6610795817341
 31
0.0
  0
LINE
  5
3509
330
1A
100
AcDbEntity
  8
1
 48
0.3
100
AcDbLine
 10
154.9999974150027
 20
456.7610868401389
 30
0.0
 11
153.4999974150027
 21
455.2610868401388
 31
0.0
  0
LINE
  5
350A
330
1A
100
AcDbEntity
  8
1
 48
0.3
100
AcDbLine
 10
154.9999974150027
 20
456.7610868401389
 30
0.0
 11
164.9999974150023
 21
456.7610868401389
 31
0.0
  0
LINE
  5
350B
330
1A
100
AcDbEntity
  8
1
 48
0.3
100
AcDbLine
 10
149.9999974150027
 20
455.261086840137
 30
0.0
 11
164.9999974150023
 21
455.2610868401388
 31
0.0
  0
LINE
  5
350C
330
1A
100
AcDbEntity
  8
1
100
AcDbLine
 10
166.2066621758017
 20
456.4610832109356
 30
0.0
 11
178.7933378242078
 21
456.4610832109337
 31
0.0
  0
ARC
  5
350D
330
1A
100
AcDbEntity
  8
1
100
AcDbCircle
 10
179.1133323803969
 20
450.7510842551364
 30
0.0
 40
14.11333496539884
100
AcDbArc
 50
156.1350745839478
 51
179.9999999999978
  0
LINE
  5
350E
330
1A
100
AcDbEntity
  8
1
100
AcDbLine
 10
164.9999974150005
 20
450.7510842551382
 30
0.0
 11
166.2066621758012
 21
448.6610795817341
 31
0.0
  0
ARC
  5
350F
330
1A
100
AcDbEntity
  8
1
100
AcDbCircle
 10
114.1133323803974
 20
450.7510842551418
 30
0.0
 40
14.11333496539884
100
AcDbArc
 50
156.1350745839489
 51
179.9999999999988
  0
LINE
  5
3510
330
1A
100
AcDbEntity
  8
1
100
AcDbLine
 10
99.99999741500097
 20
450.75108425514
 30
0.0
 11
101.2066621758017
 21
448.6610795817341
 31
0.0
  0
LINE
  5
3511
330
1A
100
AcDbEntity
  8
1
100
AcDbLine
 10
113.793337824201
 20
448.6610795817341
 30
0.0
 11
101.2066621758012
 21
448.661079581736
 31
0.0
  0
LINE
  5
3512
330
1A
100
AcDbEntity
  8
1
100
AcDbLine
 10
113.7933378242014
 20
456.4610832109374
 30
0.0
 11
101.2066621757958
 21
456.4610832109374
 31
0.0
  0
LINE
  5
3513
330
1A
100
AcDbEntity
  8
1
 48
0.3
100
AcDbLine
 10
129.9999974150023
 20
464.2610868401389
 30
0.0
 11
149.9999974150023
 21
464.2610868401352
 31
0.0
  0
LINE
  5
3514
330
1A
100
AcDbEntity
  8
1
 48
0.3
100
AcDbLine
 10
129.9999974150032
 20
479.861086840141
 30
0.0
 11
149.9999974150032
 21
479.8610868401374
 31
0.0
  0
LINE
  5
3515
330
1A
100
AcDbEntity
  8
1
 48
0.3
100
AcDbLine
 10
115.0000025850026
 20
471.761086840137
 30
0.0
 11
124.9999974150036
 21
471.7610868401352
 31
0.0
  0
LINE
  5
3516
330
1A
100
AcDbEntity
  8
1
 48
0.3
100
AcDbLine
 10
115.0000025850026
 20
473.261086840137
 30
0.0
 11
129.9999974150032
 21
473.261086840137
 31
0.0
  0
LINE
  5
3517
330
1A
100
AcDbEntity
  8
1
 48
0.3
100
AcDbLine
 10
124.9999974150036
 20
471.7610868401352
 30
0.0
 11
126.4999974150032
 21
473.261086840137
 31
0.0
  0
ARC
  5
3518
330
1A
100
AcDbEntity
  8
1
100
AcDbCircle
 10
100.8866676196062
 20
477.7710894251413
 30
0.0
 40
14.11333496539884
100
AcDbArc
 50
336.1350745839478
 51
359.9999999999977
  0
LINE
  5
3519
330
1A
100
AcDbEntity
  8
1
100
AcDbLine
 10
115.0000025850026
 20
477.7710894251395
 30
0.0
 11
113.7933378242023
 21
479.8610940985436
 31
0.0
  0
LINE
  5
351A
330
1A
100
AcDbEntity
  8
1
100
AcDbLine
 10
180.0000025850017
 20
477.7710894251376
 30
0.0
 11
178.7933378242014
 21
479.8610940985418
 31
0.0
  0
ARC
  5
351B
330
1A
100
AcDbEntity
  8
1
100
AcDbCircle
 10
165.8866676196053
 20
477.7710894251395
 30
0.0
 40
14.11333496539884
100
AcDbArc
 50
336.1350745839478
 51
359.9999999999977
  0
LINE
  5
351C
330
1A
100
AcDbEntity
  8
1
100
AcDbLine
 10
178.7933378242014
 20
479.8610940985418
 30
0.0
 11
166.2066621758026
 21
479.8610940985436
 31
0.0
  0
LINE
  5
351D
330
1A
100
AcDbEntity
  8
1
 48
0.3
100
AcDbLine
 10
154.9999974150027
 20
471.761086840137
 30
0.0
 11
153.4999974150027
 21
473.2610868401352
 31
0.0
  0
LINE
  5
351E
330
1A
100
AcDbEntity
  8
1
 48
0.3
100
AcDbLine
 10
149.9999974150032
 20
473.2610868401352
 30
0.0
 11
164.9999974150027
 21
473.261086840137
 31
0.0
  0
LINE
  5
351F
330
1A
100
AcDbEntity
  8
1
 48
0.3
100
AcDbLine
 10
154.9999974150027
 20
471.761086840137
 30
0.0
 11
164.9999974150027
 21
471.761086840137
 31
0.0
  0
LINE
  5
3520
330
1A
100
AcDbEntity
  8
1
100
AcDbLine
 10
166.2066621758022
 20
472.0610904693403
 30
0.0
 11
178.7933378242078
 21
472.0610904693385
 31
0.0
  0
LINE
  5
3521
330
1A
100
AcDbEntity
  8
1
100
AcDbLine
 10
164.9999974150014
 20
477.7710894251376
 30
0.0
 11
166.2066621758026
 21
479.8610940985436
 31
0.0
  0
ARC
  5
3522
330
1A
100
AcDbEntity
  8
1
100
AcDbCircle
 10
179.1133323803978
 20
477.7710894251359
 30
0.0
 40
14.11333496539884
100
AcDbArc
 50
179.9999999999978
 51
203.8649254160476
  0
LINE
  5
3523
330
1A
100
AcDbEntity
  8
1
100
AcDbLine
 10
99.99999741500188
 20
477.7710894251395
 30
0.0
 11
101.2066621758021
 21
479.8610940985436
 31
0.0
  0
ARC
  5
3524
330
1A
100
AcDbEntity
  8
1
100
AcDbCircle
 10
114.1133323803983
 20
477.7710894251413
 30
0.0
 40
14.11333496539884
100
AcDbArc
 50
179.9999999999988
 51
203.8649254160488
  0
LINE
  5
3525
330
1A
100
AcDbEntity
  8
1
100
AcDbLine
 10
113.7933378242019
 20
472.0610904693422
 30
0.0
 11
101.2066621757971
 21
472.0610904693439
 31
0.0
  0
LINE
  5
3526
330
1A
100
AcDbEntity
  8
1
100
AcDbLine
 10
113.7933378242023
 20
479.8610940985436
 30
0.0
 11
101.2066621758035
 21
479.8610940985454
 31
0.0
  0
LINE
  5
3527
330
1A
100
AcDbEntity
  8
1
 48
0.3
100
AcDbLine
 10
149.999997415
 20
150.2057713659342
 30
0.0
 11
129.9999974150005
 21
150.2057713659342
 31
0.0
  0
LINE
  5
3528
330
1A
100
AcDbEntity
  8
1
 48
0.3
100
AcDbLine
 10
149.999997415
 20
165.7942286340548
 30
0.0
 11
129.999997415
 21
165.7942286340548
 31
0.0
  0
LINE
  5
3529
330
1A
100
AcDbEntity
  8
1
 48
0.3
100
AcDbLine
 10
129.999997415
 20
139.8999999999978
 30
0.0
 11
149.999997415
 21
139.8999999999978
 31
0.0
  0
LINE
  5
352A
330
1A
100
AcDbEntity
  8
1
 48
0.3
100
AcDbLine
 10
129.999997415
 20
176.0999999999985
 30
0.0
 11
149.999997415
 21
176.0999999999985
 31
0.0
  0
ARC
  5
352B
330
1A
100
AcDbEntity
  8
1
 48
0.3
100
AcDbCircle
 10
95.41562758497958
 20
164.7500072584025
 30
0.0
 40
19.58437500001992
100
AcDbArc
 50
339.8388040249311
 51
20.16119597505939
  0
ARC
  5
352C
330
1A
100
AcDbEntity
  8
1
 48
0.3
100
AcDbCircle
 10
95.41558675647957
 20
151.2499999999945
 30
0.0
 40
19.58441582852132
100
AcDbArc
 50
339.838825259966
 51
20.16117474004945
  0
LINE
  5
352D
330
1A
100
AcDbEntity
  8
1
 48
0.3
100
AcDbLine
 10
124.999997415
 20
165.4999999999981
 30
0.0
 11
126.499997415
 21
166.9999999999981
 31
0.0
  0
LINE
  5
352E
330
1A
100
AcDbEntity
  8
1
 48
0.3
100
AcDbLine
 10
124.9999974150009
 20
150.5000000000018
 30
0.0
 11
126.499997415
 21
149.0
 31
0.0
  0
LINE
  5
352F
330
1A
100
AcDbEntity
  8
1
 48
0.3
100
AcDbLine
 10
115.0000025849999
 20
150.5
 30
0.0
 11
124.9999974150009
 21
150.5000000000018
 31
0.0
  0
LINE
  5
3530
330
1A
100
AcDbEntity
  8
1
 48
0.3
100
AcDbLine
 10
115.0000025849999
 20
165.4999999999981
 30
0.0
 11
124.999997415
 21
165.4999999999981
 31
0.0
  0
LINE
  5
3531
330
1A
100
AcDbEntity
  8
1
100
AcDbLine
 10
124.999997415
 20
149.0
 30
0.0
 11
124.999997415
 21
166.9999999999981
 31
0.0
  0
LINE
  5
3532
330
1A
100
AcDbEntity
  8
1
 48
0.3
100
AcDbLine
 10
115.0000025849999
 20
149.0
 30
0.0
 11
129.999997415
 21
149.0
 31
0.0
  0
LINE
  5
3533
330
1A
100
AcDbEntity
  8
1
 48
0.3
100
AcDbLine
 10
115.0000025849999
 20
166.9999999999981
 30
0.0
 11
129.999997415
 21
166.9999999999981
 31
0.0
  0
LINE
  5
3534
330
1A
100
AcDbEntity
  8
1
100
AcDbLine
 10
129.999997415
 20
139.8999999999978
 30
0.0
 11
129.999997415
 21
176.0999999999985
 31
0.0
  0
LINE
  5
3535
330
1A
100
AcDbEntity
  8
1
100
AcDbLine
 10
115.0000025850004
 20
151.2499999999945
 30
0.0
 11
115.0000025850004
 21
164.7500072584025
 31
0.0
  0
LINE
  5
3536
330
1A
100
AcDbEntity
  8
1
100
AcDbLine
 10
178.7999999999992
 20
158.0000072583952
 30
0.0
 11
166.1999974149985
 21
158.000007258397
 31
0.0
  0
LINE
  5
3537
330
1A
100
AcDbEntity
  8
1
 48
0.3
100
AcDbLine
 10
164.999997415
 20
165.4999999999963
 30
0.0
 11
164.999997415
 21
150.4999999999981
 31
0.0
  0
ARC
  5
3538
330
1A
100
AcDbEntity
  8
1
 48
0.3
100
AcDbCircle
 10
160.4156249999805
 20
164.7500072583989
 30
0.0
 40
19.58437500001992
100
AcDbArc
 50
339.8388040249311
 51
20.16119597505939
  0
LINE
  5
3539
330
1A
100
AcDbEntity
  8
1
100
AcDbLine
 10
180.0000000000013
 20
151.2499999999909
 30
0.0
 11
180.0000000000013
 21
164.7500072583989
 31
0.0
  0
ARC
  5
353A
330
1A
100
AcDbEntity
  8
1
 48
0.3
100
AcDbCircle
 10
160.4155841714805
 20
151.2499999999909
 30
0.0
 40
19.58441582852132
100
AcDbArc
 50
339.838825259966
 51
20.16117474004945
  0
LINE
  5
353B
330
1A
100
AcDbEntity
  8
1
100
AcDbLine
 10
178.800000000001
 20
144.4999927415883
 30
0.0
 11
166.1999974149985
 21
144.499992741592
 31
0.0
  0
ARC
  5
353C
330
1A
100
AcDbEntity
  8
1
 48
0.3
100
AcDbCircle
 10
184.5844132435295
 20
151.2499999999927
 30
0.0
 40
19.58441582853068
100
AcDbArc
 50
159.8388252599647
 51
200.1611747400299
  0
LINE
  5
353D
330
1A
100
AcDbEntity
  8
1
100
AcDbLine
 10
178.8000000000015
 20
171.5000072583989
 30
0.0
 11
166.1999974150007
 21
171.5000072584007
 31
0.0
  0
ARC
  5
353E
330
1A
100
AcDbEntity
  8
1
 48
0.3
100
AcDbCircle
 10
184.5843724149899
 20
164.750007258397
 30
0.0
 40
19.58437499999089
100
AcDbArc
 50
159.8388040248998
 51
200.1611959750896
  0
LINE
  5
353F
330
1A
100
AcDbEntity
  8
1
 48
0.3
100
AcDbLine
 10
154.999997415
 20
150.4999999999981
 30
0.0
 11
153.499997415
 21
149.0
 31
0.0
  0
LINE
  5
3540
330
1A
100
AcDbEntity
  8
1
 48
0.3
100
AcDbLine
 10
154.999997415
 20
165.4999999999963
 30
0.0
 11
153.499997415
 21
166.9999999999963
 31
0.0
  0
LINE
  5
3541
330
1A
100
AcDbEntity
  8
1
 48
0.3
100
AcDbLine
 10
154.999997415
 20
150.4999999999981
 30
0.0
 11
164.999997415
 21
150.4999999999981
 31
0.0
  0
LINE
  5
3542
330
1A
100
AcDbEntity
  8
1
 48
0.3
100
AcDbLine
 10
154.999997415
 20
165.4999999999963
 30
0.0
 11
164.999997415
 21
165.4999999999963
 31
0.0
  0
LINE
  5
3543
330
1A
100
AcDbEntity
  8
1
100
AcDbLine
 10
154.999997415
 20
149.0
 30
0.0
 11
154.999997415
 21
166.9999999999981
 31
0.0
  0
LINE
  5
3544
330
1A
100
AcDbEntity
  8
1
 48
0.3
100
AcDbLine
 10
149.999997415
 20
166.9999999999981
 30
0.0
 11
164.999997415
 21
166.9999999999963
 31
0.0
  0
LINE
  5
3545
330
1A
100
AcDbEntity
  8
1
 48
0.3
100
AcDbLine
 10
149.999997415
 20
149.0
 30
0.0
 11
164.999997415
 21
148.9999999999981
 31
0.0
  0
LINE
  5
3546
330
1A
100
AcDbEntity
  8
1
100
AcDbLine
 10
149.999997415
 20
139.8999999999978
 30
0.0
 11
149.999997415
 21
176.0999999999985
 31
0.0
  0
LINE
  5
3547
330
1A
100
AcDbEntity
  8
1
100
AcDbLine
 10
180.0000000000004
 20
173.6000072583992
 30
0.0
 11
180.0000000000004
 21
142.3999927415898
 31
0.0
  0
ARC
  5
3548
330
1A
100
AcDbEntity
  8
1
 48
0.3
100
AcDbCircle
 10
119.5844158285285
 20
151.2499999999963
 30
0.0
 40
19.58441582853068
100
AcDbArc
 50
159.8388252599647
 51
200.1611747400299
  0
ARC
  5
3549
330
1A
100
AcDbEntity
  8
1
 48
0.3
100
AcDbCircle
 10
119.5843749999889
 20
164.7500072584007
 30
0.0
 40
19.58437499999089
100
AcDbArc
 50
159.8388040248998
 51
200.1611959750896
  0
LINE
  5
354A
330
1A
100
AcDbEntity
  8
1
100
AcDbLine
 10
99.99999999999864
 20
142.3999927415934
 30
0.0
 11
99.99999999999955
 21
173.6000072584029
 31
0.0
  0
LINE
  5
354B
330
1A
100
AcDbEntity
  8
1
100
AcDbLine
 10
113.8000052499869
 20
157.9999999999963
 30
0.0
 11
101.199999999998
 21
158.0000072584025
 31
0.0
  0
LINE
  5
354C
330
1A
100
AcDbEntity
  8
1
100
AcDbLine
 10
113.8000025850001
 20
144.499992741592
 30
0.0
 11
101.1999999999975
 21
144.4999927415956
 31
0.0
  0
LINE
  5
354D
330
1A
100
AcDbEntity
  8
1
100
AcDbLine
 10
113.8000025850005
 20
171.5000072584025
 30
0.0
 11
101.1999999999998
 21
171.5000072584043
 31
0.0
  0
CIRCLE
  5
354F
330
1A
100
AcDbEntity
  8
1
 48
0.3
100
AcDbCircle
 10
50.00000000000318
 20
339.2495345604638
 30
0.0
 40
7.0
  0
CIRCLE
  5
3550
330
1A
100
AcDbEntity
  8
1
 48
0.3
100
AcDbCircle
 10
50.00000000000318
 20
339.2495345604638
 30
0.0
 40
8.0
  0
LINE
  5
3551
330
1A
100
AcDbEntity
  8
CENTER
 48
0.3
100
AcDbLine
 10
50.00000000000318
 20
319.6559910441119
 30
0.0
 11
50.00000000000318
 21
358.8430780768157
 31
0.0
  0
LINE
  5
3560
330
1A
100
AcDbEntity
  8
1
 48
0.3
100
AcDbLine
 10
53.49999999999909
 20
175.0000000000018
 30
0.0
 11
53.49999999999909
 21
91.0
 31
0.0
  0
LINE
  5
3561
330
1A
100
AcDbEntity
  8
1
 48
0.3
100
AcDbLine
 10
6.49999999999909
 20
91.0
 30
0.0
 11
6.500000000000909
 21
175.0000000000018
 31
0.0
  0
LINE
  5
3562
330
1A
100
AcDbEntity
  8
1
 48
0.3
100
AcDbLine
 10
226.5000000000013
 20
140.9999999999963
 30
0.0
 11
226.5000000000013
 21
197.9999999999963
 31
0.0
  0
LINE
  5
3563
330
1A
100
AcDbEntity
  8
1
 48
0.3
100
AcDbLine
 10
273.5000000000013
 20
197.9999999999945
 30
0.0
 11
273.4999999999995
 21
140.9999999999963
 31
0.0
  0
LINE
  5
3564
330
1A
100
AcDbEntity
  8
1
 48
0.3
100
AcDbLine
 10
12.50000000000182
 20
490.2495345604656
 30
0.0
 11
12.50000000000182
 21
478.2495345604639
 31
0.0
  0
LINE
  5
3565
330
1A
100
AcDbEntity
  8
1
 48
0.3
100
AcDbLine
 10
47.50000000000045
 20
490.2495345604656
 30
0.0
 11
47.50000000000045
 21
478.249534560462
 31
0.0
  0
LINE
  5
3566
330
1A
100
AcDbEntity
  8
1
 48
0.3
100
AcDbLine
 10
47.5
 20
450.2495345604638
 30
0.0
 11
47.5
 21
438.2495345604638
 31
0.0
  0
LINE
  5
3567
330
1A
100
AcDbEntity
  8
1
 48
0.3
100
AcDbLine
 10
12.50000000000182
 20
450.2495345604638
 30
0.0
 11
12.50000000000182
 21
438.2495345604638
 31
0.0
  0
LINE
  5
3568
330
1A
100
AcDbEntity
  8
1
 48
0.3
100
AcDbLine
 10
47.50000000000045
 20
450.2495345604638
 30
0.0
 11
47.5
 21
438.249534560462
 31
0.0
  0
LINE
  5
3712
330
1A
100
AcDbEntity
  8
CENTER
 48
0.3
100
AcDbLine
 10
30.40645648365125
 20
339.2495345604638
 30
0.0
 11
69.59354351635511
 21
339.2495345604638
 31
0.0
  0
VIEWPORT
  5
22
330
17
100
AcDbEntity
 67
     1
  8
0
100
AcDbViewport
 10
229.4935794862951
 20
115.4964445425809
 30
0.0
 40
620.482018147736
 41
382.5717723591645
 68
     1
 69
     1
 12
229.4935794862951
 22
115.4964445425809
 13
0.0
 23
0.0
 14
1.0
 24
1.0
 15
10.0
 25
10.0
 16
0.0
 26
0.0
 36
1.0
 17
0.0
 27
0.0
 37
0.0
 42
50.0
 43
0.0
 44
0.0
 45
382.5717723591645
 50
0.0
 51
0.0
 72
   100
 90
    32768
  1

281
     0
 71
     1
 74
     0
110
0.0
120
0.0
130
0.0
111
1.0
121
0.0
131
0.0
112
0.0
122
1.0
132
0.0
 79
     0
146
0.0
  0
VIEWPORT
  5
2A3
330
17
100
AcDbEntity
 67
     1
  8
0
100
AcDbViewport
 10
212.4999999999999
 20
128.6520125737375
 30
0.0
 40
384.9999999999998
 41
306.6959748525249
 68
     2
 69
     2
 12
160.4318488506651
 22
252.8522360712668
 13
0.0
 23
0.0
 14
168.0
 24
168.0
 15
0.0
 25
0.0
 16
0.0
 26
0.0
 36
1.0
 17
0.0
 27
0.0
 37
0.0
 42
50.0
 43
0.0
 44
0.0
 45
531.3802188823676
 50
0.0
 51
0.0
 72
   100
 90
    36864
  1

281
     0
 71
     1
 74
     0
110
0.0
120
0.0
130
0.0
111
1.0
121
0.0
131
0.0
112
0.0
122
1.0
132
0.0
 79
     0
146
0.0
  0
ENDSEC
  0
SECTION
  2
OBJECTS
  0
DICTIONARY
  5
C
330
0
100
AcDbDictionary
281
     1
  3
ACAD_GROUP
350
D
  3
ACAD_MLINESTYLE
350
E
  3
CONTENTDICTIONARY
350
DFB
  3
ACAD_PLOTSTYLENAME
350
394D
  3
ACAD_LAYOUT
350
394F
  3
ACAD_PLOTSETTINGS
350
3950
  0
DICTIONARY
  5
D
102
{ACAD_REACTORS
330
C
102
}
330
C
100
AcDbDictionary
281
     1
  0
DICTIONARY
  5
E
102
{ACAD_REACTORS
330
C
102
}
330
C
100
AcDbDictionary
281
     1
  3
STANDARD
350
13
  0
DICTIONARY
  5
DFB
102
{ACAD_REACTORS
330
C
102
}
330
C
100
AcDbDictionary
281
     1
  0
ACDBDICTIONARYWDFLT
  5
394D
102
{ACAD_REACTORS
330
C
102
}
330
C
100
AcDbDictionary
281
     1
  3
Normal
350
394E
100
AcDbDictionaryWithDefault
340
394E
  0
DICTIONARY
  5
394F
102
{ACAD_REACTORS
330
C
102
}
330
C
100
AcDbDictionary
281
     1
  3
Model
350
3951
  3
ﾚｲｱｳﾄ1
350
3952
  0
DICTIONARY
  5
3950
102
{ACAD_REACTORS
330
C
102
}
330
C
100
AcDbDictionary
281
     1
  0
MLINESTYLE
  5
13
102
{ACAD_REACTORS
330
E
102
}
330
E
100
AcDbMlineStyle
  2
STANDARD
 70
     0
  3

 62
     0
 51
90.0
 52
90.0
 71
     2
 49
0.5
 62
   256
  6
BYLAYER
 49
-0.5
 62
   256
  6
BYLAYER
  0
ACDBPLACEHOLDER
  5
394E
102
{ACAD_REACTORS
330
394D
102
}
330
394D
  0
LAYOUT
  5
3951
102
{ACAD_REACTORS
330
394F
102
}
330
394F
100
AcDbPlotSettings
  1

  2
C:\Program Files\ACAD LT 2000\plotters\DWF Classic.pc3
  4

  6

 40
0.0
 41
0.0
 42
0.0
 43
0.0
 44
0.0
 45
0.0
 46
0.0
 47
0.0
 48
0.0
 49
0.0
140
0.0
141
0.0
142
1.0
143
1.0
 70
  1712
 72
     0
 73
     0
 74
     0
  7

 75
     0
147
1.0
148
0.0
149
0.0
100
AcDbLayout
  1
Model
 70
     1
 71
     0
 10
0.0
 20
0.0
 11
12.0
 21
9.0
 12
0.0
 22
0.0
 32
0.0
 14
0.0
 24
0.0
 34
0.0
 15
0.0
 25
0.0
 35
0.0
146
0.0
 13
0.0
 23
0.0
 33
0.0
 16
1.0
 26
0.0
 36
0.0
 17
0.0
 27
1.0
 37
0.0
 76
     0
330
1A
  0
LAYOUT
  5
3952
102
{ACAD_REACTORS
330
394F
102
}
330
394F
100
AcDbPlotSettings
  1

  2
C:\Program Files\ACAD LT 2000\plotters\DWF Classic.pc3
  4
ANSI_A_(8.50_x_11.00_Inches)
  6

 40
5.793749809265136
 41
17.79375076293945
 42
5.793746948242187
 43
17.79376220703125
 44
215.8999938964843
 45
279.3999938964843
 46
0.0
 47
0.0
 48
0.0
 49
0.0
140
0.0
141
0.0
142
1.0
143
40.16566578858966
 70
   688
 72
     0
 73
     1
 74
     1
  7

 75
     0
147
0.0248968859439169
148
-503.4809214205953
149
669.7577409497556
100
AcDbLayout
  1
ﾚｲｱｳﾄ1
 70
     1
 71
     1
 10
-8.315645059396043
 20
-35.53021887603954
 11
433.5066689634458
 21
305.8779306753281
 12
0.0
 22
0.0
 32
0.0
 14
20.0
 24
-24.69597485252495
 34
0.0
 15
404.9999999999998
 25
281.9999999999999
 35
0.0
146
0.0
 13
0.0
 23
0.0
 33
0.0
 16
1.0
 26
0.0
 36
0.0
 17
0.0
 27
1.0
 37
0.0
 76
     0
330
17
331
22
  0
ENDSEC
  0
EOF
