  0
SECTION
  2
HEADER
  9
$ACADVER
  1
AC1015
  9
$ACADMAINTVER
 70
     6
  9
$DWGCODEPAGE
  3
ANSI_932
  9
$INSBASE
 10
0.0
 20
0.0
 30
0.0
  9
$EXTMIN
 10
-11.05236623886048
 20
-5.933998340673497
 30
0.0
  9
$EXTMAX
 10
310.0980860771933
 20
409.4266814299881
 30
0.0
  9
$LIMMIN
 10
0.0
 20
0.0
  9
$LIMMAX
 10
10000.0
 20
10000.0
  9
$ORTHOMODE
 70
     1
  9
$REGENMODE
 70
     1
  9
$FILLMODE
 70
     1
  9
$QTEXTMODE
 70
     0
  9
$MIRRTEXT
 70
     1
  9
$LTSCALE
 40
33.67003367003366
  9
$ATTMODE
 70
     1
  9
$TEXTSIZE
 40
3.5
  9
$TRACEWID
 40
1.0
  9
$TEXTSTYLE
  7
AD-STANDARD
  9
$CLAYER
  8
0
  9
$CELTYPE
  6
BYLAYER
  9
$CECOLOR
 62
   256
  9
$CELTSCALE
 40
0.3
  9
$DISPSILH
 70
     0
  9
$DIMSCALE
 40
1.0
  9
$DIMASZ
 40
0.18
  9
$DIMEXO
 40
0.0625
  9
$DIMDLI
 40
0.38
  9
$DIMRND
 40
0.0
  9
$DIMDLE
 40
0.0
  9
$DIMEXE
 40
0.18
  9
$DIMTP
 40
0.0
  9
$DIMTM
 40
0.0
  9
$DIMTXT
 40
0.18
  9
$DIMCEN
 40
0.09
  9
$DIMTSZ
 40
0.0
  9
$DIMTOL
 70
     0
  9
$DIMLIM
 70
     0
  9
$DIMTIH
 70
     1
  9
$DIMTOH
 70
     1
  9
$DIMSE1
 70
     0
  9
$DIMSE2
 70
     0
  9
$DIMTAD
 70
     0
  9
$DIMZIN
 70
     0
  9
$DIMBLK
  1

  9
$DIMASO
 70
     1
  9
$DIMSHO
 70
     1
  9
$DIMPOST
  1

  9
$DIMAPOST
  1

  9
$DIMALT
 70
     0
  9
$DIMALTD
 70
     2
  9
$DIMALTF
 40
25.4
  9
$DIMLFAC
 40
1.0
  9
$DIMTOFL
 70
     0
  9
$DIMTVP
 40
0.0
  9
$DIMTIX
 70
     0
  9
$DIMSOXD
 70
     0
  9
$DIMSAH
 70
     0
  9
$DIMBLK1
  1

  9
$DIMBLK2
  1

  9
$DIMSTYLE
  2
STANDARD
  9
$DIMCLRD
 70
     0
  9
$DIMCLRE
 70
     0
  9
$DIMCLRT
 70
     0
  9
$DIMTFAC
 40
1.0
  9
$DIMGAP
 40
0.09
  9
$DIMJUST
 70
     0
  9
$DIMSD1
 70
     0
  9
$DIMSD2
 70
     0
  9
$DIMTOLJ
 70
     1
  9
$DIMTZIN
 70
     0
  9
$DIMALTZ
 70
     0
  9
$DIMALTTZ
 70
     0
  9
$DIMUPT
 70
     0
  9
$DIMDEC
 70
     4
  9
$DIMTDEC
 70
     4
  9
$DIMALTU
 70
     2
  9
$DIMALTTD
 70
     2
  9
$DIMTXSTY
  7
STANDARD
  9
$DIMAUNIT
 70
     0
  9
$DIMADEC
 70
     0
  9
$DIMALTRND
 40
0.0
  9
$DIMAZIN
 70
     0
  9
$DIMDSEP
 70
    46
  9
$DIMATFIT
 70
     3
  9
$DIMFRAC
 70
     0
  9
$DIMLDRBLK
  1

  9
$DIMLUNIT
 70
     2
  9
$DIMLWD
 70
    -2
  9
$DIMLWE
 70
    -2
  9
$DIMTMOVE
 70
     0
  9
$LUNITS
 70
     2
  9
$LUPREC
 70
     4
  9
$SKETCHINC
 40
1.0
  9
$FILLETRAD
 40
5.0
  9
$AUNITS
 70
     0
  9
$AUPREC
 70
     0
  9
$MENU
  1
.
  9
$ELEVATION
 40
0.0
  9
$PELEVATION
 40
0.0
  9
$THICKNESS
 40
0.0
  9
$LIMCHECK
 70
     0
  9
$CHAMFERA
 40
2.0
  9
$CHAMFERB
 40
2.0
  9
$CHAMFERC
 40
673.4006734006733
  9
$CHAMFERD
 40
0.0
  9
$SKPOLY
 70
     0
  9
$TDCREATE
 40
2450858.806556018
  9
$TDUCREATE
 40
2450858.431556018
  9
$TDUPDATE
 40
2455610.797030474
  9
$TDUUPDATE
 40
2455610.422030474
  9
$TDINDWG
 40
1.2444017130
  9
$TDUSRTIMER
 40
1.2444017130
  9
$USRTIMER
 70
     1
  9
$ANGBASE
 50
0.0
  9
$ANGDIR
 70
     0
  9
$PDMODE
 70
     0
  9
$PDSIZE
 40
0.0
  9
$PLINEWID
 40
0.0
  9
$SPLFRAME
 70
     0
  9
$SPLINETYPE
 70
     6
  9
$SPLINESEGS
 70
     8
  9
$HANDSEED
  5
22F3
  9
$SURFTAB1
 70
     6
  9
$SURFTAB2
 70
     6
  9
$SURFTYPE
 70
     6
  9
$SURFU
 70
     6
  9
$SURFV
 70
     6
  9
$UCSBASE
  2

  9
$UCSNAME
  2

  9
$UCSORG
 10
0.0
 20
0.0
 30
0.0
  9
$UCSXDIR
 10
1.0
 20
0.0
 30
0.0
  9
$UCSYDIR
 10
0.0
 20
1.0
 30
0.0
  9
$UCSORTHOREF
  2

  9
$UCSORTHOVIEW
 70
     0
  9
$UCSORGTOP
 10
0.0
 20
0.0
 30
0.0
  9
$UCSORGBOTTOM
 10
0.0
 20
0.0
 30
0.0
  9
$UCSORGLEFT
 10
0.0
 20
0.0
 30
0.0
  9
$UCSORGRIGHT
 10
0.0
 20
0.0
 30
0.0
  9
$UCSORGFRONT
 10
0.0
 20
0.0
 30
0.0
  9
$UCSORGBACK
 10
0.0
 20
0.0
 30
0.0
  9
$PUCSBASE
  2

  9
$PUCSNAME
  2

  9
$PUCSORG
 10
0.0
 20
0.0
 30
0.0
  9
$PUCSXDIR
 10
1.0
 20
0.0
 30
0.0
  9
$PUCSYDIR
 10
0.0
 20
1.0
 30
0.0
  9
$PUCSORTHOREF
  2

  9
$PUCSORTHOVIEW
 70
     0
  9
$PUCSORGTOP
 10
0.0
 20
0.0
 30
0.0
  9
$PUCSORGBOTTOM
 10
0.0
 20
0.0
 30
0.0
  9
$PUCSORGLEFT
 10
0.0
 20
0.0
 30
0.0
  9
$PUCSORGRIGHT
 10
0.0
 20
0.0
 30
0.0
  9
$PUCSORGFRONT
 10
0.0
 20
0.0
 30
0.0
  9
$PUCSORGBACK
 10
0.0
 20
0.0
 30
0.0
  9
$USERI1
 70
     0
  9
$USERI2
 70
     0
  9
$USERI3
 70
     0
  9
$USERI4
 70
     0
  9
$USERI5
 70
     0
  9
$USERR1
 40
0.0
  9
$USERR2
 40
0.0
  9
$USERR3
 40
0.0
  9
$USERR4
 40
0.0
  9
$USERR5
 40
0.0
  9
$WORLDVIEW
 70
     1
  9
$SHADEDGE
 70
     3
  9
$SHADEDIF
 70
    70
  9
$TILEMODE
 70
     1
  9
$MAXACTVP
 70
    16
  9
$PINSBASE
 10
0.0
 20
0.0
 30
0.0
  9
$PLIMCHECK
 70
     0
  9
$PEXTMIN
 10
20.0
 20
-23.0525817066192
 30
0.0
  9
$PEXTMAX
 10
469.1611161862895
 20
281.9999999999999
 30
0.0
  9
$PLIMMIN
 10
10.73406966498377
 20
-35.52287058543088
  9
$PLIMMAX
 10
476.9301082570116
 20
294.1039820245135
  9
$UNITMODE
 70
     0
  9
$VISRETAIN
 70
     0
  9
$PLINEGEN
 70
     0
  9
$PSLTSCALE
 70
     1
  9
$TREEDEPTH
 70
  3020
  9
$CMLSTYLE
  2
STANDARD
  9
$CMLJUST
 70
     0
  9
$CMLSCALE
 40
1.0
  9
$PROXYGRAPHICS
 70
     1
  9
$MEASUREMENT
 70
     1
  9
$CELWEIGHT
370
    -1
  9
$ENDCAPS
280
     0
  9
$JOINSTYLE
280
     0
  9
$LWDISPLAY
290
     0
  9
$INSUNITS
 70
     0
  9
$HYPERLINKBASE
  1

  9
$STYLESHEET
  1

  9
$XEDIT
290
     1
  9
$CEPSNTYPE
380
     0
  9
$PSTYLEMODE
290
     1
  9
$FINGERPRINTGUID
  2
{C62AA8F9-45FF-44F6-94DE-D78A8290F087}
  9
$VERSIONGUID
  2
{6F4A1412-7396-4AE7-A98B-C0C36EDD2568}
  9
$EXTNAMES
290
     1
  9
$PSVPSCALE
 40
0.0
  9
$OLESTARTUP
290
     0
  0
ENDSEC
  0
SECTION
  2
CLASSES
  0
CLASS
  1
LWPOLYLINE
  2
AcDbPolyline
  3
AutoCAD 2000
 90
    32768
280
     0
281
     1
  0
CLASS
  1
HATCH
  2
AcDbHatch
  3
AutoCAD 2000
 90
    32768
280
     0
281
     1
  0
CLASS
  1
ACDBDICTIONARYWDFLT
  2
AcDbDictionaryWithDefault
  3
AutoCAD 2000
 90
        0
280
     0
281
     0
  0
CLASS
  1
ACDBPLACEHOLDER
  2
AcDbPlaceHolder
  3
AutoCAD 2000
 90
        0
280
     0
281
     0
  0
CLASS
  1
LAYOUT
  2
AcDbLayout
  3
AutoCAD 2000
 90
        0
280
     0
281
     0
  0
CLASS
  1
LONG_TRANSACTION
  2
AcDbLongTransaction
  3
AutoCAD 2000
 90
    32768
280
     0
281
     0
  0
CLASS
  1
LWPOLYLINE
  2
AcDbPolyline
  3
AutoCAD 2000
 90
    32768
280
     0
281
     1
  0
CLASS
  1
HATCH
  2
AcDbHatch
  3
AutoCAD 2000
 90
    32768
280
     0
281
     1
  0
CLASS
  1
XRECORD
  2
AcDbXrecord
  3
AutoCAD 2000
 90
    32768
280
     0
281
     0
  0
CLASS
  1
LONG_TRANSACTION
  2
AcDbLongTransaction
  3
AutoCAD 2000
 90
    32768
280
     0
281
     0
  0
CLASS
  1
LWPOLYLINE
  2
AcDbPolyline
  3
AutoCAD 2000
 90
    32768
280
     0
281
     1
  0
CLASS
  1
HATCH
  2
AcDbHatch
  3
AutoCAD 2000
 90
    32768
280
     0
281
     1
  0
CLASS
  1
XRECORD
  2
AcDbXrecord
  3
AutoCAD 2000
 90
    32768
280
     0
281
     0
  0
CLASS
  1
LONG_TRANSACTION
  2
AcDbLongTransaction
  3
AutoCAD 2000
 90
    32768
280
     0
281
     0
  0
CLASS
  1
LWPOLYLINE
  2
AcDbPolyline
  3
AutoCAD 2000
 90
    32768
280
     0
281
     1
  0
CLASS
  1
HATCH
  2
AcDbHatch
  3
AutoCAD 2000
 90
    32768
280
     0
281
     1
  0
CLASS
  1
XRECORD
  2
AcDbXrecord
  3
AutoCAD 2000
 90
    32768
280
     0
281
     0
  0
CLASS
  1
LONG_TRANSACTION
  2
AcDbLongTransaction
  3
AutoCAD 2000
 90
    32768
280
     0
281
     0
  0
CLASS
  1
LWPOLYLINE
  2
AcDbPolyline
  3
AutoCAD 2000
 90
    32768
280
     0
281
     1
  0
CLASS
  1
HATCH
  2
AcDbHatch
  3
AutoCAD 2000
 90
    32768
280
     0
281
     1
  0
CLASS
  1
XRECORD
  2
AcDbXrecord
  3
AutoCAD 2000
 90
    32768
280
     0
281
     0
  0
CLASS
  1
LONG_TRANSACTION
  2
AcDbLongTransaction
  3
AutoCAD 2000
 90
    32768
280
     0
281
     0
  0
CLASS
  1
LWPOLYLINE
  2
AcDbPolyline
  3
AutoCAD 2000
 90
    32768
280
     0
281
     1
  0
CLASS
  1
HATCH
  2
AcDbHatch
  3
AutoCAD 2000
 90
    32768
280
     0
281
     1
  0
CLASS
  1
XRECORD
  2
AcDbXrecord
  3
AutoCAD 2000
 90
    32768
280
     0
281
     0
  0
CLASS
  1
LONG_TRANSACTION
  2
AcDbLongTransaction
  3
AutoCAD 2000
 90
    32768
280
     0
281
     0
  0
CLASS
  1
LWPOLYLINE
  2
AcDbPolyline
  3
AutoCAD 2000
 90
    32768
280
     0
281
     1
  0
CLASS
  1
HATCH
  2
AcDbHatch
  3
AutoCAD 2000
 90
    32768
280
     0
281
     1
  0
CLASS
  1
XRECORD
  2
AcDbXrecord
  3
AutoCAD 2000
 90
    32768
280
     0
281
     0
  0
CLASS
  1
LONG_TRANSACTION
  2
AcDbLongTransaction
  3
AutoCAD 2000
 90
    32768
280
     0
281
     0
  0
CLASS
  1
LWPOLYLINE
  2
AcDbPolyline
  3
AutoCAD 2000
 90
    32768
280
     0
281
     1
  0
CLASS
  1
HATCH
  2
AcDbHatch
  3
AutoCAD 2000
 90
    32768
280
     0
281
     1
  0
CLASS
  1
XRECORD
  2
AcDbXrecord
  3
AutoCAD 2000
 90
    32768
280
     0
281
     0
  0
CLASS
  1
LONG_TRANSACTION
  2
AcDbLongTransaction
  3
AutoCAD 2000
 90
    32768
280
     0
281
     0
  0
CLASS
  1
LWPOLYLINE
  2
AcDbPolyline
  3
AutoCAD 2000
 90
    32768
280
     0
281
     1
  0
CLASS
  1
HATCH
  2
AcDbHatch
  3
AutoCAD 2000
 90
    32768
280
     0
281
     1
  0
CLASS
  1
XRECORD
  2
AcDbXrecord
  3
AutoCAD 2000
 90
    32768
280
     0
281
     0
  0
CLASS
  1
LONG_TRANSACTION
  2
AcDbLongTransaction
  3
AutoCAD 2000
 90
    32768
280
     0
281
     0
  0
CLASS
  1
LWPOLYLINE
  2
AcDbPolyline
  3
AutoCAD 2000
 90
    32768
280
     0
281
     1
  0
CLASS
  1
HATCH
  2
AcDbHatch
  3
AutoCAD 2000
 90
    32768
280
     0
281
     1
  0
CLASS
  1
XRECORD
  2
AcDbXrecord
  3
AutoCAD 2000
 90
    32768
280
     0
281
     0
  0
ENDSEC
  0
SECTION
  2
TABLES
  0
TABLE
  2
VPORT
  5
8
330
0
100
AcDbSymbolTable
 70
     8
  0
VPORT
  5
22F2
330
8
100
AcDbSymbolTableRecord
100
AcDbViewportTableRecord
  2
*Active
 70
     0
 10
0.0
 20
0.0
 11
1.0
 21
1.0
 12
186.5392338347446
 22
230.4392890797513
 13
0.0
 23
0.0
 14
168.0
 24
168.0
 15
0.0
 25
0.0
 16
0.0
 26
0.0
 36
1.0
 17
0.0
 27
0.0
 37
0.0
 40
610.0704355795198
 41
1.287220026350461
 42
50.0
 43
0.0
 44
0.0
 50
0.0
 51
0.0
 71
     0
 72
   100
 73
     1
 74
     0
 75
     0
 76
     0
 77
     0
 78
     1
281
     0
 65
     1
110
0.0
120
0.0
130
0.0
111
1.0
121
0.0
131
0.0
112
0.0
122
1.0
132
0.0
 79
     0
146
0.0
  0
ENDTAB
  0
TABLE
  2
LTYPE
  5
5
330
0
100
AcDbSymbolTable
 70
     3
  0
LTYPE
  5
14
330
5
100
AcDbSymbolTableRecord
100
AcDbLinetypeTableRecord
  2
BYBLOCK
 70
     0
  3

 72
    65
 73
     0
 40
0.0
  0
LTYPE
  5
15
330
5
100
AcDbSymbolTableRecord
100
AcDbLinetypeTableRecord
  2
BYLAYER
 70
     0
  3

 72
    65
 73
     0
 40
0.0
  0
LTYPE
  5
16
330
5
100
AcDbSymbolTableRecord
100
AcDbLinetypeTableRecord
  2
CONTINUOUS
 70
     0
  3
Solid line
 72
    65
 73
     0
 40
0.0
  0
LTYPE
  5
6E
330
5
100
AcDbSymbolTableRecord
100
AcDbLinetypeTableRecord
  2
CENTER
 70
     0
  3
____ _ ____ _ ____ _ ____ _ ____ _ ____ _ ____ 
 72
    65
 73
     4
 40
2.0
 49
1.25
 74
     0
 49
-0.25
 74
     0
 49
0.25
 74
     0
 49
-0.25
 74
     0
  0
LTYPE
  5
6F
330
5
100
AcDbSymbolTableRecord
100
AcDbLinetypeTableRecord
  2
HIDDEN
 70
     0
  3
__ __ __ __ __ __ __ __ __ __ __ __ __ __ __ __
 72
    65
 73
     2
 40
0.375
 49
0.25
 74
     0
 49
-0.125
 74
     0
  0
ENDTAB
  0
TABLE
  2
LAYER
  5
2
330
0
100
AcDbSymbolTable
 70
    12
  0
LAYER
  5
F
330
2
100
AcDbSymbolTableRecord
100
AcDbLayerTableRecord
  2
0
 70
     0
 62
     3
  6
CONTINUOUS
370
    -3
390
2074
  0
LAYER
  5
72
330
2
100
AcDbSymbolTableRecord
100
AcDbLayerTableRecord
  2
DEFPOINTS
 70
     0
 62
     7
  6
CONTINUOUS
290
     0
370
    -3
390
2074
  0
LAYER
  5
74
330
2
100
AcDbSymbolTableRecord
100
AcDbLayerTableRecord
  2
CENTER
 70
     0
 62
     8
  6
CENTER
370
    -3
390
2074
  0
LAYER
  5
1060
330
2
100
AcDbSymbolTableRecord
100
AcDbLayerTableRecord
  2
1
 70
     0
 62
   210
  6
CONTINUOUS
370
    -3
390
2074
  0
ENDTAB
  0
TABLE
  2
STYLE
  5
3
330
0
100
AcDbSymbolTable
 70
     5
  0
STYLE
  5
10
330
3
100
AcDbSymbolTableRecord
100
AcDbTextStyleTableRecord
  2
STANDARD
 70
     0
 40
0.0
 41
0.8
 50
0.0
 71
     0
 42
84.17508417508416
  3
TXT
  4
bigfont.shx
  0
STYLE
  5
63
330
3
100
AcDbSymbolTableRecord
100
AcDbTextStyleTableRecord
  2
AD-STANDARD
 70
     0
 40
0.0
 41
0.6
 50
0.0
 71
     0
 42
3.5
  3
romans.shx
  4
bigfont.shx
  0
ENDTAB
  0
TABLE
  2
VIEW
  5
6
330
0
100
AcDbSymbolTable
 70
     0
  0
ENDTAB
  0
TABLE
  2
UCS
  5
7
330
0
100
AcDbSymbolTable
 70
     0
  0
ENDTAB
  0
TABLE
  2
APPID
  5
9
330
0
100
AcDbSymbolTable
 70
     5
  0
APPID
  5
11
330
9
100
AcDbSymbolTableRecord
100
AcDbRegAppTableRecord
  2
ACAD
 70
     0
  0
APPID
  5
DFC
330
9
100
AcDbSymbolTableRecord
100
AcDbRegAppTableRecord
  2
CONTENTTABDATA
 70
     0
  0
APPID
  5
DFD
330
9
100
AcDbSymbolTableRecord
100
AcDbRegAppTableRecord
  2
CONTENTCURRENTTAB
 70
     0
  0
APPID
  5
F72
330
9
100
AcDbSymbolTableRecord
100
AcDbRegAppTableRecord
  2
CONTENTBLOCKDESCRIPTION
 70
     0
  0
APPID
  5
2045
330
9
100
AcDbSymbolTableRecord
100
AcDbRegAppTableRecord
  2
DRAWINGVARIABLESXDATA
 70
     0
  0
ENDTAB
  0
TABLE
  2
DIMSTYLE
  5
A
330
0
100
AcDbSymbolTable
 70
     2
100
AcDbDimStyleTable
 71
     1
340
1D
  0
DIMSTYLE
105
1D
330
A
100
AcDbSymbolTableRecord
100
AcDbDimStyleTableRecord
  2
STANDARD
 70
     0
340
10
  0
ENDTAB
  0
TABLE
  2
BLOCK_RECORD
  5
1
330
0
100
AcDbSymbolTable
 70
     2
  0
BLOCK_RECORD
  5
1A
102
{ACAD_XDICTIONARY
360
20A3
102
}
330
1
100
AcDbSymbolTableRecord
100
AcDbBlockTableRecord
  2
*MODEL_SPACE
340
2077
  0
BLOCK_RECORD
  5
17
102
{ACAD_XDICTIONARY
360
20A1
102
}
330
1
100
AcDbSymbolTableRecord
100
AcDbBlockTableRecord
  2
*PAPER_SPACE
340
2078
  0
ENDTAB
  0
ENDSEC
  0
SECTION
  2
BLOCKS
  0
BLOCK
  5
1B
330
1A
100
AcDbEntity
  8
0
100
AcDbBlockBegin
  2
*MODEL_SPACE
 70
     0
 10
0.0
 20
0.0
 30
0.0
  3
*MODEL_SPACE
  1

  0
ENDBLK
  5
1C
330
1A
100
AcDbEntity
  8
0
100
AcDbBlockEnd
  0
BLOCK
  5
18
330
17
100
AcDbEntity
 67
     1
  8
0
100
AcDbBlockBegin
  2
*PAPER_SPACE
 70
     0
 10
0.0
 20
0.0
 30
0.0
  3
*PAPER_SPACE
  1

  0
ENDBLK
  5
19
330
17
100
AcDbEntity
 67
     1
  8
0
100
AcDbBlockEnd
  0
ENDSEC
  0
SECTION
  2
ENTITIES
  0
LINE
  5
DFE
330
1A
100
AcDbEntity
  8
1
 48
0.3
100
AcDbLine
 10
0.0000000000022737
 20
230.6745786197934
 30
0.0
 11
0.0000000000086402
 21
396.6745786197934
 31
0.0
  0
LINE
  5
DFF
330
1A
100
AcDbEntity
  8
1
 48
0.3
100
AcDbLine
 10
2.000000000006366
 20
398.6745786197898
 30
0.0
 11
298.0000000000086
 21
398.6745786197825
 31
0.0
  0
LINE
  5
E00
330
1A
100
AcDbEntity
  8
CENTER
 48
0.3
100
AcDbLine
 10
-7.079265042879796
 20
363.6745786197934
 30
0.0
 11
287.6435592676985
 21
363.6745786197825
 31
0.0
  0
LINE
  5
E01
330
1A
100
AcDbEntity
  8
1
 48
0.3
100
AcDbLine
 10
0.000000000005457
 20
377.6745786197934
 30
0.0
 11
94.59588611565141
 21
377.6745786197898
 31
0.0
  0
LINE
  5
E02
330
1A
100
AcDbEntity
  8
1
 48
0.3
100
AcDbLine
 10
0.0000000000045475
 20
349.6745786197934
 30
0.0
 11
94.59588611565095
 21
349.6745786197898
 31
0.0
  0
LINE
  5
E04
330
1A
100
AcDbEntity
  8
CENTER
 48
0.3
100
AcDbLine
 10
11.50000000000363
 20
228.6745786197916
 30
0.0
 11
11.50000000000363
 21
251.6745786197916
 31
0.0
  0
LINE
  5
E05
330
1A
100
AcDbEntity
  8
1
 48
0.3
100
AcDbLine
 10
4.500000000005911
 20
339.6745786197916
 30
0.0
 11
4.500000000006366
 21
349.6745786197934
 31
0.0
  0
LINE
  5
E06
330
1A
100
AcDbEntity
  8
1
 48
0.3
100
AcDbLine
 10
55.50000000000409
 20
339.6745786197916
 30
0.0
 11
55.50000000000455
 21
349.6745786197916
 31
0.0
  0
LINE
  5
E07
330
1A
100
AcDbEntity
  8
1
 48
0.3
100
AcDbLine
 10
6.500000000008185
 20
389.6745786197916
 30
0.0
 11
53.50000000000637
 21
389.6745786197916
 31
0.0
  0
LINE
  5
E08
330
1A
100
AcDbEntity
  8
1
 48
0.3
100
AcDbLine
 10
6.500000000005911
 20
337.6745786197916
 30
0.0
 11
53.50000000000409
 21
337.6745786197916
 31
0.0
  0
LINE
  5
E09
330
1A
100
AcDbEntity
  8
1
 48
0.3
100
AcDbLine
 10
55.50000000000546
 20
377.6745786197916
 30
0.0
 11
55.50000000000636
 21
387.6745786197916
 31
0.0
  0
LINE
  5
E0A
330
1A
100
AcDbEntity
  8
1
 48
0.3
100
AcDbLine
 10
4.500000000007275
 20
377.6745786197934
 30
0.0
 11
4.500000000008185
 21
387.6745786197916
 31
0.0
  0
LINE
  5
E40
330
1A
100
AcDbEntity
  8
1
 48
0.3
100
AcDbLine
 10
2.000000000004092
 20
228.6745786197916
 30
0.0
 11
298.0000000000009
 21
228.6745786197825
 31
0.0
  0
LINE
  5
E41
330
1A
100
AcDbEntity
  8
CENTER
 48
0.3
100
AcDbLine
 10
250.0000000000013
 20
217.2466008251703
 30
0.0
 11
250.0000000000091
 21
409.4266814299881
 31
0.0
  0
LINE
  5
E42
330
1A
100
AcDbEntity
  8
1
 48
0.3
100
AcDbLine
 10
300.0000000000013
 20
230.6745786197825
 30
0.0
 11
300.0000000000081
 21
396.6745786197825
 31
0.0
  0
LINE
  5
E43
330
1A
100
AcDbEntity
  8
1
 48
0.3
100
AcDbLine
 10
200.0000000000004
 20
230.6745786197861
 30
0.0
 11
200.0000000000086
 21
396.6745786197861
 31
0.0
  0
LINE
  5
E6B
330
1A
100
AcDbEntity
  8
CENTER
 48
0.3
100
AcDbLine
 10
-11.05236623886048
 20
278.6745786197934
 30
0.0
 11
310.0980860771933
 21
278.6745786197825
 31
0.0
  0
LINE
  5
E76
330
1A
100
AcDbEntity
  8
CENTER
 48
0.3
100
AcDbLine
 10
288.5000000000018
 20
228.6745786197807
 30
0.0
 11
288.5000000000027
 21
251.6745786197825
 31
0.0
  0
LINE
  5
E77
330
1A
100
AcDbEntity
  8
CENTER
 48
0.3
100
AcDbLine
 10
211.5000000000018
 20
228.6745786197861
 30
0.0
 11
211.5000000000027
 21
251.6745786197879
 31
0.0
  0
LINE
  5
E78
330
1A
100
AcDbEntity
  8
CENTER
 48
0.3
100
AcDbLine
 10
0.0000000000045475
 20
240.1745786197934
 30
0.0
 11
23.00000000000455
 21
240.1745786197916
 31
0.0
  0
LINE
  5
E79
330
1A
100
AcDbEntity
  8
CENTER
 48
0.3
100
AcDbLine
 10
0.000000000007276
 20
317.1745786197934
 30
0.0
 11
23.00000000000727
 21
317.1745786197916
 31
0.0
  0
LINE
  5
E87
330
1A
100
AcDbEntity
  8
1
  6
HIDDEN
 48
0.3
100
AcDbLine
 10
226.5000000000059
 20
337.6745786197843
 30
0.0
 11
273.5000000000041
 21
337.6745786197807
 31
0.0
  0
LINE
  5
E88
330
1A
100
AcDbEntity
  8
1
  6
HIDDEN
 48
0.3
100
AcDbLine
 10
275.5000000000041
 20
339.6745786197807
 30
0.0
 11
275.5000000000045
 21
347.6745786197825
 31
0.0
  0
LINE
  5
E89
330
1A
100
AcDbEntity
  8
1
  6
HIDDEN
 48
0.3
100
AcDbLine
 10
224.5000000000059
 20
339.6745786197843
 30
0.0
 11
224.5000000000063
 21
347.6745786197843
 31
0.0
  0
LINE
  5
E8A
330
1A
100
AcDbEntity
  8
1
  6
HIDDEN
 48
0.3
100
AcDbLine
 10
224.5000000000077
 20
379.6745786197825
 30
0.0
 11
224.5000000000081
 21
387.6745786197862
 31
0.0
  0
LINE
  5
E8B
330
1A
100
AcDbEntity
  8
1
  6
HIDDEN
 48
0.3
100
AcDbLine
 10
275.5000000000058
 20
379.6745786197825
 30
0.0
 11
275.5000000000063
 21
387.6745786197862
 31
0.0
  0
LINE
  5
E8C
330
1A
100
AcDbEntity
  8
1
  6
HIDDEN
 48
0.3
100
AcDbLine
 10
226.5000000000081
 20
389.6745786197861
 30
0.0
 11
273.5000000000063
 21
389.6745786197861
 31
0.0
  0
LINE
  5
E8E
330
1A
100
AcDbEntity
  8
1
  6
HIDDEN
 48
0.3
100
AcDbLine
 10
226.5000000000063
 20
349.6745786197843
 30
0.0
 11
273.5000000000045
 21
349.6745786197825
 31
0.0
  0
LINE
  5
E8F
330
1A
100
AcDbEntity
  8
1
  6
HIDDEN
 48
0.3
100
AcDbLine
 10
226.5000000000077
 20
377.6745786197825
 30
0.0
 11
273.5000000000059
 21
377.6745786197825
 31
0.0
  0
LINE
  5
EEB
330
1A
100
AcDbEntity
  8
1
 48
0.3
100
AcDbLine
 10
0.0
 20
0.0
 30
0.0
 11
300.0
 21
-0.000000000003638
 31
0.0
  0
LINE
  5
EEC
330
1A
100
AcDbEntity
  8
1
 48
0.3
100
AcDbLine
 10
0.0
 20
15.0
 30
0.0
 11
300.0
 21
14.99999999999636
 31
0.0
  0
LINE
  5
EED
330
1A
100
AcDbEntity
  8
1
 48
0.3
100
AcDbLine
 10
300.0
 20
14.99999999999636
 30
0.0
 11
300.0
 21
-0.000000000003638
 31
0.0
  0
LINE
  5
EEE
330
1A
100
AcDbEntity
  8
1
 48
0.3
100
AcDbLine
 10
0.0000000000009095
 20
69.0
 30
0.0
 11
0.0
 21
0.0
 31
0.0
  0
LINE
  5
EEF
330
1A
100
AcDbEntity
  8
1
 48
0.3
100
AcDbLine
 10
200.0000000000018
 20
153.9999999999981
 30
0.0
 11
300.0000000000018
 21
153.9999999999963
 31
0.0
  0
LINE
  5
EF0
330
1A
100
AcDbEntity
  8
1
 48
0.3
100
AcDbLine
 10
200.0000000000018
 20
138.9999999999981
 30
0.0
 11
300.0000000000018
 21
138.9999999999963
 31
0.0
  0
LINE
  5
EF1
330
1A
100
AcDbEntity
  8
1
 48
0.3
100
AcDbLine
 10
300.0000000000018
 20
153.9999999999963
 30
0.0
 11
300.0000000000018
 21
138.9999999999963
 31
0.0
  0
LINE
  5
EF4
330
1A
100
AcDbEntity
  8
1
 48
0.3
100
AcDbLine
 10
200.0000000000018
 20
153.9999999999963
 30
0.0
 11
200.0000000000018
 21
138.9999999999963
 31
0.0
  0
LINE
  5
EF6
330
1A
100
AcDbEntity
  8
1
 48
0.3
100
AcDbLine
 10
94.59588611565141
 20
349.6745786197916
 30
0.0
 11
94.59588611565141
 21
350.1745786197898
 31
0.0
  0
LINE
  5
FB0
330
1A
100
AcDbEntity
  8
CENTER
 48
0.3
100
AcDbLine
 10
-2.999999999998635
 20
99.0
 30
0.0
 11
300.0
 21
98.99999999999636
 31
0.0
  0
LINE
  5
FF1
330
1A
100
AcDbEntity
  8
1
 48
0.3
100
AcDbLine
 10
189.9999999999981
 20
106.615773105861
 30
0.0
 11
180.0
 21
91.38422689413165
 31
0.0
  0
LINE
  5
FF2
330
1A
100
AcDbEntity
  8
1
 48
0.3
100
AcDbLine
 10
189.9999999999981
 20
91.38422689413165
 30
0.0
 11
180.0
 21
106.615773105861
 31
0.0
  0
LINE
  5
FF3
330
1A
100
AcDbEntity
  8
1
 48
0.3
100
AcDbLine
 10
180.0
 20
91.38422689413165
 30
0.0
 11
189.9999999999981
 21
91.38422689413165
 31
0.0
  0
LINE
  5
FF4
330
1A
100
AcDbEntity
  8
1
 48
0.3
100
AcDbLine
 10
180.0
 20
106.615773105861
 30
0.0
 11
189.9999999999981
 21
106.615773105861
 31
0.0
  0
LINE
  5
FF5
330
1A
100
AcDbEntity
  8
1
 48
0.3
100
AcDbLine
 10
190.0
 20
83.49999999999637
 30
0.0
 11
180.0
 21
83.49999999999637
 31
0.0
  0
LINE
  5
FF6
330
1A
100
AcDbEntity
  8
1
 48
0.3
100
AcDbLine
 10
190.0
 20
114.4999999999963
 30
0.0
 11
180.0
 21
114.4999999999963
 31
0.0
  0
LINE
  5
FF8
330
1A
100
AcDbEntity
  8
1
 48
0.3
100
AcDbLine
 10
224.5000000000013
 20
86.49999999999636
 30
0.0
 11
189.9999999999981
 21
86.49999999999636
 31
0.0
  0
LINE
  5
FF9
330
1A
100
AcDbEntity
  8
1
 48
0.3
100
AcDbLine
 10
224.5000000000018
 20
111.4999999999963
 30
0.0
 11
189.9999999999981
 21
111.4999999999963
 31
0.0
  0
ARC
  5
FFD
330
1A
100
AcDbEntity
  8
1
 48
0.3
100
AcDbCircle
 10
234.765625
 20
98.99999999999636
 30
0.0
 40
11.96852500000041
100
AcDbArc
 50
149.0613703895002
 51
210.9386296104911
  0
LINE
  5
1000
330
1A
100
AcDbEntity
  8
1
 48
0.3
100
AcDbLine
 10
189.9999999999981
 20
83.49999999999637
 30
0.0
 11
189.9999999999981
 21
114.4999999999945
 31
0.0
  0
LINE
  5
1006
330
1A
100
AcDbEntity
  8
1
100
AcDbLine
 10
180.0
 20
114.600007258401
 30
0.0
 11
180.0
 21
83.39999274159163
 31
0.0
  0
LINE
  5
100D
330
1A
100
AcDbEntity
  8
1
 48
0.3
100
AcDbLine
 10
180.0
 20
83.49999999999637
 30
0.0
 11
180.0
 21
114.4999999999945
 31
0.0
  0
LINE
  5
102F
330
1A
100
AcDbEntity
  8
1
 48
0.3
100
AcDbLine
 10
55.49999999999954
 20
111.4999999999999
 30
0.0
 11
90.0000000000009
 21
111.4999999999999
 31
0.0
  0
LINE
  5
1030
330
1A
100
AcDbEntity
  8
1
 48
0.3
100
AcDbLine
 10
55.49999999999954
 20
86.5
 30
0.0
 11
90.0000000000009
 21
86.5
 31
0.0
  0
LINE
  5
1031
330
1A
100
AcDbEntity
  8
1
 48
0.3
100
AcDbLine
 10
90.0000000000009
 20
91.38422689413529
 30
0.0
 11
99.99999999999909
 21
106.6157731058647
 31
0.0
  0
LINE
  5
1032
330
1A
100
AcDbEntity
  8
1
 48
0.3
100
AcDbLine
 10
90.0000000000009
 20
106.6157731058647
 30
0.0
 11
99.99999999999909
 21
91.38422689413529
 31
0.0
  0
LINE
  5
1033
330
1A
100
AcDbEntity
  8
1
 48
0.3
100
AcDbLine
 10
99.99999999999909
 20
106.6157731058647
 30
0.0
 11
90.0000000000009
 21
106.6157731058647
 31
0.0
  0
LINE
  5
1034
330
1A
100
AcDbEntity
  8
1
 48
0.3
100
AcDbLine
 10
99.99999999999909
 20
91.38422689413529
 30
0.0
 11
90.0000000000009
 21
91.38422689413529
 31
0.0
  0
LINE
  5
1035
330
1A
100
AcDbEntity
  8
1
 48
0.3
100
AcDbLine
 10
89.99999999999909
 20
114.5
 30
0.0
 11
99.99999999999909
 21
114.5
 31
0.0
  0
LINE
  5
1036
330
1A
100
AcDbEntity
  8
1
 48
0.3
100
AcDbLine
 10
89.99999999999818
 20
83.49999999999999
 30
0.0
 11
99.99999999999818
 21
83.49999999999999
 31
0.0
  0
LINE
  5
1037
330
1A
100
AcDbEntity
  8
1
 48
0.3
100
AcDbLine
 10
90.0000000000009
 20
114.5
 30
0.0
 11
90.0
 21
83.50000000000182
 31
0.0
  0
LINE
  5
1038
330
1A
100
AcDbEntity
  8
1
100
AcDbLine
 10
113.8000025850001
 20
112.5000072584043
 30
0.0
 11
101.1999999999993
 21
112.5000072584061
 31
0.0
  0
LINE
  5
103B
330
1A
100
AcDbEntity
  8
1
100
AcDbLine
 10
113.8000025849996
 20
85.49999274159381
 30
0.0
 11
101.199999999997
 21
85.49999274159745
 31
0.0
  0
LINE
  5
103C
330
1A
100
AcDbEntity
  8
1
100
AcDbLine
 10
99.99999999999818
 20
83.39999274159527
 30
0.0
 11
99.99999999999909
 21
114.6000072584047
 31
0.0
  0
LINE
  5
103E
330
1A
100
AcDbEntity
  8
1
100
AcDbLine
 10
115.0000025849999
 20
92.24999999999637
 30
0.0
 11
115.0000025849999
 21
105.7500072584043
 31
0.0
  0
LINE
  5
1043
330
1A
100
AcDbEntity
  8
1
 48
0.3
100
AcDbLine
 10
99.99999999999909
 20
114.5
 30
0.0
 11
99.99999999999818
 21
83.50000000000182
 31
0.0
  0
ARC
  5
1046
330
1A
100
AcDbEntity
  8
1
 48
0.3
100
AcDbCircle
 10
45.234375
 20
99.0
 30
0.0
 40
11.96852500000041
100
AcDbArc
 50
329.0613703895099
 51
30.93862961048896
  0
LINE
  5
1063
330
1A
100
AcDbEntity
  8
1
 48
0.3
100
AcDbLine
 10
55.49999999999863
 20
31.99999999999818
 30
0.0
 11
4.499999999998181
 21
32.0
 31
0.0
  0
LINE
  5
1064
330
1A
100
AcDbEntity
  8
1
 48
0.3
100
AcDbLine
 10
12.49999999999954
 20
122.0
 30
0.0
 11
47.49999999999682
 21
122.0
 31
0.0
  0
LINE
  5
1066
330
1A
100
AcDbEntity
  8
1
 48
0.3
100
AcDbLine
 10
80.45302897278634
 20
69.0
 30
0.0
 11
55.49999999999909
 21
69.0
 31
0.0
  0
LINE
  5
1077
330
1A
100
AcDbEntity
  8
1
 48
0.3
100
AcDbLine
 10
109.5958861156423
 20
45.0
 30
0.0
 11
80.45302897278451
 21
69.0
 31
0.0
  0
LINE
  5
107D
330
1A
100
AcDbEntity
  8
1
 48
0.3
100
AcDbLine
 10
267.4999999999995
 20
75.99999999999636
 30
0.0
 11
232.4999999999986
 21
75.99999999999636
 31
0.0
  0
LINE
  5
1081
330
1A
100
AcDbEntity
  8
1
 48
0.3
100
AcDbLine
 10
275.5000000000018
 20
138.9999999999945
 30
0.0
 11
275.4999999999999
 21
83.99999999999636
 31
0.0
  0
LINE
  5
1082
330
1A
100
AcDbEntity
  8
1
 48
0.3
100
AcDbLine
 10
224.5000000000008
 20
83.99999999999636
 30
0.0
 11
224.5000000000018
 21
138.9999999999963
 31
0.0
  0
LINE
  5
1084
330
1A
100
AcDbEntity
  8
1
 48
0.3
100
AcDbLine
 10
275.4999999999999
 20
83.99999999999636
 30
0.0
 11
267.5
 21
75.99999999999636
 31
0.0
  0
LINE
  5
1085
330
1A
100
AcDbEntity
  8
1
 48
0.3
100
AcDbLine
 10
224.5000000000008
 20
83.99999999999636
 30
0.0
 11
232.5
 21
75.99999999999636
 31
0.0
  0
LINE
  5
1088
330
1A
100
AcDbEntity
  8
1
 48
0.3
100
AcDbLine
 10
55.49999999999909
 20
114.0
 30
0.0
 11
55.49999999999818
 21
32.0
 31
0.0
  0
LINE
  5
1089
330
1A
100
AcDbEntity
  8
1
 48
0.3
100
AcDbLine
 10
4.499999999998181
 20
32.0
 30
0.0
 11
4.5
 21
114.0
 31
0.0
  0
LINE
  5
108A
330
1A
100
AcDbEntity
  8
1
 48
0.3
100
AcDbLine
 10
47.49999999999909
 20
122.0
 30
0.0
 11
55.49999999999909
 21
114.0
 31
0.0
  0
LINE
  5
108B
330
1A
100
AcDbEntity
  8
1
 48
0.3
100
AcDbLine
 10
12.5
 20
122.0
 30
0.0
 11
4.5
 21
114.0
 31
0.0
  0
LINE
  5
10AE
330
1A
100
AcDbEntity
  8
1
100
AcDbLine
 10
129.9999974149995
 20
80.89999999999964
 30
0.0
 11
129.9999974149995
 21
117.1000000000003
 31
0.0
  0
LINE
  5
10B8
330
1A
100
AcDbEntity
  8
1
100
AcDbLine
 10
149.9999974149996
 20
80.89999999999964
 30
0.0
 11
149.9999974149996
 21
117.1000000000003
 31
0.0
  0
LINE
  5
10BA
330
1A
100
AcDbEntity
  8
1
 48
0.3
100
AcDbLine
 10
115.0000025849994
 20
108.0
 30
0.0
 11
129.9999974149995
 21
108.0
 31
0.0
  0
LINE
  5
10BB
330
1A
100
AcDbEntity
  8
1
 48
0.3
100
AcDbLine
 10
115.0000025849994
 20
90.00000000000182
 30
0.0
 11
129.9999974149995
 21
90.00000000000182
 31
0.0
  0
LINE
  5
10BC
330
1A
100
AcDbEntity
  8
1
 48
0.3
100
AcDbLine
 10
149.9999974149996
 20
90.00000000000182
 30
0.0
 11
164.9999974149995
 21
90.0
 31
0.0
  0
LINE
  5
10BD
330
1A
100
AcDbEntity
  8
1
 48
0.3
100
AcDbLine
 10
149.9999974149996
 20
108.0
 30
0.0
 11
164.9999974149995
 21
107.9999999999981
 31
0.0
  0
LINE
  5
10BF
330
1A
100
AcDbEntity
  8
1
100
AcDbLine
 10
154.9999974149995
 20
90.00000000000182
 30
0.0
 11
154.9999974149995
 21
108.0
 31
0.0
  0
LINE
  5
10C0
330
1A
100
AcDbEntity
  8
1
100
AcDbLine
 10
124.9999974149996
 20
90.00000000000182
 30
0.0
 11
124.9999974149996
 21
108.0
 31
0.0
  0
LINE
  5
10C1
330
1A
100
AcDbEntity
  8
1
 48
0.3
100
AcDbLine
 10
154.9999974149995
 20
106.4999999999981
 30
0.0
 11
164.9999974149995
 21
106.4999999999981
 31
0.0
  0
LINE
  5
10C2
330
1A
100
AcDbEntity
  8
1
 48
0.3
100
AcDbLine
 10
154.9999974149995
 20
91.5
 30
0.0
 11
164.9999974149995
 21
91.5
 31
0.0
  0
LINE
  5
10C3
330
1A
100
AcDbEntity
  8
1
 48
0.3
100
AcDbLine
 10
115.0000025849994
 20
106.4999999999999
 30
0.0
 11
124.9999974149996
 21
106.4999999999999
 31
0.0
  0
LINE
  5
10C4
330
1A
100
AcDbEntity
  8
1
 48
0.3
100
AcDbLine
 10
115.0000025849994
 20
91.50000000000181
 30
0.0
 11
124.9999974150005
 21
91.50000000000364
 31
0.0
  0
LINE
  5
10C7
330
1A
100
AcDbEntity
  8
1
 48
0.3
100
AcDbLine
 10
154.9999974149995
 20
106.4999999999981
 30
0.0
 11
153.4999974149996
 21
107.9999999999981
 31
0.0
  0
LINE
  5
10C8
330
1A
100
AcDbEntity
  8
1
 48
0.3
100
AcDbLine
 10
154.9999974149995
 20
91.5
 30
0.0
 11
153.4999974149996
 21
90.00000000000182
 31
0.0
  0
LINE
  5
10C9
330
1A
100
AcDbEntity
  8
1
 48
0.3
100
AcDbLine
 10
124.9999974150005
 20
91.50000000000364
 30
0.0
 11
126.4999974149995
 21
90.00000000000182
 31
0.0
  0
LINE
  5
10CA
330
1A
100
AcDbEntity
  8
1
 48
0.3
100
AcDbLine
 10
124.9999974149996
 20
106.4999999999999
 30
0.0
 11
126.4999974149995
 21
108.0
 31
0.0
  0
LINE
  5
112A
330
1A
100
AcDbEntity
  8
1
 48
0.3
100
AcDbLine
 10
109.5958861156414
 20
45.0
 30
0.0
 11
109.5958861156414
 21
14.99999999999818
 31
0.0
  0
LINE
  5
1180
330
1A
100
AcDbEntity
  8
1
 48
0.3
100
AcDbLine
 10
10.79713563033556
 20
372.1745786197934
 30
0.0
 11
51.00000000000773
 21
372.1745786197916
 31
0.0
  0
LINE
  5
1181
330
1A
100
AcDbEntity
  8
1
 48
0.3
100
AcDbLine
 10
10.7971356303351
 20
355.1745786197934
 30
0.0
 11
51.00000000000727
 21
355.1745786197916
 31
0.0
  0
LINE
  5
1182
330
1A
100
AcDbEntity
  8
1
 48
0.3
100
AcDbLine
 10
51.00000000000727
 20
355.1745786197916
 30
0.0
 11
59.00000000000727
 21
351.1745786197916
 31
0.0
  0
LINE
  5
1183
330
1A
100
AcDbEntity
  8
1
 48
0.3
100
AcDbLine
 10
51.00000000000773
 20
372.1745786197916
 30
0.0
 11
59.00000000000773
 21
376.1745786197916
 31
0.0
  0
LINE
  5
1184
330
1A
100
AcDbEntity
  8
1
 48
0.3
100
AcDbLine
 10
90.00000000001136
 20
377.1745786197898
 30
0.0
 11
100.0000000000077
 21
377.1745786197898
 31
0.0
  0
LINE
  5
1185
330
1A
100
AcDbEntity
  8
1
 48
0.3
100
AcDbLine
 10
90.00000000001046
 20
350.1745786197898
 30
0.0
 11
100.0000000000068
 21
350.1745786197898
 31
0.0
  0
LINE
  5
1186
330
1A
100
AcDbEntity
  8
1
 48
0.3
100
AcDbLine
 10
90.00000000001046
 20
350.1745786197898
 30
0.0
 11
90.00000000001136
 21
377.1745786197898
 31
0.0
  0
LINE
  5
1187
330
1A
100
AcDbEntity
  8
1
 48
0.3
100
AcDbLine
 10
100.0000000000068
 20
350.1745786197898
 30
0.0
 11
100.0000000000077
 21
377.1745786197898
 31
0.0
  0
ARC
  5
1188
330
1A
100
AcDbEntity
  8
1
100
AcDbCircle
 10
100.8866676196107
 20
350.164576034791
 30
0.0
 40
14.11333496539884
100
AcDbArc
 50
359.9999999999977
 51
23.86492541604769
  0
LINE
  5
1189
330
1A
100
AcDbEntity
  8
1
100
AcDbLine
 10
115.0000025850072
 20
350.1645760347892
 30
0.0
 11
113.7933378242064
 21
348.0745713613832
 31
0.0
  0
LINE
  5
118A
330
1A
100
AcDbEntity
  8
1
100
AcDbLine
 10
115.0000025850081
 20
377.1845812047886
 30
0.0
 11
113.7933378242078
 21
379.2745858781927
 31
0.0
  0
ARC
  5
118B
330
1A
100
AcDbEntity
  8
1
100
AcDbCircle
 10
100.8866676196116
 20
377.1845812047904
 30
0.0
 40
14.11333496539884
100
AcDbArc
 50
336.1350745839478
 51
359.9999999999977
  0
LINE
  5
118C
330
1A
100
AcDbEntity
  8
1
100
AcDbLine
 10
115.0000025850081
 20
377.1845812047886
 30
0.0
 11
115.0000025850072
 21
350.1645760347892
 31
0.0
  0
ARC
  5
118D
330
1A
100
AcDbEntity
  8
1
100
AcDbCircle
 10
89.18666217580858
 20
363.6745786197898
 30
0.0
 40
25.81334040920221
100
AcDbArc
 50
342.4120462260039
 51
17.58795377399159
  0
LINE
  5
118E
330
1A
100
AcDbEntity
  8
1
100
AcDbLine
 10
100.0000000000081
 20
377.18458568214
 30
0.0
 11
100.0000000000063
 21
350.1645715574395
 31
0.0
  0
LINE
  5
118F
330
1A
100
AcDbEntity
  8
1
100
AcDbLine
 10
113.7933378242078
 20
379.2745858781927
 30
0.0
 11
101.206662175809
 21
379.2745858781945
 31
0.0
  0
LINE
  5
1190
330
1A
100
AcDbEntity
  8
1
100
AcDbLine
 10
113.7933378242073
 20
371.4745822489912
 30
0.0
 11
101.2066621758026
 21
371.4745822489931
 31
0.0
  0
LINE
  5
1191
330
1A
100
AcDbEntity
  8
1
100
AcDbLine
 10
113.7933378242069
 20
355.8745749905865
 30
0.0
 11
101.2066621758012
 21
355.8745749905865
 31
0.0
  0
LINE
  5
1192
330
1A
100
AcDbEntity
  8
1
100
AcDbLine
 10
113.7933378242064
 20
348.0745713613832
 30
0.0
 11
101.2066621758067
 21
348.074571361385
 31
0.0
  0
LINE
  5
1193
330
1A
100
AcDbEntity
  8
1
 48
0.3
100
AcDbLine
 10
59.00000000000773
 20
376.1745786197934
 30
0.0
 11
90.00000000001136
 21
376.1745786197898
 31
0.0
  0
LINE
  5
1194
330
1A
100
AcDbEntity
  8
1
 48
0.3
100
AcDbLine
 10
59.00000000000727
 20
351.1745786197916
 30
0.0
 11
90.00000000001092
 21
351.1745786197898
 31
0.0
  0
ARC
  5
1195
330
1A
100
AcDbEntity
  8
1
 48
0.3
100
AcDbCircle
 10
30.00000000000864
 20
363.6745786197916
 30
0.0
 40
21.0
100
AcDbArc
 50
156.1237922694464
 51
203.8762077305479
  0
ARC
  5
1196
330
1A
100
AcDbEntity
  8
1
 48
0.3
100
AcDbCircle
 10
30.00000000000864
 20
363.6745786197916
 30
0.0
 40
15.875
100
AcDbArc
 50
133.5802569142234
 51
147.6267140208649
  0
ARC
  5
1197
330
1A
100
AcDbEntity
  8
1
 48
0.3
100
AcDbCircle
 10
30.00000000000864
 20
363.6745786197916
 30
0.0
 40
15.875
100
AcDbArc
 50
212.3732859791292
 51
226.4197430857651
  0
ARC
  5
1198
330
1A
100
AcDbEntity
  8
1
 48
0.3
100
AcDbCircle
 10
30.00000000000864
 20
363.6745786197916
 30
0.0
 40
15.875
100
AcDbArc
 50
313.5802569142303
 51
327.6267140208663
  0
ARC
  5
1199
330
1A
100
AcDbEntity
  8
1
 48
0.3
100
AcDbCircle
 10
30.00000000000864
 20
363.6745786197916
 30
0.0
 40
15.875
100
AcDbArc
 50
32.37328597913065
 51
46.4197430857721
  0
LINE
  5
119A
330
1A
100
AcDbEntity
  8
1
 48
0.3
100
AcDbLine
 10
19.05625178470108
 20
352.1745786197934
 30
0.0
 11
40.94374821531346
 21
352.1745786197916
 31
0.0
  0
LINE
  5
119B
330
1A
100
AcDbEntity
  8
1
 48
0.3
100
AcDbLine
 10
19.05625178470336
 20
375.1745786197934
 30
0.0
 11
40.9437482153121
 21
375.1745786197916
 31
0.0
  0
LINE
  5
119C
330
1A
100
AcDbEntity
  8
1
 48
0.3
100
AcDbLine
 10
200.0000000000059
 20
351.1745786197861
 30
0.0
 11
190.0000000000031
 21
351.1745786197861
 31
0.0
  0
LINE
  5
119D
330
1A
100
AcDbEntity
  8
1
 48
0.3
100
AcDbLine
 10
200.0000000000072
 20
376.1745786197861
 30
0.0
 11
190.0000000000036
 21
376.1745786197861
 31
0.0
  0
ARC
  5
119E
330
1A
100
AcDbEntity
  8
1
  6
HIDDEN
 48
0.3
100
AcDbCircle
 10
250.0000000000063
 20
363.6745786197843
 30
0.0
 40
21.0
100
AcDbArc
 50
336.1237922694464
 51
23.87620773054794
  0
ARC
  5
119F
330
1A
100
AcDbEntity
  8
1
  6
HIDDEN
 48
0.3
100
AcDbCircle
 10
250.0000000000063
 20
363.6745786197843
 30
0.0
 40
15.875
100
AcDbArc
 50
313.5802569142234
 51
327.6267140208649
  0
ARC
  5
11A0
330
1A
100
AcDbEntity
  8
1
  6
HIDDEN
 48
0.3
100
AcDbCircle
 10
250.0000000000063
 20
363.6745786197843
 30
0.0
 40
15.875
100
AcDbArc
 50
32.37328597912923
 51
46.4197430857651
  0
ARC
  5
11A1
330
1A
100
AcDbEntity
  8
1
  6
HIDDEN
 48
0.3
100
AcDbCircle
 10
250.0000000000063
 20
363.6745786197843
 30
0.0
 40
15.875
100
AcDbArc
 50
133.5802569142304
 51
147.6267140208662
  0
ARC
  5
11A2
330
1A
100
AcDbEntity
  8
1
  6
HIDDEN
 48
0.3
100
AcDbCircle
 10
250.0000000000063
 20
363.6745786197843
 30
0.0
 40
15.875
100
AcDbArc
 50
212.3732859791306
 51
226.419743085772
  0
LINE
  5
11A3
330
1A
100
AcDbEntity
  8
1
  6
HIDDEN
 48
0.3
100
AcDbLine
 10
260.9437482153134
 20
375.1745786197825
 30
0.0
 11
239.0562517847011
 21
375.1745786197843
 31
0.0
  0
LINE
  5
11A4
330
1A
100
AcDbEntity
  8
1
  6
HIDDEN
 48
0.3
100
AcDbLine
 10
260.9437482153111
 20
352.1745786197825
 30
0.0
 11
239.0562517847024
 21
352.1745786197843
 31
0.0
  0
LINE
  5
11A5
330
1A
100
AcDbEntity
  8
1
  6
HIDDEN
 48
0.3
100
AcDbLine
 10
229.0000000000072
 20
372.1745786197843
 30
0.0
 11
221.0000000000072
 21
376.1745786197843
 31
0.0
  0
LINE
  5
11A6
330
1A
100
AcDbEntity
  8
1
  6
HIDDEN
 48
0.3
100
AcDbLine
 10
229.0000000000068
 20
355.1745786197843
 30
0.0
 11
221.0000000000068
 21
351.1745786197843
 31
0.0
  0
LINE
  5
11A7
330
1A
100
AcDbEntity
  8
1
  6
HIDDEN
 48
0.3
100
AcDbLine
 10
269.202864369679
 20
355.1745786197825
 30
0.0
 11
229.0000000000068
 21
355.1745786197843
 31
0.0
  0
LINE
  5
11A8
330
1A
100
AcDbEntity
  8
1
  6
HIDDEN
 48
0.3
100
AcDbLine
 10
269.2028643696794
 20
372.1745786197825
 30
0.0
 11
229.0000000000072
 21
372.1745786197843
 31
0.0
  0
LINE
  5
11A9
330
1A
100
AcDbEntity
  8
1
 48
0.3
100
AcDbLine
 10
190.0000000000027
 20
350.1745786197862
 30
0.0
 11
180.0000000000063
 21
350.1745786197862
 31
0.0
  0
LINE
  5
11AA
330
1A
100
AcDbEntity
  8
1
 48
0.3
100
AcDbLine
 10
190.0000000000036
 20
377.1745786197862
 30
0.0
 11
180.0000000000072
 21
377.1745786197862
 31
0.0
  0
LINE
  5
11AB
330
1A
100
AcDbEntity
  8
1
 48
0.3
100
AcDbLine
 10
190.0000000000036
 20
377.1745786197862
 30
0.0
 11
190.0000000000027
 21
350.1745786197862
 31
0.0
  0
LINE
  5
11AC
330
1A
100
AcDbEntity
  8
1
 48
0.3
100
AcDbLine
 10
180.0000000000072
 20
377.1745786197862
 30
0.0
 11
180.0000000000063
 21
350.1745786197862
 31
0.0
  0
ARC
  5
11AD
330
1A
100
AcDbEntity
  8
1
100
AcDbCircle
 10
179.1133323804033
 20
377.184581204785
 30
0.0
 40
14.11333496539884
100
AcDbArc
 50
179.9999999999978
 51
203.8649254160476
  0
LINE
  5
11AE
330
1A
100
AcDbEntity
  8
1
100
AcDbLine
 10
164.9999974150068
 20
377.1845812047867
 30
0.0
 11
166.2066621758081
 21
379.2745858781927
 31
0.0
  0
LINE
  5
11AF
330
1A
100
AcDbEntity
  8
1
100
AcDbLine
 10
164.9999974150059
 20
350.1645760347873
 30
0.0
 11
166.2066621758067
 21
348.0745713613832
 31
0.0
  0
ARC
  5
11B0
330
1A
100
AcDbEntity
  8
1
100
AcDbCircle
 10
179.1133323804024
 20
350.1645760347855
 30
0.0
 40
14.11333496539884
100
AcDbArc
 50
156.1350745839478
 51
179.9999999999978
  0
LINE
  5
11B1
330
1A
100
AcDbEntity
  8
1
100
AcDbLine
 10
164.9999974150059
 20
350.1645760347873
 30
0.0
 11
164.9999974150068
 21
377.1845812047867
 31
0.0
  0
ARC
  5
11B2
330
1A
100
AcDbEntity
  8
1
100
AcDbCircle
 10
190.8133378242064
 20
363.6745786197861
 30
0.0
 40
25.81334040920221
100
AcDbArc
 50
162.4120462260039
 51
197.5879537739915
  0
LINE
  5
11B5
330
1A
100
AcDbEntity
  8
1
100
AcDbLine
 10
166.2066621758071
 20
355.8745749905847
 30
0.0
 11
178.7933378242132
 21
355.8745749905829
 31
0.0
  0
LINE
  5
11B6
330
1A
100
AcDbEntity
  8
1
100
AcDbLine
 10
166.2066621758076
 20
371.4745822489894
 30
0.0
 11
178.7933378242132
 21
371.4745822489876
 31
0.0
  0
LINE
  5
11B8
330
1A
100
AcDbEntity
  8
1
 48
0.3
100
AcDbLine
 10
149.9999974150082
 20
354.6745786197861
 30
0.0
 11
164.9999974150077
 21
354.674578619788
 31
0.0
  0
LINE
  5
11B9
330
1A
100
AcDbEntity
  8
1
 48
0.3
100
AcDbLine
 10
154.9999974150082
 20
356.174578619788
 30
0.0
 11
164.9999974150077
 21
356.174578619788
 31
0.0
  0
LINE
  5
11BA
330
1A
100
AcDbEntity
  8
1
100
AcDbLine
 10
154.9999974150082
 20
372.6745786197843
 30
0.0
 11
154.9999974150082
 21
354.6745786197861
 31
0.0
  0
LINE
  5
11BB
330
1A
100
AcDbEntity
  8
1
 48
0.3
100
AcDbLine
 10
154.9999974150082
 20
371.1745786197861
 30
0.0
 11
164.9999974150082
 21
371.1745786197861
 31
0.0
  0
LINE
  5
11BC
330
1A
100
AcDbEntity
  8
1
 48
0.3
100
AcDbLine
 10
149.9999974150086
 20
372.6745786197843
 30
0.0
 11
164.9999974150082
 21
372.6745786197862
 31
0.0
  0
LINE
  5
11BD
330
1A
100
AcDbEntity
  8
1
 48
0.3
100
AcDbLine
 10
124.9999974150077
 20
356.174578619788
 30
0.0
 11
126.4999974150077
 21
354.674578619788
 31
0.0
  0
LINE
  5
11BE
330
1A
100
AcDbEntity
  8
1
 48
0.3
100
AcDbLine
 10
124.9999974150091
 20
371.1745786197843
 30
0.0
 11
126.4999974150087
 21
372.6745786197862
 31
0.0
  0
LINE
  5
11BF
330
1A
100
AcDbEntity
  8
1
 48
0.3
100
AcDbLine
 10
154.9999974150082
 20
371.1745786197861
 30
0.0
 11
153.4999974150082
 21
372.6745786197843
 31
0.0
  0
LINE
  5
11C0
330
1A
100
AcDbEntity
  8
1
 48
0.3
100
AcDbLine
 10
154.9999974150082
 20
356.174578619788
 30
0.0
 11
153.4999974150082
 21
354.674578619788
 31
0.0
  0
LINE
  5
11C1
330
1A
100
AcDbEntity
  8
1
100
AcDbLine
 10
124.9999974150086
 20
372.6745786197862
 30
0.0
 11
124.9999974150077
 21
354.674578619788
 31
0.0
  0
LINE
  5
11C4
330
1A
100
AcDbEntity
  8
1
100
AcDbLine
 10
129.9999974150082
 20
379.2745786197901
 30
0.0
 11
129.9999974150073
 21
348.0745786197876
 31
0.0
  0
LINE
  5
11C6
330
1A
100
AcDbEntity
  8
1
100
AcDbLine
 10
149.9999974150077
 20
379.2745786197865
 30
0.0
 11
149.9999974150068
 21
348.0745786197876
 31
0.0
  0
LINE
  5
11C9
330
1A
100
AcDbEntity
  8
1
 48
0.3
100
AcDbLine
 10
115.0000025850076
 20
356.174578619788
 30
0.0
 11
124.9999974150082
 21
356.174578619788
 31
0.0
  0
LINE
  5
11CA
330
1A
100
AcDbEntity
  8
1
 48
0.3
100
AcDbLine
 10
115.0000025850076
 20
354.674578619788
 30
0.0
 11
129.9999974150082
 21
354.674578619788
 31
0.0
  0
LINE
  5
11CB
330
1A
100
AcDbEntity
  8
1
 48
0.3
100
AcDbLine
 10
115.0000025850081
 20
372.6745786197862
 30
0.0
 11
129.9999974150086
 21
372.6745786197862
 31
0.0
  0
LINE
  5
11CC
330
1A
100
AcDbEntity
  8
1
 48
0.3
100
AcDbLine
 10
115.0000025850081
 20
371.1745786197861
 30
0.0
 11
124.9999974150091
 21
371.1745786197843
 31
0.0
  0
LINE
  5
11CD
330
1A
100
AcDbEntity
  8
1
 48
0.3
100
AcDbLine
 10
94.59588611565186
 20
377.1745786197898
 30
0.0
 11
94.59588611565186
 21
377.6745786197898
 31
0.0
  0
LINE
  5
1216
330
1A
100
AcDbEntity
  8
1
 48
0.3
100
AcDbLine
 10
4.49999999999909
 20
69.0
 30
0.0
 11
0.0000000000009095
 21
69.0
 31
0.0
  0
LINE
  5
12D2
330
1A
100
AcDbEntity
  8
1
 48
0.3
100
AcDbLine
 10
22.50000000000591
 20
334.3495786197872
 30
0.0
 11
22.50000000000636
 21
334.4245786197898
 31
0.0
  0
LINE
  5
12D3
330
1A
100
AcDbEntity
  8
1
 48
0.3
100
AcDbLine
 10
22.50000000000636
 20
332.6745786197916
 30
0.0
 11
22.50000000000591
 21
332.7495786197887
 31
0.0
  0
LINE
  5
12D4
330
1A
100
AcDbEntity
  8
1
 48
0.3
100
AcDbLine
 10
37.50000000000636
 20
332.7495786197887
 30
0.0
 11
37.50000000000636
 21
332.6745786197879
 31
0.0
  0
LINE
  5
12D5
330
1A
100
AcDbEntity
  8
1
 48
0.3
100
AcDbLine
 10
37.50000000000636
 20
334.424578619788
 30
0.0
 11
37.50000000000636
 21
334.3495786197854
 31
0.0
  0
LINE
  5
12D6
330
1A
100
AcDbEntity
  8
1
 48
0.3
100
AcDbLine
 10
44.50000000000637
 20
332.7495786197869
 30
0.0
 11
44.50000000000682
 21
334.3495786197891
 31
0.0
  0
LINE
  5
12D7
330
1A
100
AcDbEntity
  8
1
 48
0.3
100
AcDbLine
 10
44.50000000000591
 20
334.3495786197872
 30
0.0
 11
15.50000000000636
 21
334.3495786197891
 31
0.0
  0
LINE
  5
12D8
330
1A
100
AcDbEntity
  8
1
 48
0.3
100
AcDbLine
 10
44.50000000000591
 20
332.7495786197869
 30
0.0
 11
15.50000000000636
 21
332.7495786197887
 31
0.0
  0
LINE
  5
12D9
330
1A
100
AcDbEntity
  8
1
 48
0.3
100
AcDbLine
 10
15.50000000000636
 20
332.7495786197887
 30
0.0
 11
15.50000000000636
 21
334.3495786197891
 31
0.0
  0
LINE
  5
12DA
330
1A
100
AcDbEntity
  8
1
 48
0.3
100
AcDbLine
 10
39.00000000000636
 20
334.424578619788
 30
0.0
 11
21.00000000000636
 21
334.4245786197898
 31
0.0
  0
LINE
  5
12DB
330
1A
100
AcDbEntity
  8
1
 48
0.3
100
AcDbLine
 10
39.00000000000636
 20
332.6745786197879
 30
0.0
 11
21.00000000000636
 21
332.6745786197898
 31
0.0
  0
LINE
  5
12DC
330
1A
100
AcDbEntity
  8
1
 48
0.3
100
AcDbLine
 10
39.00000000000591
 20
329.674578619788
 30
0.0
 11
21.00000000000591
 21
329.6745786197898
 31
0.0
  0
LINE
  5
12DD
330
1A
100
AcDbEntity
  8
1
 48
0.3
100
AcDbLine
 10
39.00000000000636
 20
332.6745786197879
 30
0.0
 11
39.00000000000591
 21
329.674578619788
 31
0.0
  0
LINE
  5
12DE
330
1A
100
AcDbEntity
  8
1
 48
0.3
100
AcDbLine
 10
21.00000000000591
 20
329.6745786197898
 30
0.0
 11
21.00000000000636
 21
332.6745786197898
 31
0.0
  0
LINE
  5
12DF
330
1A
100
AcDbEntity
  8
1
 48
0.3
100
AcDbLine
 10
21.00000000000636
 20
334.4245786197898
 30
0.0
 11
21.00000000000636
 21
337.6745786197934
 31
0.0
  0
LINE
  5
12E0
330
1A
100
AcDbEntity
  8
1
 48
0.3
100
AcDbLine
 10
39.00000000000773
 20
352.1745786197916
 30
0.0
 11
39.00000000000773
 21
349.6745786197916
 31
0.0
  0
LINE
  5
12E1
330
1A
100
AcDbEntity
  8
1
 48
0.3
100
AcDbLine
 10
22.50000000000273
 20
392.9995786197942
 30
0.0
 11
22.50000000000273
 21
392.9245786197916
 31
0.0
  0
LINE
  5
12E2
330
1A
100
AcDbEntity
  8
1
 48
0.3
100
AcDbLine
 10
22.50000000000273
 20
394.6745786197898
 30
0.0
 11
22.50000000000273
 21
394.5995786197945
 31
0.0
  0
LINE
  5
12E3
330
1A
100
AcDbEntity
  8
1
 48
0.3
100
AcDbLine
 10
37.50000000000273
 20
394.5995786197927
 30
0.0
 11
37.50000000000273
 21
394.6745786197934
 31
0.0
  0
LINE
  5
12E4
330
1A
100
AcDbEntity
  8
1
 48
0.3
100
AcDbLine
 10
37.50000000000273
 20
392.9245786197934
 30
0.0
 11
37.50000000000273
 21
392.9995786197924
 31
0.0
  0
LINE
  5
12E5
330
1A
100
AcDbEntity
  8
1
 48
0.3
100
AcDbLine
 10
44.50000000000864
 20
392.9995786197924
 30
0.0
 11
44.50000000000909
 21
394.5995786197945
 31
0.0
  0
LINE
  5
12E6
330
1A
100
AcDbEntity
  8
1
 48
0.3
100
AcDbLine
 10
44.50000000000819
 20
394.5995786197927
 30
0.0
 11
15.50000000000864
 21
394.5995786197945
 31
0.0
  0
LINE
  5
12E7
330
1A
100
AcDbEntity
  8
1
 48
0.3
100
AcDbLine
 10
44.50000000000819
 20
392.9995786197924
 30
0.0
 11
15.50000000000864
 21
392.9995786197942
 31
0.0
  0
LINE
  5
12E8
330
1A
100
AcDbEntity
  8
1
 48
0.3
100
AcDbLine
 10
15.50000000000864
 20
392.9995786197942
 30
0.0
 11
15.50000000000864
 21
394.5995786197945
 31
0.0
  0
LINE
  5
12E9
330
1A
100
AcDbEntity
  8
1
 48
0.3
100
AcDbLine
 10
21.00000000000227
 20
397.6745786197916
 30
0.0
 11
21.00000000000272
 21
394.6745786197916
 31
0.0
  0
LINE
  5
12EA
330
1A
100
AcDbEntity
  8
1
 48
0.3
100
AcDbLine
 10
39.00000000000273
 20
394.6745786197934
 30
0.0
 11
39.00000000000227
 21
397.6745786197934
 31
0.0
  0
LINE
  5
12EB
330
1A
100
AcDbEntity
  8
1
 48
0.3
100
AcDbLine
 10
39.00000000000227
 20
397.6745786197934
 30
0.0
 11
21.00000000000227
 21
397.6745786197916
 31
0.0
  0
LINE
  5
12EC
330
1A
100
AcDbEntity
  8
1
 48
0.3
100
AcDbLine
 10
39.00000000000273
 20
394.6745786197934
 30
0.0
 11
21.00000000000272
 21
394.6745786197916
 31
0.0
  0
LINE
  5
12ED
330
1A
100
AcDbEntity
  8
1
 48
0.3
100
AcDbLine
 10
39.00000000000273
 20
392.9245786197934
 30
0.0
 11
21.00000000000272
 21
392.9245786197916
 31
0.0
  0
LINE
  5
12EE
330
1A
100
AcDbEntity
  8
1
 48
0.3
100
AcDbLine
 10
21.00000000000272
 20
392.9245786197916
 30
0.0
 11
21.00000000000363
 21
389.6745786197934
 31
0.0
  0
LINE
  5
12EF
330
1A
100
AcDbEntity
  8
1
 48
0.3
100
AcDbLine
 10
39.00000000000545
 20
375.1745786197916
 30
0.0
 11
39.000000000005
 21
377.6745786197916
 31
0.0
  0
LINE
  5
12F0
330
1A
100
AcDbEntity
  8
1
 48
0.3
100
AcDbLine
 10
39.00000000000364
 20
389.6745786197934
 30
0.0
 11
39.00000000000273
 21
392.9245786197934
 31
0.0
  0
LINE
  5
12F1
330
1A
100
AcDbEntity
  8
1
 48
0.3
100
AcDbLine
 10
39.00000000000682
 20
337.6745786197916
 30
0.0
 11
39.00000000000636
 21
334.424578619788
 31
0.0
  0
LINE
  5
12F2
330
1A
100
AcDbEntity
  8
1
 48
0.3
100
AcDbLine
 10
21.00000000000636
 20
349.6745786197934
 30
0.0
 11
21.00000000000727
 21
352.1745786197934
 31
0.0
  0
LINE
  5
12F3
330
1A
100
AcDbEntity
  8
1
 48
0.3
100
AcDbLine
 10
21.00000000000454
 20
377.6745786197934
 30
0.0
 11
21.000000000005
 21
375.1745786197934
 31
0.0
  0
LINE
  5
12FC
330
1A
100
AcDbEntity
  8
1
  6
HIDDEN
 48
0.3
100
AcDbLine
 10
235.5000000000077
 20
394.5995786197836
 30
0.0
 11
235.5000000000072
 21
392.9995786197814
 31
0.0
  0
LINE
  5
12FD
330
1A
100
AcDbEntity
  8
1
  6
HIDDEN
 48
0.3
100
AcDbLine
 10
264.5000000000077
 20
394.5995786197818
 30
0.0
 11
235.5000000000081
 21
394.5995786197836
 31
0.0
  0
LINE
  5
12FE
330
1A
100
AcDbEntity
  8
1
  6
HIDDEN
 48
0.3
100
AcDbLine
 10
264.5000000000077
 20
392.9995786197814
 30
0.0
 11
235.5000000000081
 21
392.9995786197832
 31
0.0
  0
LINE
  5
12FF
330
1A
100
AcDbEntity
  8
1
  6
HIDDEN
 48
0.3
100
AcDbLine
 10
264.5000000000077
 20
394.5995786197818
 30
0.0
 11
264.5000000000077
 21
392.9995786197814
 31
0.0
  0
LINE
  5
1300
330
1A
100
AcDbEntity
  8
1
  6
HIDDEN
 48
0.3
100
AcDbLine
 10
264.5000000000059
 20
332.749578619776
 30
0.0
 11
264.5000000000063
 21
334.3495786197781
 31
0.0
  0
LINE
  5
1301
330
1A
100
AcDbEntity
  8
1
  6
HIDDEN
 48
0.3
100
AcDbLine
 10
264.5000000000054
 20
334.3495786197763
 30
0.0
 11
235.5000000000059
 21
334.3495786197781
 31
0.0
  0
LINE
  5
1302
330
1A
100
AcDbEntity
  8
1
  6
HIDDEN
 48
0.3
100
AcDbLine
 10
264.5000000000054
 20
332.749578619776
 30
0.0
 11
235.5000000000059
 21
332.7495786197778
 31
0.0
  0
LINE
  5
1303
330
1A
100
AcDbEntity
  8
1
  6
HIDDEN
 48
0.3
100
AcDbLine
 10
235.5000000000059
 20
332.7495786197778
 30
0.0
 11
235.5000000000059
 21
334.3495786197781
 31
0.0
  0
LINE
  5
1306
330
1A
100
AcDbEntity
  8
1
  6
HIDDEN
 48
0.3
100
AcDbLine
 10
259.0000000000054
 20
329.674578619777
 30
0.0
 11
241.0000000000054
 21
329.6745786197789
 31
0.0
  0
LINE
  5
1307
330
1A
100
AcDbEntity
  8
1
  6
HIDDEN
 48
0.3
100
AcDbLine
 10
259.0000000000059
 20
332.6745786197771
 30
0.0
 11
259.0000000000054
 21
329.674578619777
 31
0.0
  0
LINE
  5
1308
330
1A
100
AcDbEntity
  8
1
  6
HIDDEN
 48
0.3
100
AcDbLine
 10
241.0000000000054
 20
329.6745786197789
 30
0.0
 11
241.0000000000059
 21
332.6745786197789
 31
0.0
  0
LINE
  5
1309
330
1A
100
AcDbEntity
  8
1
  6
HIDDEN
 48
0.3
100
AcDbLine
 10
241.0000000000059
 20
334.4245786197789
 30
0.0
 11
241.0000000000063
 21
337.6745786197843
 31
0.0
  0
LINE
  5
130A
330
1A
100
AcDbEntity
  8
1
  6
HIDDEN
 48
0.3
100
AcDbLine
 10
259.0000000000068
 20
352.1745786197807
 30
0.0
 11
259.0000000000063
 21
349.6745786197825
 31
0.0
  0
LINE
  5
130B
330
1A
100
AcDbEntity
  8
1
  6
HIDDEN
 48
0.3
100
AcDbLine
 10
259.0000000000045
 20
375.1745786197825
 30
0.0
 11
259.0000000000045
 21
377.6745786197825
 31
0.0
  0
LINE
  5
130C
330
1A
100
AcDbEntity
  8
1
  6
HIDDEN
 48
0.3
100
AcDbLine
 10
241.0000000000031
 20
389.6745786197861
 30
0.0
 11
241.0000000000022
 21
392.9995786197832
 31
0.0
  0
LINE
  5
130E
330
1A
100
AcDbEntity
  8
1
  6
HIDDEN
 48
0.3
100
AcDbLine
 10
259.0000000000022
 20
394.5995786197836
 30
0.0
 11
259.0000000000018
 21
397.6745786197825
 31
0.0
  0
LINE
  5
130F
330
1A
100
AcDbEntity
  8
1
  6
HIDDEN
 48
0.3
100
AcDbLine
 10
259.0000000000018
 20
397.6745786197825
 30
0.0
 11
241.0000000000018
 21
397.6745786197807
 31
0.0
  0
LINE
  5
1312
330
1A
100
AcDbEntity
  8
1
  6
HIDDEN
 48
0.3
100
AcDbLine
 10
259.0000000000027
 20
389.6745786197843
 30
0.0
 11
259.0000000000027
 21
392.9995786197814
 31
0.0
  0
LINE
  5
1313
330
1A
100
AcDbEntity
  8
1
  6
HIDDEN
 48
0.3
100
AcDbLine
 10
241.0000000000045
 20
377.6745786197843
 30
0.0
 11
241.0000000000049
 21
375.1745786197843
 31
0.0
  0
LINE
  5
1314
330
1A
100
AcDbEntity
  8
1
  6
HIDDEN
 48
0.3
100
AcDbLine
 10
259.0000000000059
 20
337.6745786197825
 30
0.0
 11
259.0000000000059
 21
334.424578619777
 31
0.0
  0
LINE
  5
1315
330
1A
100
AcDbEntity
  8
1
  6
HIDDEN
 48
0.3
100
AcDbLine
 10
241.0000000000068
 20
349.6745786197843
 30
0.0
 11
241.0000000000068
 21
352.1745786197825
 31
0.0
  0
LINE
  5
1317
330
1A
100
AcDbEntity
  8
1
 48
0.3
100
AcDbLine
 10
20.91042275548352
 20
88.01853790690074
 30
0.0
 11
20.91042275548352
 21
88.01853790690074
 31
0.0
  0
ARC
  5
1318
330
1A
100
AcDbEntity
  8
1
 48
0.3
100
AcDbCircle
 10
20.91042275548352
 20
89.01853790690074
 30
0.0
 40
1.0
100
AcDbArc
 50
227.6775694296989
 51
345.9733265128945
  0
ARC
  5
1319
330
1A
100
AcDbEntity
  8
1
 48
0.3
100
AcDbCircle
 10
29.99999999999909
 20
99.0
 30
0.0
 40
14.5
100
AcDbArc
 50
312.3224305702663
 51
227.6775694297237
  0
LINE
  5
131A
330
1A
100
AcDbEntity
  8
1
 48
0.3
100
AcDbLine
 10
23.01646558788434
 20
93.32283106515205
 30
0.0
 11
21.8806057522579
 21
88.77616432589276
 31
0.0
  0
ARC
  5
131B
330
1A
100
AcDbEntity
  8
1
 48
0.3
100
AcDbCircle
 10
39.08957724451374
 20
89.01853790689893
 30
0.0
 40
1.0
100
AcDbArc
 50
194.0266734872117
 51
312.3224305702613
  0
LINE
  5
131C
330
1A
100
AcDbEntity
  8
1
 48
0.3
100
AcDbLine
 10
36.98353441211293
 20
93.32283106515024
 30
0.0
 11
38.11939424774027
 21
88.77616432588911
 31
0.0
  0
ARC
  5
131D
330
1A
100
AcDbEntity
  8
1
 48
0.3
100
AcDbCircle
 10
19.34683145751205
 20
100.0000000000018
 30
0.0
 40
1.0
100
AcDbArc
 50
174.6374283818909
 51
269.9999999999993
  0
ARC
  5
131E
330
1A
100
AcDbEntity
  8
1
 48
0.3
100
AcDbCircle
 10
29.99999999999909
 20
99.0
 30
0.0
 40
11.69999999999999
100
AcDbArc
 50
114.627036041834
 51
174.6374283818826
  0
LINE
  5
131F
330
1A
100
AcDbEntity
  8
1
 48
0.3
100
AcDbLine
 10
20.99999999999909
 20
99.0
 30
0.0
 11
19.34683145751205
 21
99.0
 31
0.0
  0
ARC
  5
1320
330
1A
100
AcDbEntity
  8
1
 48
0.3
100
AcDbCircle
 10
40.65316854248613
 20
100.0000000000018
 30
0.0
 40
1.0
100
AcDbArc
 50
269.9999999999993
 51
5.362571618107828
  0
ARC
  5
1321
330
1A
100
AcDbEntity
  8
1
 48
0.3
100
AcDbCircle
 10
29.99999999999909
 20
99.0
 30
0.0
 40
11.69999999999999
100
AcDbArc
 50
5.362571618116147
 51
65.37296395816674
  0
LINE
  5
1322
330
1A
100
AcDbEntity
  8
1
 48
0.3
100
AcDbLine
 10
40.65316854248613
 20
99.0
 30
0.0
 11
38.99999999999909
 21
99.0
 31
0.0
  0
ARC
  5
1323
330
1A
100
AcDbEntity
  8
1
 48
0.3
100
AcDbCircle
 10
25.54120529765168
 20
108.7267234872251
 30
0.0
 40
1.0
100
AcDbArc
 50
27.96764444586316
 51
114.6270360418305
  0
LINE
  5
1324
330
1A
100
AcDbEntity
  8
1
 48
0.3
100
AcDbLine
 10
26.42441786544441
 20
109.1956963650063
 30
0.0
 11
27.28238545193017
 21
107.5798934240538
 31
0.0
  0
ARC
  5
1325
330
1A
100
AcDbEntity
  8
1
 48
0.3
100
AcDbCircle
 10
34.45879470234649
 20
108.7267234872251
 30
0.0
 40
1.0
100
AcDbArc
 50
65.37296395816821
 51
152.0323555541234
  0
LINE
  5
1326
330
1A
100
AcDbEntity
  8
1
 48
0.3
100
AcDbLine
 10
33.57558213455376
 20
109.1956963650063
 30
0.0
 11
32.71761454806801
 21
107.5798934240538
 31
0.0
  0
CIRCLE
  5
133D
330
1A
100
AcDbEntity
  8
1
 48
0.3
100
AcDbCircle
 10
29.99999999999909
 20
99.0
 30
0.0
 40
9.0
  0
LINE
  5
133F
330
1A
100
AcDbEntity
  8
1
 48
0.3
100
AcDbLine
 10
241.0
 20
98.99999999999636
 30
0.0
 11
239.3468314575129
 21
98.99999999999636
 31
0.0
  0
LINE
  5
1340
330
1A
100
AcDbEntity
  8
1
 48
0.3
100
AcDbLine
 10
260.653168542487
 20
98.99999999999636
 30
0.0
 11
259.0
 21
98.99999999999636
 31
0.0
  0
LINE
  5
1341
330
1A
100
AcDbEntity
  8
1
 48
0.3
100
AcDbLine
 10
243.0164655878852
 20
93.32283106514841
 30
0.0
 11
241.8806057522597
 21
88.77616432588911
 31
0.0
  0
LINE
  5
1342
330
1A
100
AcDbEntity
  8
1
 48
0.3
100
AcDbLine
 10
256.9835344121147
 20
93.3228310651466
 30
0.0
 11
258.119394247742
 21
88.77616432588547
 31
0.0
  0
LINE
  5
1343
330
1A
100
AcDbEntity
  8
1
 48
0.3
100
AcDbLine
 10
253.5755821345555
 20
109.1956963650027
 30
0.0
 11
252.7176145480698
 21
107.5798934240501
 31
0.0
  0
LINE
  5
1344
330
1A
100
AcDbEntity
  8
1
 48
0.3
100
AcDbLine
 10
246.4244178654462
 20
109.1956963650027
 30
0.0
 11
247.282385451931
 21
107.5798934240501
 31
0.0
  0
CIRCLE
  5
1345
330
1A
100
AcDbEntity
  8
1
 48
0.3
100
AcDbCircle
 10
250.0
 20
98.99999999999636
 30
0.0
 40
9.0
  0
ARC
  5
1346
330
1A
100
AcDbEntity
  8
1
 48
0.3
100
AcDbCircle
 10
254.4587947023483
 20
108.7267234872215
 30
0.0
 40
1.0
100
AcDbArc
 50
65.37296395816821
 51
152.0323555541234
  0
ARC
  5
1347
330
1A
100
AcDbEntity
  8
1
 48
0.3
100
AcDbCircle
 10
245.5412052976526
 20
108.7267234872215
 30
0.0
 40
1.0
100
AcDbArc
 50
27.96764444586316
 51
114.6270360418305
  0
ARC
  5
1348
330
1A
100
AcDbEntity
  8
1
 48
0.3
100
AcDbCircle
 10
250.0
 20
98.99999999999636
 30
0.0
 40
11.69999999999999
100
AcDbArc
 50
5.362571618116147
 51
65.37296395816674
  0
ARC
  5
1349
330
1A
100
AcDbEntity
  8
1
 48
0.3
100
AcDbCircle
 10
260.653168542487
 20
99.99999999999818
 30
0.0
 40
1.0
100
AcDbArc
 50
269.9999999999993
 51
5.362571618107828
  0
ARC
  5
134A
330
1A
100
AcDbEntity
  8
1
 48
0.3
100
AcDbCircle
 10
250.0
 20
98.99999999999636
 30
0.0
 40
11.69999999999999
100
AcDbArc
 50
114.627036041834
 51
174.6374283818826
  0
ARC
  5
134B
330
1A
100
AcDbEntity
  8
1
 48
0.3
100
AcDbCircle
 10
239.3468314575129
 20
99.99999999999818
 30
0.0
 40
1.0
100
AcDbArc
 50
174.6374283818909
 51
269.9999999999993
  0
ARC
  5
134C
330
1A
100
AcDbEntity
  8
1
 48
0.3
100
AcDbCircle
 10
259.0895772445146
 20
89.01853790689528
 30
0.0
 40
1.0
100
AcDbArc
 50
194.0266734872117
 51
312.3224305702613
  0
ARC
  5
134D
330
1A
100
AcDbEntity
  8
1
 48
0.3
100
AcDbCircle
 10
250.0
 20
98.99999999999636
 30
0.0
 40
14.5
100
AcDbArc
 50
312.3224305702663
 51
227.6775694297237
  0
ARC
  5
134E
330
1A
100
AcDbEntity
  8
1
 48
0.3
100
AcDbCircle
 10
240.9104227554853
 20
89.01853790689711
 30
0.0
 40
1.0
100
AcDbArc
 50
227.6775694296989
 51
345.9733265128945
  0
LINE
  5
134F
330
1A
100
AcDbEntity
  8
1
 48
0.3
100
AcDbLine
 10
240.9104227554853
 20
88.0185379068971
 30
0.0
 11
240.9104227554853
 21
88.0185379068971
 31
0.0
  0
CIRCLE
  5
1350
330
1A
100
AcDbEntity
  8
1
 48
0.3
100
AcDbCircle
 10
250.0000000000009
 20
98.99999999999636
 30
0.0
 40
9.0
  0
LINE
  5
1372
330
1A
100
AcDbEntity
  8
1
 48
0.3
100
AcDbLine
 10
129.9999974149995
 20
117.1000000000003
 30
0.0
 11
149.9999974149996
 21
117.1000000000003
 31
0.0
  0
LINE
  5
1373
330
1A
100
AcDbEntity
  8
1
 48
0.3
100
AcDbLine
 10
129.9999974149995
 20
80.89999999999964
 30
0.0
 11
149.9999974149996
 21
80.89999999999964
 31
0.0
  0
LINE
  5
1374
330
1A
100
AcDbEntity
  8
1
 48
0.3
100
AcDbLine
 10
129.9999974150077
 20
348.0745786197876
 30
0.0
 11
149.9999974150077
 21
348.0745786197858
 31
0.0
  0
LINE
  5
1375
330
1A
100
AcDbEntity
  8
1
 48
0.3
100
AcDbLine
 10
129.9999974150086
 20
379.2745786197901
 30
0.0
 11
149.9999974150086
 21
379.2745786197865
 31
0.0
  0
LINE
  5
13A0
330
1A
100
AcDbEntity
  8
CENTER
 48
0.3
100
AcDbLine
 10
30.0
 20
131.1727168555717
 30
0.0
 11
29.99999999999636
 21
-5.933998340673497
 31
0.0
  0
LINE
  5
13A3
330
1A
100
AcDbEntity
  8
1
 48
0.3
100
AcDbLine
 10
298.0000000000009
 20
228.6745786197825
 30
0.0
 11
300.0000000000013
 21
230.6745786197825
 31
0.0
  0
LINE
  5
13A4
330
1A
100
AcDbEntity
  8
1
 48
0.3
100
AcDbLine
 10
300.0000000000081
 20
396.6745786197825
 30
0.0
 11
298.0000000000086
 21
398.6745786197825
 31
0.0
  0
LINE
  5
13A5
330
1A
100
AcDbEntity
  8
1
 48
0.3
100
AcDbLine
 10
2.000000000001818
 20
228.6745786197934
 30
0.0
 11
0.0000000000022737
 21
230.6745786197934
 31
0.0
  0
LINE
  5
13A6
330
1A
100
AcDbEntity
  8
1
 48
0.3
100
AcDbLine
 10
0.0000000000086402
 20
396.6745786197934
 30
0.0
 11
2.000000000009094
 21
398.6745786197934
 31
0.0
  0
LINE
  5
13A7
330
1A
100
AcDbEntity
  8
1
 48
0.3
100
AcDbLine
 10
200.0000000000086
 20
396.6745786197861
 30
0.0
 11
202.0000000000091
 21
398.6745786197861
 31
0.0
  0
LINE
  5
13A8
330
1A
100
AcDbEntity
  8
1
 48
0.3
100
AcDbLine
 10
202.0
 20
228.6745786197861
 30
0.0
 11
200.0000000000004
 21
230.6745786197861
 31
0.0
  0
LINE
  5
13AF
330
1A
100
AcDbEntity
  8
CENTER
 48
0.3
100
AcDbLine
 10
288.5000000000049
 20
305.6745786197825
 30
0.0
 11
288.5000000000054
 21
328.6745786197825
 31
0.0
  0
LINE
  5
13B0
330
1A
100
AcDbEntity
  8
CENTER
 48
0.3
100
AcDbLine
 10
277.0000000000027
 20
240.1745786197843
 30
0.0
 11
300.0000000000009
 21
240.1745786197825
 31
0.0
  0
LINE
  5
13B1
330
1A
100
AcDbEntity
  8
CENTER
 48
0.3
100
AcDbLine
 10
211.5000000000049
 20
305.6745786197879
 30
0.0
 11
211.5000000000054
 21
328.6745786197879
 31
0.0
  0
LINE
  5
13B2
330
1A
100
AcDbEntity
  8
CENTER
 48
0.3
100
AcDbLine
 10
277.0000000000054
 20
317.1745786197825
 30
0.0
 11
300.0000000000036
 21
317.1745786197825
 31
0.0
  0
LINE
  5
13B3
330
1A
100
AcDbEntity
  8
CENTER
 48
0.3
100
AcDbLine
 10
200.0000000000054
 20
317.1745786197861
 30
0.0
 11
223.0000000000054
 21
317.1745786197825
 31
0.0
  0
LINE
  5
13B4
330
1A
100
AcDbEntity
  8
CENTER
 48
0.3
100
AcDbLine
 10
200.0000000000027
 20
240.1745786197861
 30
0.0
 11
223.0000000000027
 21
240.1745786197843
 31
0.0
  0
LINE
  5
13B5
330
1A
100
AcDbEntity
  8
CENTER
 48
0.3
100
AcDbLine
 10
11.50000000000545
 20
305.6745786197916
 30
0.0
 11
11.50000000000545
 21
328.6745786197916
 31
0.0
  0
LINE
  5
19F4
330
1A
100
AcDbEntity
  8
1
  6
HIDDEN
 48
0.3
100
AcDbLine
 10
221.0000000000068
 20
351.1745786197843
 30
0.0
 11
200.0000000000068
 21
351.1745786197861
 31
0.0
  0
LINE
  5
19F5
330
1A
100
AcDbEntity
  8
1
  6
HIDDEN
 48
0.3
100
AcDbLine
 10
221.0000000000072
 20
376.1745786197843
 30
0.0
 11
200.0000000000072
 21
376.1745786197861
 31
0.0
  0
LINE
  5
1D9D
330
1A
100
AcDbEntity
  8
1
  6
HIDDEN
 48
0.3
100
AcDbLine
 10
241.0000000000022
 20
394.5995786197854
 30
0.0
 11
241.0000000000018
 21
397.6745786197807
 31
0.0
  0
CIRCLE
  5
1DFC
330
1A
100
AcDbEntity
  8
1
 48
0.3
100
AcDbCircle
 10
11.50000000000545
 20
317.1745786197934
 30
0.0
 40
4.0
  0
CIRCLE
  5
1DFD
330
1A
100
AcDbEntity
  8
1
 48
0.3
100
AcDbCircle
 10
11.50000000000363
 20
240.1745786197934
 30
0.0
 40
4.0
  0
CIRCLE
  5
1DFE
330
1A
100
AcDbEntity
  8
1
 48
0.3
100
AcDbCircle
 10
211.5000000000031
 20
240.1745786197843
 30
0.0
 40
4.0
  0
CIRCLE
  5
1DFF
330
1A
100
AcDbEntity
  8
1
 48
0.3
100
AcDbCircle
 10
211.5000000000049
 20
317.1745786197843
 30
0.0
 40
4.0
  0
CIRCLE
  5
1E00
330
1A
100
AcDbEntity
  8
1
 48
0.3
100
AcDbCircle
 10
288.5000000000049
 20
317.1745786197825
 30
0.0
 40
4.0
  0
CIRCLE
  5
1E01
330
1A
100
AcDbEntity
  8
1
 48
0.3
100
AcDbCircle
 10
288.5000000000031
 20
240.1745786197825
 30
0.0
 40
4.0
  0
CIRCLE
  5
1E1B
330
1A
100
AcDbEntity
  8
1
  6
HIDDEN
 48
0.3
100
AcDbCircle
 10
250.0000000000036
 20
278.6745786197843
 30
0.0
 40
17.0
  0
LINE
  5
1E1D
330
1A
100
AcDbEntity
  8
CENTER
 48
0.3
100
AcDbLine
 10
250.0000000000013
 20
-4.144025936775506
 30
0.0
 11
250.0000000000091
 21
163.5045059867043
 31
0.0
  0
LINE
  5
1E1E
330
1A
100
AcDbEntity
  8
1
  6
HIDDEN
 48
0.3
100
AcDbLine
 10
233.000000000005
 20
138.9999999999981
 30
0.0
 11
233.0000000000095
 21
148.9999999999981
 31
0.0
  0
LINE
  5
1E1F
330
1A
100
AcDbEntity
  8
1
  6
HIDDEN
 48
0.3
100
AcDbLine
 10
267.0000000000086
 20
138.9999999999963
 30
0.0
 11
267.0000000000086
 21
148.9999999999981
 31
0.0
  0
LINE
  5
1E20
330
1A
100
AcDbEntity
  8
1
  6
HIDDEN
 48
0.3
100
AcDbLine
 10
233.0000000000091
 20
148.9999999999981
 30
0.0
 11
267.000000000009
 21
148.9999999999981
 31
0.0
  0
LINE
  5
1EF5
330
1A
100
AcDbEntity
  8
1
 48
0.3
100
AcDbLine
 10
6.500000000008185
 20
389.6745786197916
 30
0.0
 11
4.500000000008185
 21
387.6745786197916
 31
0.0
  0
LINE
  5
1EF6
330
1A
100
AcDbEntity
  8
1
 48
0.3
100
AcDbLine
 10
53.50000000000637
 20
389.6745786197916
 30
0.0
 11
55.50000000000636
 21
387.6745786197916
 31
0.0
  0
LINE
  5
1EF7
330
1A
100
AcDbEntity
  8
1
 48
0.3
100
AcDbLine
 10
4.500000000005911
 20
339.6745786197916
 30
0.0
 11
6.500000000005911
 21
337.6745786197916
 31
0.0
  0
LINE
  5
1EF8
330
1A
100
AcDbEntity
  8
1
 48
0.3
100
AcDbLine
 10
55.50000000000409
 20
339.6745786197916
 30
0.0
 11
53.50000000000409
 21
337.6745786197916
 31
0.0
  0
LINE
  5
1EF9
330
1A
100
AcDbEntity
  8
1
  6
HIDDEN
 48
0.3
100
AcDbLine
 10
226.5000000000081
 20
389.6745786197861
 30
0.0
 11
224.5000000000081
 21
387.6745786197862
 31
0.0
  0
LINE
  5
1EFA
330
1A
100
AcDbEntity
  8
1
  6
HIDDEN
 48
0.3
100
AcDbLine
 10
224.5000000000077
 20
379.6745786197825
 30
0.0
 11
226.5000000000077
 21
377.6745786197825
 31
0.0
  0
LINE
  5
1EFB
330
1A
100
AcDbEntity
  8
1
  6
HIDDEN
 48
0.3
100
AcDbLine
 10
273.5000000000063
 20
389.6745786197861
 30
0.0
 11
275.5000000000063
 21
387.6745786197862
 31
0.0
  0
LINE
  5
1EFC
330
1A
100
AcDbEntity
  8
1
  6
HIDDEN
 48
0.3
100
AcDbLine
 10
275.5000000000058
 20
379.6745786197825
 30
0.0
 11
273.5000000000059
 21
377.6745786197825
 31
0.0
  0
LINE
  5
1EFD
330
1A
100
AcDbEntity
  8
1
  6
HIDDEN
 48
0.3
100
AcDbLine
 10
273.5000000000045
 20
349.6745786197825
 30
0.0
 11
275.5000000000045
 21
347.6745786197825
 31
0.0
  0
LINE
  5
1EFE
330
1A
100
AcDbEntity
  8
1
  6
HIDDEN
 48
0.3
100
AcDbLine
 10
226.5000000000063
 20
349.6745786197843
 30
0.0
 11
224.5000000000063
 21
347.6745786197843
 31
0.0
  0
LINE
  5
1EFF
330
1A
100
AcDbEntity
  8
1
  6
HIDDEN
 48
0.3
100
AcDbLine
 10
224.5000000000059
 20
339.6745786197843
 30
0.0
 11
226.5000000000059
 21
337.6745786197843
 31
0.0
  0
LINE
  5
1F00
330
1A
100
AcDbEntity
  8
1
  6
HIDDEN
 48
0.3
100
AcDbLine
 10
275.5000000000041
 20
339.6745786197807
 30
0.0
 11
273.5000000000041
 21
337.6745786197807
 31
0.0
  0
LINE
  5
1F01
330
1A
100
AcDbEntity
  8
1
 48
0.3
100
AcDbLine
 10
12.50000000000727
 20
377.6745786197934
 30
0.0
 11
12.50000000000818
 21
389.6745786197916
 31
0.0
  0
LINE
  5
1F02
330
1A
100
AcDbEntity
  8
1
 48
0.3
100
AcDbLine
 10
47.50000000000546
 20
377.6745786197916
 30
0.0
 11
47.50000000000682
 21
389.6745786197916
 31
0.0
  0
LINE
  5
1F03
330
1A
100
AcDbEntity
  8
1
 48
0.3
100
AcDbLine
 10
47.50000000000409
 20
337.6745786197916
 30
0.0
 11
47.50000000000454
 21
349.6745786197916
 31
0.0
  0
LINE
  5
1F04
330
1A
100
AcDbEntity
  8
1
 48
0.3
100
AcDbLine
 10
12.50000000000591
 20
337.6745786197916
 30
0.0
 11
12.50000000000636
 21
349.6745786197934
 31
0.0
  0
LINE
  5
1F05
330
1A
100
AcDbEntity
  8
1
 48
0.3
100
AcDbLine
 10
6.499999999998181
 20
32.0
 30
0.0
 11
6.500000000000454
 21
116.0
 31
0.0
  0
LINE
  5
1F06
330
1A
100
AcDbEntity
  8
1
 48
0.3
100
AcDbLine
 10
53.49999999999955
 20
116.0
 30
0.0
 11
53.49999999999818
 21
32.0
 31
0.0
  0
LINE
  5
1F07
330
1A
100
AcDbEntity
  8
1
 48
0.3
100
AcDbLine
 10
226.5000000000013
 20
81.99999999999453
 30
0.0
 11
226.5000000000018
 21
138.9999999999963
 31
0.0
  0
LINE
  5
1F08
330
1A
100
AcDbEntity
  8
1
 48
0.3
100
AcDbLine
 10
273.5000000000018
 20
138.9999999999945
 30
0.0
 11
273.5000000000004
 21
81.99999999999636
 31
0.0
  0
LINE
  5
1F09
330
1A
100
AcDbEntity
  8
CENTER
 48
0.3
100
AcDbLine
 10
50.00000000000273
 20
234.081035103436
 30
0.0
 11
50.00000000000273
 21
273.2681221361399
 31
0.0
  0
CIRCLE
  5
1F0A
330
1A
100
AcDbEntity
  8
1
 48
0.3
100
AcDbCircle
 10
50.00000000000273
 20
253.6745786197879
 30
0.0
 40
8.0
  0
CIRCLE
  5
1F0B
330
1A
100
AcDbEntity
  8
1
 48
0.3
100
AcDbCircle
 10
50.00000000000273
 20
253.6745786197879
 30
0.0
 40
7.0
  0
LINE
  5
1F0E
330
1A
100
AcDbEntity
  8
CENTER
 48
0.3
100
AcDbLine
 10
30.0
 20
407.0677386902571
 30
0.0
 11
29.99999999999636
 21
323.216560644616
 31
0.0
  0
ARC
  5
1F11
330
1A
100
AcDbEntity
  8
1
100
AcDbCircle
 10
125.8133378242059
 20
363.674578619788
 30
0.0
 40
25.81334040920221
100
AcDbArc
 50
162.412046226005
 51
197.5879537739927
  0
LINE
  5
1F12
330
1A
100
AcDbEntity
  8
1
100
AcDbLine
 10
99.99999741500733
 20
377.1845812047886
 30
0.0
 11
99.99999741500642
 21
350.1645760347892
 31
0.0
  0
ARC
  5
1F13
330
1A
100
AcDbEntity
  8
1
100
AcDbCircle
 10
114.1133323804037
 20
377.1845812047904
 30
0.0
 40
14.11333496539884
100
AcDbArc
 50
179.9999999999988
 51
203.8649254160488
  0
LINE
  5
1F14
330
1A
100
AcDbEntity
  8
1
100
AcDbLine
 10
99.99999741500733
 20
377.1845812047886
 30
0.0
 11
101.2066621758076
 21
379.2745858781927
 31
0.0
  0
LINE
  5
1F15
330
1A
100
AcDbEntity
  8
1
100
AcDbLine
 10
99.99999741500642
 20
350.1645760347892
 30
0.0
 11
101.2066621758072
 21
348.0745713613832
 31
0.0
  0
ARC
  5
1F16
330
1A
100
AcDbEntity
  8
1
100
AcDbCircle
 10
114.1133323804028
 20
350.164576034791
 30
0.0
 40
14.11333496539884
100
AcDbArc
 50
156.1350745839489
 51
179.9999999999988
  0
LINE
  5
1F17
330
1A
100
AcDbEntity
  8
1
100
AcDbLine
 10
178.7933378242068
 20
379.2745858781909
 30
0.0
 11
166.2066621758081
 21
379.2745858781927
 31
0.0
  0
LINE
  5
1F18
330
1A
100
AcDbEntity
  8
1
100
AcDbLine
 10
178.7933378242055
 20
348.0745713613814
 30
0.0
 11
166.2066621758058
 21
348.0745713613832
 31
0.0
  0
ARC
  5
1F19
330
1A
100
AcDbEntity
  8
1
100
AcDbCircle
 10
154.1866621758076
 20
363.674578619788
 30
0.0
 40
25.81334040920221
100
AcDbArc
 50
342.4120462260039
 51
17.58795377399159
  0
LINE
  5
1F1A
330
1A
100
AcDbEntity
  8
1
100
AcDbLine
 10
180.0000025850072
 20
377.1845812047867
 30
0.0
 11
180.0000025850063
 21
350.1645760347873
 31
0.0
  0
ARC
  5
1F1B
330
1A
100
AcDbEntity
  8
1
100
AcDbCircle
 10
165.8866676196107
 20
377.1845812047886
 30
0.0
 40
14.11333496539884
100
AcDbArc
 50
336.1350745839478
 51
359.9999999999977
  0
LINE
  5
1F1C
330
1A
100
AcDbEntity
  8
1
100
AcDbLine
 10
180.0000025850072
 20
377.1845812047867
 30
0.0
 11
178.7933378242068
 21
379.2745858781909
 31
0.0
  0
LINE
  5
1F1D
330
1A
100
AcDbEntity
  8
1
100
AcDbLine
 10
180.0000025850063
 20
350.1645760347873
 30
0.0
 11
178.7933378242055
 21
348.0745713613814
 31
0.0
  0
ARC
  5
1F1E
330
1A
100
AcDbEntity
  8
1
100
AcDbCircle
 10
165.8866676196098
 20
350.1645760347892
 30
0.0
 40
14.11333496539884
100
AcDbArc
 50
359.9999999999977
 51
23.86492541604769
  0
LINE
  5
1F2D
330
1A
100
AcDbEntity
  8
1
 48
0.3
100
AcDbLine
 10
129.9999974150077
 20
363.674578619788
 30
0.0
 11
149.9999974150077
 21
363.6745786197843
 31
0.0
  0
LINE
  5
1F30
330
1A
100
AcDbEntity
  8
1
 48
0.3
100
AcDbLine
 10
149.9999974149996
 20
106.7942286340567
 30
0.0
 11
129.9999974149995
 21
106.7942286340567
 31
0.0
  0
LINE
  5
1F31
330
1A
100
AcDbEntity
  8
1
 48
0.3
100
AcDbLine
 10
149.9999974149996
 20
91.20577136593601
 30
0.0
 11
129.999997415
 21
91.20577136593601
 31
0.0
  0
LINE
  5
1F32
330
1A
100
AcDbEntity
  8
1
100
AcDbLine
 10
113.8000052499865
 20
98.99999999999819
 30
0.0
 11
101.1999999999975
 21
99.00000725840436
 31
0.0
  0
ARC
  5
1F47
330
1A
100
AcDbEntity
  8
1
 48
0.3
100
AcDbCircle
 10
119.5843749999885
 20
105.7500072584025
 30
0.0
 40
19.58437499999089
100
AcDbArc
 50
159.8388040248998
 51
200.1611959750896
  0
ARC
  5
1F48
330
1A
100
AcDbEntity
  8
1
 48
0.3
100
AcDbCircle
 10
119.5844158285281
 20
92.24999999999818
 30
0.0
 40
19.58441582853068
100
AcDbArc
 50
159.8388252599647
 51
200.1611747400299
  0
ARC
  5
1F49
330
1A
100
AcDbEntity
  8
1
 48
0.3
100
AcDbCircle
 10
95.41558675647911
 20
92.24999999999637
 30
0.0
 40
19.58441582852132
100
AcDbArc
 50
339.838825259966
 51
20.16117474004945
  0
ARC
  5
1F4A
330
1A
100
AcDbEntity
  8
1
 48
0.3
100
AcDbCircle
 10
95.41562758497912
 20
105.7500072584043
 30
0.0
 40
19.58437500001992
100
AcDbArc
 50
339.8388040249311
 51
20.16119597505939
  0
ARC
  5
1F4B
330
1A
100
AcDbEntity
  8
1
 48
0.3
100
AcDbCircle
 10
184.5843724149895
 20
105.7500072583989
 30
0.0
 40
19.58437499999089
100
AcDbArc
 50
159.8388040248998
 51
200.1611959750896
  0
LINE
  5
1F4C
330
1A
100
AcDbEntity
  8
1
100
AcDbLine
 10
178.800000000001
 20
112.5000072584007
 30
0.0
 11
166.1999974150003
 21
112.5000072584025
 31
0.0
  0
ARC
  5
1F4E
330
1A
100
AcDbEntity
  8
1
 48
0.3
100
AcDbCircle
 10
184.584413243529
 20
92.24999999999454
 30
0.0
 40
19.58441582853068
100
AcDbArc
 50
159.8388252599647
 51
200.1611747400299
  0
LINE
  5
1F4F
330
1A
100
AcDbEntity
  8
1
100
AcDbLine
 10
178.8000000000006
 20
85.49999274159018
 30
0.0
 11
166.199997414998
 21
85.49999274159381
 31
0.0
  0
ARC
  5
1F50
330
1A
100
AcDbEntity
  8
1
 48
0.3
100
AcDbCircle
 10
160.41558417148
 20
92.24999999999273
 30
0.0
 40
19.58441582852132
100
AcDbArc
 50
339.838825259966
 51
20.16117474004945
  0
LINE
  5
1F51
330
1A
100
AcDbEntity
  8
1
100
AcDbLine
 10
180.0000000000009
 20
92.24999999999273
 30
0.0
 11
180.0000000000009
 21
105.7500072584007
 31
0.0
  0
ARC
  5
1F52
330
1A
100
AcDbEntity
  8
1
 48
0.3
100
AcDbCircle
 10
160.41562499998
 20
105.7500072584007
 30
0.0
 40
19.58437500001992
100
AcDbArc
 50
339.8388040249311
 51
20.16119597505939
  0
LINE
  5
1F53
330
1A
100
AcDbEntity
  8
1
 48
0.3
100
AcDbLine
 10
164.9999974149995
 20
106.4999999999981
 30
0.0
 11
164.9999974149995
 21
91.5
 31
0.0
  0
LINE
  5
1F54
330
1A
100
AcDbEntity
  8
1
100
AcDbLine
 10
178.7999999999988
 20
99.0000072583971
 30
0.0
 11
166.199997414998
 21
99.00000725839891
 31
0.0
  0
LINE
  5
1FE2
330
1A
100
AcDbEntity
  8
CENTER
 48
0.3
100
AcDbLine
 10
30.4064564836508
 20
253.6745786197879
 30
0.0
 11
69.59354351635465
 21
253.6745786197879
 31
0.0
  0
VIEWPORT
  5
22
330
17
100
AcDbEntity
 67
     1
  8
0
100
AcDbViewport
 10
245.6945009216256
 20
105.7241550565134
 30
0.0
 40
613.0444570053204
 41
476.2545986356583
 68
     1
 69
     1
 12
245.6945009216256
 22
105.7241550565134
 13
0.0
 23
0.0
 14
1.0
 24
1.0
 15
10.0
 25
10.0
 16
0.0
 26
0.0
 36
1.0
 17
0.0
 27
0.0
 37
0.0
 42
50.0
 43
0.0
 44
0.0
 45
476.2545986356583
 50
0.0
 51
0.0
 72
   100
 90
    32768
  1

281
     0
 71
     1
 74
     0
110
0.0
120
0.0
130
0.0
111
1.0
121
0.0
131
0.0
112
0.0
122
1.0
132
0.0
 79
     0
146
0.0
  0
VIEWPORT
  5
2A3
330
17
100
AcDbEntity
 67
     1
  8
0
100
AcDbViewport
 10
244.5805580931447
 20
129.4737091466903
 30
0.0
 40
449.1611161862895
 41
305.0525817066191
 68
     2
 69
     2
 12
135.1001940167413
 22
210.5827062373264
 13
0.0
 23
0.0
 14
168.0
 24
168.0
 15
0.0
 25
0.0
 16
0.0
 26
0.0
 36
1.0
 17
0.0
 27
0.0
 37
0.0
 42
50.0
 43
0.0
 44
0.0
 45
508.8967840003361
 50
0.0
 51
0.0
 72
   100
 90
    36864
  1

281
     0
 71
     1
 74
     0
110
0.0
120
0.0
130
0.0
111
1.0
121
0.0
131
0.0
112
0.0
122
1.0
132
0.0
 79
     0
146
0.0
  0
ENDSEC
  0
SECTION
  2
OBJECTS
  0
DICTIONARY
  5
C
330
0
100
AcDbDictionary
281
     1
  3
ACAD_GROUP
350
D
  3
ACAD_LAYOUT
350
2075
  3
ACAD_MLINESTYLE
350
E
  3
ACAD_PLOTSETTINGS
350
2076
  3
ACAD_PLOTSTYLENAME
350
2073
  3
CONTENTDICTIONARY
350
DFB
  3
DRAWINGVARIABLESDICT
350
2044
  0
DICTIONARY
  5
20A3
330
1A
100
AcDbDictionary
280
     1
281
     1
  3
ACAD_LAYOUTSELFREF
360
22D9
  0
DICTIONARY
  5
20A1
330
17
100
AcDbDictionary
280
     1
281
     1
  3
ACAD_LAYOUTSELFREF
360
22D8
  0
DICTIONARY
  5
D
102
{ACAD_REACTORS
330
C
102
}
330
C
100
AcDbDictionary
281
     1
  0
DICTIONARY
  5
2075
102
{ACAD_REACTORS
330
C
102
}
330
C
100
AcDbDictionary
281
     1
  3
Model
350
2077
  3
ﾚｲｱｳﾄ1
350
2078
  0
DICTIONARY
  5
E
102
{ACAD_REACTORS
330
C
102
}
330
C
100
AcDbDictionary
281
     1
  3
STANDARD
350
13
  0
DICTIONARY
  5
2076
102
{ACAD_REACTORS
330
C
102
}
330
C
100
AcDbDictionary
281
     1
  0
ACDBDICTIONARYWDFLT
  5
2073
102
{ACAD_REACTORS
330
C
102
}
330
C
100
AcDbDictionary
281
     1
  3
Normal
350
2074
100
AcDbDictionaryWithDefault
340
2074
  0
DICTIONARY
  5
DFB
102
{ACAD_REACTORS
330
C
102
}
330
C
100
AcDbDictionary
281
     1
  0
DICTIONARY
  5
2044
102
{ACAD_REACTORS
330
C
102
}
330
C
100
AcDbDictionary
281
     1
1001
DRAWINGVARIABLESXDATA
1000
POLARMODE
1000
1
  0
XRECORD
  5
22D9
102
{ACAD_REACTORS
330
20A3
102
}
330
20A3
100
AcDbXrecord
280
     1
340
1A
  0
XRECORD
  5
22D8
102
{ACAD_REACTORS
330
20A1
102
}
330
20A1
100
AcDbXrecord
280
     1
340
17
  0
LAYOUT
  5
2077
102
{ACAD_REACTORS
330
2075
102
}
330
2075
100
AcDbPlotSettings
  1

  2
RICOH IPSiO NX710
  4

  6

 40
0.0
 41
0.0
 42
0.0
 43
0.0
 44
0.0
 45
0.0
 46
0.0
 47
0.0
 48
0.0
 49
0.0
140
0.0
141
0.0
142
1.0
143
1.0
 70
  1712
 72
     0
 73
     0
 74
     0
  7
monochrome.ctb
 75
     0
147
1.0
148
0.0
149
0.0
100
AcDbLayout
  1
Model
 70
     1
 71
     0
 10
0.0
 20
0.0
 11
12.0
 21
9.0
 12
0.0
 22
0.0
 32
0.0
 14
0.0
 24
0.0
 34
0.0
 15
0.0
 25
0.0
 35
0.0
146
0.0
 13
0.0
 23
0.0
 33
0.0
 16
1.0
 26
0.0
 36
0.0
 17
0.0
 27
1.0
 37
0.0
 76
     0
330
1A
  0
LAYOUT
  5
2078
102
{ACAD_REACTORS
330
2075
102
}
330
2075
100
AcDbPlotSettings
  1

  2
RICOH IPSiO NX710
  4
A4
  6

 40
5.831416606903076
 41
4.942422866821289
 42
7.609405517578125
 43
5.789093017578125
 44
209.9733276367187
 45
296.9683227539062
 46
0.0
 47
0.0
 48
0.0
 49
0.0
140
0.0
141
0.0
142
1.0
143
1.569851067847254
 70
   688
 72
     1
 73
     1
 74
     1
  7
monochrome.ctb
 75
     0
147
0.6370031020657937
148
-19.82208352049588
149
26.36841499802187
100
AcDbLayout
  1
ﾚｲｱｳﾄ1
 70
     1
 71
     1
 10
10.73406966498377
 20
-35.52287058543088
 11
476.9301082570116
 21
294.1039820245135
 12
0.0
 22
0.0
 32
0.0
 14
20.0
 24
-23.0525817066192
 34
0.0
 15
469.1611161862895
 25
281.9999999999999
 35
0.0
146
0.0
 13
0.0
 23
0.0
 33
0.0
 16
1.0
 26
0.0
 36
0.0
 17
0.0
 27
1.0
 37
0.0
 76
     0
330
17
331
22
  0
MLINESTYLE
  5
13
102
{ACAD_REACTORS
330
E
102
}
330
E
100
AcDbMlineStyle
  2
STANDARD
 70
     0
  3

 62
     0
 51
90.0
 52
90.0
 71
     2
 49
0.5
 62
   256
  6
BYLAYER
 49
-0.5
 62
   256
  6
BYLAYER
  0
ACDBPLACEHOLDER
  5
2074
102
{ACAD_REACTORS
330
2073
102
}
330
2073
  0
ENDSEC
  0
EOF
