  0
SECTION
  2
HEADER
  9
$ACADVER
  1
AC1015
  9
$ACADMAINTVER
 70
     6
  9
$DWGCODEPAGE
  3
ANSI_932
  9
$INSBASE
 10
0.0
 20
0.0
 30
0.0
  9
$EXTMIN
 10
9097.635723689881
 20
2683.409002525712
 30
-0.00000001
  9
$EXTMAX
 10
9679.716206731896
 20
3276.220145586455
 30
0.00000001
  9
$LIMMIN
 10
0.0
 20
0.0
  9
$LIMMAX
 10
409.8899999999999
 20
282.8899999999999
  9
$ORTHOMODE
 70
     1
  9
$REGENMODE
 70
     1
  9
$FILLMODE
 70
     1
  9
$QTEXTMODE
 70
     0
  9
$MIRRTEXT
 70
     1
  9
$LTSCALE
 40
10.0
  9
$ATTMODE
 70
     1
  9
$TEXTSIZE
 40
3.5
  9
$TRACEWID
 40
1.0
  9
$TEXTSTYLE
  7
AD-STANDARD
  9
$CLAYER
  8
1
  9
$CELTYPE
  6
BYLAYER
  9
$CECOLOR
 62
   256
  9
$CELTSCALE
 40
1.0
  9
$DISPSILH
 70
     0
  9
$DIMSCALE
 40
3.0
  9
$DIMASZ
 40
2.5
  9
$DIMEXO
 40
1.0
  9
$DIMDLI
 40
0.38
  9
$DIMRND
 40
0.0
  9
$DIMDLE
 40
0.0
  9
$DIMEXE
 40
2.0
  9
$DIMTP
 40
0.0
  9
$DIMTM
 40
0.0
  9
$DIMTXT
 40
3.5
  9
$DIMCEN
 40
-5.0
  9
$DIMTSZ
 40
0.0
  9
$DIMTOL
 70
     0
  9
$DIMLIM
 70
     0
  9
$DIMTIH
 70
     0
  9
$DIMTOH
 70
     0
  9
$DIMSE1
 70
     0
  9
$DIMSE2
 70
     0
  9
$DIMTAD
 70
     1
  9
$DIMZIN
 70
     8
  9
$DIMBLK
  1

  9
$DIMASO
 70
     1
  9
$DIMSHO
 70
     1
  9
$DIMPOST
  1

  9
$DIMAPOST
  1

  9
$DIMALT
 70
     0
  9
$DIMALTD
 70
     2
  9
$DIMALTF
 40
25.4
  9
$DIMLFAC
 40
1.0
  9
$DIMTOFL
 70
     1
  9
$DIMTVP
 40
0.0
  9
$DIMTIX
 70
     0
  9
$DIMSOXD
 70
     0
  9
$DIMSAH
 70
     0
  9
$DIMBLK1
  1

  9
$DIMBLK2
  1

  9
$DIMSTYLE
  2
AD-STANDARD
  9
$DIMCLRD
 70
     9
  9
$DIMCLRE
 70
     9
  9
$DIMCLRT
 70
     2
  9
$DIMTFAC
 40
1.0
  9
$DIMGAP
 40
0.5
  9
$DIMJUST
 70
     0
  9
$DIMSD1
 70
     0
  9
$DIMSD2
 70
     0
  9
$DIMTOLJ
 70
     1
  9
$DIMTZIN
 70
     8
  9
$DIMALTZ
 70
     0
  9
$DIMALTTZ
 70
     0
  9
$DIMUPT
 70
     0
  9
$DIMDEC
 70
     4
  9
$DIMTDEC
 70
     4
  9
$DIMALTU
 70
     2
  9
$DIMALTTD
 70
     2
  9
$DIMTXSTY
  7
AD-STANDARD
  9
$DIMAUNIT
 70
     0
  9
$DIMADEC
 70
     0
  9
$DIMALTRND
 40
0.0
  9
$DIMAZIN
 70
     0
  9
$DIMDSEP
 70
    46
  9
$DIMATFIT
 70
     3
  9
$DIMFRAC
 70
     0
  9
$DIMLDRBLK
  1

  9
$DIMLUNIT
 70
     2
  9
$DIMLWD
 70
    -2
  9
$DIMLWE
 70
    -2
  9
$DIMTMOVE
 70
     0
  9
$LUNITS
 70
     2
  9
$LUPREC
 70
     4
  9
$SKETCHINC
 40
1.0
  9
$FILLETRAD
 40
1.0
  9
$AUNITS
 70
     0
  9
$AUPREC
 70
     0
  9
$MENU
  1
.
  9
$ELEVATION
 40
0.0
  9
$PELEVATION
 40
0.0
  9
$THICKNESS
 40
0.0
  9
$LIMCHECK
 70
     0
  9
$CHAMFERA
 40
1.0
  9
$CHAMFERB
 40
1.0
  9
$CHAMFERC
 40
673.4006734006733
  9
$CHAMFERD
 40
0.0
  9
$SKPOLY
 70
     0
  9
$TDCREATE
 40
2452473.408056250
  9
$TDUCREATE
 40
2452473.033056250
  9
$TDUPDATE
 40
2455805.570441030
  9
$TDUUPDATE
 40
2455805.195441029
  9
$TDINDWG
 40
8.5770767361
  9
$TDUSRTIMER
 40
8.5770748843
  9
$USRTIMER
 70
     1
  9
$ANGBASE
 50
0.0
  9
$ANGDIR
 70
     0
  9
$PDMODE
 70
     0
  9
$PDSIZE
 40
0.0
  9
$PLINEWID
 40
0.0
  9
$SPLFRAME
 70
     0
  9
$SPLINETYPE
 70
     6
  9
$SPLINESEGS
 70
     8
  9
$HANDSEED
  5
BEA2
  9
$SURFTAB1
 70
     6
  9
$SURFTAB2
 70
     6
  9
$SURFTYPE
 70
     6
  9
$SURFU
 70
     6
  9
$SURFV
 70
     6
  9
$UCSBASE
  2

  9
$UCSNAME
  2

  9
$UCSORG
 10
0.0
 20
0.0
 30
0.0
  9
$UCSXDIR
 10
1.0
 20
0.0
 30
0.0
  9
$UCSYDIR
 10
0.0
 20
1.0
 30
0.0
  9
$UCSORTHOREF
  2

  9
$UCSORTHOVIEW
 70
     0
  9
$UCSORGTOP
 10
0.0
 20
0.0
 30
0.0
  9
$UCSORGBOTTOM
 10
0.0
 20
0.0
 30
0.0
  9
$UCSORGLEFT
 10
0.0
 20
0.0
 30
0.0
  9
$UCSORGRIGHT
 10
0.0
 20
0.0
 30
0.0
  9
$UCSORGFRONT
 10
0.0
 20
0.0
 30
0.0
  9
$UCSORGBACK
 10
0.0
 20
0.0
 30
0.0
  9
$PUCSBASE
  2

  9
$PUCSNAME
  2

  9
$PUCSORG
 10
0.0
 20
0.0
 30
0.0
  9
$PUCSXDIR
 10
1.0
 20
0.0
 30
0.0
  9
$PUCSYDIR
 10
0.0
 20
1.0
 30
0.0
  9
$PUCSORTHOREF
  2

  9
$PUCSORTHOVIEW
 70
     0
  9
$PUCSORGTOP
 10
0.0
 20
0.0
 30
0.0
  9
$PUCSORGBOTTOM
 10
0.0
 20
0.0
 30
0.0
  9
$PUCSORGLEFT
 10
0.0
 20
0.0
 30
0.0
  9
$PUCSORGRIGHT
 10
0.0
 20
0.0
 30
0.0
  9
$PUCSORGFRONT
 10
0.0
 20
0.0
 30
0.0
  9
$PUCSORGBACK
 10
0.0
 20
0.0
 30
0.0
  9
$USERI1
 70
     0
  9
$USERI2
 70
     0
  9
$USERI3
 70
     0
  9
$USERI4
 70
     0
  9
$USERI5
 70
     0
  9
$USERR1
 40
0.0
  9
$USERR2
 40
0.0
  9
$USERR3
 40
0.0
  9
$USERR4
 40
0.0
  9
$USERR5
 40
0.0
  9
$WORLDVIEW
 70
     1
  9
$SHADEDGE
 70
     3
  9
$SHADEDIF
 70
    70
  9
$TILEMODE
 70
     1
  9
$MAXACTVP
 70
    16
  9
$PINSBASE
 10
0.0
 20
0.0
 30
0.0
  9
$PLIMCHECK
 70
     0
  9
$PEXTMIN
 10
20.0
 20
11.99999999999994
 30
0.0
  9
$PEXTMAX
 10
403.2315921453389
 20
276.9999999999999
 30
0.0
  9
$PLIMMIN
 10
0.0
 20
0.0
  9
$PLIMMAX
 10
409.8899999999999
 20
282.8899999999999
  9
$UNITMODE
 70
     0
  9
$VISRETAIN
 70
     0
  9
$PLINEGEN
 70
     0
  9
$PSLTSCALE
 70
     1
  9
$TREEDEPTH
 70
  3020
  9
$CMLSTYLE
  2
STANDARD
  9
$CMLJUST
 70
     0
  9
$CMLSCALE
 40
1.0
  9
$PROXYGRAPHICS
 70
     1
  9
$MEASUREMENT
 70
     1
  9
$CELWEIGHT
370
    -1
  9
$ENDCAPS
280
     0
  9
$JOINSTYLE
280
     0
  9
$LWDISPLAY
290
     0
  9
$INSUNITS
 70
     0
  9
$HYPERLINKBASE
  1

  9
$STYLESHEET
  1

  9
$XEDIT
290
     1
  9
$CEPSNTYPE
380
     0
  9
$PSTYLEMODE
290
     1
  9
$FINGERPRINTGUID
  2
{8ACAE060-96A8-11D3-AA4A-00A0247712C1}
  9
$VERSIONGUID
  2
{04D3329C-0085-477B-A7E4-179B5034A6DD}
  9
$EXTNAMES
290
     1
  9
$PSVPSCALE
 40
0.0
  9
$OLESTARTUP
290
     0
  0
ENDSEC
  0
SECTION
  2
CLASSES
  0
CLASS
  1
LWPOLYLINE
  2
AcDbPolyline
  3
AutoCAD 2000
 90
    32768
280
     0
281
     1
  0
CLASS
  1
ACDBDICTIONARYWDFLT
  2
AcDbDictionaryWithDefault
  3
AutoCAD 2000
 90
        0
280
     0
281
     0
  0
CLASS
  1
ACDBPLACEHOLDER
  2
AcDbPlaceHolder
  3
AutoCAD 2000
 90
        0
280
     0
281
     0
  0
CLASS
  1
LAYOUT
  2
AcDbLayout
  3
AutoCAD 2000
 90
        0
280
     0
281
     0
  0
CLASS
  1
PLOTSETTINGS
  2
AcDbPlotSettings
  3
AutoCAD 2000
 90
        0
280
     0
281
     0
  0
CLASS
  1
LONG_TRANSACTION
  2
AcDbLongTransaction
  3
AutoCAD 2000
 90
    32768
280
     0
281
     0
  0
CLASS
  1
LWPOLYLINE
  2
AcDbPolyline
  3
AutoCAD 2000
 90
    32768
280
     0
281
     1
  0
CLASS
  1
HATCH
  2
AcDbHatch
  3
AutoCAD 2000
 90
    32768
280
     0
281
     1
  0
CLASS
  1
XRECORD
  2
AcDbXrecord
  3
AutoCAD 2000
 90
    32768
280
     0
281
     0
  0
CLASS
  1
LONG_TRANSACTION
  2
AcDbLongTransaction
  3
AutoCAD 2000
 90
    32768
280
     0
281
     0
  0
CLASS
  1
LWPOLYLINE
  2
AcDbPolyline
  3
AutoCAD 2000
 90
    32768
280
     0
281
     1
  0
CLASS
  1
HATCH
  2
AcDbHatch
  3
AutoCAD 2000
 90
    32768
280
     0
281
     1
  0
CLASS
  1
XRECORD
  2
AcDbXrecord
  3
AutoCAD 2000
 90
    32768
280
     0
281
     0
  0
CLASS
  1
LONG_TRANSACTION
  2
AcDbLongTransaction
  3
AutoCAD 2000
 90
    32768
280
     0
281
     0
  0
CLASS
  1
LWPOLYLINE
  2
AcDbPolyline
  3
AutoCAD 2000
 90
    32768
280
     0
281
     1
  0
CLASS
  1
HATCH
  2
AcDbHatch
  3
AutoCAD 2000
 90
    32768
280
     0
281
     1
  0
CLASS
  1
XRECORD
  2
AcDbXrecord
  3
AutoCAD 2000
 90
    32768
280
     0
281
     0
  0
CLASS
  1
DICTIONARYVAR
  2
AcDbDictionaryVar
  3
AutoCAD 2000
 90
        0
280
     0
281
     0
  0
CLASS
  1
LONG_TRANSACTION
  2
AcDbLongTransaction
  3
AutoCAD 2000
 90
    32768
280
     0
281
     0
  0
CLASS
  1
LWPOLYLINE
  2
AcDbPolyline
  3
AutoCAD 2000
 90
    32768
280
     0
281
     1
  0
CLASS
  1
HATCH
  2
AcDbHatch
  3
AutoCAD 2000
 90
    32768
280
     0
281
     1
  0
CLASS
  1
XRECORD
  2
AcDbXrecord
  3
AutoCAD 2000
 90
    32768
280
     0
281
     0
  0
CLASS
  1
LONG_TRANSACTION
  2
AcDbLongTransaction
  3
AutoCAD 2000
 90
    32768
280
     0
281
     0
  0
CLASS
  1
LWPOLYLINE
  2
AcDbPolyline
  3
AutoCAD 2000
 90
    32768
280
     0
281
     1
  0
CLASS
  1
HATCH
  2
AcDbHatch
  3
AutoCAD 2000
 90
    32768
280
     0
281
     1
  0
CLASS
  1
XRECORD
  2
AcDbXrecord
  3
AutoCAD 2000
 90
    32768
280
     0
281
     0
  0
CLASS
  1
LONG_TRANSACTION
  2
AcDbLongTransaction
  3
AutoCAD 2000
 90
    32768
280
     0
281
     0
  0
CLASS
  1
LWPOLYLINE
  2
AcDbPolyline
  3
AutoCAD 2000
 90
    32768
280
     0
281
     1
  0
CLASS
  1
HATCH
  2
AcDbHatch
  3
AutoCAD 2000
 90
    32768
280
     0
281
     1
  0
CLASS
  1
XRECORD
  2
AcDbXrecord
  3
AutoCAD 2000
 90
    32768
280
     0
281
     0
  0
CLASS
  1
LONG_TRANSACTION
  2
AcDbLongTransaction
  3
AutoCAD 2000
 90
    32768
280
     0
281
     0
  0
CLASS
  1
LWPOLYLINE
  2
AcDbPolyline
  3
AutoCAD 2000
 90
    32768
280
     0
281
     1
  0
CLASS
  1
HATCH
  2
AcDbHatch
  3
AutoCAD 2000
 90
    32768
280
     0
281
     1
  0
CLASS
  1
XRECORD
  2
AcDbXrecord
  3
AutoCAD 2000
 90
    32768
280
     0
281
     0
  0
CLASS
  1
LONG_TRANSACTION
  2
AcDbLongTransaction
  3
AutoCAD 2000
 90
    32768
280
     0
281
     0
  0
CLASS
  1
LWPOLYLINE
  2
AcDbPolyline
  3
AutoCAD 2000
 90
    32768
280
     0
281
     1
  0
CLASS
  1
HATCH
  2
AcDbHatch
  3
AutoCAD 2000
 90
    32768
280
     0
281
     1
  0
CLASS
  1
XRECORD
  2
AcDbXrecord
  3
AutoCAD 2000
 90
    32768
280
     0
281
     0
  0
CLASS
  1
LONG_TRANSACTION
  2
AcDbLongTransaction
  3
AutoCAD 2000
 90
    32768
280
     0
281
     0
  0
CLASS
  1
LWPOLYLINE
  2
AcDbPolyline
  3
AutoCAD 2000
 90
    32768
280
     0
281
     1
  0
CLASS
  1
HATCH
  2
AcDbHatch
  3
AutoCAD 2000
 90
    32768
280
     0
281
     1
  0
CLASS
  1
XRECORD
  2
AcDbXrecord
  3
AutoCAD 2000
 90
    32768
280
     0
281
     0
  0
CLASS
  1
LONG_TRANSACTION
  2
AcDbLongTransaction
  3
AutoCAD 2000
 90
    32768
280
     0
281
     0
  0
CLASS
  1
LWPOLYLINE
  2
AcDbPolyline
  3
AutoCAD 2000
 90
    32768
280
     0
281
     1
  0
CLASS
  1
HATCH
  2
AcDbHatch
  3
AutoCAD 2000
 90
    32768
280
     0
281
     1
  0
CLASS
  1
XRECORD
  2
AcDbXrecord
  3
AutoCAD 2000
 90
    32768
280
     0
281
     0
  0
CLASS
  1
LONG_TRANSACTION
  2
AcDbLongTransaction
  3
AutoCAD 2000
 90
    32768
280
     0
281
     0
  0
CLASS
  1
LWPOLYLINE
  2
AcDbPolyline
  3
AutoCAD 2000
 90
    32768
280
     0
281
     1
  0
CLASS
  1
HATCH
  2
AcDbHatch
  3
AutoCAD 2000
 90
    32768
280
     0
281
     1
  0
CLASS
  1
XRECORD
  2
AcDbXrecord
  3
AutoCAD 2000
 90
    32768
280
     0
281
     0
  0
CLASS
  1
LONG_TRANSACTION
  2
AcDbLongTransaction
  3
AutoCAD 2000
 90
    32768
280
     0
281
     0
  0
CLASS
  1
LWPOLYLINE
  2
AcDbPolyline
  3
AutoCAD 2000
 90
    32768
280
     0
281
     1
  0
CLASS
  1
HATCH
  2
AcDbHatch
  3
AutoCAD 2000
 90
    32768
280
     0
281
     1
  0
CLASS
  1
XRECORD
  2
AcDbXrecord
  3
AutoCAD 2000
 90
    32768
280
     0
281
     0
  0
CLASS
  1
LONG_TRANSACTION
  2
AcDbLongTransaction
  3
AutoCAD 2000
 90
    32768
280
     0
281
     0
  0
CLASS
  1
LWPOLYLINE
  2
AcDbPolyline
  3
AutoCAD 2000
 90
    32768
280
     0
281
     1
  0
CLASS
  1
HATCH
  2
AcDbHatch
  3
AutoCAD 2000
 90
    32768
280
     0
281
     1
  0
CLASS
  1
XRECORD
  2
AcDbXrecord
  3
AutoCAD 2000
 90
    32768
280
     0
281
     0
  0
CLASS
  1
LONG_TRANSACTION
  2
AcDbLongTransaction
  3
AutoCAD 2000
 90
    32768
280
     0
281
     0
  0
CLASS
  1
LWPOLYLINE
  2
AcDbPolyline
  3
AutoCAD 2000
 90
    32768
280
     0
281
     1
  0
CLASS
  1
HATCH
  2
AcDbHatch
  3
AutoCAD 2000
 90
    32768
280
     0
281
     1
  0
CLASS
  1
XRECORD
  2
AcDbXrecord
  3
AutoCAD 2000
 90
    32768
280
     0
281
     0
  0
CLASS
  1
LONG_TRANSACTION
  2
AcDbLongTransaction
  3
AutoCAD 2000
 90
    32768
280
     0
281
     0
  0
CLASS
  1
LWPOLYLINE
  2
AcDbPolyline
  3
AutoCAD 2000
 90
    32768
280
     0
281
     1
  0
CLASS
  1
HATCH
  2
AcDbHatch
  3
AutoCAD 2000
 90
    32768
280
     0
281
     1
  0
CLASS
  1
XRECORD
  2
AcDbXrecord
  3
AutoCAD 2000
 90
    32768
280
     0
281
     0
  0
CLASS
  1
LONG_TRANSACTION
  2
AcDbLongTransaction
  3
AutoCAD 2000
 90
    32768
280
     0
281
     0
  0
CLASS
  1
LWPOLYLINE
  2
AcDbPolyline
  3
AutoCAD 2000
 90
    32768
280
     0
281
     1
  0
CLASS
  1
HATCH
  2
AcDbHatch
  3
AutoCAD 2000
 90
    32768
280
     0
281
     1
  0
CLASS
  1
XRECORD
  2
AcDbXrecord
  3
AutoCAD 2000
 90
    32768
280
     0
281
     0
  0
CLASS
  1
LONG_TRANSACTION
  2
AcDbLongTransaction
  3
AutoCAD 2000
 90
    32768
280
     0
281
     0
  0
CLASS
  1
LWPOLYLINE
  2
AcDbPolyline
  3
AutoCAD 2000
 90
    32768
280
     0
281
     1
  0
CLASS
  1
HATCH
  2
AcDbHatch
  3
AutoCAD 2000
 90
    32768
280
     0
281
     1
  0
CLASS
  1
XRECORD
  2
AcDbXrecord
  3
AutoCAD 2000
 90
    32768
280
     0
281
     0
  0
CLASS
  1
LONG_TRANSACTION
  2
AcDbLongTransaction
  3
AutoCAD 2000
 90
    32768
280
     0
281
     0
  0
CLASS
  1
LWPOLYLINE
  2
AcDbPolyline
  3
AutoCAD 2000
 90
    32768
280
     0
281
     1
  0
CLASS
  1
HATCH
  2
AcDbHatch
  3
AutoCAD 2000
 90
    32768
280
     0
281
     1
  0
CLASS
  1
XRECORD
  2
AcDbXrecord
  3
AutoCAD 2000
 90
    32768
280
     0
281
     0
  0
CLASS
  1
LONG_TRANSACTION
  2
AcDbLongTransaction
  3
AutoCAD 2000
 90
    32768
280
     0
281
     0
  0
CLASS
  1
LWPOLYLINE
  2
AcDbPolyline
  3
AutoCAD 2000
 90
    32768
280
     0
281
     1
  0
CLASS
  1
HATCH
  2
AcDbHatch
  3
AutoCAD 2000
 90
    32768
280
     0
281
     1
  0
CLASS
  1
XRECORD
  2
AcDbXrecord
  3
AutoCAD 2000
 90
    32768
280
     0
281
     0
  0
CLASS
  1
LONG_TRANSACTION
  2
AcDbLongTransaction
  3
AutoCAD 2000
 90
    32768
280
     0
281
     0
  0
CLASS
  1
LWPOLYLINE
  2
AcDbPolyline
  3
AutoCAD 2000
 90
    32768
280
     0
281
     1
  0
CLASS
  1
HATCH
  2
AcDbHatch
  3
AutoCAD 2000
 90
    32768
280
     0
281
     1
  0
CLASS
  1
XRECORD
  2
AcDbXrecord
  3
AutoCAD 2000
 90
    32768
280
     0
281
     0
  0
CLASS
  1
LONG_TRANSACTION
  2
AcDbLongTransaction
  3
AutoCAD 2000
 90
    32768
280
     0
281
     0
  0
CLASS
  1
LWPOLYLINE
  2
AcDbPolyline
  3
AutoCAD 2000
 90
    32768
280
     0
281
     1
  0
CLASS
  1
HATCH
  2
AcDbHatch
  3
AutoCAD 2000
 90
    32768
280
     0
281
     1
  0
CLASS
  1
XRECORD
  2
AcDbXrecord
  3
AutoCAD 2000
 90
    32768
280
     0
281
     0
  0
CLASS
  1
LONG_TRANSACTION
  2
AcDbLongTransaction
  3
AutoCAD 2000
 90
    32768
280
     0
281
     0
  0
CLASS
  1
LWPOLYLINE
  2
AcDbPolyline
  3
AutoCAD 2000
 90
    32768
280
     0
281
     1
  0
CLASS
  1
HATCH
  2
AcDbHatch
  3
AutoCAD 2000
 90
    32768
280
     0
281
     1
  0
CLASS
  1
XRECORD
  2
AcDbXrecord
  3
AutoCAD 2000
 90
    32768
280
     0
281
     0
  0
CLASS
  1
LONG_TRANSACTION
  2
AcDbLongTransaction
  3
AutoCAD 2000
 90
    32768
280
     0
281
     0
  0
CLASS
  1
LWPOLYLINE
  2
AcDbPolyline
  3
AutoCAD 2000
 90
    32768
280
     0
281
     1
  0
CLASS
  1
HATCH
  2
AcDbHatch
  3
AutoCAD 2000
 90
    32768
280
     0
281
     1
  0
CLASS
  1
XRECORD
  2
AcDbXrecord
  3
AutoCAD 2000
 90
    32768
280
     0
281
     0
  0
CLASS
  1
LONG_TRANSACTION
  2
AcDbLongTransaction
  3
AutoCAD 2000
 90
    32768
280
     0
281
     0
  0
CLASS
  1
LWPOLYLINE
  2
AcDbPolyline
  3
AutoCAD 2000
 90
    32768
280
     0
281
     1
  0
CLASS
  1
HATCH
  2
AcDbHatch
  3
AutoCAD 2000
 90
    32768
280
     0
281
     1
  0
CLASS
  1
XRECORD
  2
AcDbXrecord
  3
AutoCAD 2000
 90
    32768
280
     0
281
     0
  0
CLASS
  1
LONG_TRANSACTION
  2
AcDbLongTransaction
  3
AutoCAD 2000
 90
    32768
280
     0
281
     0
  0
CLASS
  1
LWPOLYLINE
  2
AcDbPolyline
  3
AutoCAD 2000
 90
    32768
280
     0
281
     1
  0
CLASS
  1
HATCH
  2
AcDbHatch
  3
AutoCAD 2000
 90
    32768
280
     0
281
     1
  0
CLASS
  1
XRECORD
  2
AcDbXrecord
  3
AutoCAD 2000
 90
    32768
280
     0
281
     0
  0
CLASS
  1
LONG_TRANSACTION
  2
AcDbLongTransaction
  3
AutoCAD 2000
 90
    32768
280
     0
281
     0
  0
CLASS
  1
LWPOLYLINE
  2
AcDbPolyline
  3
AutoCAD 2000
 90
    32768
280
     0
281
     1
  0
CLASS
  1
HATCH
  2
AcDbHatch
  3
AutoCAD 2000
 90
    32768
280
     0
281
     1
  0
CLASS
  1
XRECORD
  2
AcDbXrecord
  3
AutoCAD 2000
 90
    32768
280
     0
281
     0
  0
CLASS
  1
LONG_TRANSACTION
  2
AcDbLongTransaction
  3
AutoCAD 2000
 90
    32768
280
     0
281
     0
  0
CLASS
  1
LWPOLYLINE
  2
AcDbPolyline
  3
AutoCAD 2000
 90
    32768
280
     0
281
     1
  0
CLASS
  1
HATCH
  2
AcDbHatch
  3
AutoCAD 2000
 90
    32768
280
     0
281
     1
  0
CLASS
  1
XRECORD
  2
AcDbXrecord
  3
AutoCAD 2000
 90
    32768
280
     0
281
     0
  0
CLASS
  1
LONG_TRANSACTION
  2
AcDbLongTransaction
  3
AutoCAD 2000
 90
    32768
280
     0
281
     0
  0
CLASS
  1
LWPOLYLINE
  2
AcDbPolyline
  3
AutoCAD 2000
 90
    32768
280
     0
281
     1
  0
CLASS
  1
HATCH
  2
AcDbHatch
  3
AutoCAD 2000
 90
    32768
280
     0
281
     1
  0
CLASS
  1
XRECORD
  2
AcDbXrecord
  3
AutoCAD 2000
 90
    32768
280
     0
281
     0
  0
CLASS
  1
LONG_TRANSACTION
  2
AcDbLongTransaction
  3
AutoCAD 2000
 90
    32768
280
     0
281
     0
  0
CLASS
  1
LWPOLYLINE
  2
AcDbPolyline
  3
AutoCAD 2000
 90
    32768
280
     0
281
     1
  0
CLASS
  1
HATCH
  2
AcDbHatch
  3
AutoCAD 2000
 90
    32768
280
     0
281
     1
  0
CLASS
  1
XRECORD
  2
AcDbXrecord
  3
AutoCAD 2000
 90
    32768
280
     0
281
     0
  0
CLASS
  1
LONG_TRANSACTION
  2
AcDbLongTransaction
  3
AutoCAD 2000
 90
    32768
280
     0
281
     0
  0
CLASS
  1
LWPOLYLINE
  2
AcDbPolyline
  3
AutoCAD 2000
 90
    32768
280
     0
281
     1
  0
CLASS
  1
HATCH
  2
AcDbHatch
  3
AutoCAD 2000
 90
    32768
280
     0
281
     1
  0
CLASS
  1
XRECORD
  2
AcDbXrecord
  3
AutoCAD 2000
 90
    32768
280
     0
281
     0
  0
CLASS
  1
LONG_TRANSACTION
  2
AcDbLongTransaction
  3
AutoCAD 2000
 90
    32768
280
     0
281
     0
  0
CLASS
  1
LWPOLYLINE
  2
AcDbPolyline
  3
AutoCAD 2000
 90
    32768
280
     0
281
     1
  0
CLASS
  1
HATCH
  2
AcDbHatch
  3
AutoCAD 2000
 90
    32768
280
     0
281
     1
  0
CLASS
  1
XRECORD
  2
AcDbXrecord
  3
AutoCAD 2000
 90
    32768
280
     0
281
     0
  0
CLASS
  1
LONG_TRANSACTION
  2
AcDbLongTransaction
  3
AutoCAD 2000
 90
    32768
280
     0
281
     0
  0
CLASS
  1
LWPOLYLINE
  2
AcDbPolyline
  3
AutoCAD 2000
 90
    32768
280
     0
281
     1
  0
CLASS
  1
HATCH
  2
AcDbHatch
  3
AutoCAD 2000
 90
    32768
280
     0
281
     1
  0
CLASS
  1
XRECORD
  2
AcDbXrecord
  3
AutoCAD 2000
 90
    32768
280
     0
281
     0
  0
CLASS
  1
LONG_TRANSACTION
  2
AcDbLongTransaction
  3
AutoCAD 2000
 90
    32768
280
     0
281
     0
  0
CLASS
  1
LWPOLYLINE
  2
AcDbPolyline
  3
AutoCAD 2000
 90
    32768
280
     0
281
     1
  0
CLASS
  1
HATCH
  2
AcDbHatch
  3
AutoCAD 2000
 90
    32768
280
     0
281
     1
  0
CLASS
  1
XRECORD
  2
AcDbXrecord
  3
AutoCAD 2000
 90
    32768
280
     0
281
     0
  0
CLASS
  1
LONG_TRANSACTION
  2
AcDbLongTransaction
  3
AutoCAD 2000
 90
    32768
280
     0
281
     0
  0
CLASS
  1
LWPOLYLINE
  2
AcDbPolyline
  3
AutoCAD 2000
 90
    32768
280
     0
281
     1
  0
CLASS
  1
HATCH
  2
AcDbHatch
  3
AutoCAD 2000
 90
    32768
280
     0
281
     1
  0
CLASS
  1
XRECORD
  2
AcDbXrecord
  3
AutoCAD 2000
 90
    32768
280
     0
281
     0
  0
CLASS
  1
LONG_TRANSACTION
  2
AcDbLongTransaction
  3
AutoCAD 2000
 90
    32768
280
     0
281
     0
  0
CLASS
  1
LWPOLYLINE
  2
AcDbPolyline
  3
AutoCAD 2000
 90
    32768
280
     0
281
     1
  0
CLASS
  1
HATCH
  2
AcDbHatch
  3
AutoCAD 2000
 90
    32768
280
     0
281
     1
  0
CLASS
  1
XRECORD
  2
AcDbXrecord
  3
AutoCAD 2000
 90
    32768
280
     0
281
     0
  0
CLASS
  1
LONG_TRANSACTION
  2
AcDbLongTransaction
  3
AutoCAD 2000
 90
    32768
280
     0
281
     0
  0
CLASS
  1
LWPOLYLINE
  2
AcDbPolyline
  3
AutoCAD 2000
 90
    32768
280
     0
281
     1
  0
CLASS
  1
HATCH
  2
AcDbHatch
  3
AutoCAD 2000
 90
    32768
280
     0
281
     1
  0
CLASS
  1
XRECORD
  2
AcDbXrecord
  3
AutoCAD 2000
 90
    32768
280
     0
281
     0
  0
CLASS
  1
LONG_TRANSACTION
  2
AcDbLongTransaction
  3
AutoCAD 2000
 90
    32768
280
     0
281
     0
  0
CLASS
  1
LWPOLYLINE
  2
AcDbPolyline
  3
AutoCAD 2000
 90
    32768
280
     0
281
     1
  0
CLASS
  1
HATCH
  2
AcDbHatch
  3
AutoCAD 2000
 90
    32768
280
     0
281
     1
  0
CLASS
  1
XRECORD
  2
AcDbXrecord
  3
AutoCAD 2000
 90
    32768
280
     0
281
     0
  0
CLASS
  1
LONG_TRANSACTION
  2
AcDbLongTransaction
  3
AutoCAD 2000
 90
    32768
280
     0
281
     0
  0
CLASS
  1
LWPOLYLINE
  2
AcDbPolyline
  3
AutoCAD 2000
 90
    32768
280
     0
281
     1
  0
CLASS
  1
HATCH
  2
AcDbHatch
  3
AutoCAD 2000
 90
    32768
280
     0
281
     1
  0
CLASS
  1
XRECORD
  2
AcDbXrecord
  3
AutoCAD 2000
 90
    32768
280
     0
281
     0
  0
CLASS
  1
LONG_TRANSACTION
  2
AcDbLongTransaction
  3
AutoCAD 2000
 90
    32768
280
     0
281
     0
  0
CLASS
  1
LWPOLYLINE
  2
AcDbPolyline
  3
AutoCAD 2000
 90
    32768
280
     0
281
     1
  0
CLASS
  1
HATCH
  2
AcDbHatch
  3
AutoCAD 2000
 90
    32768
280
     0
281
     1
  0
CLASS
  1
XRECORD
  2
AcDbXrecord
  3
AutoCAD 2000
 90
    32768
280
     0
281
     0
  0
CLASS
  1
LONG_TRANSACTION
  2
AcDbLongTransaction
  3
AutoCAD 2000
 90
    32768
280
     0
281
     0
  0
CLASS
  1
LWPOLYLINE
  2
AcDbPolyline
  3
AutoCAD 2000
 90
    32768
280
     0
281
     1
  0
CLASS
  1
HATCH
  2
AcDbHatch
  3
AutoCAD 2000
 90
    32768
280
     0
281
     1
  0
CLASS
  1
XRECORD
  2
AcDbXrecord
  3
AutoCAD 2000
 90
    32768
280
     0
281
     0
  0
CLASS
  1
LONG_TRANSACTION
  2
AcDbLongTransaction
  3
AutoCAD 2000
 90
    32768
280
     0
281
     0
  0
CLASS
  1
LWPOLYLINE
  2
AcDbPolyline
  3
AutoCAD 2000
 90
    32768
280
     0
281
     1
  0
CLASS
  1
HATCH
  2
AcDbHatch
  3
AutoCAD 2000
 90
    32768
280
     0
281
     1
  0
CLASS
  1
XRECORD
  2
AcDbXrecord
  3
AutoCAD 2000
 90
    32768
280
     0
281
     0
  0
CLASS
  1
LONG_TRANSACTION
  2
AcDbLongTransaction
  3
AutoCAD 2000
 90
    32768
280
     0
281
     0
  0
CLASS
  1
LWPOLYLINE
  2
AcDbPolyline
  3
AutoCAD 2000
 90
    32768
280
     0
281
     1
  0
CLASS
  1
HATCH
  2
AcDbHatch
  3
AutoCAD 2000
 90
    32768
280
     0
281
     1
  0
CLASS
  1
XRECORD
  2
AcDbXrecord
  3
AutoCAD 2000
 90
    32768
280
     0
281
     0
  0
CLASS
  1
LONG_TRANSACTION
  2
AcDbLongTransaction
  3
AutoCAD 2000
 90
    32768
280
     0
281
     0
  0
CLASS
  1
LWPOLYLINE
  2
AcDbPolyline
  3
AutoCAD 2000
 90
    32768
280
     0
281
     1
  0
CLASS
  1
HATCH
  2
AcDbHatch
  3
AutoCAD 2000
 90
    32768
280
     0
281
     1
  0
CLASS
  1
XRECORD
  2
AcDbXrecord
  3
AutoCAD 2000
 90
    32768
280
     0
281
     0
  0
CLASS
  1
LONG_TRANSACTION
  2
AcDbLongTransaction
  3
AutoCAD 2000
 90
    32768
280
     0
281
     0
  0
CLASS
  1
LWPOLYLINE
  2
AcDbPolyline
  3
AutoCAD 2000
 90
    32768
280
     0
281
     1
  0
CLASS
  1
HATCH
  2
AcDbHatch
  3
AutoCAD 2000
 90
    32768
280
     0
281
     1
  0
CLASS
  1
XRECORD
  2
AcDbXrecord
  3
AutoCAD 2000
 90
    32768
280
     0
281
     0
  0
CLASS
  1
LONG_TRANSACTION
  2
AcDbLongTransaction
  3
AutoCAD 2000
 90
    32768
280
     0
281
     0
  0
CLASS
  1
LWPOLYLINE
  2
AcDbPolyline
  3
AutoCAD 2000
 90
    32768
280
     0
281
     1
  0
CLASS
  1
HATCH
  2
AcDbHatch
  3
AutoCAD 2000
 90
    32768
280
     0
281
     1
  0
CLASS
  1
XRECORD
  2
AcDbXrecord
  3
AutoCAD 2000
 90
    32768
280
     0
281
     0
  0
CLASS
  1
LONG_TRANSACTION
  2
AcDbLongTransaction
  3
AutoCAD 2000
 90
    32768
280
     0
281
     0
  0
CLASS
  1
LWPOLYLINE
  2
AcDbPolyline
  3
AutoCAD 2000
 90
    32768
280
     0
281
     1
  0
CLASS
  1
HATCH
  2
AcDbHatch
  3
AutoCAD 2000
 90
    32768
280
     0
281
     1
  0
CLASS
  1
XRECORD
  2
AcDbXrecord
  3
AutoCAD 2000
 90
    32768
280
     0
281
     0
  0
CLASS
  1
LONG_TRANSACTION
  2
AcDbLongTransaction
  3
AutoCAD 2000
 90
    32768
280
     0
281
     0
  0
CLASS
  1
LWPOLYLINE
  2
AcDbPolyline
  3
AutoCAD 2000
 90
    32768
280
     0
281
     1
  0
CLASS
  1
HATCH
  2
AcDbHatch
  3
AutoCAD 2000
 90
    32768
280
     0
281
     1
  0
CLASS
  1
XRECORD
  2
AcDbXrecord
  3
AutoCAD 2000
 90
    32768
280
     0
281
     0
  0
CLASS
  1
LONG_TRANSACTION
  2
AcDbLongTransaction
  3
AutoCAD 2000
 90
    32768
280
     0
281
     0
  0
CLASS
  1
LWPOLYLINE
  2
AcDbPolyline
  3
AutoCAD 2000
 90
    32768
280
     0
281
     1
  0
CLASS
  1
HATCH
  2
AcDbHatch
  3
AutoCAD 2000
 90
    32768
280
     0
281
     1
  0
CLASS
  1
XRECORD
  2
AcDbXrecord
  3
AutoCAD 2000
 90
    32768
280
     0
281
     0
  0
CLASS
  1
LONG_TRANSACTION
  2
AcDbLongTransaction
  3
AutoCAD 2000
 90
    32768
280
     0
281
     0
  0
CLASS
  1
LWPOLYLINE
  2
AcDbPolyline
  3
AutoCAD 2000
 90
    32768
280
     0
281
     1
  0
CLASS
  1
HATCH
  2
AcDbHatch
  3
AutoCAD 2000
 90
    32768
280
     0
281
     1
  0
CLASS
  1
XRECORD
  2
AcDbXrecord
  3
AutoCAD 2000
 90
    32768
280
     0
281
     0
  0
CLASS
  1
LONG_TRANSACTION
  2
AcDbLongTransaction
  3
AutoCAD 2000
 90
    32768
280
     0
281
     0
  0
CLASS
  1
LWPOLYLINE
  2
AcDbPolyline
  3
AutoCAD 2000
 90
    32768
280
     0
281
     1
  0
CLASS
  1
HATCH
  2
AcDbHatch
  3
AutoCAD 2000
 90
    32768
280
     0
281
     1
  0
CLASS
  1
XRECORD
  2
AcDbXrecord
  3
AutoCAD 2000
 90
    32768
280
     0
281
     0
  0
CLASS
  1
LONG_TRANSACTION
  2
AcDbLongTransaction
  3
AutoCAD 2000
 90
    32768
280
     0
281
     0
  0
CLASS
  1
LWPOLYLINE
  2
AcDbPolyline
  3
AutoCAD 2000
 90
    32768
280
     0
281
     1
  0
CLASS
  1
HATCH
  2
AcDbHatch
  3
AutoCAD 2000
 90
    32768
280
     0
281
     1
  0
CLASS
  1
XRECORD
  2
AcDbXrecord
  3
AutoCAD 2000
 90
    32768
280
     0
281
     0
  0
ENDSEC
  0
SECTION
  2
TABLES
  0
TABLE
  2
VPORT
  5
8
330
0
100
AcDbSymbolTable
 70
    11
  0
VPORT
  5
BEA1
330
8
100
AcDbSymbolTableRecord
100
AcDbViewportTableRecord
  2
*Active
 70
     0
 10
0.0
 20
0.0
 11
1.0
 21
1.0
 12
9755.716171621939
 22
2889.409821976883
 13
0.0
 23
0.0
 14
168.0
 24
168.0
 15
0.0
 25
0.0
 16
0.0
 26
0.0
 36
1.0
 17
0.0
 27
0.0
 37
0.0
 40
1074.817942152618
 41
1.660818713450292
 42
50.0
 43
0.0
 44
0.0
 50
0.0
 51
0.0
 71
     0
 72
   100
 73
     1
 74
     0
 75
     0
 76
     0
 77
     0
 78
     1
281
     0
 65
     1
110
0.0
120
0.0
130
0.0
111
1.0
121
0.0
131
0.0
112
0.0
122
1.0
132
0.0
 79
     0
146
0.0
  0
ENDTAB
  0
TABLE
  2
LTYPE
  5
5
330
0
100
AcDbSymbolTable
 70
     4
  0
LTYPE
  5
14
330
5
100
AcDbSymbolTableRecord
100
AcDbLinetypeTableRecord
  2
BYBLOCK
 70
     0
  3

 72
    65
 73
     0
 40
0.0
  0
LTYPE
  5
15
330
5
100
AcDbSymbolTableRecord
100
AcDbLinetypeTableRecord
  2
BYLAYER
 70
     0
  3

 72
    65
 73
     0
 40
0.0
  0
LTYPE
  5
16
330
5
100
AcDbSymbolTableRecord
100
AcDbLinetypeTableRecord
  2
CONTINUOUS
 70
     0
  3
Solid line
 72
    65
 73
     0
 40
0.0
  0
LTYPE
  5
6E
330
5
100
AcDbSymbolTableRecord
100
AcDbLinetypeTableRecord
  2
CENTER
 70
     0
  3
____ _ ____ _ ____ _ ____ _ ____ _ ____ _ ____ 
 72
    65
 73
     4
 40
2.0
 49
1.25
 74
     0
 49
-0.25
 74
     0
 49
0.25
 74
     0
 49
-0.25
 74
     0
  0
LTYPE
  5
6F
330
5
100
AcDbSymbolTableRecord
100
AcDbLinetypeTableRecord
  2
HIDDEN
 70
     0
  3
__ __ __ __ __ __ __ __ __ __ __ __ __ __ __ __
 72
    65
 73
     2
 40
0.375
 49
0.25
 74
     0
 49
-0.125
 74
     0
  0
LTYPE
  5
910F
330
5
100
AcDbSymbolTableRecord
100
AcDbLinetypeTableRecord
  2
HIDDEN2
 70
     0
  3
Hidden (.5x) _ _ _ _ _ _ _ _ _ _ _ _ _ _ _ _ _ 
 72
    65
 73
     2
 40
4.7625
 49
3.174999999999999
 74
     4
 75
     0
340
0
 46
0.0
 50
0.0
 44
0.0
 45
0.0
 49
-1.587499999999999
 74
     4
 75
     0
340
0
 46
0.0
 50
0.0
 44
0.0
 45
0.0
  0
ENDTAB
  0
TABLE
  2
LAYER
  5
2
102
{ACAD_XDICTIONARY
360
6468
102
}
330
0
100
AcDbSymbolTable
 70
    14
  0
LAYER
  5
F
330
2
100
AcDbSymbolTableRecord
100
AcDbLayerTableRecord
  2
0
 70
     0
 62
     7
  6
CONTINUOUS
370
    -3
390
2C1
  0
LAYER
  5
71
330
2
100
AcDbSymbolTableRecord
100
AcDbLayerTableRecord
  2
MEASURE
 70
     0
 62
     9
  6
CONTINUOUS
370
    -3
390
2C1
  0
LAYER
  5
72
330
2
100
AcDbSymbolTableRecord
100
AcDbLayerTableRecord
  2
DEFPOINTS
 70
     0
 62
     7
  6
CONTINUOUS
290
     0
370
    -3
390
2C1
  0
LAYER
  5
74
330
2
100
AcDbSymbolTableRecord
100
AcDbLayerTableRecord
  2
CENTER
 70
     0
 62
     9
  6
CENTER
370
    -3
390
2C1
  0
LAYER
  5
BE6F
330
2
100
AcDbSymbolTableRecord
100
AcDbLayerTableRecord
  2
1
 70
     0
 62
     7
  6
CONTINUOUS
370
    -3
390
2C1
  0
ENDTAB
  0
TABLE
  2
STYLE
  5
3
330
0
100
AcDbSymbolTable
 70
     5
  0
STYLE
  5
10
330
3
100
AcDbSymbolTableRecord
100
AcDbTextStyleTableRecord
  2
STANDARD
 70
     0
 40
0.0
 41
0.8
 50
0.0
 71
     0
 42
84.17508417508416
  3
TXT
  4
bigfont.shx
  0
STYLE
  5
63
330
3
100
AcDbSymbolTableRecord
100
AcDbTextStyleTableRecord
  2
AD-STANDARD
 70
     0
 40
0.0
 41
0.8
 50
0.0
 71
     0
 42
3.5
  3
C:\Program Files\AutoCAD LT\romans.shx
  4
bigfont.shx
  0
ENDTAB
  0
TABLE
  2
VIEW
  5
6
330
0
100
AcDbSymbolTable
 70
     0
  0
ENDTAB
  0
TABLE
  2
UCS
  5
7
330
0
100
AcDbSymbolTable
 70
     0
  0
ENDTAB
  0
TABLE
  2
APPID
  5
9
330
0
100
AcDbSymbolTable
 70
     5
  0
APPID
  5
11
330
9
100
AcDbSymbolTableRecord
100
AcDbRegAppTableRecord
  2
ACAD
 70
     0
  0
APPID
  5
22A
330
9
100
AcDbSymbolTableRecord
100
AcDbRegAppTableRecord
  2
CONTENTTABDATA
 70
     0
  0
APPID
  5
22B
330
9
100
AcDbSymbolTableRecord
100
AcDbRegAppTableRecord
  2
CONTENTCURRENTTAB
 70
     0
  0
APPID
  5
232
330
9
100
AcDbSymbolTableRecord
100
AcDbRegAppTableRecord
  2
CONTENTBLOCKDESCRIPTION
 70
     0
  0
APPID
  5
233
330
9
100
AcDbSymbolTableRecord
100
AcDbRegAppTableRecord
  2
CONTENTBLOCKICON
 70
     0
  0
ENDTAB
  0
TABLE
  2
DIMSTYLE
  5
A
330
0
100
AcDbSymbolTable
 70
     2
100
AcDbDimStyleTable
 71
     1
340
68
  0
DIMSTYLE
105
1D
330
A
100
AcDbSymbolTableRecord
100
AcDbDimStyleTableRecord
  2
STANDARD
 70
     0
340
10
  0
DIMSTYLE
105
68
102
{ACAD_REACTORS
330
BC07
330
BC57
330
B70D
330
B624
330
B5CE
330
B5CD
330
BBD6
330
BC7F
330
BC80
330
BCCE
330
B5CF
330
B625
330
BC03
330
BC02
330
B650
330
BBEF
102
}
330
A
100
AcDbSymbolTableRecord
100
AcDbDimStyleTableRecord
  2
AD-STANDARD
 70
     0
 40
3.0
 41
2.5
 42
1.0
 44
2.0
 73
     0
 74
     0
 77
     1
 78
     8
140
3.5
141
-5.0
147
0.5
172
     1
176
     9
177
     9
178
     2
284
     8
340
63
  0
ENDTAB
  0
TABLE
  2
BLOCK_RECORD
  5
1
330
0
100
AcDbSymbolTable
 70
    28
  0
BLOCK_RECORD
  5
1A
102
{ACAD_XDICTIONARY
360
3EE
102
}
330
1
100
AcDbSymbolTableRecord
100
AcDbBlockTableRecord
  2
*MODEL_SPACE
340
2C4
  0
BLOCK_RECORD
  5
90F3
330
1
100
AcDbSymbolTableRecord
100
AcDbBlockTableRecord
  2
*Paper_Space
340
90F2
  0
BLOCK_RECORD
  5
703A
330
1
100
AcDbSymbolTableRecord
100
AcDbBlockTableRecord
  2
CBF20
340
0
102
{BLKREFS
331
BD3B
331
BD3E
102
}
  0
ENDTAB
  0
ENDSEC
  0
SECTION
  2
BLOCKS
  0
BLOCK
  5
1B
330
1A
100
AcDbEntity
  8
0
100
AcDbBlockBegin
  2
*MODEL_SPACE
 70
     0
 10
0.0
 20
0.0
 30
0.0
  3
*MODEL_SPACE
  1

  0
ENDBLK
  5
1C
330
1A
100
AcDbEntity
  8
0
100
AcDbBlockEnd
  0
BLOCK
  5
9100
330
90F3
100
AcDbEntity
 67
     1
  8
0
100
AcDbBlockBegin
  2
*Paper_Space
 70
     0
 10
0.0
 20
0.0
 30
0.0
  3
*Paper_Space
  1

  0
ENDBLK
  5
9101
330
90F3
100
AcDbEntity
 67
     1
  8
0
100
AcDbBlockEnd
  0
BLOCK
  5
7043
330
703A
100
AcDbEntity
  8
0
100
AcDbBlockBegin
  2
CBF20
 70
     0
 10
0.0
 20
0.0
 30
0.0
  3
CBF20
  1

  0
CIRCLE
  5
703B
330
703A
100
AcDbEntity
  8
0
  6
Continuous
100
AcDbCircle
 10
0.0000187875812969
 20
0.0000034482758196
 30
0.0
 40
13.26794838486186
  0
CIRCLE
  5
703C
330
703A
100
AcDbEntity
  8
0
  6
Continuous
100
AcDbCircle
 10
0.0000187875812969
 20
0.0000034482758196
 30
0.0
 40
15.0
  0
LINE
  5
703D
330
703A
100
AcDbEntity
  8
0
  6
Continuous
100
AcDbLine
 10
-9.814931212418656
 20
0.0000034482758196
 30
0.0
 11
-4.907456212418679
 21
-8.499992588598203
 31
0.0
  0
LINE
  5
703E
330
703A
100
AcDbEntity
  8
0
  6
Continuous
100
AcDbLine
 10
4.90749378758133
 20
-8.499992588598203
 30
0.0
 11
9.814968787581307
 21
0.0000034482758196
 31
0.0
  0
LINE
  5
703F
330
703A
100
AcDbEntity
  8
0
  6
Continuous
100
AcDbLine
 10
-4.907456212418679
 20
-8.499992588598203
 30
0.0
 11
4.90749378758133
 21
-8.499992588598203
 31
0.0
  0
LINE
  5
7040
330
703A
100
AcDbEntity
  8
0
  6
Continuous
100
AcDbLine
 10
4.90749378758133
 20
8.499999485149899
 30
0.0
 11
-4.907456212418679
 21
8.499999485149899
 31
0.0
  0
LINE
  5
7041
330
703A
100
AcDbEntity
  8
0
  6
Continuous
100
AcDbLine
 10
-4.907456212418679
 20
8.499999485149899
 30
0.0
 11
-9.814931212418656
 21
0.0000034482758196
 31
0.0
  0
LINE
  5
7042
330
703A
100
AcDbEntity
  8
0
  6
Continuous
100
AcDbLine
 10
9.814968787581307
 20
0.0000034482758196
 30
0.0
 11
4.90749378758133
 21
8.499999485149899
 31
0.0
  0
ENDBLK
  5
7044
330
703A
100
AcDbEntity
  8
0
100
AcDbBlockEnd
  0
ENDSEC
  0
SECTION
  2
ENTITIES
  0
MTEXT
  5
86E
330
1A
100
AcDbEntity
  8
MEASURE
 62
     2
100
AcDbMText
 10
5192.317162016323
 20
5007.035605496573
 30
0.0
 40
3.5
 41
18.7814
 71
     7
 72
     1
  1

  7
AD-STANDARD
 73
     1
 44
1.0
1001
ACAD
1000
MTEXTBEGIN
1070
    73
1070
     1
1070
    44
1040
1.0
1070
    74
1070
     0
1000
MTEXTEND
1000
MTEXTBEGIN
1070
    73
1070
     1
1070
    44
1040
1.0
1070
    74
1070
     0
1000
MTEXTEND
1000
MTEXTBEGIN
1070
    73
1070
     1
1070
    44
1040
1.0
1070
    74
1070
     0
1000
MTEXTEND
1000
MTEXTBEGIN
1070
    73
1070
     1
1070
    44
1040
1.0
1070
    74
1070
     0
1000
MTEXTEND
1000
MTEXTBEGIN
1070
    73
1070
     1
1070
    44
1040
1.0
1070
    74
1070
     0
1000
MTEXTEND
1000
MTEXTBEGIN
1070
    73
1070
     1
1070
    44
1040
1.0
1070
    74
1070
     0
1000
MTEXTEND
1000
MTEXTBEGIN
1070
    73
1070
     1
1070
    44
1040
1.0
1070
    74
1070
     0
1000
MTEXTEND
1000
MTEXTBEGIN
1070
    73
1070
     1
1070
    44
1040
1.0
1070
    74
1070
     0
1000
MTEXTEND
1000
MTEXTBEGIN
1070
    73
1070
     1
1070
    44
1040
1.0
1070
    74
1070
     0
1000
MTEXTEND
1000
MTEXTBEGIN
1070
    73
1070
     1
1070
    44
1040
1.0
1070
    74
1070
     0
1000
MTEXTEND
1000
MTEXTBEGIN
1070
    73
1070
     1
1070
    44
1040
1.0
1070
    74
1070
     0
1000
MTEXTEND
1000
MTEXTBEGIN
1070
    73
1070
     1
1070
    44
1040
1.0
1070
    74
1070
     0
1000
MTEXTEND
1000
MTEXTBEGIN
1070
    73
1070
     1
1070
    44
1040
1.0
1070
    74
1070
     0
1000
MTEXTEND
1000
MTEXTBEGIN
1070
    73
1070
     1
1070
    44
1040
1.0
1070
    74
1070
     0
1000
MTEXTEND
1000
MTEXTBEGIN
1070
    73
1070
     1
1070
    44
1040
1.0
1070
    74
1070
     0
1000
MTEXTEND
1000
MTEXTBEGIN
1070
    73
1070
     1
1070
    44
1040
1.0
1070
    74
1070
     0
1000
MTEXTEND
1000
MTEXTBEGIN
1070
    73
1070
     1
1070
    44
1040
1.0
1070
    74
1070
     0
1000
MTEXTEND
1000
MTEXTBEGIN
1070
    73
1070
     1
1070
    44
1040
1.0
1070
    74
1070
     0
1000
MTEXTEND
1000
MTEXTBEGIN
1070
    73
1070
     1
1070
    44
1040
1.0
1070
    74
1070
     0
1000
MTEXTEND
1000
MTEXTBEGIN
1070
    73
1070
     1
1070
    44
1040
1.0
1070
    74
1070
     0
1000
MTEXTEND
1000
MTEXTBEGIN
1070
    73
1070
     1
1070
    44
1040
1.0
1070
    74
1070
     0
1000
MTEXTEND
1000
MTEXTBEGIN
1070
    73
1070
     1
1070
    44
1040
1.0
1070
    74
1070
     0
1000
MTEXTEND
1000
MTEXTBEGIN
1070
    73
1070
     1
1070
    44
1040
1.0
1070
    74
1070
     0
1000
MTEXTEND
1000
MTEXTBEGIN
1070
    73
1070
     1
1070
    44
1040
1.0
1070
    74
1070
     0
1000
MTEXTEND
1000
MTEXTBEGIN
1070
    73
1070
     1
1070
    44
1040
1.0
1070
    74
1070
     0
1000
MTEXTEND
1000
MTEXTBEGIN
1070
    73
1070
     1
1070
    44
1040
1.0
1070
    74
1070
     0
1000
MTEXTEND
1000
MTEXTBEGIN
1070
    73
1070
     1
1070
    44
1040
1.0
1070
    74
1070
     0
1000
MTEXTEND
1000
MTEXTBEGIN
1070
    73
1070
     1
1070
    44
1040
1.0
1070
    74
1070
     0
1000
MTEXTEND
1000
MTEXTBEGIN
1070
    73
1070
     1
1070
    44
1040
1.0
1070
    74
1070
     0
1000
MTEXTEND
1000
MTEXTBEGIN
1070
    73
1070
     1
1070
    44
1040
1.0
1070
    74
1070
     0
1000
MTEXTEND
1000
MTEXTBEGIN
1070
    73
1070
     1
1070
    44
1040
1.0
1070
    74
1070
     0
1000
MTEXTEND
1000
MTEXTBEGIN
1070
    73
1070
     1
1070
    44
1040
1.0
1070
    74
1070
     0
1000
MTEXTEND
1000
MTEXTBEGIN
1070
    73
1070
     1
1070
    44
1040
1.0
1070
    74
1070
     0
1000
MTEXTEND
1000
MTEXTBEGIN
1070
    73
1070
     1
1070
    44
1040
1.0
1070
    74
1070
     0
1000
MTEXTEND
1000
MTEXTBEGIN
1070
    73
1070
     1
1070
    44
1040
1.0
1070
    74
1070
     0
1000
MTEXTEND
1000
MTEXTBEGIN
1070
    73
1070
     1
1070
    44
1040
1.0
1070
    74
1070
     0
1000
MTEXTEND
1000
MTEXTBEGIN
1070
    73
1070
     1
1070
    44
1040
1.0
1070
    74
1070
     0
1000
MTEXTEND
1000
MTEXTBEGIN
1070
    73
1070
     1
1070
    44
1040
1.0
1070
    74
1070
     0
1000
MTEXTEND
1000
MTEXTBEGIN
1070
    73
1070
     1
1070
    44
1040
1.0
1070
    74
1070
     0
1000
MTEXTEND
1000
MTEXTBEGIN
1070
    73
1070
     1
1070
    44
1040
1.0
1070
    74
1070
     0
1000
MTEXTEND
1000
MTEXTBEGIN
1070
    73
1070
     1
1070
    44
1040
1.0
1070
    74
1070
     0
1000
MTEXTEND
1000
MTEXTBEGIN
1070
    73
1070
     1
1070
    44
1040
1.0
1070
    74
1070
     0
1000
MTEXTEND
1000
MTEXTBEGIN
1070
    73
1070
     1
1070
    44
1040
1.0
1070
    74
1070
     0
1000
MTEXTEND
1000
MTEXTBEGIN
1070
    73
1070
     1
1070
    44
1040
1.0
1070
    74
1070
     0
1000
MTEXTEND
1000
MTEXTBEGIN
1070
    73
1070
     1
1070
    44
1040
1.0
1070
    74
1070
     0
1000
MTEXTEND
1000
MTEXTBEGIN
1070
    73
1070
     1
1070
    44
1040
1.0
1070
    74
1070
     0
1000
MTEXTEND
1000
MTEXTBEGIN
1070
    73
1070
     1
1070
    44
1040
1.0
1070
    74
1070
     0
1000
MTEXTEND
1000
MTEXTBEGIN
1070
    73
1070
     1
1070
    44
1040
1.0
1070
    74
1070
     0
1000
MTEXTEND
  0
ELLIPSE
  5
A7BB
102
{ACAD_REACTORS
330
B3B2
102
}
330
1A
100
AcDbEntity
  8
1
100
AcDbEllipse
 10
9633.872629603324
 20
3013.023037679179
 30
0.0
 11
0.0000000000000006
 21
3.449999999999988
 31
0.0
210
0.0
220
0.0
230
1.0
 40
0.5217391304348372
 41
0.0
 42
6.283185307179586
  0
ELLIPSE
  5
A7BC
102
{ACAD_REACTORS
330
B3B2
102
}
330
1A
100
AcDbEntity
  8
1
100
AcDbEllipse
 10
9601.559783860492
 20
3013.023037679179
 30
0.0
 11
0.0000000000000006
 21
3.449999999999988
 31
0.0
210
0.0
220
0.0
230
-1.0
 40
0.5217391304348372
 41
0.0
 42
6.283185307179586
  0
SPLINE
  5
A7C0
102
{ACAD_REACTORS
330
B398
102
}
330
1A
100
AcDbEntity
  8
1
  6
Continuous
100
AcDbSpline
210
0.0
220
0.0
230
1.0
 70
    12
 71
     2
 72
     8
 73
     5
 74
     0
 42
0.0000000001
 43
0.0000000001
 40
0.0
 40
0.0
 40
0.0
 40
0.5
 40
0.5
 40
1.0
 40
1.0
 40
1.0
 10
9345.781652087453
 20
3004.837992255403
 30
0.0
 41
1.0
 10
9343.123552769148
 20
3006.570043062973
 30
0.0
 41
0.7071067811866265
 10
9341.732686846775
 20
3006.570043062973
 30
0.0
 41
1.0
 10
9340.341820924402
 20
3006.570043062972
 30
0.0
 41
0.707106781186618
 10
9342.999920242711
 20
3004.837992255403
 30
0.0
 41
1.0
  0
SPLINE
  5
A7C1
102
{ACAD_REACTORS
330
B396
102
}
330
1A
100
AcDbEntity
  8
1
  6
Continuous
100
AcDbSpline
210
0.0
220
0.0
230
1.0
 70
    12
 71
     2
 72
     6
 73
     3
 74
     0
 42
0.0000000001
 43
0.0000000001
 40
0.0
 40
0.0
 40
0.0
 40
1.0
 40
1.0
 40
1.0
 10
9590.948585525589
 20
2917.025490681874
 30
0.0
 41
1.0
 10
9590.899348592897
 20
2917.023037679181
 30
0.0
 41
0.9996933276256088
 10
9590.850051196884
 20
2917.023037679181
 30
0.0
 41
1.0
  0
SPLINE
  5
A7C2
102
{ACAD_REACTORS
330
B396
102
}
330
1A
100
AcDbEntity
  8
1
  6
Continuous
100
AcDbSpline
210
0.0
220
0.0
230
1.0
 70
    12
 71
     2
 72
     6
 73
     3
 74
     0
 42
0.0000000001
 43
0.0000000001
 40
0.0
 40
0.0
 40
0.0
 40
1.0
 40
1.0
 40
1.0
 10
9644.582362266904
 20
2917.023037679181
 30
0.0
 41
1.0
 10
9644.532891633605
 20
2917.023037679181
 30
0.0
 41
0.9996911694885103
 10
9644.483482103037
 20
2917.025507941824
 30
0.0
 41
1.0
  0
LINE
  5
AB2D
330
1A
100
AcDbEntity
  8
1
100
AcDbLine
 10
9657.716206731894
 20
2950.02303767918
 30
0.0
 11
9657.716206731894
 21
2973.02303767918
 31
0.0
  0
LINE
  5
AB2E
330
1A
100
AcDbEntity
  8
1
100
AcDbLine
 10
9664.716206731892
 20
2950.02303767918
 30
0.0
 11
9664.716206731894
 21
2973.02303767918
 31
0.0
  0
LINE
  5
AB2F
330
1A
100
AcDbEntity
  8
1
100
AcDbLine
 10
9660.716206731891
 20
2950.02303767918
 30
0.0
 11
9660.716206731894
 21
2973.02303767918
 31
0.0
  0
LINE
  5
AB30
330
1A
100
AcDbEntity
  8
1
100
AcDbLine
 10
9577.716206731894
 20
2950.02303767918
 30
0.0
 11
9577.716206731894
 21
2973.02303767918
 31
0.0
  0
LINE
  5
AB31
330
1A
100
AcDbEntity
  8
1
100
AcDbLine
 10
9570.716206731892
 20
2950.02303767918
 30
0.0
 11
9570.716206731892
 21
2973.02303767918
 31
0.0
  0
LINE
  5
AB32
330
1A
100
AcDbEntity
  8
1
100
AcDbLine
 10
9574.71620673189
 20
2950.02303767918
 30
0.0
 11
9574.716206731894
 21
2973.02303767918
 31
0.0
  0
LINE
  5
AB33
330
1A
100
AcDbEntity
  8
1
100
AcDbLine
 10
9431.615335334988
 20
2927.02303767918
 30
0.0
 11
9431.615335334988
 21
2973.023037679181
 31
0.0
  0
LINE
  5
AB36
330
1A
100
AcDbEntity
  8
1
100
AcDbLine
 10
9336.615335334988
 20
2925.02303767918
 30
0.0
 11
9336.615335334986
 21
2973.023037679181
 31
0.0
  0
LINE
  5
AB37
330
1A
100
AcDbEntity
  8
1
100
AcDbLine
 10
9340.615335334987
 20
2924.523037679179
 30
0.0
 11
9340.615335334987
 21
2975.523037679181
 31
0.0
  0
LINE
  5
AB38
330
1A
100
AcDbEntity
  8
1
100
AcDbLine
 10
9337.615335334987
 20
2973.02303767918
 30
0.0
 11
9337.615335334987
 21
2927.02303767918
 31
0.0
  0
LINE
  5
AB39
330
1A
100
AcDbEntity
  8
1
100
AcDbLine
 10
9339.615335334986
 20
2975.02303767918
 30
0.0
 11
9339.615335334986
 21
2925.02303767918
 31
0.0
  0
LINE
  5
AB3A
330
1A
100
AcDbEntity
  8
1
100
AcDbLine
 10
9392.615335334985
 20
2973.02303767918
 30
0.0
 11
9392.615335334985
 21
2927.023037679179
 31
0.0
  0
LINE
  5
AB3B
330
1A
100
AcDbEntity
  8
1
100
AcDbLine
 10
9388.615335334989
 20
2924.52303767918
 30
0.0
 11
9388.615335334989
 21
2975.523037679181
 31
0.0
  0
LINE
  5
AB3C
330
1A
100
AcDbEntity
  8
1
100
AcDbLine
 10
9389.615335334989
 20
2975.02303767918
 30
0.0
 11
9389.615335334989
 21
2925.02303767918
 31
0.0
  0
LINE
  5
AB3D
330
1A
100
AcDbEntity
  8
1
100
AcDbLine
 10
9391.615335334989
 20
2973.02303767918
 30
0.0
 11
9391.615335334989
 21
2927.02303767918
 31
0.0
  0
LINE
  5
AB3E
330
1A
100
AcDbEntity
  8
1
100
AcDbLine
 10
9373.615335334987
 20
2974.523037679182
 30
0.0
 11
9373.615335334987
 21
2925.523037679179
 31
0.0
  0
LINE
  5
AB3F
330
1A
100
AcDbEntity
  8
1
100
AcDbLine
 10
9355.615335334986
 20
2974.523037679182
 30
0.0
 11
9355.615335334986
 21
2925.523037679179
 31
0.0
  0
LINE
  5
AB40
330
1A
100
AcDbEntity
  8
1
100
AcDbLine
 10
9361.615335334986
 20
2974.52303767918
 30
0.0
 11
9361.615335334986
 21
2925.523037679178
 31
0.0
  0
LINE
  5
AB41
330
1A
100
AcDbEntity
  8
1
100
AcDbLine
 10
9367.615335334987
 20
2974.52303767918
 30
0.0
 11
9367.615335334987
 21
2925.523037679178
 31
0.0
  0
LINE
  5
AB42
330
1A
100
AcDbEntity
  8
1
100
AcDbLine
 10
9358.615335334986
 20
2977.52303767918
 30
0.0
 11
9358.615335334986
 21
2922.52303767918
 31
0.0
  0
LINE
  5
AB43
330
1A
100
AcDbEntity
  8
1
100
AcDbLine
 10
9364.615335334987
 20
2977.52303767918
 30
0.0
 11
9364.615335334987
 21
2922.52303767918
 31
0.0
  0
LINE
  5
AB44
330
1A
100
AcDbEntity
  8
1
100
AcDbLine
 10
9370.615335334987
 20
2977.52303767918
 30
0.0
 11
9370.615335334987
 21
2922.52303767918
 31
0.0
  0
LINE
  5
AB45
330
1A
100
AcDbEntity
  8
1
100
AcDbLine
 10
9204.1926771856
 20
2964.536188107555
 30
0.0
 11
9204.1926771856
 21
2956.503778377591
 31
0.0
  0
LINE
  5
AB46
330
1A
100
AcDbEntity
  8
1
100
AcDbLine
 10
9191.074619199431
 20
2962.570113682152
 30
0.0
 11
9191.074619199431
 21
2956.105800209478
 31
0.0
  0
LINE
  5
AB47
330
1A
100
AcDbEntity
  8
1
100
AcDbLine
 10
9199.919918661048
 20
2962.570113682152
 30
0.0
 11
9199.91991866105
 21
2956.105800209478
 31
0.0
  0
LINE
  5
AB48
330
1A
100
AcDbEntity
  8
1
100
AcDbLine
 10
9219.615335334987
 20
2925.02303767918
 30
0.0
 11
9219.615335334987
 21
2973.02303767918
 31
0.0
  0
LINE
  5
AB49
330
1A
100
AcDbEntity
  8
1
100
AcDbLine
 10
9219.615335334987
 20
2971.523037679181
 30
0.0
 11
9219.615335334987
 21
2928.523037679179
 31
0.0
  0
LINE
  5
AB4A
330
1A
100
AcDbEntity
  8
1
100
AcDbLine
 10
9203.615326916407
 20
2970.523037679182
 30
0.0
 11
9203.615326916407
 21
2929.523037679178
 31
0.0
  0
LINE
  5
AB4B
330
1A
100
AcDbEntity
  8
1
100
AcDbLine
 10
9200.49726893024
 20
2933.523037679179
 30
0.0
 11
9200.49726893024
 21
2966.523037679179
 31
0.0
  0
LINE
  5
AB4C
330
1A
100
AcDbEntity
  8
1
100
AcDbLine
 10
9200.49726893024
 20
2968.02303767918
 30
0.0
 11
9200.49726893024
 21
2932.02303767918
 31
0.0
  0
LINE
  5
AB4D
330
1A
100
AcDbEntity
  8
1
100
AcDbLine
 10
9190.49726893024
 20
2932.023037679182
 30
0.0
 11
9190.49726893024
 21
2968.02303767918
 31
0.0
  0
LINE
  5
AB4E
330
1A
100
AcDbEntity
  8
1
100
AcDbLine
 10
9144.074619199431
 20
2962.570113682152
 30
0.0
 11
9144.074619199431
 21
2956.105800209478
 31
0.0
  0
LINE
  5
AB4F
330
1A
100
AcDbEntity
  8
1
100
AcDbLine
 10
9143.497268930239
 20
2968.02303767918
 30
0.0
 11
9143.497268930239
 21
2932.02303767918
 31
0.0
  0
LINE
  5
AB50
330
1A
100
AcDbEntity
  8
1
100
AcDbLine
 10
9143.497268930239
 20
2933.523037679179
 30
0.0
 11
9143.497268930239
 21
2966.523037679179
 31
0.0
  0
LINE
  5
AB51
330
1A
100
AcDbEntity
  8
1
100
AcDbLine
 10
9133.597268930239
 20
2936.773037679179
 30
0.0
 11
9133.597268930239
 21
2963.273037679178
 31
0.0
  0
LINE
  5
AB52
330
1A
100
AcDbEntity
  8
1
100
AcDbLine
 10
9184.519918661045
 20
2962.570113682152
 30
0.0
 11
9184.519918661049
 21
2956.105800209478
 31
0.0
  0
LINE
  5
AB53
330
1A
100
AcDbEntity
  8
1
100
AcDbLine
 10
9185.09726893024
 20
2932.023037679182
 30
0.0
 11
9185.09726893024
 21
2968.02303767918
 31
0.0
  0
LINE
  5
AB54
102
{ACAD_REACTORS
330
B397
102
}
330
1A
100
AcDbEntity
  8
1
  6
Continuous
100
AcDbLine
 10
9441.615335334986
 20
2969.02303767918
 30
0.0
 11
9441.615335334986
 21
2919.02303767918
 31
0.0
  0
LINE
  5
AB55
102
{ACAD_REACTORS
330
B397
102
}
330
1A
100
AcDbEntity
  8
1
  6
Continuous
100
AcDbLine
 10
9491.615335334987
 20
2912.013017693391
 30
0.0
 11
9491.615335334987
 21
2969.02303767918
 31
0.0
  0
LINE
  5
AB56
102
{ACAD_REACTORS
330
B396
102
}
330
1A
100
AcDbEntity
  8
1
  6
Continuous
100
AcDbLine
 10
9642.716206731895
 20
2969.02303767918
 30
0.0
 11
9642.716206731895
 21
2919.02303767918
 31
0.0
  0
LINE
  5
AB57
102
{ACAD_REACTORS
330
B396
102
}
330
1A
100
AcDbEntity
  8
1
  6
Continuous
100
AcDbLine
 10
9592.716206731894
 20
2919.02303767918
 30
0.0
 11
9592.716206731894
 21
2969.02303767918
 31
0.0
  0
LINE
  5
AB8A
330
1A
100
AcDbEntity
  8
1
100
AcDbLine
 10
9219.615335334987
 20
2925.02303767918
 30
0.0
 11
9268.645704122567
 21
2925.02303767918
 31
0.0
  0
LINE
  5
AB8B
102
{ACAD_REACTORS
330
B397
102
}
330
1A
100
AcDbEntity
  8
1
100
AcDbLine
 10
9219.615335334987
 20
2925.02303767918
 30
0.0
 11
9337.615335334987
 21
2925.02303767918
 31
0.0
  0
LINE
  5
AB8C
102
{ACAD_REACTORS
330
B397
102
}
330
1A
100
AcDbEntity
  8
1
100
AcDbLine
 10
9219.615335334987
 20
2893.02303767918
 30
0.0
 11
9491.615335334987
 21
2893.02303767918
 31
0.0
  0
LINE
  5
AC1A
330
1A
100
AcDbEntity
  8
1
100
AcDbLine
 10
9133.597268930239
 20
2953.52303767918
 30
0.0
 11
9117.262339214134
 21
2953.52303767918
 31
0.0
  0
LINE
  5
AC1B
330
1A
100
AcDbEntity
  8
1
100
AcDbLine
 10
9133.597268930239
 20
2946.52303767918
 30
0.0
 11
9117.262339214134
 21
2946.52303767918
 31
0.0
  0
LINE
  5
AC1C
330
1A
100
AcDbEntity
  8
1
100
AcDbLine
 10
9191.074619199431
 20
2956.105800209478
 30
0.0
 11
9199.91991866105
 21
2956.105800209478
 31
0.0
  0
LINE
  5
AC1D
330
1A
100
AcDbEntity
  8
1
100
AcDbLine
 10
9204.192677185599
 20
2956.503778377591
 30
0.0
 11
9219.615335334987
 21
2956.503778377591
 31
0.0
  0
ARC
  5
AC1E
330
1A
100
AcDbEntity
  8
1
100
AcDbCircle
 10
9212.997268790745
 20
2932.269516901598
 30
0.0
 40
9.381941874337083
100
AcDbArc
 50
159.7947764166068
 51
200.2052235833931
  0
LINE
  5
AC1F
330
1A
100
AcDbEntity
  8
1
100
AcDbLine
 10
9203.615326916407
 20
2929.523037679178
 30
0.0
 11
9204.192677185599
 21
2928.523037679179
 31
0.0
  0
LINE
  5
AC20
330
1A
100
AcDbEntity
  8
1
100
AcDbLine
 10
9204.1926771856
 20
2929.029146552389
 30
0.0
 11
9204.1926771856
 21
2928.523037679179
 31
0.0
  0
LINE
  5
AC21
330
1A
100
AcDbEntity
  8
1
100
AcDbLine
 10
9191.074619199431
 20
2943.940275148883
 30
0.0
 11
9199.91991866105
 21
2943.940275148883
 31
0.0
  0
LINE
  5
AC22
330
1A
100
AcDbEntity
  8
1
100
AcDbLine
 10
9191.074619199431
 20
2937.475961676211
 30
0.0
 11
9199.91991866105
 21
2937.475961676211
 31
0.0
  0
LINE
  5
AC23
330
1A
100
AcDbEntity
  8
1
100
AcDbLine
 10
9191.074619199431
 20
2931.393199145913
 30
0.0
 11
9199.91991866105
 21
2931.393199145912
 31
0.0
  0
LINE
  5
AC24
330
1A
100
AcDbEntity
  8
1
100
AcDbLine
 10
9191.074619199431
 20
2931.02303767918
 30
0.0
 11
9199.91991866105
 21
2931.02303767918
 31
0.0
  0
LINE
  5
AC25
330
1A
100
AcDbEntity
  8
1
100
AcDbLine
 10
9191.074619199431
 20
2943.940275148883
 30
0.0
 11
9191.074619199431
 21
2937.475961676211
 31
0.0
  0
LINE
  5
AC26
330
1A
100
AcDbEntity
  8
1
100
AcDbLine
 10
9191.074619199431
 20
2931.393199145912
 30
0.0
 11
9191.074619199431
 21
2931.02303767918
 31
0.0
  0
ARC
  5
AC27
330
1A
100
AcDbEntity
  8
1
100
AcDbCircle
 10
9198.796679049824
 20
2934.43458041106
 30
0.0
 40
8.299410119583795
100
AcDbArc
 50
158.5026913532012
 51
201.4973086467986
  0
LINE
  5
AC28
330
1A
100
AcDbEntity
  8
1
100
AcDbLine
 10
9190.49726893024
 20
2932.02303767918
 30
0.0
 11
9191.074619199431
 21
2931.02303767918
 31
0.0
  0
LINE
  5
AC29
330
1A
100
AcDbEntity
  8
1
100
AcDbLine
 10
9200.49726893024
 20
2932.02303767918
 30
0.0
 11
9203.615326916407
 21
2932.02303767918
 31
0.0
  0
LINE
  5
AC2A
330
1A
100
AcDbEntity
  8
1
100
AcDbLine
 10
9200.49726893024
 20
2932.02303767918
 30
0.0
 11
9199.91991866105
 21
2931.02303767918
 31
0.0
  0
ARC
  5
AC2B
330
1A
100
AcDbEntity
  8
1
100
AcDbCircle
 10
9192.197858810656
 20
2934.43458041106
 30
0.0
 40
8.299410119583795
100
AcDbArc
 50
338.5026913532012
 51
21.49730864679872
  0
LINE
  5
AC2C
330
1A
100
AcDbEntity
  8
1
100
AcDbLine
 10
9199.91991866105
 20
2931.393199145912
 30
0.0
 11
9199.91991866105
 21
2931.02303767918
 31
0.0
  0
LINE
  5
AC2D
330
1A
100
AcDbEntity
  8
1
100
AcDbLine
 10
9199.91991866105
 20
2943.940275148883
 30
0.0
 11
9199.91991866105
 21
2937.475961676211
 31
0.0
  0
LINE
  5
AC2E
330
1A
100
AcDbEntity
  8
1
100
AcDbLine
 10
9204.192677185599
 20
2943.542296980771
 30
0.0
 11
9204.1926771856
 21
2935.509887250806
 31
0.0
  0
LINE
  5
AC2F
330
1A
100
AcDbEntity
  8
1
100
AcDbLine
 10
9204.1926771856
 20
2929.029146552389
 30
0.0
 11
9219.615335334987
 21
2929.029146552393
 31
0.0
  0
LINE
  5
AC30
330
1A
100
AcDbEntity
  8
1
100
AcDbLine
 10
9204.1926771856
 20
2928.523037679178
 30
0.0
 11
9219.615335334987
 21
2928.523037679179
 31
0.0
  0
LINE
  5
AC31
330
1A
100
AcDbEntity
  8
1
100
AcDbLine
 10
9204.1926771856
 20
2943.542296980771
 30
0.0
 11
9219.615335334987
 21
2943.542296980771
 31
0.0
  0
LINE
  5
AC32
330
1A
100
AcDbEntity
  8
1
100
AcDbLine
 10
9204.1926771856
 20
2935.509887250806
 30
0.0
 11
9219.615335334987
 21
2935.509887250806
 31
0.0
  0
ARC
  5
AC33
330
1A
100
AcDbEntity
  8
1
100
AcDbCircle
 10
9168.165653855705
 20
2950.02303767918
 30
0.0
 40
32.33161507453504
100
AcDbArc
 50
349.1559374363017
 51
10.84406256369821
  0
ARC
  5
AC34
330
1A
100
AcDbEntity
  8
1
100
AcDbCircle
 10
9222.828884004774
 20
2950.02303767918
 30
0.0
 40
32.33161507453504
100
AcDbArc
 50
169.1559374363017
 51
190.8440625636982
  0
ARC
  5
AC35
330
1A
100
AcDbEntity
  8
1
100
AcDbCircle
 10
9240.277069009927
 20
2950.023037679183
 30
0.0
 40
36.66174209351981
100
AcDbArc
 50
169.8182516116605
 51
190.1817483883394
  0
LINE
  5
AC36
330
1A
100
AcDbEntity
  8
1
100
AcDbLine
 10
9184.519918661049
 20
2956.105800209478
 30
0.0
 11
9144.074619199431
 21
2956.105800209478
 31
0.0
  0
LINE
  5
AC37
330
1A
100
AcDbEntity
  8
1
100
AcDbLine
 10
9184.519918661049
 20
2943.940275148883
 30
0.0
 11
9144.074619199431
 21
2943.940275148883
 31
0.0
  0
LINE
  5
AC38
330
1A
100
AcDbEntity
  8
1
100
AcDbLine
 10
9184.519918661049
 20
2937.475961676211
 30
0.0
 11
9144.074619199431
 21
2937.475961676211
 31
0.0
  0
LINE
  5
AC39
330
1A
100
AcDbEntity
  8
1
100
AcDbLine
 10
9184.519918661049
 20
2931.393199145913
 30
0.0
 11
9144.074619199431
 21
2931.393199145912
 31
0.0
  0
LINE
  5
AC3A
330
1A
100
AcDbEntity
  8
1
100
AcDbLine
 10
9184.519918661049
 20
2931.02303767918
 30
0.0
 11
9144.074619199431
 21
2931.02303767918
 31
0.0
  0
LINE
  5
AC3B
330
1A
100
AcDbEntity
  8
1
100
AcDbLine
 10
9133.597268930239
 20
2955.641088942741
 30
0.0
 11
9143.097268930238
 21
2955.641088942741
 31
0.0
  0
LINE
  5
AC3C
330
1A
100
AcDbEntity
  8
1
100
AcDbLine
 10
9133.597268930239
 20
2936.773037679179
 30
0.0
 11
9143.497268930239
 21
2936.773037679179
 31
0.0
  0
LINE
  5
AC3D
330
1A
100
AcDbEntity
  8
1
100
AcDbLine
 10
9143.097268930238
 20
2944.404986415618
 30
0.0
 11
9133.597268930239
 21
2944.404986415618
 31
0.0
  0
LINE
  5
AC3E
330
1A
100
AcDbEntity
  8
1
100
AcDbLine
 10
9144.074619199431
 20
2943.940275148883
 30
0.0
 11
9144.074619199431
 21
2937.475961676211
 31
0.0
  0
LINE
  5
AC3F
330
1A
100
AcDbEntity
  8
1
100
AcDbLine
 10
9144.074619199431
 20
2931.393199145912
 30
0.0
 11
9144.074619199431
 21
2931.02303767918
 31
0.0
  0
ARC
  5
AC40
330
1A
100
AcDbEntity
  8
1
100
AcDbCircle
 10
9151.796679049823
 20
2934.43458041106
 30
0.0
 40
8.299410119583795
100
AcDbArc
 50
158.5026913532012
 51
201.4973086467986
  0
LINE
  5
AC41
330
1A
100
AcDbEntity
  8
1
100
AcDbLine
 10
9143.497268930239
 20
2932.02303767918
 30
0.0
 11
9144.074619199431
 21
2931.02303767918
 31
0.0
  0
LINE
  5
AC42
330
1A
100
AcDbEntity
  8
1
100
AcDbLine
 10
9143.097268930238
 20
2955.641088942741
 30
0.0
 11
9143.097268930238
 21
2944.404986415618
 31
0.0
  0
LINE
  5
AC43
330
1A
100
AcDbEntity
  8
1
 62
     9
100
AcDbLine
 10
9133.597268930239
 20
2955.641088942741
 30
0.0
 11
9143.097268930238
 21
2944.404986415618
 31
0.0
  0
LINE
  5
AC44
330
1A
100
AcDbEntity
  8
1
 62
     9
100
AcDbLine
 10
9143.097268930238
 20
2955.641088942741
 30
0.0
 11
9133.597268930239
 21
2944.404986415618
 31
0.0
  0
ARC
  5
AC45
330
1A
100
AcDbEntity
  8
1
100
AcDbCircle
 10
9175.828884004774
 20
2950.02303767918
 30
0.0
 40
32.33161507453504
100
AcDbArc
 50
169.1559374363017
 51
190.8440625636982
  0
LINE
  5
AC46
330
1A
100
AcDbEntity
  8
1
100
AcDbLine
 10
9185.097268930238
 20
2932.02303767918
 30
0.0
 11
9184.519918661049
 21
2931.02303767918
 31
0.0
  0
ARC
  5
AC47
330
1A
100
AcDbEntity
  8
1
100
AcDbCircle
 10
9176.797858810655
 20
2934.43458041106
 30
0.0
 40
8.299410119583795
100
AcDbArc
 50
338.5026913532012
 51
21.49730864679872
  0
LINE
  5
AC48
330
1A
100
AcDbEntity
  8
1
100
AcDbLine
 10
9184.519918661049
 20
2931.393199145912
 30
0.0
 11
9184.519918661049
 21
2931.02303767918
 31
0.0
  0
LINE
  5
AC49
330
1A
100
AcDbEntity
  8
1
100
AcDbLine
 10
9184.519918661049
 20
2943.940275148883
 30
0.0
 11
9184.519918661049
 21
2937.475961676211
 31
0.0
  0
ARC
  5
AC4A
330
1A
100
AcDbEntity
  8
1
100
AcDbCircle
 10
9152.765653855704
 20
2950.02303767918
 30
0.0
 40
32.33161507453504
100
AcDbArc
 50
349.1559374363017
 51
10.84406256369821
  0
LINE
  5
AC4B
330
1A
100
AcDbEntity
  8
1
100
AcDbLine
 10
9185.09726893024
 20
2933.523037679179
 30
0.0
 11
9190.49726893024
 21
2933.523037679179
 31
0.0
  0
LINE
  5
AC4C
102
{ACAD_REACTORS
330
B397
102
}
330
1A
100
AcDbEntity
  8
1
  6
Continuous
100
AcDbLine
 10
9219.615335334987
 20
2893.02303767918
 30
0.0
 11
9219.615335334987
 21
2925.02303767918
 31
0.0
  0
LINE
  5
AC4D
102
{ACAD_REACTORS
330
B397
102
}
330
1A
100
AcDbEntity
  8
1
  6
Continuous
100
AcDbLine
 10
9441.180351439989
 20
2917.023037679181
 30
0.0
 11
9465.615335334987
 21
2917.023037679181
 31
0.0
  0
CIRCLE
  5
AC4E
102
{ACAD_REACTORS
330
B397
102
}
330
1A
100
AcDbEntity
  8
1
  6
Continuous
100
AcDbCircle
 10
9451.615335334988
 20
2905.02303767918
 30
0.0
 40
7.0
  0
LINE
  5
AC4F
330
1A
100
AcDbEntity
  8
1
100
AcDbLine
 10
9355.615335334986
 20
2924.523037679179
 30
0.0
 11
9340.615335334987
 21
2924.523037679179
 31
0.0
  0
LINE
  5
AC50
102
{ACAD_REACTORS
330
B397
102
}
330
1A
100
AcDbEntity
  8
1
  6
Continuous
100
AcDbLine
 10
9301.976015109987
 20
2917.023037679181
 30
0.0
 11
9431.254655559991
 21
2917.023037679181
 31
0.0
  0
LINE
  5
AC51
330
1A
100
AcDbEntity
  8
1
100
AcDbLine
 10
9336.615335334988
 20
2929.023037679181
 30
0.0
 11
9336.615335334988
 21
2927.02303767918
 31
0.0
  0
LINE
  5
AC52
330
1A
100
AcDbEntity
  8
1
100
AcDbLine
 10
9337.615335334987
 20
2927.02303767918
 30
0.0
 11
9339.615335334986
 21
2925.02303767918
 31
0.0
  0
LINE
  5
AC53
330
1A
100
AcDbEntity
  8
1
100
AcDbLine
 10
9336.615335334988
 20
2927.02303767918
 30
0.0
 11
9337.615335334987
 21
2927.02303767918
 31
0.0
  0
LINE
  5
AC54
330
1A
100
AcDbEntity
  8
1
100
AcDbLine
 10
9339.615335334986
 20
2925.02303767918
 30
0.0
 11
9340.615335334987
 21
2925.02303767918
 31
0.0
  0
LINE
  5
AC56
330
1A
100
AcDbEntity
  8
1
100
AcDbLine
 10
9290.585004122567
 20
2925.02303767918
 30
0.0
 11
9336.615335334988
 21
2925.02303767918
 31
0.0
  0
LINE
  5
AC57
102
{ACAD_REACTORS
330
B397
102
}
330
1A
100
AcDbEntity
  8
1
  6
Continuous
100
AcDbLine
 10
9265.615335334988
 20
2917.023037679181
 30
0.0
 11
9290.050319229989
 21
2917.023037679181
 31
0.0
  0
LINE
  5
AC58
102
{ACAD_REACTORS
330
B397
102
}
330
1A
100
AcDbEntity
  8
1
  6
Continuous
100
AcDbLine
 10
9264.615335334987
 20
2916.02303767918
 30
0.0
 11
9264.615335334987
 21
2893.02303767918
 31
0.0
  0
ARC
  5
AC59
102
{ACAD_REACTORS
330
B397
102
}
330
1A
100
AcDbEntity
  8
1
  6
Continuous
100
AcDbCircle
 10
9265.615335334988
 20
2916.02303767918
 30
0.0
 40
1.0
100
AcDbArc
 50
90.0
 51
180.0
  0
CIRCLE
  5
AC5A
102
{ACAD_REACTORS
330
B397
102
}
330
1A
100
AcDbEntity
  8
1
  6
Continuous
100
AcDbCircle
 10
9279.615335334987
 20
2905.02303767918
 30
0.0
 40
7.0
  0
ARC
  5
AC5B
102
{ACAD_REACTORS
330
B397
102
}
330
1A
100
AcDbEntity
  8
1
  6
Continuous
100
AcDbCircle
 10
9259.460225017592
 20
2870.264850107236
 30
0.0
 40
46.80527302272431
100
AcDbArc
 50
92.57021834848808
 51
92.67622998104767
  0
LINE
  5
AC5C
102
{ACAD_REACTORS
330
B397
102
}
330
1A
100
AcDbEntity
  8
1
  6
Continuous
100
AcDbLine
 10
9257.361302027403
 20
2917.023037679181
 30
0.0
 11
9265.615335334988
 21
2917.023037679181
 31
0.0
  0
LINE
  5
AC5D
102
{ACAD_REACTORS
330
B397
102
}
330
1A
100
AcDbEntity
  8
1
  6
Continuous
100
AcDbLine
 10
9337.615335334987
 20
2925.02303767918
 30
0.0
 11
9337.615335334987
 21
2918.02303767918
 31
0.0
  0
ARC
  5
AC5E
102
{ACAD_REACTORS
330
B397
102
}
330
1A
100
AcDbEntity
  8
1
  6
Continuous
100
AcDbCircle
 10
9338.615335334987
 20
2918.02303767918
 30
0.0
 40
1.0
100
AcDbArc
 50
180.0
 51
270.0
  0
LINE
  5
AC5F
102
{ACAD_REACTORS
330
B397
102
}
330
1A
100
AcDbEntity
  8
1
  6
Continuous
100
AcDbLine
 10
9290.050319229989
 20
2917.023037679181
 30
0.0
 11
9301.976015109987
 21
2917.023037679181
 31
0.0
  0
LINE
  5
AC60
330
1A
100
AcDbEntity
  8
1
100
AcDbLine
 10
9388.615335334989
 20
2924.52303767918
 30
0.0
 11
9373.615335334987
 21
2924.523037679179
 31
0.0
  0
ARC
  5
AC61
330
1A
100
AcDbEntity
  8
1
100
AcDbCircle
 10
9373.615335334987
 20
2924.02303767918
 30
0.0
 40
0.5
100
AcDbArc
 50
90.0
 51
164.7547362813286
  0
LINE
  5
AC62
330
1A
100
AcDbEntity
  8
1
100
AcDbLine
 10
9389.615335334989
 20
2925.02303767918
 30
0.0
 11
9388.615335334989
 21
2925.02303767918
 31
0.0
  0
LINE
  5
AC63
330
1A
100
AcDbEntity
  8
1
100
AcDbLine
 10
9392.615335334989
 20
2927.02303767918
 30
0.0
 11
9391.615335334989
 21
2927.02303767918
 31
0.0
  0
LINE
  5
AC64
330
1A
100
AcDbEntity
  8
1
100
AcDbLine
 10
9391.615335334989
 20
2927.02303767918
 30
0.0
 11
9389.615335334989
 21
2925.02303767918
 31
0.0
  0
LINE
  5
AC65
330
1A
100
AcDbEntity
  8
1
100
AcDbLine
 10
9392.615335334989
 20
2929.023037679181
 30
0.0
 11
9392.615335334989
 21
2927.02303767918
 31
0.0
  0
ARC
  5
AC66
330
1A
100
AcDbEntity
  8
1
100
AcDbCircle
 10
9355.615335334986
 20
2924.02303767918
 30
0.0
 40
0.5
100
AcDbArc
 50
15.24526371872159
 51
90.0
  0
ARC
  5
AC67
330
1A
100
AcDbEntity
  8
1
100
AcDbCircle
 10
9361.615335334986
 20
2924.02303767918
 30
0.0
 40
0.5
100
AcDbArc
 50
15.24526371867132
 51
164.7547362813286
  0
ARC
  5
AC68
330
1A
100
AcDbEntity
  8
1
100
AcDbCircle
 10
9367.615335334987
 20
2924.02303767918
 30
0.0
 40
0.5
100
AcDbArc
 50
15.24526371872159
 51
164.7547362812783
  0
LINE
  5
AC69
330
1A
100
AcDbEntity
  8
1
100
AcDbLine
 10
9356.685717207653
 20
2921.997134757847
 30
0.0
 11
9356.09773986682
 21
2924.154513409514
 31
0.0
  0
LINE
  5
AC6A
330
1A
100
AcDbEntity
  8
1
100
AcDbLine
 10
9361.132930803155
 20
2924.154513409514
 30
0.0
 11
9360.544953462321
 21
2921.997134757847
 31
0.0
  0
LINE
  5
AC6B
330
1A
100
AcDbEntity
  8
1
100
AcDbLine
 10
9362.685717207654
 20
2921.997134757847
 30
0.0
 11
9362.09773986682
 21
2924.154513409514
 31
0.0
  0
LINE
  5
AC6C
330
1A
100
AcDbEntity
  8
1
100
AcDbLine
 10
9368.09773986682
 20
2924.154513409514
 30
0.0
 11
9368.685717207654
 21
2921.997134757847
 31
0.0
  0
LINE
  5
AC6D
330
1A
100
AcDbEntity
  8
1
100
AcDbLine
 10
9366.544953462321
 20
2921.997134757847
 30
0.0
 11
9367.132930803155
 21
2924.154513409514
 31
0.0
  0
LINE
  5
AC6E
330
1A
100
AcDbEntity
  8
1
100
AcDbLine
 10
9372.544953462321
 20
2921.997134757847
 30
0.0
 11
9373.132930803155
 21
2924.154513409514
 31
0.0
  0
ARC
  5
AC6F
330
1A
100
AcDbEntity
  8
1
100
AcDbCircle
 10
9370.615335334987
 20
2922.52303767918
 30
0.0
 40
2.0
100
AcDbArc
 50
195.2452637187216
 51
344.7547362812784
  0
ARC
  5
AC70
330
1A
100
AcDbEntity
  8
1
100
AcDbCircle
 10
9364.615335334987
 20
2922.52303767918
 30
0.0
 40
2.0
100
AcDbArc
 50
195.2452637187216
 51
344.7547362813287
  0
ARC
  5
AC71
330
1A
100
AcDbEntity
  8
1
100
AcDbCircle
 10
9358.615335334986
 20
2922.52303767918
 30
0.0
 40
2.0
100
AcDbArc
 50
195.2452637187216
 51
344.7547362812784
  0
LINE
  5
AC72
330
1A
100
AcDbEntity
  8
1
100
AcDbLine
 10
9392.615335334985
 20
2927.02303767918
 30
0.0
 11
9431.615335334988
 21
2927.02303767918
 31
0.0
  0
CIRCLE
  5
AC73
102
{ACAD_REACTORS
330
B397
102
}
330
1A
100
AcDbEntity
  8
1
  6
Continuous
100
AcDbCircle
 10
9421.615335334989
 20
2905.02303767918
 30
0.0
 40
7.0
  0
CIRCLE
  5
AC74
102
{ACAD_REACTORS
330
B397
102
}
330
1A
100
AcDbEntity
  8
1
100
AcDbCircle
 10
9421.615335334989
 20
2905.02303767918
 30
0.0
 40
2.5
  0
CIRCLE
  5
AC75
102
{ACAD_REACTORS
330
B397
102
}
330
1A
100
AcDbEntity
  8
1
100
AcDbCircle
 10
9421.615335334989
 20
2905.02303767918
 30
0.0
 40
3.0
  0
LINE
  5
AC76
102
{ACAD_REACTORS
330
B397
102
}
330
1A
100
AcDbEntity
  8
1
  6
Continuous
100
AcDbLine
 10
9431.254655559991
 20
2917.023037679181
 30
0.0
 11
9441.180351439989
 21
2917.023037679181
 31
0.0
  0
ARC
  5
AC77
102
{ACAD_REACTORS
330
B397
102
}
330
1A
100
AcDbEntity
  8
1
  6
Continuous
100
AcDbCircle
 10
9439.615335334988
 20
2919.02303767918
 30
0.0
 40
2.000000000000001
100
AcDbArc
 50
270.0
 51
0.000000000000007
  0
CIRCLE
  5
AC78
102
{ACAD_REACTORS
330
B397
102
}
330
1A
100
AcDbEntity
  8
1
  6
Continuous
100
AcDbCircle
 10
9355.615335334986
 20
2905.02303767918
 30
0.0
 40
7.0
  0
CIRCLE
  5
AC79
102
{ACAD_REACTORS
330
B397
102
}
330
1A
100
AcDbEntity
  8
1
100
AcDbCircle
 10
9355.615335334986
 20
2905.02303767918
 30
0.0
 40
3.0
  0
CIRCLE
  5
AC7A
102
{ACAD_REACTORS
330
B397
102
}
330
1A
100
AcDbEntity
  8
1
100
AcDbCircle
 10
9355.615335334986
 20
2905.02303767918
 30
0.0
 40
2.5
  0
ARC
  5
AC7B
330
1A
100
AcDbEntity
  8
1
100
AcDbCircle
 10
9577.216206731893
 20
2927.023037679181
 30
0.0
 40
6.5
100
AcDbArc
 50
180.0
 51
270.0
  0
ARC
  5
AC7C
330
1A
100
AcDbEntity
  8
1
100
AcDbCircle
 10
9577.216206731893
 20
2927.023037679181
 30
0.0
 40
2.5
100
AcDbArc
 50
180.0
 51
270.0
  0
LINE
  5
AC7D
102
{ACAD_REACTORS
330
B396
102
}
330
1A
100
AcDbEntity
  8
1
  6
Continuous
100
AcDbLine
 10
9580.635214296416
 20
2917.023037679181
 30
0.0
 11
9572.716206731895
 21
2917.023037679181
 31
0.0
  0
LINE
  5
AC7E
102
{ACAD_REACTORS
330
B396
102
}
330
1A
100
AcDbEntity
  8
1
100
AcDbLine
 10
9677.716206731895
 20
2893.02303767918
 30
0.0
 11
9557.716206731894
 21
2893.02303767918
 31
0.0
  0
LINE
  5
AC7F
330
1A
100
AcDbEntity
  8
1
100
AcDbLine
 10
9574.71620673189
 20
2950.02303767918
 30
0.0
 11
9574.716206731894
 21
2927.023037679181
 31
0.0
  0
LINE
  5
AC80
330
1A
100
AcDbEntity
  8
1
100
AcDbLine
 10
9570.716206731892
 20
2950.02303767918
 30
0.0
 11
9570.716206731892
 21
2927.023037679181
 31
0.0
  0
LINE
  5
AC81
102
{ACAD_REACTORS
330
B397
102
}
330
1A
100
AcDbEntity
  8
1
  6
Continuous
100
AcDbLine
 10
9465.615335334987
 20
2917.023037679181
 30
0.0
 11
9469.300421324049
 21
2917.023037679181
 31
0.0
  0
LINE
  5
AC82
102
{ACAD_REACTORS
330
B397
102
}
330
1A
100
AcDbEntity
  8
1
  6
Continuous
100
AcDbLine
 10
9466.615335334987
 20
2916.02303767918
 30
0.0
 11
9466.615335334987
 21
2893.02303767918
 31
0.0
  0
ARC
  5
AC83
102
{ACAD_REACTORS
330
B397
102
}
330
1A
100
AcDbEntity
  8
1
  6
Continuous
100
AcDbCircle
 10
9465.615335334987
 20
2916.02303767918
 30
0.0
 40
1.0
100
AcDbArc
 50
0.000000000000007
 51
90.0
  0
ARC
  5
AC84
102
{ACAD_REACTORS
330
B397
102
}
330
1A
100
AcDbEntity
  8
1
  6
Continuous
100
AcDbCircle
 10
9466.193903253421
 20
2873.36322417637
 30
0.0
 40
43.77019270717577
100
AcDbArc
 50
85.83905412883424
 51
85.93010374024686
  0
ARC
  5
AC85
102
{ACAD_REACTORS
330
B397
102
}
330
1A
100
AcDbEntity
  8
1
  6
Continuous
100
AcDbCircle
 10
9515.638481979882
 20
2905.023037666728
 30
0.0
 40
25.0222216149516
100
AcDbArc
 50
163.7546370856594
 51
196.2453643751065
  0
LINE
  5
AC86
102
{ACAD_REACTORS
330
B397
102
}
330
1A
100
AcDbEntity
  8
1
  6
Continuous
100
AcDbLine
 10
9491.615335334987
 20
2893.02303767918
 30
0.0
 11
9491.615335334987
 21
2898.02303767918
 31
0.0
  0
LINE
  5
AC87
102
{ACAD_REACTORS
330
B397
102
}
330
1A
100
AcDbEntity
  8
1
  6
Continuous
100
AcDbLine
 10
9493.615335334988
 20
2912.02303767918
 30
0.0
 11
9491.615335334987
 21
2912.02303767918
 31
0.0
  0
LINE
  5
AC88
102
{ACAD_REACTORS
330
B397
102
}
330
1A
100
AcDbEntity
  8
1
  6
Continuous
100
AcDbLine
 10
9491.615335334987
 20
2898.02303767918
 30
0.0
 11
9493.615335334988
 21
2898.02303767918
 31
0.0
  0
LINE
  5
AC89
102
{ACAD_REACTORS
330
B397
102
}
330
1A
100
AcDbEntity
  8
1
100
AcDbLine
 10
9493.615335334988
 20
2912.02303767918
 30
0.0
 11
9493.615335334988
 21
2898.02303767918
 31
0.0
  0
ARC
  5
AC8A
102
{ACAD_REACTORS
330
B396
102
}
330
1A
100
AcDbEntity
  8
1
  6
Continuous
100
AcDbCircle
 10
9558.716206731896
 20
2916.02303767918
 30
0.0
 40
1.0
100
AcDbArc
 50
90.0
 51
180.0
  0
LINE
  5
AC8B
102
{ACAD_REACTORS
330
B396
102
}
330
1A
100
AcDbEntity
  8
1
  6
Continuous
100
AcDbLine
 10
9557.71896283651
 20
2898.02303767918
 30
0.0
 11
9555.716206731895
 21
2898.02303767918
 31
0.0
  0
LINE
  5
AC8C
102
{ACAD_REACTORS
330
B396
102
}
330
1A
100
AcDbEntity
  8
1
  6
Continuous
100
AcDbLine
 10
9555.716206731895
 20
2912.02303767918
 30
0.0
 11
9557.716206731894
 21
2912.02303767918
 31
0.0
  0
LINE
  5
AC8D
102
{ACAD_REACTORS
330
B396
102
}
330
1A
100
AcDbEntity
  8
1
  6
Continuous
100
AcDbLine
 10
9557.716206731894
 20
2893.02303767918
 30
0.0
 11
9557.716206731894
 21
2898.02892627153
 31
0.0
  0
LINE
  5
AC8E
102
{ACAD_REACTORS
330
B396
102
}
330
1A
100
AcDbEntity
  8
1
  6
Continuous
100
AcDbLine
 10
9557.716206731894
 20
2912.02303767918
 30
0.0
 11
9557.716206731894
 21
2916.02303767918
 31
0.0
  0
ARC
  5
AC8F
102
{ACAD_REACTORS
330
B396
102
}
330
1A
100
AcDbEntity
  8
1
  6
Continuous
100
AcDbCircle
 10
9544.426401402811
 20
2905.023037507781
 30
0.0
 40
15.02061676778106
100
AcDbArc
 50
332.2233501015002
 51
27.77665281317911
  0
LINE
  5
AC90
102
{ACAD_REACTORS
330
B396
102
}
330
1A
100
AcDbEntity
  8
1
100
AcDbLine
 10
9555.716206731895
 20
2912.02303767918
 30
0.0
 11
9555.716206731895
 21
2898.02303767918
 31
0.0
  0
LINE
  5
AC91
102
{ACAD_REACTORS
330
B396
102
}
330
1A
100
AcDbEntity
  8
1
  6
Continuous
100
AcDbLine
 10
9572.716206731895
 20
2917.023037679181
 30
0.0
 11
9558.716206731896
 21
2917.023037679181
 31
0.0
  0
LINE
  5
AC92
330
1A
100
AcDbEntity
  8
1
100
AcDbLine
 10
9642.716206731895
 20
2924.523037679181
 30
0.0
 11
9658.216206731893
 21
2924.523037679181
 31
0.0
  0
LINE
  5
AC93
330
1A
100
AcDbEntity
  8
1
100
AcDbLine
 10
9642.716206731895
 20
2920.523037679181
 30
0.0
 11
9658.216206731893
 21
2920.523037679181
 31
0.0
  0
LINE
  5
AC94
330
1A
100
AcDbEntity
  8
1
100
AcDbLine
 10
9577.216206731893
 20
2924.523037679181
 30
0.0
 11
9592.716206731894
 21
2924.523037679181
 31
0.0
  0
LINE
  5
AC95
330
1A
100
AcDbEntity
  8
1
100
AcDbLine
 10
9577.216206731893
 20
2920.523037679181
 30
0.0
 11
9592.716206731894
 21
2920.523037679181
 31
0.0
  0
LINE
  5
AC96
330
1A
100
AcDbEntity
  8
1
100
AcDbLine
 10
9657.716206731894
 20
2950.02303767918
 30
0.0
 11
9657.716206731894
 21
2927.023037679181
 31
0.0
  0
LINE
  5
AC97
330
1A
100
AcDbEntity
  8
1
100
AcDbLine
 10
9660.716206731891
 20
2950.02303767918
 30
0.0
 11
9660.716206731894
 21
2927.023037679181
 31
0.0
  0
LINE
  5
AC98
330
1A
100
AcDbEntity
  8
1
100
AcDbLine
 10
9664.716206731892
 20
2950.02303767918
 30
0.0
 11
9664.716206731894
 21
2927.023037679181
 31
0.0
  0
LINE
  5
AC99
330
1A
100
AcDbEntity
  8
1
100
AcDbLine
 10
9577.716206731894
 20
2950.02303767918
 30
0.0
 11
9577.716206731894
 21
2927.023037679181
 31
0.0
  0
ARC
  5
AC9A
330
1A
100
AcDbEntity
  8
1
100
AcDbCircle
 10
9658.216206731893
 20
2927.023037679181
 30
0.0
 40
6.5
100
AcDbArc
 50
270.0
 51
0.0
  0
ARC
  5
AC9B
330
1A
100
AcDbEntity
  8
1
100
AcDbCircle
 10
9655.216206731893
 20
2927.023037679181
 30
0.0
 40
2.5
100
AcDbArc
 50
270.0
 51
0.0
  0
ARC
  5
AC9C
330
1A
100
AcDbEntity
  8
1
100
AcDbCircle
 10
9658.216206731893
 20
2927.023037679181
 30
0.0
 40
2.5
100
AcDbArc
 50
270.0
 51
0.0
  0
ARC
  5
AC9D
330
1A
100
AcDbEntity
  8
1
100
AcDbCircle
 10
9580.216206731893
 20
2927.023037679181
 30
0.0
 40
2.5
100
AcDbArc
 50
180.0
 51
270.0
  0
LINE
  5
AC9E
330
1A
100
AcDbEntity
  8
1
100
AcDbLine
 10
9642.716206731895
 20
2924.523037679179
 30
0.0
 11
9651.746556731897
 21
2924.523037679179
 31
0.0
  0
LINE
  5
AC9F
330
1A
100
AcDbEntity
  8
1
100
AcDbLine
 10
9583.685856731895
 20
2924.523037679179
 30
0.0
 11
9592.716206731894
 21
2924.523037679179
 31
0.0
  0
LINE
  5
ACA0
330
1A
100
AcDbEntity
  8
1
100
AcDbLine
 10
9642.716206731895
 20
2920.523037679179
 30
0.0
 11
9648.716206731895
 21
2920.523037679179
 31
0.0
  0
LINE
  5
ACA1
330
1A
100
AcDbEntity
  8
1
100
AcDbLine
 10
9586.716206731896
 20
2920.523037679179
 30
0.0
 11
9592.716206731894
 21
2920.523037679179
 31
0.0
  0
LINE
  5
ACA2
102
{ACAD_REACTORS
330
B396
102
}
330
1A
100
AcDbEntity
  8
1
  6
Continuous
100
AcDbLine
 10
9662.716206731895
 20
2917.023037679181
 30
0.0
 11
9654.797199167372
 21
2917.023037679181
 31
0.0
  0
ARC
  5
ACA3
102
{ACAD_REACTORS
330
B396
102
}
330
1A
100
AcDbEntity
  8
1
  6
Continuous
100
AcDbCircle
 10
9676.716206731896
 20
2916.02303767918
 30
0.0
 40
1.0
100
AcDbArc
 50
0.0
 51
90.0
  0
LINE
  5
ACA4
102
{ACAD_REACTORS
330
B396
102
}
330
1A
100
AcDbEntity
  8
1
  6
Continuous
100
AcDbLine
 10
9677.713450627276
 20
2912.02303767918
 30
0.0
 11
9679.716206731896
 21
2912.02303767918
 31
0.0
  0
LINE
  5
ACA5
102
{ACAD_REACTORS
330
B396
102
}
330
1A
100
AcDbEntity
  8
1
  6
Continuous
100
AcDbLine
 10
9679.716206731896
 20
2898.02303767918
 30
0.0
 11
9677.716206731895
 21
2898.02303767918
 31
0.0
  0
LINE
  5
ACA6
102
{ACAD_REACTORS
330
B396
102
}
330
1A
100
AcDbEntity
  8
1
  6
Continuous
100
AcDbLine
 10
9677.716206731895
 20
2916.02303767918
 30
0.0
 11
9677.716206731895
 21
2912.017149086828
 31
0.0
  0
LINE
  5
ACA7
102
{ACAD_REACTORS
330
B396
102
}
330
1A
100
AcDbEntity
  8
1
  6
Continuous
100
AcDbLine
 10
9677.716206731895
 20
2898.02303767918
 30
0.0
 11
9677.716206731895
 21
2893.02303767918
 31
0.0
  0
LINE
  5
ACA8
102
{ACAD_REACTORS
330
B396
102
}
330
1A
100
AcDbEntity
  8
1
  6
Continuous
100
AcDbLine
 10
9676.716206731896
 20
2917.023037679181
 30
0.0
 11
9662.716206731895
 21
2917.023037679181
 31
0.0
  0
ARC
  5
ACA9
102
{ACAD_REACTORS
330
B396
102
}
330
1A
100
AcDbEntity
  8
1
  6
Continuous
100
AcDbCircle
 10
9691.006012060979
 20
2905.02303785058
 30
0.0
 40
15.02061676778111
100
AcDbArc
 50
152.2233501015002
 51
207.7766528131791
  0
LINE
  5
ACAA
102
{ACAD_REACTORS
330
B396
102
}
330
1A
100
AcDbEntity
  8
1
100
AcDbLine
 10
9679.716206731896
 20
2912.02303767918
 30
0.0
 11
9679.716206731896
 21
2898.02303767918
 31
0.0
  0
ARC
  5
ACAB
102
{ACAD_REACTORS
330
B396
102
}
330
1A
100
AcDbEntity
  8
1
  6
Continuous
100
AcDbCircle
 10
9644.716206731896
 20
2919.02303767918
 30
0.0
 40
2.000000000000001
100
AcDbArc
 50
180.0
 51
270.0
  0
ARC
  5
ACAC
102
{ACAD_REACTORS
330
B396
102
}
330
1A
100
AcDbEntity
  8
1
  6
Continuous
100
AcDbCircle
 10
9645.50520037973
 20
2906.307245818792
 30
0.0
 40
10.75545560995094
100
AcDbArc
 50
94.92213661327696
 51
95.1330787479206
  0
LINE
  5
ACAD
102
{ACAD_REACTORS
330
B396
102
}
330
1A
100
AcDbEntity
  8
1
  6
Continuous
100
AcDbLine
 10
9642.716206731895
 20
2925.02303767918
 30
0.0
 11
9642.716206731895
 21
2919.02303767918
 31
0.0
  0
ARC
  5
ACAE
102
{ACAD_REACTORS
330
B396
102
}
330
1A
100
AcDbEntity
  8
1
  6
Continuous
100
AcDbCircle
 10
9590.716206731896
 20
2919.02303767918
 30
0.0
 40
2.000000000000001
100
AcDbArc
 50
270.0
 51
0.0
  0
LINE
  5
ACAF
102
{ACAD_REACTORS
330
B396
102
}
330
1A
100
AcDbEntity
  8
1
  6
Continuous
100
AcDbLine
 10
9592.716206731894
 20
2925.02303767918
 30
0.0
 11
9592.716206731894
 21
2919.02303767918
 31
0.0
  0
CIRCLE
  5
ACB0
102
{ACAD_REACTORS
330
B396
102
}
330
1A
100
AcDbEntity
  8
1
  6
Continuous
100
AcDbCircle
 10
9617.716206731895
 20
2905.02303767918
 30
0.0
 40
7.0
  0
CIRCLE
  5
ACB1
102
{ACAD_REACTORS
330
B396
102
}
330
1A
100
AcDbEntity
  8
1
100
AcDbCircle
 10
9617.716206731895
 20
2905.02303767918
 30
0.0
 40
3.0
  0
CIRCLE
  5
ACB2
102
{ACAD_REACTORS
330
B396
102
}
330
1A
100
AcDbEntity
  8
1
100
AcDbCircle
 10
9617.716206731895
 20
2905.02303767918
 30
0.0
 40
2.5
  0
LINE
  5
ACB3
102
{ACAD_REACTORS
330
B396
102
}
330
1A
100
AcDbEntity
  8
1
  6
Continuous
100
AcDbLine
 10
9590.850051196884
 20
2917.023037679181
 30
0.0
 11
9580.635214296416
 21
2917.023037679181
 31
0.0
  0
LINE
  5
ACB4
102
{ACAD_REACTORS
330
B396
102
}
330
1A
100
AcDbEntity
  8
1
  6
Continuous
100
AcDbLine
 10
9654.797199167372
 20
2917.023037679181
 30
0.0
 11
9644.582362266904
 21
2917.023037679181
 31
0.0
  0
LINE
  5
ADA0
330
1A
100
AcDbEntity
  8
1
100
AcDbLine
 10
9219.615335334987
 20
2973.02303767918
 30
0.0
 11
9336.615335334986
 21
2973.023037679181
 31
0.0
  0
LINE
  5
ADA1
330
1A
100
AcDbEntity
  8
1
100
AcDbLine
 10
9219.615335334987
 20
3188.207556753738
 30
0.0
 11
9336.615335334988
 21
3188.207556753738
 31
0.0
  0
LINE
  5
ADA2
330
1A
100
AcDbEntity
  8
1
100
AcDbLine
 10
9219.615335334987
 20
3236.207556753737
 30
0.0
 11
9336.615335334988
 21
3236.207556753737
 31
0.0
  0
LINE
  5
ADA4
330
1A
100
AcDbEntity
  8
1
  6
Continuous
100
AcDbLine
 10
9336.615335334988
 20
3187.207560202013
 30
0.0
 11
9220.615335334988
 21
3187.207560202013
 31
0.0
  0
LINE
  5
ADA5
330
1A
100
AcDbEntity
  8
1
  6
Continuous
100
AcDbLine
 10
9220.615335334988
 20
3237.207560202013
 30
0.0
 11
9336.615335334988
 21
3237.207560202013
 31
0.0
  0
ARC
  5
AF42
330
1A
100
AcDbEntity
  8
1
100
AcDbCircle
 10
9192.19785881066
 20
2965.611494947301
 30
0.0
 40
8.299410119579745
100
AcDbArc
 50
338.5026913532012
 51
21.49730864679872
  0
ARC
  5
AF43
330
1A
100
AcDbEntity
  8
1
100
AcDbCircle
 10
9198.796679049818
 20
2965.611494947301
 30
0.0
 40
8.299410119579745
100
AcDbArc
 50
158.5026913532012
 51
201.4973086467986
  0
LINE
  5
AF44
330
1A
100
AcDbEntity
  8
1
100
AcDbLine
 10
9191.074619199431
 20
2962.570113682152
 30
0.0
 11
9199.919918661048
 21
2962.570113682152
 31
0.0
  0
LINE
  5
AF45
330
1A
100
AcDbEntity
  8
1
100
AcDbLine
 10
9191.074619199431
 20
2969.02303767918
 30
0.0
 11
9199.91991866105
 21
2969.02303767918
 31
0.0
  0
LINE
  5
AF46
330
1A
100
AcDbEntity
  8
1
100
AcDbLine
 10
9191.074619199431
 20
2968.652876212448
 30
0.0
 11
9199.91991866105
 21
2968.652876212448
 31
0.0
  0
LINE
  5
AF47
330
1A
100
AcDbEntity
  8
1
100
AcDbLine
 10
9191.074619199431
 20
2969.02303767918
 30
0.0
 11
9191.074619199431
 21
2968.652876212448
 31
0.0
  0
LINE
  5
AF48
330
1A
100
AcDbEntity
  8
1
100
AcDbLine
 10
9190.49726893024
 20
2968.02303767918
 30
0.0
 11
9191.074619199431
 21
2969.02303767918
 31
0.0
  0
LINE
  5
AF49
330
1A
100
AcDbEntity
  8
1
100
AcDbLine
 10
9200.49726893024
 20
2968.02303767918
 30
0.0
 11
9203.615326916407
 21
2968.02303767918
 31
0.0
  0
LINE
  5
AF4A
330
1A
100
AcDbEntity
  8
1
100
AcDbLine
 10
9200.49726893024
 20
2968.02303767918
 30
0.0
 11
9199.91991866105
 21
2969.02303767918
 31
0.0
  0
LINE
  5
AF4B
330
1A
100
AcDbEntity
  8
1
100
AcDbLine
 10
9199.91991866105
 20
2969.02303767918
 30
0.0
 11
9199.91991866105
 21
2968.652876212448
 31
0.0
  0
LINE
  5
AF4C
330
1A
100
AcDbEntity
  8
1
100
AcDbLine
 10
9203.615326916407
 20
2970.523037679182
 30
0.0
 11
9204.192677185599
 21
2971.523037679181
 31
0.0
  0
LINE
  5
AF4D
330
1A
100
AcDbEntity
  8
1
100
AcDbLine
 10
9204.192677185599
 20
2971.523037679181
 30
0.0
 11
9204.192677185599
 21
2971.016928805967
 31
0.0
  0
ARC
  5
AF4E
330
1A
100
AcDbEntity
  8
1
100
AcDbCircle
 10
9212.997268790745
 20
2967.776558456762
 30
0.0
 40
9.381941874337083
100
AcDbArc
 50
159.7947764166068
 51
200.2052235833931
  0
LINE
  5
AF4F
330
1A
100
AcDbEntity
  8
1
100
AcDbLine
 10
9204.192677185599
 20
2971.523037679181
 30
0.0
 11
9219.615335334987
 21
2971.523037679181
 31
0.0
  0
LINE
  5
AF50
330
1A
100
AcDbEntity
  8
1
100
AcDbLine
 10
9204.192677185599
 20
2971.016928805967
 30
0.0
 11
9219.615335334987
 21
2971.016928805967
 31
0.0
  0
LINE
  5
AF51
330
1A
100
AcDbEntity
  8
1
100
AcDbLine
 10
9204.192677185599
 20
2964.536188107555
 30
0.0
 11
9219.615335334987
 21
2964.536188107555
 31
0.0
  0
LINE
  5
AF52
330
1A
100
AcDbEntity
  8
1
100
AcDbLine
 10
9184.519918661049
 20
2962.570113682152
 30
0.0
 11
9144.074619199431
 21
2962.570113682152
 31
0.0
  0
LINE
  5
AF53
330
1A
100
AcDbEntity
  8
1
100
AcDbLine
 10
9184.519918661051
 20
2968.652876212448
 30
0.0
 11
9144.074619199431
 21
2968.652876212448
 31
0.0
  0
LINE
  5
AF54
330
1A
100
AcDbEntity
  8
1
100
AcDbLine
 10
9184.519918661049
 20
2969.02303767918
 30
0.0
 11
9144.074619199431
 21
2969.02303767918
 31
0.0
  0
ARC
  5
AF55
330
1A
100
AcDbEntity
  8
1
100
AcDbCircle
 10
9151.796679049819
 20
2965.611494947301
 30
0.0
 40
8.299410119579745
100
AcDbArc
 50
158.5026913532012
 51
201.4973086467986
  0
LINE
  5
AF56
330
1A
100
AcDbEntity
  8
1
100
AcDbLine
 10
9133.597268930239
 20
2963.273037679179
 30
0.0
 11
9143.497268930239
 21
2963.273037679179
 31
0.0
  0
LINE
  5
AF57
330
1A
100
AcDbEntity
  8
1
100
AcDbLine
 10
9144.074619199431
 20
2969.02303767918
 30
0.0
 11
9144.074619199431
 21
2968.652876212448
 31
0.0
  0
LINE
  5
AF58
330
1A
100
AcDbEntity
  8
1
100
AcDbLine
 10
9143.497268930239
 20
2968.02303767918
 30
0.0
 11
9144.074619199431
 21
2969.02303767918
 31
0.0
  0
ARC
  5
AF59
330
1A
100
AcDbEntity
  8
1
100
AcDbCircle
 10
9176.797858810658
 20
2965.611494947301
 30
0.0
 40
8.299410119579745
100
AcDbArc
 50
338.5026913532012
 51
21.49730864679872
  0
LINE
  5
AF5A
330
1A
100
AcDbEntity
  8
1
100
AcDbLine
 10
9185.097268930238
 20
2968.02303767918
 30
0.0
 11
9184.519918661049
 21
2969.02303767918
 31
0.0
  0
LINE
  5
AF5B
330
1A
100
AcDbEntity
  8
1
100
AcDbLine
 10
9184.519918661049
 20
2969.02303767918
 30
0.0
 11
9184.519918661049
 21
2968.652876212448
 31
0.0
  0
LINE
  5
AF5C
330
1A
100
AcDbEntity
  8
1
100
AcDbLine
 10
9185.09726893024
 20
2966.523037679179
 30
0.0
 11
9190.49726893024
 21
2966.523037679179
 31
0.0
  0
LINE
  5
AF69
330
1A
100
AcDbEntity
  8
1
100
AcDbLine
 10
9133.597268930239
 20
3215.707556753737
 30
0.0
 11
9117.262339214134
 21
3215.707556753737
 31
0.0
  0
LINE
  5
AF6A
330
1A
100
AcDbEntity
  8
1
100
AcDbLine
 10
9133.597268930239
 20
3208.707556753737
 30
0.0
 11
9117.262339214134
 21
3208.707556753737
 31
0.0
  0
ARC
  5
AF6B
330
1A
100
AcDbEntity
  8
1
100
AcDbCircle
 10
9231.183802270123
 20
3201.957556753738
 30
0.0
 40
27.56847535371717
100
AcDbArc
 50
168.2534102772861
 51
191.7465897227137
  0
ARC
  5
AF6C
330
1A
100
AcDbEntity
  8
1
100
AcDbCircle
 10
9176.176388840662
 20
3203.207556753737
 30
0.0
 40
24.32088008957829
100
AcDbArc
 50
347.4907700644507
 51
12.50922993554927
  0
ARC
  5
AF6D
330
1A
100
AcDbEntity
  8
1
100
AcDbCircle
 10
9160.77638884081
 20
3203.207556753737
 30
0.0
 40
24.32088008942982
100
AcDbArc
 50
347.4907700643999
 51
12.50922993560014
  0
ARC
  5
AF6E
330
1A
100
AcDbEntity
  8
1
100
AcDbCircle
 10
9214.818149019668
 20
3203.207556753737
 30
0.0
 40
24.32088008942982
100
AcDbArc
 50
167.4907700643998
 51
192.5092299356001
  0
LINE
  5
AF6F
330
1A
100
AcDbEntity
  8
1
100
AcDbLine
 10
9185.097268930238
 20
3194.207556753736
 30
0.0
 11
9185.097268930238
 21
3230.207556753738
 31
0.0
  0
LINE
  5
AF70
330
1A
100
AcDbEntity
  8
1
100
AcDbLine
 10
9200.49726893024
 20
3230.207556753738
 30
0.0
 11
9200.49726893024
 21
3194.207556753737
 31
0.0
  0
LINE
  5
AF71
330
1A
100
AcDbEntity
  8
1
100
AcDbLine
 10
9203.615326916407
 20
3194.207556753737
 30
0.0
 11
9203.615326916407
 21
3230.207556753738
 31
0.0
  0
LINE
  5
AF72
330
1A
100
AcDbEntity
  8
1
100
AcDbLine
 10
9190.49726893024
 20
3194.207556753736
 30
0.0
 11
9190.49726893024
 21
3230.207556753738
 31
0.0
  0
LINE
  5
AF73
330
1A
100
AcDbEntity
  8
1
100
AcDbLine
 10
9200.49726893024
 20
3195.707556753736
 30
0.0
 11
9200.49726893024
 21
3228.707556753737
 31
0.0
  0
LINE
  5
AF74
330
1A
100
AcDbEntity
  8
1
100
AcDbLine
 10
9203.615326916406
 20
3232.707556753738
 30
0.0
 11
9203.615326916407
 21
3191.707556753736
 31
0.0
  0
LINE
  5
AF75
330
1A
100
AcDbEntity
  8
1
100
AcDbLine
 10
9219.615335334987
 20
3188.207556753736
 30
0.0
 11
9219.615335334987
 21
3236.207556753737
 31
0.0
  0
ARC
  5
AF76
330
1A
100
AcDbEntity
  8
1
100
AcDbCircle
 10
9167.818149019817
 20
3203.207556753737
 30
0.0
 40
24.32088008957829
100
AcDbArc
 50
167.4907700644507
 51
192.5092299355492
  0
LINE
  5
AF77
330
1A
100
AcDbEntity
  8
1
100
AcDbLine
 10
9143.497268930239
 20
3195.707556753736
 30
0.0
 11
9143.497268930239
 21
3228.707556753737
 31
0.0
  0
LINE
  5
AF78
330
1A
100
AcDbEntity
  8
1
100
AcDbLine
 10
9143.497268930239
 20
3230.207556753738
 30
0.0
 11
9143.497268930239
 21
3194.207556753737
 31
0.0
  0
LINE
  5
AF79
330
1A
100
AcDbEntity
  8
1
100
AcDbLine
 10
9133.597268930238
 20
3200.207556753737
 30
0.0
 11
9133.597268930239
 21
3224.207556753738
 31
0.0
  0
LINE
  5
AF7A
330
1A
100
AcDbEntity
  8
1
100
AcDbLine
 10
9143.497268930239
 20
3194.207556753737
 30
0.0
 11
9185.097268930238
 21
3194.207556753736
 31
0.0
  0
LINE
  5
AF7B
330
1A
100
AcDbEntity
  8
1
100
AcDbLine
 10
9184.519918661045
 20
3197.939729877313
 30
0.0
 11
9144.074619199427
 21
3197.939729877313
 31
0.0
  0
LINE
  5
AF7C
330
1A
100
AcDbEntity
  8
1
100
AcDbLine
 10
9143.097268930238
 20
3200.207556753737
 30
0.0
 11
9143.097268930238
 21
3198.957556753736
 31
0.0
  0
LINE
  5
AF7D
330
1A
100
AcDbEntity
  8
1
100
AcDbLine
 10
9143.097268930238
 20
3200.207556753737
 30
0.0
 11
9133.597268930238
 21
3200.207556753737
 31
0.0
  0
LINE
  5
AF7E
330
1A
100
AcDbEntity
  8
1
100
AcDbLine
 10
9143.097268930238
 20
3198.957556753737
 30
0.0
 11
9143.497268930239
 21
3198.957556753736
 31
0.0
  0
LINE
  5
AF7F
330
1A
100
AcDbEntity
  8
1
100
AcDbLine
 10
9144.074619199427
 20
3194.207556753737
 30
0.0
 11
9144.074619199427
 21
3197.939729877313
 31
0.0
  0
LINE
  5
AF80
330
1A
100
AcDbEntity
  8
1
100
AcDbLine
 10
9204.192677185599
 20
3196.345070673574
 30
0.0
 11
9219.615335334987
 21
3196.345070673582
 31
0.0
  0
LINE
  5
AF81
330
1A
100
AcDbEntity
  8
1
 48
0.2
100
AcDbLine
 10
9203.615326916407
 20
3191.707556753736
 30
0.0
 11
9219.615326916404
 21
3191.707556753736
 31
0.0
  0
LINE
  5
AF82
330
1A
100
AcDbEntity
  8
1
100
AcDbLine
 10
9185.097268930238
 20
3195.707556753736
 30
0.0
 11
9190.49726893024
 21
3195.707556753736
 31
0.0
  0
LINE
  5
AF83
330
1A
100
AcDbEntity
  8
1
100
AcDbLine
 10
9191.074619199431
 20
3197.939729877313
 30
0.0
 11
9199.91991866105
 21
3197.939729877313
 31
0.0
  0
LINE
  5
AF84
330
1A
100
AcDbEntity
  8
1
100
AcDbLine
 10
9200.49726893024
 20
3194.207556753737
 30
0.0
 11
9203.615326916407
 21
3194.207556753737
 31
0.0
  0
LINE
  5
AF85
330
1A
100
AcDbEntity
  8
1
100
AcDbLine
 10
9200.49726893024
 20
3194.207556753737
 30
0.0
 11
9190.49726893024
 21
3194.207556753736
 31
0.0
  0
LINE
  5
AF86
330
1A
100
AcDbEntity
  8
1
100
AcDbLine
 10
9204.192677185599
 20
3191.707556753736
 30
0.0
 11
9204.192677185599
 21
3196.345070673574
 31
0.0
  0
LINE
  5
AF87
330
1A
100
AcDbEntity
  8
1
100
AcDbLine
 10
9184.519918661045
 20
3194.207556753736
 30
0.0
 11
9184.519918661045
 21
3197.939729877313
 31
0.0
  0
LINE
  5
AF88
330
1A
100
AcDbEntity
  8
1
100
AcDbLine
 10
9191.074619199431
 20
3194.207556753736
 30
0.0
 11
9191.074619199431
 21
3197.939729877313
 31
0.0
  0
LINE
  5
AF89
330
1A
100
AcDbEntity
  8
1
100
AcDbLine
 10
9199.91991866105
 20
3194.207556753737
 30
0.0
 11
9199.91991866105
 21
3197.939729877313
 31
0.0
  0
LINE
  5
AF8A
330
1A
100
AcDbEntity
  8
1
100
AcDbLine
 10
9219.615326916409
 20
3193.957556753737
 30
0.0
 11
9219.615326916406
 21
3191.707556753736
 31
0.0
  0
LINE
  5
AF8B
330
1A
100
AcDbEntity
  8
1
100
AcDbLine
 10
9184.519918661044
 20
3215.939729877309
 30
0.0
 11
9144.074619199427
 21
3215.939729877309
 31
0.0
  0
LINE
  5
AF8C
330
1A
100
AcDbEntity
  8
1
100
AcDbLine
 10
9143.497268930239
 20
3230.207556753738
 30
0.0
 11
9185.097268930238
 21
3230.207556753738
 31
0.0
  0
LINE
  5
AF8D
330
1A
100
AcDbEntity
  8
1
100
AcDbLine
 10
9184.519918661045
 20
3226.475383630167
 30
0.0
 11
9144.074619199427
 21
3226.475383630167
 31
0.0
  0
LINE
  5
AF8E
330
1A
100
AcDbEntity
  8
1
100
AcDbLine
 10
9184.519918661045
 20
3208.475383630161
 30
0.0
 11
9144.074619199427
 21
3208.475383630161
 31
0.0
  0
ARC
  5
AF8F
330
1A
100
AcDbEntity
  8
1
100
AcDbCircle
 10
9167.818149019861
 20
3221.207556753737
 30
0.0
 40
24.32088008962101
100
AcDbArc
 50
167.4907700645015
 51
192.5092299354983
  0
LINE
  5
AF90
330
1A
100
AcDbEntity
  8
1
100
AcDbLine
 10
9143.097268930238
 20
3225.457556753736
 30
0.0
 11
9143.497268930238
 21
3225.457556753736
 31
0.0
  0
LINE
  5
AF91
330
1A
100
AcDbEntity
  8
1
100
AcDbLine
 10
9143.097268930238
 20
3224.207556753738
 30
0.0
 11
9133.597268930238
 21
3224.207556753738
 31
0.0
  0
LINE
  5
AF92
330
1A
100
AcDbEntity
  8
1
100
AcDbLine
 10
9143.097268930238
 20
3225.457556753736
 30
0.0
 11
9143.097268930238
 21
3224.207556753738
 31
0.0
  0
LINE
  5
AF93
330
1A
100
AcDbEntity
  8
1
100
AcDbLine
 10
9144.074619199427
 20
3226.475383630166
 30
0.0
 11
9144.074619199427
 21
3230.207556753738
 31
0.0
  0
LINE
  5
AF94
330
1A
100
AcDbEntity
  8
1
100
AcDbLine
 10
9144.074619199427
 20
3208.475383630161
 30
0.0
 11
9144.074619199427
 21
3215.939729877308
 31
0.0
  0
LINE
  5
AF95
330
1A
100
AcDbEntity
  8
1
100
AcDbLine
 10
9204.192677185599
 20
3216.845070673574
 30
0.0
 11
9219.615335334987
 21
3216.845070673574
 31
0.0
  0
LINE
  5
AF96
330
1A
100
AcDbEntity
  8
1
100
AcDbLine
 10
9204.192677185599
 20
3228.070042833901
 30
0.0
 11
9219.615335334987
 21
3228.070042833898
 31
0.0
  0
LINE
  5
AF97
330
1A
100
AcDbEntity
  8
1
 48
0.2
100
AcDbLine
 10
9203.615326916407
 20
3232.707556753738
 30
0.0
 11
9219.615326916404
 21
3232.707556753738
 31
0.0
  0
LINE
  5
AF98
330
1A
100
AcDbEntity
  8
1
100
AcDbLine
 10
9204.192677185595
 20
3207.570042833894
 30
0.0
 11
9219.615335334987
 21
3207.570042833894
 31
0.0
  0
LINE
  5
AF99
330
1A
100
AcDbEntity
  8
1
100
AcDbLine
 10
9200.49726893024
 20
3230.207556753738
 30
0.0
 11
9203.615326916407
 21
3230.207556753738
 31
0.0
  0
LINE
  5
AF9A
330
1A
100
AcDbEntity
  8
1
100
AcDbLine
 10
9200.49726893024
 20
3230.207556753738
 30
0.0
 11
9190.49726893024
 21
3230.207556753738
 31
0.0
  0
ARC
  5
AF9B
330
1A
100
AcDbEntity
  8
1
100
AcDbCircle
 10
9231.183802270123
 20
3222.457556753738
 30
0.0
 40
27.56847535371717
100
AcDbArc
 50
168.2534102772861
 51
191.7465897227137
  0
ARC
  5
AF9C
330
1A
100
AcDbEntity
  8
1
100
AcDbCircle
 10
9176.17638884062
 20
3221.207556753737
 30
0.0
 40
24.32088008962101
100
AcDbArc
 50
347.4907700645015
 51
12.50922993549839
  0
ARC
  5
AF9D
330
1A
100
AcDbEntity
  8
1
100
AcDbCircle
 10
9160.776388840734
 20
3221.207556753738
 30
0.0
 40
24.32088008950628
100
AcDbArc
 50
347.4907700643999
 51
12.50922993560014
  0
ARC
  5
AF9E
330
1A
100
AcDbEntity
  8
1
100
AcDbCircle
 10
9214.818149019745
 20
3221.207556753738
 30
0.0
 40
24.32088008950628
100
AcDbArc
 50
167.4907700643998
 51
192.5092299356001
  0
LINE
  5
AF9F
330
1A
100
AcDbEntity
  8
1
100
AcDbLine
 10
9185.097268930238
 20
3228.707556753737
 30
0.0
 11
9190.49726893024
 21
3228.707556753737
 31
0.0
  0
LINE
  5
AFA0
330
1A
100
AcDbEntity
  8
1
100
AcDbLine
 10
9191.074619199433
 20
3215.939729877309
 30
0.0
 11
9199.91991866105
 21
3215.939729877309
 31
0.0
  0
LINE
  5
AFA1
330
1A
100
AcDbEntity
  8
1
100
AcDbLine
 10
9191.074619199431
 20
3226.475383630167
 30
0.0
 11
9199.91991866105
 21
3226.475383630167
 31
0.0
  0
LINE
  5
AFA2
330
1A
100
AcDbEntity
  8
1
100
AcDbLine
 10
9204.192677185599
 20
3228.0700428339
 30
0.0
 11
9204.192677185599
 21
3232.707556753739
 31
0.0
  0
LINE
  5
AFA3
330
1A
100
AcDbEntity
  8
1
100
AcDbLine
 10
9184.519918661045
 20
3226.475383630167
 30
0.0
 11
9184.519918661045
 21
3230.207556753738
 31
0.0
  0
LINE
  5
AFA4
330
1A
100
AcDbEntity
  8
1
100
AcDbLine
 10
9191.074619199431
 20
3226.475383630167
 30
0.0
 11
9191.074619199431
 21
3230.207556753738
 31
0.0
  0
LINE
  5
AFA5
330
1A
100
AcDbEntity
  8
1
100
AcDbLine
 10
9199.91991866105
 20
3226.475383630166
 30
0.0
 11
9199.91991866105
 21
3230.207556753738
 31
0.0
  0
LINE
  5
AFA6
330
1A
100
AcDbEntity
  8
1
100
AcDbLine
 10
9191.074619199431
 20
3208.475383630161
 30
0.0
 11
9199.91991866105
 21
3208.475383630161
 31
0.0
  0
LINE
  5
AFA7
330
1A
100
AcDbEntity
  8
1
100
AcDbLine
 10
9204.1926771856
 20
3207.570042833894
 30
0.0
 11
9204.192677185599
 21
3216.845070673574
 31
0.0
  0
LINE
  5
AFA8
330
1A
100
AcDbEntity
  8
1
100
AcDbLine
 10
9184.519918661045
 20
3208.475383630161
 30
0.0
 11
9184.519918661044
 21
3215.939729877309
 31
0.0
  0
LINE
  5
AFA9
330
1A
100
AcDbEntity
  8
1
100
AcDbLine
 10
9199.91991866105
 20
3208.475383630161
 30
0.0
 11
9199.91991866105
 21
3215.939729877308
 31
0.0
  0
LINE
  5
AFAA
330
1A
100
AcDbEntity
  8
1
100
AcDbLine
 10
9191.074619199431
 20
3208.475383630161
 30
0.0
 11
9191.074619199433
 21
3215.939729877309
 31
0.0
  0
LINE
  5
AFAB
330
1A
100
AcDbEntity
  8
1
100
AcDbLine
 10
9219.615326916404
 20
3232.707556753738
 30
0.0
 11
9219.615326916404
 21
3230.457556753737
 31
0.0
  0
ARC
  5
AFAC
330
1A
100
AcDbEntity
  8
1
  6
Continuous
100
AcDbCircle
 10
9220.615335334988
 20
3236.207560202013
 30
0.0
 40
1.0
100
AcDbArc
 50
90.0
 51
180.0
  0
ARC
  5
AFAD
330
1A
100
AcDbEntity
  8
1
  6
Continuous
100
AcDbCircle
 10
9220.615335334988
 20
3188.207560202013
 30
0.0
 40
1.0
100
AcDbArc
 50
180.0
 51
270.0
  0
LINE
  5
AFAE
330
1A
100
AcDbEntity
  8
1
  6
Continuous
100
AcDbLine
 10
9219.615335334987
 20
3188.207560202013
 30
0.0
 11
9219.615335334987
 21
3236.207560202013
 31
0.0
  0
LINE
  5
AFAF
330
1A
100
AcDbEntity
  8
1
100
AcDbLine
 10
9449.294827259295
 20
2974.223037679184
 30
0.0
 11
9483.935843410673
 21
2974.223037679182
 31
0.0
  0
LINE
  5
AFB0
330
1A
100
AcDbEntity
  8
1
100
AcDbLine
 10
9448.115335334984
 20
2974.223037679182
 30
0.0
 11
9485.115335334986
 21
2974.223037679184
 31
0.0
  0
LINE
  5
AFB1
330
1A
100
AcDbEntity
  8
1
100
AcDbLine
 10
9448.115335334984
 20
2971.023037679183
 30
0.0
 11
9485.115335334986
 21
2971.023037679181
 31
0.0
  0
LINE
  5
AFB2
330
1A
100
AcDbEntity
  8
1
100
AcDbLine
 10
9451.615335334983
 20
2990.223037679182
 30
0.0
 11
9481.615335334984
 21
2990.223037679182
 31
0.0
  0
ARC
  5
AFB3
330
1A
100
AcDbEntity
  8
1
100
AcDbCircle
 10
9453.624954278216
 20
2982.555569433915
 30
0.0
 40
7.667468245267238
100
AcDbArc
 50
55.61575253194651
 51
124.3842474680534
  0
CIRCLE
  5
AFB4
102
{ACAD_REACTORS
330
B398
102
}
330
1A
100
AcDbEntity
  8
1
  6
Continuous
100
AcDbCircle
 10
9451.615335334984
 20
3017.02303767918
 30
0.0
 40
7.000000000000006
  0
LINE
  5
AFB5
102
{ACAD_REACTORS
330
B398
102
}
330
1A
100
AcDbEntity
  8
1
  6
Continuous
100
AcDbLine
 10
9466.814019488555
 20
2995.02303767918
 30
0.0
 11
9451.615335334984
 21
2995.02303767918
 31
0.0
  0
LINE
  5
AFB6
102
{ACAD_REACTORS
330
B398
102
}
330
1A
100
AcDbEntity
  8
1
  6
Continuous
100
AcDbLine
 10
9440.434995447485
 20
3009.02303767918
 30
0.0
 11
9462.795675222483
 21
3009.02303767918
 31
0.0
  0
LINE
  5
AFB7
102
{ACAD_REACTORS
330
B398
102
}
330
1A
100
AcDbEntity
  8
1
  6
Continuous
100
AcDbLine
 10
9440.434995447485
 20
3025.02303767918
 30
0.0
 11
9462.795675222483
 21
3025.02303767918
 31
0.0
  0
LINE
  5
AFB8
102
{ACAD_REACTORS
330
B397
102
}
330
1A
100
AcDbEntity
  8
1
  6
Continuous
100
AcDbLine
 10
9443.615335334987
 20
2971.02303767918
 30
0.0
 11
9489.615335334987
 21
2971.02303767918
 31
0.0
  0
LINE
  5
AFB9
330
1A
100
AcDbEntity
  8
1
100
AcDbLine
 10
9355.615335334986
 20
2975.523037679181
 30
0.0
 11
9340.615335334987
 21
2975.523037679181
 31
0.0
  0
LINE
  5
AFBA
102
{ACAD_REACTORS
330
B398
102
}
330
1A
100
AcDbEntity
  8
1
  6
Continuous
100
AcDbLine
 10
9342.999920242711
 20
3004.837992255403
 30
0.0
 11
9358.062483046458
 21
2995.02303767918
 31
0.0
  0
LINE
  5
AFBB
102
{ACAD_REACTORS
330
B398
102
}
330
1A
100
AcDbEntity
  8
1
  6
Continuous
100
AcDbLine
 10
9337.795675222483
 20
3009.02303767918
 30
0.0
 11
9348.976015109981
 21
3009.02303767918
 31
0.0
  0
LINE
  5
AFBC
102
{ACAD_REACTORS
330
B398
102
}
330
1A
100
AcDbEntity
  8
1
  6
Continuous
100
AcDbLine
 10
9337.795675222483
 20
3025.02303767918
 30
0.0
 11
9348.976015109981
 21
3025.02303767918
 31
0.0
  0
LINE
  5
AFC2
330
1A
100
AcDbEntity
  8
1
100
AcDbLine
 10
9339.615335334986
 20
2975.02303767918
 30
0.0
 11
9340.615335334987
 21
2975.02303767918
 31
0.0
  0
LINE
  5
AFC3
330
1A
100
AcDbEntity
  8
1
100
AcDbLine
 10
9336.615335334988
 20
2973.02303767918
 30
0.0
 11
9337.615335334987
 21
2973.02303767918
 31
0.0
  0
LINE
  5
AFC4
330
1A
100
AcDbEntity
  8
1
100
AcDbLine
 10
9337.615335334987
 20
2973.02303767918
 30
0.0
 11
9339.615335334986
 21
2975.02303767918
 31
0.0
  0
LINE
  5
AFC5
330
1A
100
AcDbEntity
  8
1
100
AcDbLine
 10
9336.615335334988
 20
2971.02303767918
 30
0.0
 11
9336.615335334988
 21
2973.02303767918
 31
0.0
  0
LINE
  5
AFC9
102
{ACAD_REACTORS
330
B398
102
}
330
1A
100
AcDbEntity
  8
1
  6
Continuous
100
AcDbLine
 10
9341.390786165083
 20
3009.02303767918
 30
0.0
 11
9341.390786165083
 21
3006.372646612361
 31
0.0
  0
LINE
  5
AFCA
102
{ACAD_REACTORS
330
B398
102
}
330
1A
100
AcDbEntity
  8
1
  6
Continuous
100
AcDbLine
 10
9311.615335334986
 20
3025.02303767918
 30
0.0
 11
9311.615335334986
 21
3009.02303767918
 31
0.0
  0
CIRCLE
  5
AFCB
102
{ACAD_REACTORS
330
B398
102
}
330
1A
100
AcDbEntity
  8
1
  6
Continuous
100
AcDbCircle
 10
9326.615335334984
 20
3017.02303767918
 30
0.0
 40
7.0
  0
ARC
  5
AFCC
102
{ACAD_REACTORS
330
B398
102
}
330
1A
100
AcDbEntity
  8
1
  6
HIDDEN2
100
AcDbCircle
 10
9326.615335334984
 20
3017.02303767918
 30
0.0
 40
6.999999999999997
100
AcDbArc
 50
86.88646558693154
 51
90.85678676254502
  0
ARC
  5
AFCD
102
{ACAD_REACTORS
330
B398
102
}
330
1A
100
AcDbEntity
  8
1
  6
HIDDEN2
100
AcDbCircle
 10
9326.615335334984
 20
3017.02303767918
 30
0.0
 40
6.999999999999997
100
AcDbArc
 50
0.000000000000007
 51
0.4802147141776855
  0
ARC
  5
AFCE
102
{ACAD_REACTORS
330
B398
102
}
330
1A
100
AcDbEntity
  8
1
  6
HIDDEN2
100
AcDbCircle
 10
9326.615335334984
 20
3017.02303767918
 30
0.0
 40
6.999999999999997
100
AcDbArc
 50
354.464296727896
 51
0.000000000000007
  0
LINE
  5
AFCF
102
{ACAD_REACTORS
330
B398
102
}
330
1A
100
AcDbEntity
  8
1
  6
Continuous
100
AcDbLine
 10
9311.615335334986
 20
3009.02303767918
 30
0.0
 11
9337.795675222483
 21
3009.02303767918
 31
0.0
  0
LINE
  5
AFD0
102
{ACAD_REACTORS
330
B398
102
}
330
1A
100
AcDbEntity
  8
1
  6
Continuous
100
AcDbLine
 10
9311.615335334986
 20
3025.02303767918
 30
0.0
 11
9337.795675222483
 21
3025.02303767918
 31
0.0
  0
ARC
  5
AFD1
102
{ACAD_REACTORS
330
B39B
102
}
330
1A
100
AcDbEntity
  8
1
100
AcDbCircle
 10
9428.865335334986
 20
2985.27303767918
 30
0.0
 40
2.75
100
AcDbArc
 50
270.0
 51
90.0
  0
LINE
  5
AFD2
102
{ACAD_REACTORS
330
B39B
102
}
330
1A
100
AcDbEntity
  8
1
100
AcDbLine
 10
9427.615335334985
 20
2973.02303767918
 30
0.0
 11
9431.615335334988
 21
2973.02303767918
 31
0.0
  0
LINE
  5
AFD3
102
{ACAD_REACTORS
330
B39B
102
}
330
1A
100
AcDbEntity
  8
1
100
AcDbLine
 10
9431.615335334987
 20
2978.773037679179
 30
0.0
 11
9431.615335334987
 21
2973.02303767918
 31
0.0
  0
LINE
  5
AFD4
102
{ACAD_REACTORS
330
B39B
102
}
330
1A
100
AcDbEntity
  8
1
100
AcDbLine
 10
9428.865335334986
 20
2981.523037679179
 30
0.0
 11
9427.865335334985
 21
2981.523037679179
 31
0.0
  0
LINE
  5
AFD5
102
{ACAD_REACTORS
330
B39B
102
}
330
1A
100
AcDbEntity
  8
1
100
AcDbLine
 10
9428.865335334986
 20
2982.523037679179
 30
0.0
 11
9427.865335334985
 21
2982.523037679179
 31
0.0
  0
ARC
  5
AFD6
102
{ACAD_REACTORS
330
B39B
102
}
330
1A
100
AcDbEntity
  8
1
100
AcDbCircle
 10
9427.865335334985
 20
2982.02303767918
 30
0.0
 40
0.5
100
AcDbArc
 50
90.0
 51
270.0
  0
ARC
  5
AFD7
102
{ACAD_REACTORS
330
B39B
102
}
330
1A
100
AcDbEntity
  8
1
100
AcDbCircle
 10
9428.865335334986
 20
2978.773037679179
 30
0.0
 40
2.75
100
AcDbArc
 50
0.000000000000007
 51
90.0
  0
LINE
  5
AFD8
102
{ACAD_REACTORS
330
B39B
102
}
330
1A
100
AcDbEntity
  8
1
100
AcDbLine
 10
9431.615335334987
 20
2995.023037679183
 30
0.0
 11
9431.615335334987
 21
2993.023037679179
 31
0.0
  0
LINE
  5
AFD9
102
{ACAD_REACTORS
330
B39B
102
}
330
1A
100
AcDbEntity
  8
1
100
AcDbLine
 10
9428.115335334988
 20
2988.023037679179
 30
0.0
 11
9428.865335334986
 21
2988.023037679179
 31
0.0
  0
ARC
  5
AFDA
102
{ACAD_REACTORS
330
B39B
102
}
330
1A
100
AcDbEntity
  8
1
100
AcDbCircle
 10
9428.115335334988
 20
2988.523037679179
 30
0.0
 40
0.5
100
AcDbArc
 50
90.0
 51
270.0
  0
LINE
  5
AFDB
102
{ACAD_REACTORS
330
B39B
102
}
330
1A
100
AcDbEntity
  8
1
100
AcDbLine
 10
9428.115335334988
 20
2989.02303767918
 30
0.0
 11
9431.615335334987
 21
2989.02303767918
 31
0.0
  0
LINE
  5
AFDC
102
{ACAD_REACTORS
330
B39B
102
}
330
1A
100
AcDbEntity
  8
1
100
AcDbLine
 10
9431.615335334987
 20
2993.023037679179
 30
0.0
 11
9431.615335334987
 21
2989.02303767918
 31
0.0
  0
LINE
  5
AFDD
330
1A
100
AcDbEntity
  8
1
100
AcDbLine
 10
9449.294827259292
 20
2988.883291717026
 30
0.0
 11
9449.294827259295
 21
2974.223037679184
 31
0.0
  0
LINE
  5
AFDE
330
1A
100
AcDbEntity
  8
1
100
AcDbLine
 10
9448.115335334984
 20
2974.223037679182
 30
0.0
 11
9448.115335334984
 21
2971.023037679183
 31
0.0
  0
LINE
  5
AFDF
330
1A
100
AcDbEntity
  8
1
100
AcDbLine
 10
9451.615335334983
 20
2990.223037679182
 30
0.0
 11
9449.294827259295
 21
2988.883291717026
 31
0.0
  0
ARC
  5
AFE0
102
{ACAD_REACTORS
330
B39B
102
}
330
1A
100
AcDbEntity
  8
1
100
AcDbCircle
 10
9396.365335334985
 20
2985.27303767918
 30
0.0
 40
2.75
100
AcDbArc
 50
90.0
 51
270.0
  0
ARC
  5
AFE1
102
{ACAD_REACTORS
330
B39B
102
}
330
1A
100
AcDbEntity
  8
1
100
AcDbCircle
 10
9396.365335334985
 20
2978.773037679179
 30
0.0
 40
2.75
100
AcDbArc
 50
90.0
 51
180.0
  0
ARC
  5
AFE2
102
{ACAD_REACTORS
330
B39B
102
}
330
1A
100
AcDbEntity
  8
1
100
AcDbCircle
 10
9397.365335334987
 20
2982.02303767918
 30
0.0
 40
0.5
100
AcDbArc
 50
270.0
 51
90.0
  0
LINE
  5
AFE3
102
{ACAD_REACTORS
330
B39B
102
}
330
1A
100
AcDbEntity
  8
1
100
AcDbLine
 10
9396.365335334985
 20
2982.523037679179
 30
0.0
 11
9397.365335334987
 21
2982.523037679179
 31
0.0
  0
LINE
  5
AFE4
102
{ACAD_REACTORS
330
B39B
102
}
330
1A
100
AcDbEntity
  8
1
100
AcDbLine
 10
9396.365335334985
 20
2981.523037679179
 30
0.0
 11
9397.365335334987
 21
2981.523037679179
 31
0.0
  0
LINE
  5
AFE5
102
{ACAD_REACTORS
330
B39B
102
}
330
1A
100
AcDbEntity
  8
1
100
AcDbLine
 10
9397.615335334986
 20
2973.02303767918
 30
0.0
 11
9393.615335334985
 21
2973.02303767918
 31
0.0
  0
LINE
  5
AFE6
102
{ACAD_REACTORS
330
B39B
102
}
330
1A
100
AcDbEntity
  8
1
100
AcDbLine
 10
9393.615335334985
 20
2978.773037679179
 30
0.0
 11
9393.615335334985
 21
2973.02303767918
 31
0.0
  0
LINE
  5
AFE7
330
1A
100
AcDbEntity
  8
1
100
AcDbLine
 10
9388.615335334989
 20
2975.523037679181
 30
0.0
 11
9373.615335334987
 21
2975.523037679181
 31
0.0
  0
ARC
  5
AFE8
330
1A
100
AcDbEntity
  8
1
100
AcDbCircle
 10
9370.615335334987
 20
2977.52303767918
 30
0.0
 40
2.0
100
AcDbArc
 50
15.24526371872159
 51
164.7547362812783
  0
LINE
  5
AFE9
330
1A
100
AcDbEntity
  8
1
100
AcDbLine
 10
9368.09773986682
 20
2975.891561948847
 30
0.0
 11
9368.685717207654
 21
2978.048940600513
 31
0.0
  0
LINE
  5
AFEA
330
1A
100
AcDbEntity
  8
1
100
AcDbLine
 10
9372.544953462321
 20
2978.048940600513
 30
0.0
 11
9373.132930803155
 21
2975.891561948847
 31
0.0
  0
ARC
  5
AFEB
330
1A
100
AcDbEntity
  8
1
100
AcDbCircle
 10
9373.615335334987
 20
2976.02303767918
 30
0.0
 40
0.5
100
AcDbArc
 50
195.2452637186713
 51
270.0
  0
LINE
  5
AFEC
330
1A
100
AcDbEntity
  8
1
100
AcDbLine
 10
9392.615335334989
 20
2971.02303767918
 30
0.0
 11
9392.615335334989
 21
2973.02303767918
 31
0.0
  0
LINE
  5
AFED
330
1A
100
AcDbEntity
  8
1
100
AcDbLine
 10
9391.615335334989
 20
2973.02303767918
 30
0.0
 11
9389.615335334989
 21
2975.02303767918
 31
0.0
  0
LINE
  5
AFEE
330
1A
100
AcDbEntity
  8
1
100
AcDbLine
 10
9392.615335334989
 20
2973.02303767918
 30
0.0
 11
9391.615335334989
 21
2973.02303767918
 31
0.0
  0
LINE
  5
AFEF
330
1A
100
AcDbEntity
  8
1
100
AcDbLine
 10
9389.615335334989
 20
2975.02303767918
 30
0.0
 11
9388.615335334989
 21
2975.02303767918
 31
0.0
  0
ARC
  5
AFF0
330
1A
100
AcDbEntity
  8
1
100
AcDbCircle
 10
9364.615335334987
 20
2977.52303767918
 30
0.0
 40
2.0
100
AcDbArc
 50
15.24526371867132
 51
164.7547362812783
  0
LINE
  5
AFF1
330
1A
100
AcDbEntity
  8
1
100
AcDbLine
 10
9361.132930803155
 20
2975.891561948847
 30
0.0
 11
9360.544953462321
 21
2978.048940600513
 31
0.0
  0
LINE
  5
AFF2
330
1A
100
AcDbEntity
  8
1
100
AcDbLine
 10
9362.685717207654
 20
2978.048940600513
 30
0.0
 11
9362.09773986682
 21
2975.891561948847
 31
0.0
  0
LINE
  5
AFF3
330
1A
100
AcDbEntity
  8
1
100
AcDbLine
 10
9356.685717207653
 20
2978.048940600513
 30
0.0
 11
9356.09773986682
 21
2975.891561948847
 31
0.0
  0
ARC
  5
AFF4
330
1A
100
AcDbEntity
  8
1
100
AcDbCircle
 10
9358.615335334986
 20
2977.52303767918
 30
0.0
 40
2.0
100
AcDbArc
 50
15.24526371872159
 51
164.7547362812783
  0
ARC
  5
AFF5
330
1A
100
AcDbEntity
  8
1
100
AcDbCircle
 10
9361.615335334986
 20
2976.02303767918
 30
0.0
 40
0.5
100
AcDbArc
 50
195.2452637186713
 51
344.7547362813287
  0
ARC
  5
AFF6
330
1A
100
AcDbEntity
  8
1
100
AcDbCircle
 10
9355.615335334986
 20
2976.02303767918
 30
0.0
 40
0.5
100
AcDbArc
 50
270.0
 51
344.7547362812784
  0
LINE
  5
AFF7
330
1A
100
AcDbEntity
  8
1
100
AcDbLine
 10
9366.544953462321
 20
2978.048940600513
 30
0.0
 11
9367.132930803155
 21
2975.891561948847
 31
0.0
  0
ARC
  5
AFF8
330
1A
100
AcDbEntity
  8
1
100
AcDbCircle
 10
9367.615335334987
 20
2976.02303767918
 30
0.0
 40
0.5
100
AcDbArc
 50
195.2452637187216
 51
344.7547362812784
  0
LINE
  5
AFF9
102
{ACAD_REACTORS
330
B39B
102
}
330
1A
100
AcDbEntity
  8
1
100
AcDbLine
 10
9393.615335334985
 20
2995.023037679183
 30
0.0
 11
9393.615335334985
 21
2993.023037679179
 31
0.0
  0
LINE
  5
AFFA
102
{ACAD_REACTORS
330
B39B
102
}
330
1A
100
AcDbEntity
  8
1
100
AcDbLine
 10
9393.615335334985
 20
2993.023037679179
 30
0.0
 11
9393.615335334985
 21
2989.02303767918
 31
0.0
  0
LINE
  5
AFFB
102
{ACAD_REACTORS
330
B39B
102
}
330
1A
100
AcDbEntity
  8
1
100
AcDbLine
 10
9397.115335334985
 20
2989.02303767918
 30
0.0
 11
9393.615335334985
 21
2989.02303767918
 31
0.0
  0
ARC
  5
AFFC
102
{ACAD_REACTORS
330
B39B
102
}
330
1A
100
AcDbEntity
  8
1
100
AcDbCircle
 10
9397.115335334985
 20
2988.523037679179
 30
0.0
 40
0.5
100
AcDbArc
 50
270.0
 51
90.0
  0
LINE
  5
AFFD
102
{ACAD_REACTORS
330
B39B
102
}
330
1A
100
AcDbEntity
  8
1
100
AcDbLine
 10
9397.115335334985
 20
2988.023037679179
 30
0.0
 11
9396.365335334985
 21
2988.023037679179
 31
0.0
  0
LINE
  5
AFFE
102
{ACAD_REACTORS
330
B39B
102
}
330
1A
100
AcDbEntity
  8
1
100
AcDbLine
 10
9431.615335334987
 20
2993.023037679179
 30
0.0
 11
9393.615335334985
 21
2993.023037679179
 31
0.0
  0
LINE
  5
AFFF
330
1A
100
AcDbEntity
  8
1
100
AcDbLine
 10
9392.615335334985
 20
2973.02303767918
 30
0.0
 11
9431.615335334988
 21
2973.023037679181
 31
0.0
  0
LINE
  5
B000
102
{ACAD_REACTORS
330
B39B
102
}
330
1A
100
AcDbEntity
  8
1
100
AcDbLine
 10
9397.115335334985
 20
2989.02303767918
 30
0.0
 11
9428.115335334988
 21
2989.02303767918
 31
0.0
  0
LINE
  5
B001
102
{ACAD_REACTORS
330
B39B
102
}
330
1A
100
AcDbEntity
  8
1
100
AcDbLine
 10
9397.115335334985
 20
2988.023037679179
 30
0.0
 11
9428.115335334988
 21
2988.023037679179
 31
0.0
  0
LINE
  5
B002
102
{ACAD_REACTORS
330
B39B
102
}
330
1A
100
AcDbEntity
  8
1
100
AcDbLine
 10
9397.365335334987
 20
2982.523037679179
 30
0.0
 11
9427.865335334985
 21
2982.523037679179
 31
0.0
  0
LINE
  5
B003
102
{ACAD_REACTORS
330
B39B
102
}
330
1A
100
AcDbEntity
  8
1
100
AcDbLine
 10
9397.365335334987
 20
2981.523037679179
 30
0.0
 11
9427.865335334985
 21
2981.523037679179
 31
0.0
  0
CIRCLE
  5
B004
102
{ACAD_REACTORS
330
B398
102
}
330
1A
100
AcDbEntity
  8
1
  6
Continuous
100
AcDbCircle
 10
9355.615335334986
 20
3013.02303767918
 30
0.0
 40
6.999999999999999
  0
LINE
  5
B005
102
{ACAD_REACTORS
330
B398
102
}
330
1A
100
AcDbEntity
  8
1
  6
Continuous
100
AcDbLine
 10
9360.844214891198
 20
2995.02303767918
 30
0.0
 11
9345.781652087453
 21
3004.837992255403
 31
0.0
  0
LINE
  5
B006
102
{ACAD_REACTORS
330
B398
102
}
330
1A
100
AcDbEntity
  8
1
  6
Continuous
100
AcDbLine
 10
9348.976015109981
 20
3009.02303767918
 30
0.0
 11
9349.870772688447
 21
3009.02303767918
 31
0.0
  0
CIRCLE
  5
B007
102
{ACAD_REACTORS
330
B398
102
}
330
1A
100
AcDbEntity
  8
1
  6
Continuous
 62
     9
100
AcDbCircle
 10
9355.615335334986
 20
3013.02303767918
 30
0.0
 40
3.0
  0
LINE
  5
B008
102
{ACAD_REACTORS
330
B398
102
}
330
1A
100
AcDbEntity
  8
1
  6
Continuous
100
AcDbLine
 10
9358.062483046458
 20
2995.02303767918
 30
0.0
 11
9360.844214891198
 21
2995.02303767918
 31
0.0
  0
CIRCLE
  5
B009
102
{ACAD_REACTORS
330
B398
102
}
330
1A
100
AcDbEntity
  8
1
  6
Continuous
100
AcDbCircle
 10
9355.615335334986
 20
3013.02303767918
 30
0.0
 40
2.458499999999999
  0
LINE
  5
B00A
102
{ACAD_REACTORS
330
B398
102
}
330
1A
100
AcDbEntity
  8
1
  6
Continuous
100
AcDbLine
 10
9389.897030064181
 20
2995.02303767918
 30
0.0
 11
9386.155994631039
 21
2995.02303767918
 31
0.0
  0
LINE
  5
B00B
102
{ACAD_REACTORS
330
B398
102
}
330
1A
100
AcDbEntity
  8
1
  6
Continuous
100
AcDbLine
 10
9412.615335334987
 20
2995.02303767918
 30
0.0
 11
9389.897030064181
 21
2995.02303767918
 31
0.0
  0
LINE
  5
B00C
102
{ACAD_REACTORS
330
B398
102
}
330
1A
100
AcDbEntity
  8
1
  6
Continuous
100
AcDbLine
 10
9386.155994631039
 20
2995.02303767918
 30
0.0
 11
9360.844214891198
 21
2995.02303767918
 31
0.0
  0
LINE
  5
B00D
102
{ACAD_REACTORS
330
B398
102
}
330
1A
100
AcDbEntity
  8
1
  6
Continuous
100
AcDbLine
 10
9361.359897981524
 20
3009.02303767918
 30
0.0
 11
9415.870772688448
 21
3009.02303767918
 31
0.0
  0
LINE
  5
B00E
102
{ACAD_REACTORS
330
B398
102
}
330
1A
100
AcDbEntity
  8
1
  6
Continuous
100
AcDbLine
 10
9429.254655559986
 20
3009.02303767918
 30
0.0
 11
9440.434995447485
 21
3009.02303767918
 31
0.0
  0
LINE
  5
B00F
102
{ACAD_REACTORS
330
B398
102
}
330
1A
100
AcDbEntity
  8
1
  6
Continuous
100
AcDbLine
 10
9429.254655559986
 20
3025.02303767918
 30
0.0
 11
9440.434995447485
 21
3025.02303767918
 31
0.0
  0
LINE
  5
B010
102
{ACAD_REACTORS
330
B398
102
}
330
1A
100
AcDbEntity
  8
1
  6
Continuous
100
AcDbLine
 10
9427.359897981522
 20
3009.02303767918
 30
0.0
 11
9429.254655559985
 21
3009.02303767918
 31
0.0
  0
ARC
  5
B011
102
{ACAD_REACTORS
330
B398
102
}
330
1A
100
AcDbEntity
  8
1
  6
HIDDEN2
100
AcDbCircle
 10
9451.615335334984
 20
3017.02303767918
 30
0.0
 40
7.000000000000007
100
AcDbArc
 50
86.88646558693154
 51
90.85678676254502
  0
LINE
  5
B012
102
{ACAD_REACTORS
330
B398
102
}
330
1A
100
AcDbEntity
  8
1
  6
Continuous
100
AcDbLine
 10
9348.976015109981
 20
3025.02303767918
 30
0.0
 11
9429.254655559985
 21
3025.02303767918
 31
0.0
  0
CIRCLE
  5
B013
102
{ACAD_REACTORS
330
B398
102
}
330
1A
100
AcDbEntity
  8
1
  6
Continuous
100
AcDbCircle
 10
9421.615335334985
 20
3013.02303767918
 30
0.0
 40
7.000000000000006
  0
LINE
  5
B014
102
{ACAD_REACTORS
330
B398
102
}
330
1A
100
AcDbEntity
  8
1
  6
Continuous
100
AcDbLine
 10
9451.615335334984
 20
2995.02303767918
 30
0.0
 11
9412.615335334987
 21
2995.02303767918
 31
0.0
  0
CIRCLE
  5
B015
102
{ACAD_REACTORS
330
B398
102
}
330
1A
100
AcDbEntity
  8
1
  6
Continuous
 62
     9
100
AcDbCircle
 10
9421.615335334985
 20
3013.02303767918
 30
0.0
 40
3.0
  0
CIRCLE
  5
B016
102
{ACAD_REACTORS
330
B398
102
}
330
1A
100
AcDbEntity
  8
1
  6
Continuous
100
AcDbCircle
 10
9421.615335334985
 20
3013.02303767918
 30
0.0
 40
2.458499999999999
  0
ARC
  5
B017
102
{ACAD_REACTORS
330
B397
102
}
330
1A
100
AcDbEntity
  8
1
  6
Continuous
100
AcDbCircle
 10
9443.615335334987
 20
2969.02303767918
 30
0.0
 40
2.000000000000001
100
AcDbArc
 50
90.0
 51
180.0
  0
ARC
  5
B018
330
1A
100
AcDbEntity
  8
1
100
AcDbCircle
 10
9577.216206731893
 20
2973.02303767918
 30
0.0
 40
2.5
100
AcDbArc
 50
90.0
 51
180.0
  0
ARC
  5
B019
330
1A
100
AcDbEntity
  8
1
100
AcDbCircle
 10
9577.216206731893
 20
2973.02303767918
 30
0.0
 40
6.5
100
AcDbArc
 50
90.0
 51
180.0
  0
LINE
  5
B01A
102
{ACAD_REACTORS
330
B399
102
}
330
1A
100
AcDbEntity
  8
1
  6
Continuous
100
AcDbLine
 10
9592.716206731894
 20
3025.02303767918
 30
0.0
 11
9567.716206731894
 21
3025.02303767918
 31
0.0
  0
LINE
  5
B01B
102
{ACAD_REACTORS
330
B399
102
}
330
1A
100
AcDbEntity
  8
1
  6
Continuous
100
AcDbLine
 10
9577.716206731896
 20
3009.02303767918
 30
0.0
 11
9567.716206731894
 21
3009.02303767918
 31
0.0
  0
LINE
  5
B01C
330
1A
100
AcDbEntity
  8
1
100
AcDbLine
 10
9457.955081297138
 20
2988.883291717026
 30
0.0
 11
9457.955081297139
 21
2974.223037679182
 31
0.0
  0
LINE
  5
B01D
330
1A
100
AcDbEntity
  8
1
100
AcDbLine
 10
9475.275589372827
 20
2988.883291717026
 30
0.0
 11
9475.275589372827
 21
2974.223037679182
 31
0.0
  0
LINE
  5
B01E
330
1A
100
AcDbEntity
  8
1
100
AcDbLine
 10
9483.935843410673
 20
2988.883291717026
 30
0.0
 11
9483.935843410673
 21
2974.223037679184
 31
0.0
  0
LINE
  5
B01F
330
1A
100
AcDbEntity
  8
1
100
AcDbLine
 10
9485.115335334985
 20
2974.223037679182
 30
0.0
 11
9485.115335334985
 21
2971.023037679183
 31
0.0
  0
LINE
  5
B020
330
1A
100
AcDbEntity
  8
1
100
AcDbLine
 10
9456.615335334983
 20
2995.023037679183
 30
0.0
 11
9456.615335334983
 21
2990.223037679182
 31
0.0
  0
LINE
  5
B021
330
1A
100
AcDbEntity
  8
1
100
AcDbLine
 10
9476.615335334983
 20
2995.023037679183
 30
0.0
 11
9476.615335334983
 21
2990.223037679182
 31
0.0
  0
LINE
  5
B022
330
1A
100
AcDbEntity
  8
1
100
AcDbLine
 10
9481.615335334984
 20
2990.223037679182
 30
0.0
 11
9483.935843410673
 21
2988.883291717026
 31
0.0
  0
ARC
  5
B023
330
1A
100
AcDbEntity
  8
1
100
AcDbCircle
 10
9479.60571639175
 20
2982.555569433915
 30
0.0
 40
7.667468245267238
100
AcDbArc
 50
55.61575253194652
 51
124.3842474680534
  0
ARC
  5
B024
330
1A
100
AcDbEntity
  8
1
100
AcDbCircle
 10
9466.615335334983
 20
2961.562783641337
 30
0.0
 40
28.66025403784447
100
AcDbArc
 50
72.41204622600619
 51
107.5879537739938
  0
LINE
  5
B025
102
{ACAD_REACTORS
330
B399
102
}
330
1A
100
AcDbEntity
  8
1
  6
Continuous
100
AcDbLine
 10
9573.716206731894
 20
3009.02303767918
 30
0.0
 11
9573.716206731894
 21
3006.02303767918
 31
0.0
  0
LINE
  5
B026
102
{ACAD_REACTORS
330
B399
102
}
330
1A
100
AcDbEntity
  8
1
  6
Continuous
100
AcDbLine
 10
9567.716206731894
 20
3009.02303767918
 30
0.0
 11
9562.716206731895
 21
3009.02303767918
 31
0.0
  0
LINE
  5
B027
102
{ACAD_REACTORS
330
B399
102
}
330
1A
100
AcDbEntity
  8
1
  6
Continuous
100
AcDbLine
 10
9567.716206731894
 20
3025.02303767918
 30
0.0
 11
9562.716206731895
 21
3025.02303767918
 31
0.0
  0
LINE
  5
B028
102
{ACAD_REACTORS
330
B399
102
}
330
1A
100
AcDbEntity
  8
1
  6
Continuous
100
AcDbLine
 10
9567.716206731894
 20
3025.02303767918
 30
0.0
 11
9567.716206731894
 21
3009.02303767918
 31
0.0
  0
LINE
  5
B029
102
{ACAD_REACTORS
330
B399
102
}
330
1A
100
AcDbEntity
  8
1
  6
Continuous
100
AcDbLine
 10
9557.716206731894
 20
3009.02303767918
 30
0.0
 11
9557.716206731894
 21
3010.028926271531
 31
0.0
  0
LINE
  5
B02A
102
{ACAD_REACTORS
330
B399
102
}
330
1A
100
AcDbEntity
  8
1
  6
Continuous
100
AcDbLine
 10
9557.716206731894
 20
3009.02303767918
 30
0.0
 11
9562.716206731895
 21
3009.02303767918
 31
0.0
  0
LINE
  5
B02B
102
{ACAD_REACTORS
330
B399
102
}
330
1A
100
AcDbEntity
  8
1
  6
Continuous
100
AcDbLine
 10
9565.716206731895
 20
3009.02303767918
 30
0.0
 11
9565.716206731895
 21
3006.02303767918
 31
0.0
  0
LINE
  5
B02C
102
{ACAD_REACTORS
330
B399
102
}
330
1A
100
AcDbEntity
  8
1
  6
Continuous
100
AcDbLine
 10
9557.716206731894
 20
3010.02303767918
 30
0.0
 11
9555.716206731895
 21
3010.02303767918
 31
0.0
  0
LINE
  5
B02D
102
{ACAD_REACTORS
330
B399
102
}
330
1A
100
AcDbEntity
  8
1
  6
Continuous
100
AcDbLine
 10
9557.718962836512
 20
3010.02303767918
 30
0.0
 11
9555.716206731895
 21
3010.02303767918
 31
0.0
  0
LINE
  5
B02E
102
{ACAD_REACTORS
330
B399
102
}
330
1A
100
AcDbEntity
  8
1
  6
Continuous
100
AcDbLine
 10
9555.716206731895
 20
3024.02303767918
 30
0.0
 11
9557.716206731894
 21
3024.02303767918
 31
0.0
  0
ARC
  5
B02F
102
{ACAD_REACTORS
330
B399
102
}
330
1A
100
AcDbEntity
  8
1
  6
Continuous
100
AcDbCircle
 10
9544.426401402811
 20
3017.02303750778
 30
0.0
 40
15.02061676778102
100
AcDbArc
 50
332.2233501015002
 51
27.77665281317911
  0
LINE
  5
B030
102
{ACAD_REACTORS
330
B399
102
}
330
1A
100
AcDbEntity
  8
1
  6
HIDDEN2
100
AcDbLine
 10
9557.718962836512
 20
3010.02303767918
 30
0.0
 11
9557.716206731894
 21
3010.02303767918
 31
0.0
  0
LINE
  5
B031
102
{ACAD_REACTORS
330
B399
102
}
330
1A
100
AcDbEntity
  8
1
  6
Continuous
100
AcDbLine
 10
9557.716206731894
 20
3025.02303767918
 30
0.0
 11
9562.716206731895
 21
3025.02303767918
 31
0.0
  0
LINE
  5
B032
102
{ACAD_REACTORS
330
B399
102
}
330
1A
100
AcDbEntity
  8
1
  6
Continuous
100
AcDbLine
 10
9557.716206731894
 20
3024.02303767918
 30
0.0
 11
9557.716206731894
 21
3025.02303767918
 31
0.0
  0
LINE
  5
B033
102
{ACAD_REACTORS
330
B399
102
}
330
1A
100
AcDbEntity
  8
1
  6
Continuous
100
AcDbLine
 10
9555.716206731895
 20
3024.02303767918
 30
0.0
 11
9555.716206731895
 21
3010.02303767918
 31
0.0
  0
LINE
  5
B034
102
{ACAD_REACTORS
330
B399
102
}
330
1A
100
AcDbEntity
  8
1
  6
Continuous
100
AcDbLine
 10
9573.716206731894
 20
3006.02303767918
 30
0.0
 11
9565.716206731895
 21
3006.02303767918
 31
0.0
  0
LINE
  5
B035
102
{ACAD_REACTORS
330
B398
102
}
330
1A
100
AcDbEntity
  8
1
  6
Continuous
100
AcDbLine
 10
9462.795675222483
 20
3009.02303767918
 30
0.0
 11
9473.976015109981
 21
3009.02303767918
 31
0.0
  0
LINE
  5
B036
102
{ACAD_REACTORS
330
B398
102
}
330
1A
100
AcDbEntity
  8
1
  6
Continuous
100
AcDbLine
 10
9466.814019488555
 20
3009.02303767918
 30
0.0
 11
9466.814019488555
 21
2995.02303767918
 31
0.0
  0
LINE
  5
B037
102
{ACAD_REACTORS
330
B398
102
}
330
1A
100
AcDbEntity
  8
1
  6
Continuous
100
AcDbLine
 10
9462.795675222483
 20
3025.02303767918
 30
0.0
 11
9473.976015109981
 21
3025.02303767918
 31
0.0
  0
ARC
  5
B038
102
{ACAD_REACTORS
330
B398
102
}
330
1A
100
AcDbEntity
  8
1
  6
HIDDEN2
100
AcDbCircle
 10
9451.615335334984
 20
3017.02303767918
 30
0.0
 40
7.000000000000007
100
AcDbArc
 50
0.000000000000007
 51
0.4802147141776855
  0
ARC
  5
B039
102
{ACAD_REACTORS
330
B398
102
}
330
1A
100
AcDbEntity
  8
1
  6
HIDDEN2
100
AcDbCircle
 10
9451.615335334984
 20
3017.02303767918
 30
0.0
 40
7.000000000000007
100
AcDbArc
 50
354.464296727896
 51
0.000000000000007
  0
LINE
  5
B03A
102
{ACAD_REACTORS
330
B398
102
}
330
1A
100
AcDbEntity
  8
1
  6
Continuous
100
AcDbLine
 10
9493.615335334984
 20
3020.02303767918
 30
0.0
 11
9493.615335334984
 21
3006.02303767918
 31
0.0
  0
LINE
  5
B03B
102
{ACAD_REACTORS
330
B398
102
}
330
1A
100
AcDbEntity
  8
1
  6
Continuous
100
AcDbLine
 10
9491.615335334985
 20
3025.02303767918
 30
0.0
 11
9491.615335334985
 21
3009.02303767918
 31
0.0
  0
LINE
  5
B03C
102
{ACAD_REACTORS
330
B398
102
}
330
1A
100
AcDbEntity
  8
1
  6
Continuous
100
AcDbLine
 10
9491.615335334985
 20
3009.02303767918
 30
0.0
 11
9491.615335334985
 21
2995.02303767918
 31
0.0
  0
LINE
  5
B03D
102
{ACAD_REACTORS
330
B398
102
}
330
1A
100
AcDbEntity
  8
1
  6
Continuous
100
AcDbLine
 10
9491.615335334985
 20
3006.02303767918
 30
0.0
 11
9493.615335334984
 21
3006.02303767918
 31
0.0
  0
LINE
  5
B03E
102
{ACAD_REACTORS
330
B398
102
}
330
1A
100
AcDbEntity
  8
1
  6
Continuous
100
AcDbLine
 10
9493.615335334984
 20
3020.02303767918
 30
0.0
 11
9491.615335334985
 21
3020.02303767918
 31
0.0
  0
LINE
  5
B03F
102
{ACAD_REACTORS
330
B398
102
}
330
1A
100
AcDbEntity
  8
1
  6
Continuous
100
AcDbLine
 10
9491.615335334985
 20
2995.02303767918
 30
0.0
 11
9466.814019488555
 21
2995.02303767918
 31
0.0
  0
LINE
  5
B040
102
{ACAD_REACTORS
330
B398
102
}
330
1A
100
AcDbEntity
  8
1
  6
Continuous
100
AcDbLine
 10
9473.976015109981
 20
3009.02303767918
 30
0.0
 11
9491.615335334985
 21
3009.02303767918
 31
0.0
  0
LINE
  5
B041
102
{ACAD_REACTORS
330
B398
102
}
330
1A
100
AcDbEntity
  8
1
  6
Continuous
100
AcDbLine
 10
9473.976015109981
 20
3025.02303767918
 30
0.0
 11
9491.615335334985
 21
3025.02303767918
 31
0.0
  0
ARC
  5
B042
102
{ACAD_REACTORS
330
B397
102
}
330
1A
100
AcDbEntity
  8
1
  6
Continuous
100
AcDbCircle
 10
9489.615335334987
 20
2969.02303767918
 30
0.0
 40
2.000000000000001
100
AcDbArc
 50
0.000000000000007
 51
90.0
  0
LINE
  5
B043
102
{ACAD_REACTORS
330
B3B2
102
}
330
1A
100
AcDbEntity
  8
1
100
AcDbLine
 10
9598.716206731907
 20
3007.023037679179
 30
0.0
 11
9636.716206731909
 21
3007.023037679179
 31
0.0
  0
LINE
  5
B044
102
{ACAD_REACTORS
330
B3B2
102
}
330
1A
100
AcDbEntity
  8
1
100
AcDbLine
 10
9599.716206731908
 20
3006.023037679179
 30
0.0
 11
9635.716206731908
 21
3006.023037679179
 31
0.0
  0
LINE
  5
B045
102
{ACAD_REACTORS
330
B3B2
102
}
330
1A
100
AcDbEntity
  8
1
100
AcDbLine
 10
9598.716206731907
 20
3019.023037679179
 30
0.0
 11
9636.716206731909
 21
3019.023037679179
 31
0.0
  0
LINE
  5
B046
102
{ACAD_REACTORS
330
B3B2
102
}
330
1A
100
AcDbEntity
  8
1
100
AcDbLine
 10
9635.716206731908
 20
3020.023037679179
 30
0.0
 11
9599.716206731908
 21
3020.023037679179
 31
0.0
  0
CIRCLE
  5
B047
102
{ACAD_REACTORS
330
B3B2
102
}
330
1A
100
AcDbEntity
  8
1
100
AcDbCircle
 10
9617.716206731907
 20
3013.023037679179
 30
0.0
 40
3.45
  0
LINE
  5
B048
102
{ACAD_REACTORS
330
B3B2
102
}
330
1A
100
AcDbEntity
  8
1
100
AcDbLine
 10
9607.716206731907
 20
3003.02303767918
 30
0.0
 11
9607.716206731907
 21
3005.02303767918
 31
0.0
  0
ARC
  5
B049
102
{ACAD_REACTORS
330
B3B2
102
}
330
1A
100
AcDbEntity
  8
1
100
AcDbCircle
 10
9606.716206731904
 20
3005.02303767918
 30
0.0
 40
1.0
100
AcDbArc
 50
0.0
 51
89.99999999999998
  0
LINE
  5
B04A
102
{ACAD_REACTORS
330
B3B2
102
}
330
1A
100
AcDbEntity
  8
1
100
AcDbLine
 10
9598.716206731907
 20
3007.023037679179
 30
0.0
 11
9599.716206731908
 21
3006.023037679179
 31
0.0
  0
LINE
  5
B04B
102
{ACAD_REACTORS
330
B3B2
102
}
330
1A
100
AcDbEntity
  8
1
100
AcDbLine
 10
9599.716206731908
 20
3020.023037679179
 30
0.0
 11
9598.716206731907
 21
3019.023037679179
 31
0.0
  0
LINE
  5
B04C
102
{ACAD_REACTORS
330
B3B2
102
}
330
1A
100
AcDbEntity
  8
1
100
AcDbLine
 10
9598.716206731907
 20
3019.023037679179
 30
0.0
 11
9598.716206731907
 21
3007.023037679179
 31
0.0
  0
LINE
  5
B04D
102
{ACAD_REACTORS
330
B3B2
102
}
330
1A
100
AcDbEntity
  8
1
100
AcDbLine
 10
9627.716206731909
 20
3003.02303767918
 30
0.0
 11
9627.716206731909
 21
3005.02303767918
 31
0.0
  0
LINE
  5
B04E
102
{ACAD_REACTORS
330
B3B2
102
}
330
1A
100
AcDbEntity
  8
1
100
AcDbLine
 10
9635.716206731908
 20
3006.023037679179
 30
0.0
 11
9636.716206731909
 21
3007.023037679179
 31
0.0
  0
ARC
  5
B04F
102
{ACAD_REACTORS
330
B3B2
102
}
330
1A
100
AcDbEntity
  8
1
100
AcDbCircle
 10
9628.716206731908
 20
3005.02303767918
 30
0.0
 40
1.0
100
AcDbArc
 50
89.99999999999998
 51
180.0
  0
LINE
  5
B050
102
{ACAD_REACTORS
330
B3B2
102
}
330
1A
100
AcDbEntity
  8
1
100
AcDbLine
 10
9635.716206731908
 20
3020.023037679179
 30
0.0
 11
9636.716206731909
 21
3019.023037679179
 31
0.0
  0
LINE
  5
B051
102
{ACAD_REACTORS
330
B3B2
102
}
330
1A
100
AcDbEntity
  8
1
100
AcDbLine
 10
9636.716206731909
 20
3007.023037679179
 30
0.0
 11
9636.716206731909
 21
3019.023037679179
 31
0.0
  0
LINE
  5
B052
330
1A
100
AcDbEntity
  8
1
100
AcDbLine
 10
9636.611958042955
 20
2979.523037679179
 30
0.0
 11
9658.216206731893
 21
2979.523037679179
 31
0.0
  0
LINE
  5
B053
330
1A
100
AcDbEntity
  8
1
100
AcDbLine
 10
9636.71620673189
 20
2975.523037679179
 30
0.0
 11
9658.216206731893
 21
2975.523037679179
 31
0.0
  0
LINE
  5
B054
330
1A
100
AcDbEntity
  8
1
100
AcDbLine
 10
9636.71620673189
 20
2993.023037679177
 30
0.0
 11
9627.716206731896
 21
2993.023037679177
 31
0.0
  0
ARC
  5
B055
330
1A
100
AcDbEntity
  8
1
100
AcDbCircle
 10
9633.966206731891
 20
2985.273037679176
 30
0.0
 40
2.75
100
AcDbArc
 50
292.9094366018257
 51
67.09056339817426
  0
LINE
  5
B056
330
1A
100
AcDbEntity
  8
1
100
AcDbLine
 10
9635.036714807585
 20
2988.883291717021
 30
0.0
 11
9635.036714807585
 21
2974.223037679179
 31
0.0
  0
ARC
  5
B057
330
1A
100
AcDbEntity
  8
1
100
AcDbCircle
 10
9633.966206731891
 20
2978.773037679177
 30
0.0
 40
2.75
100
AcDbArc
 50
0.000000000000007
 51
67.09056339817426
  0
LINE
  5
B058
330
1A
100
AcDbEntity
  8
1
100
AcDbLine
 10
9636.71620673189
 20
2978.773037679177
 30
0.0
 11
9636.71620673189
 21
2973.023037679176
 31
0.0
  0
LINE
  5
B059
330
1A
100
AcDbEntity
  8
1
100
AcDbLine
 10
9636.716206731893
 20
2973.02303767918
 30
0.0
 11
9636.716206731893
 21
2971.023037679179
 31
0.0
  0
LINE
  5
B05A
330
1A
100
AcDbEntity
  8
1
100
AcDbLine
 10
9638.716206731894
 20
2975.023037679179
 30
0.0
 11
9638.716206731894
 21
2971.023037679177
 31
0.0
  0
LINE
  5
B05B
330
1A
100
AcDbEntity
  8
1
100
AcDbLine
 10
9638.716206731894
 20
2975.023037679179
 30
0.0
 11
9636.716206731893
 21
2973.02303767918
 31
0.0
  0
LINE
  5
B05C
330
1A
100
AcDbEntity
  8
1
100
AcDbLine
 10
9636.216206731894
 20
2974.223037679178
 30
0.0
 11
9636.216206731894
 21
2971.023037679179
 31
0.0
  0
LINE
  5
B05D
330
1A
100
AcDbEntity
  8
1
100
AcDbLine
 10
9636.71620673189
 20
2995.023037679181
 30
0.0
 11
9636.71620673189
 21
2993.023037679177
 31
0.0
  0
LINE
  5
B05E
330
1A
100
AcDbEntity
  8
1
100
AcDbLine
 10
9634.825073407025
 20
2989.023037679177
 30
0.0
 11
9636.716206731891
 21
2989.023037679177
 31
0.0
  0
LINE
  5
B05F
330
1A
100
AcDbEntity
  8
1
100
AcDbLine
 10
9636.716206731891
 20
2993.023037679177
 30
0.0
 11
9636.716206731891
 21
2989.023037679177
 31
0.0
  0
LINE
  5
B060
330
1A
100
AcDbEntity
  8
1
100
AcDbLine
 10
9632.716206731895
 20
2990.223037679178
 30
0.0
 11
9635.036714807585
 21
2988.883291717023
 31
0.0
  0
LINE
  5
B061
330
1A
100
AcDbEntity
  8
1
100
AcDbLine
 10
9627.716206731896
 20
2995.023037679181
 30
0.0
 11
9627.716206731896
 21
2990.223037679178
 31
0.0
  0
LINE
  5
B062
330
1A
100
AcDbEntity
  8
1
100
AcDbLine
 10
9636.71620673189
 20
2975.023037679179
 30
0.0
 11
9638.716206731894
 21
2975.023037679179
 31
0.0
  0
LINE
  5
B063
330
1A
100
AcDbEntity
  8
1
100
AcDbLine
 10
9636.216206731894
 20
2973.02303767918
 30
0.0
 11
9636.716206731893
 21
2973.02303767918
 31
0.0
  0
ARC
  5
B064
330
1A
100
AcDbEntity
  8
1
100
AcDbCircle
 10
9655.216206731893
 20
2973.02303767918
 30
0.0
 40
2.5
100
AcDbArc
 50
0.0
 51
90.0
  0
ARC
  5
B065
330
1A
100
AcDbEntity
  8
1
100
AcDbCircle
 10
9658.216206731893
 20
2973.02303767918
 30
0.0
 40
2.5
100
AcDbArc
 50
0.0
 51
90.0
  0
ARC
  5
B066
330
1A
100
AcDbEntity
  8
1
100
AcDbCircle
 10
9658.216206731893
 20
2973.02303767918
 30
0.0
 40
6.5
100
AcDbArc
 50
0.0
 51
90.0
  0
LINE
  5
B067
330
1A
100
AcDbEntity
  8
1
100
AcDbLine
 10
9596.716206731894
 20
2975.023037679179
 30
0.0
 11
9598.716206731891
 21
2975.023037679179
 31
0.0
  0
LINE
  5
B068
330
1A
100
AcDbEntity
  8
1
100
AcDbLine
 10
9577.216206731893
 20
2975.523037679179
 30
0.0
 11
9598.716206731891
 21
2975.523037679179
 31
0.0
  0
LINE
  5
B069
330
1A
100
AcDbEntity
  8
1
100
AcDbLine
 10
9577.216206731893
 20
2979.523037679179
 30
0.0
 11
9598.820455420828
 21
2979.523037679179
 31
0.0
  0
ARC
  5
B06A
330
1A
100
AcDbEntity
  8
1
100
AcDbCircle
 10
9604.72582567513
 20
2982.555569433912
 30
0.0
 40
7.667468245267238
100
AcDbArc
 50
55.61575253194651
 51
124.3842474680534
  0
ARC
  5
B06B
330
1A
100
AcDbEntity
  8
1
100
AcDbCircle
 10
9601.466206731892
 20
2985.273037679176
 30
0.0
 40
2.75
100
AcDbArc
 50
112.9094366017026
 51
247.0905633983359
  0
LINE
  5
B06C
330
1A
100
AcDbEntity
  8
1
100
AcDbLine
 10
9600.395698656205
 20
2988.883291717023
 30
0.0
 11
9600.395698656207
 21
2974.223037679179
 31
0.0
  0
ARC
  5
B06D
330
1A
100
AcDbEntity
  8
1
100
AcDbCircle
 10
9601.466206731892
 20
2978.773037679177
 30
0.0
 40
2.75
100
AcDbArc
 50
112.9094366016639
 51
180.0
  0
LINE
  5
B06E
330
1A
100
AcDbEntity
  8
1
100
AcDbLine
 10
9598.716206731891
 20
2978.773037679177
 30
0.0
 11
9598.716206731891
 21
2973.023037679176
 31
0.0
  0
LINE
  5
B06F
330
1A
100
AcDbEntity
  8
1
100
AcDbLine
 10
9598.716206731893
 20
2973.023037679181
 30
0.0
 11
9598.716206731893
 21
2971.023037679177
 31
0.0
  0
LINE
  5
B070
330
1A
100
AcDbEntity
  8
1
100
AcDbLine
 10
9596.716206731894
 20
2975.023037679179
 30
0.0
 11
9596.716206731894
 21
2971.023037679177
 31
0.0
  0
ARC
  5
B071
330
1A
100
AcDbEntity
  8
1
100
AcDbCircle
 10
9580.216206731893
 20
2973.02303767918
 30
0.0
 40
2.5
100
AcDbArc
 50
90.0
 51
180.0
  0
LINE
  5
B072
330
1A
100
AcDbEntity
  8
1
100
AcDbLine
 10
9596.716206731894
 20
2975.023037679179
 30
0.0
 11
9598.716206731893
 21
2973.023037679181
 31
0.0
  0
LINE
  5
B073
330
1A
100
AcDbEntity
  8
1
100
AcDbLine
 10
9599.216206731895
 20
2974.223037679178
 30
0.0
 11
9599.216206731895
 21
2971.023037679179
 31
0.0
  0
LINE
  5
B074
330
1A
100
AcDbEntity
  8
1
100
AcDbLine
 10
9598.716206731889
 20
2995.023037679181
 30
0.0
 11
9598.716206731888
 21
2993.023037679177
 31
0.0
  0
LINE
  5
B075
330
1A
100
AcDbEntity
  8
1
100
AcDbLine
 10
9600.607340056766
 20
2989.023037679177
 30
0.0
 11
9598.716206731889
 21
2989.023037679177
 31
0.0
  0
LINE
  5
B076
330
1A
100
AcDbEntity
  8
1
100
AcDbLine
 10
9598.716206731889
 20
2993.023037679177
 30
0.0
 11
9598.716206731889
 21
2989.023037679177
 31
0.0
  0
LINE
  5
B077
330
1A
100
AcDbEntity
  8
1
100
AcDbLine
 10
9602.716206731896
 20
2990.223037679178
 30
0.0
 11
9600.395698656207
 21
2988.883291717023
 31
0.0
  0
LINE
  5
B078
330
1A
100
AcDbEntity
  8
1
100
AcDbLine
 10
9609.055952694049
 20
2988.883291717023
 30
0.0
 11
9609.055952694051
 21
2974.223037679178
 31
0.0
  0
LINE
  5
B079
330
1A
100
AcDbEntity
  8
1
100
AcDbLine
 10
9626.376460769741
 20
2988.883291717023
 30
0.0
 11
9626.376460769741
 21
2974.223037679178
 31
0.0
  0
ARC
  5
B07A
330
1A
100
AcDbEntity
  8
1
100
AcDbCircle
 10
9617.716206731895
 20
2961.562783641334
 30
0.0
 40
28.66025403784447
100
AcDbArc
 50
72.41204622600619
 51
107.5879537739938
  0
LINE
  5
B07B
330
1A
100
AcDbEntity
  8
1
100
AcDbLine
 10
9607.716206731895
 20
2995.023037679181
 30
0.0
 11
9607.716206731895
 21
2990.223037679178
 31
0.0
  0
LINE
  5
B07C
330
1A
100
AcDbEntity
  8
1
100
AcDbLine
 10
9598.716206731893
 20
2973.023037679181
 30
0.0
 11
9599.216206731895
 21
2973.02303767918
 31
0.0
  0
LINE
  5
B07D
330
1A
100
AcDbEntity
  8
1
100
AcDbLine
 10
9607.716206731895
 20
2993.023037679177
 30
0.0
 11
9598.716206731888
 21
2993.023037679177
 31
0.0
  0
LINE
  5
B07E
330
1A
100
AcDbEntity
  8
1
100
AcDbLine
 10
9599.216206731895
 20
2974.223037679178
 30
0.0
 11
9636.216206731898
 21
2974.223037679179
 31
0.0
  0
LINE
  5
B07F
330
1A
100
AcDbEntity
  8
1
100
AcDbLine
 10
9600.395698656207
 20
2974.223037679179
 30
0.0
 11
9635.036714807585
 21
2974.223037679178
 31
0.0
  0
LINE
  5
B080
330
1A
100
AcDbEntity
  8
1
100
AcDbLine
 10
9602.716206731896
 20
2990.223037679178
 30
0.0
 11
9632.716206731895
 21
2990.223037679178
 31
0.0
  0
ARC
  5
B081
330
1A
100
AcDbEntity
  8
1
100
AcDbCircle
 10
9630.706587788662
 20
2982.555569433912
 30
0.0
 40
7.667468245267238
100
AcDbArc
 50
55.61575253194652
 51
124.3842474680534
  0
LINE
  5
B082
102
{ACAD_REACTORS
330
B399
102
}
330
1A
100
AcDbEntity
  8
1
  6
Continuous
100
AcDbLine
 10
9672.716206731896
 20
3009.02303767918
 30
0.0
 11
9667.716206731896
 21
3009.02303767918
 31
0.0
  0
LINE
  5
B083
102
{ACAD_REACTORS
330
B399
102
}
330
1A
100
AcDbEntity
  8
1
  6
Continuous
100
AcDbLine
 10
9669.716206731896
 20
3006.02303767918
 30
0.0
 11
9661.716206731895
 21
3006.02303767918
 31
0.0
  0
LINE
  5
B084
102
{ACAD_REACTORS
330
B399
102
}
330
1A
100
AcDbEntity
  8
1
  6
Continuous
100
AcDbLine
 10
9672.716206731896
 20
3025.02303767918
 30
0.0
 11
9667.716206731896
 21
3025.02303767918
 31
0.0
  0
LINE
  5
B085
102
{ACAD_REACTORS
330
B399
102
}
330
1A
100
AcDbEntity
  8
1
  6
Continuous
100
AcDbLine
 10
9677.716206731895
 20
3010.02303767918
 30
0.0
 11
9677.716206731895
 21
3009.02303767918
 31
0.0
  0
LINE
  5
B086
102
{ACAD_REACTORS
330
B399
102
}
330
1A
100
AcDbEntity
  8
1
  6
Continuous
100
AcDbLine
 10
9672.716206731896
 20
3009.02303767918
 30
0.0
 11
9677.716206731895
 21
3009.02303767918
 31
0.0
  0
LINE
  5
B087
102
{ACAD_REACTORS
330
B399
102
}
330
1A
100
AcDbEntity
  8
1
  6
Continuous
100
AcDbLine
 10
9669.716206731896
 20
3006.02303767918
 30
0.0
 11
9669.716206731896
 21
3009.02303767918
 31
0.0
  0
LINE
  5
B088
102
{ACAD_REACTORS
330
B399
102
}
330
1A
100
AcDbEntity
  8
1
  6
Continuous
100
AcDbLine
 10
9679.716206731896
 20
3010.02303767918
 30
0.0
 11
9679.716206731896
 21
3024.02303767918
 31
0.0
  0
ARC
  5
B089
102
{ACAD_REACTORS
330
B399
102
}
330
1A
100
AcDbEntity
  8
1
  6
Continuous
100
AcDbCircle
 10
9691.006012060981
 20
3017.02303785058
 30
0.0
 40
15.0206167677811
100
AcDbArc
 50
152.2233501015002
 51
207.7766528131791
  0
LINE
  5
B08A
102
{ACAD_REACTORS
330
B399
102
}
330
1A
100
AcDbEntity
  8
1
  6
Continuous
100
AcDbLine
 10
9679.716206731896
 20
3010.02303767918
 30
0.0
 11
9677.716206731895
 21
3010.02303767918
 31
0.0
  0
LINE
  5
B08B
102
{ACAD_REACTORS
330
B399
102
}
330
1A
100
AcDbEntity
  8
1
  6
Continuous
100
AcDbLine
 10
9679.716206731896
 20
3010.02303767918
 30
0.0
 11
9677.716206731895
 21
3010.02303767918
 31
0.0
  0
LINE
  5
B08C
102
{ACAD_REACTORS
330
B399
102
}
330
1A
100
AcDbEntity
  8
1
  6
Continuous
100
AcDbLine
 10
9672.716206731896
 20
3025.02303767918
 30
0.0
 11
9677.716206731895
 21
3025.02303767918
 31
0.0
  0
LINE
  5
B08D
102
{ACAD_REACTORS
330
B399
102
}
330
1A
100
AcDbEntity
  8
1
  6
Continuous
100
AcDbLine
 10
9677.713450627278
 20
3024.02303767918
 30
0.0
 11
9679.716206731896
 21
3024.02303767918
 31
0.0
  0
LINE
  5
B08E
102
{ACAD_REACTORS
330
B399
102
}
330
1A
100
AcDbEntity
  8
1
  6
Continuous
100
AcDbLine
 10
9677.716206731895
 20
3025.02303767918
 30
0.0
 11
9677.716206731895
 21
3024.017149086828
 31
0.0
  0
LINE
  5
B08F
102
{ACAD_REACTORS
330
B399
102
}
330
1A
100
AcDbEntity
  8
1
  6
Continuous
100
AcDbLine
 10
9642.716206731895
 20
3003.02303767918
 30
0.0
 11
9642.716206731895
 21
3025.02303767918
 31
0.0
  0
LINE
  5
B090
102
{ACAD_REACTORS
330
B399
102
}
330
1A
100
AcDbEntity
  8
1
  6
Continuous
100
AcDbLine
 10
9667.716206731896
 20
3009.02303767918
 30
0.0
 11
9657.716206731896
 21
3009.02303767918
 31
0.0
  0
LINE
  5
B091
102
{ACAD_REACTORS
330
B399
102
}
330
1A
100
AcDbEntity
  8
1
  6
Continuous
100
AcDbLine
 10
9667.716206731896
 20
3025.02303767918
 30
0.0
 11
9667.716206731896
 21
3009.02303767918
 31
0.0
  0
LINE
  5
B092
102
{ACAD_REACTORS
330
B399
102
}
330
1A
100
AcDbEntity
  8
1
  6
Continuous
100
AcDbLine
 10
9661.716206731895
 20
3006.02303767918
 30
0.0
 11
9661.716206731895
 21
3009.02303767918
 31
0.0
  0
LINE
  5
B093
102
{ACAD_REACTORS
330
B399
102
}
330
1A
100
AcDbEntity
  8
1
  6
Continuous
100
AcDbLine
 10
9657.716206731896
 20
3009.02303767918
 30
0.0
 11
9657.716206731896
 21
2995.02303767918
 31
0.0
  0
LINE
  5
B094
102
{ACAD_REACTORS
330
B399
102
}
330
1A
100
AcDbEntity
  8
1
  6
Continuous
100
AcDbLine
 10
9667.716206731896
 20
3025.02303767918
 30
0.0
 11
9642.716206731895
 21
3025.02303767918
 31
0.0
  0
CIRCLE
  5
B095
102
{ACAD_REACTORS
330
B399
102
}
330
1A
100
AcDbEntity
  8
1
  6
Continuous
100
AcDbCircle
 10
9650.716206731896
 20
3013.02303767918
 30
0.0
 40
6.999999999999999
  0
CIRCLE
  5
B096
102
{ACAD_REACTORS
330
B399
102
}
330
1A
100
AcDbEntity
  8
1
  6
Continuous
100
AcDbCircle
 10
9650.716206731896
 20
3013.02303767918
 30
0.0
 40
3.0
  0
CIRCLE
  5
B097
102
{ACAD_REACTORS
330
B399
102
}
330
1A
100
AcDbEntity
  8
1
  6
Continuous
100
AcDbCircle
 10
9650.716206731896
 20
3013.02303767918
 30
0.0
 40
2.458499999999999
  0
CIRCLE
  5
B098
102
{ACAD_REACTORS
330
B399
102
}
330
1A
100
AcDbEntity
  8
1
  6
Continuous
100
AcDbCircle
 10
9584.716206731895
 20
3013.02303767918
 30
0.0
 40
7.0
  0
LINE
  5
B099
102
{ACAD_REACTORS
330
B399
102
}
330
1A
100
AcDbEntity
  8
1
  6
Continuous
100
AcDbLine
 10
9592.716206731894
 20
3003.02303767918
 30
0.0
 11
9592.716206731894
 21
3025.02303767918
 31
0.0
  0
CIRCLE
  5
B09A
102
{ACAD_REACTORS
330
B399
102
}
330
1A
100
AcDbEntity
  8
1
  6
Continuous
100
AcDbCircle
 10
9584.716206731895
 20
3013.02303767918
 30
0.0
 40
3.0
  0
CIRCLE
  5
B09B
102
{ACAD_REACTORS
330
B399
102
}
330
1A
100
AcDbEntity
  8
1
  6
Continuous
100
AcDbCircle
 10
9584.716206731895
 20
3013.02303767918
 30
0.0
 40
2.458499999999999
  0
LINE
  5
B09C
102
{ACAD_REACTORS
330
B399
102
}
330
1A
100
AcDbEntity
  8
1
  6
Continuous
100
AcDbLine
 10
9577.716206731896
 20
3009.02303767918
 30
0.0
 11
9577.716206731896
 21
2995.02303767918
 31
0.0
  0
LINE
  5
B09D
102
{ACAD_REACTORS
330
B399
102
}
330
1A
100
AcDbEntity
  8
1
  6
Continuous
100
AcDbLine
 10
9592.716206731894
 20
3003.02303767918
 30
0.0
 11
9642.716206731895
 21
3003.02303767918
 31
0.0
  0
LINE
  5
B09E
102
{ACAD_REACTORS
330
B399
102
}
330
1A
100
AcDbEntity
  8
1
  6
Continuous
100
AcDbLine
 10
9642.716206731895
 20
3025.02303767918
 30
0.0
 11
9592.716206731894
 21
3025.02303767918
 31
0.0
  0
LINE
  5
B09F
102
{ACAD_REACTORS
330
B399
102
}
330
1A
100
AcDbEntity
  8
1
  6
Continuous
100
AcDbLine
 10
9657.716206731896
 20
2995.02303767918
 30
0.0
 11
9577.716206731896
 21
2995.02303767918
 31
0.0
  0
ARC
  5
B0A0
102
{ACAD_REACTORS
330
B396
102
}
330
1A
100
AcDbEntity
  8
1
  6
Continuous
100
AcDbCircle
 10
9640.716206731894
 20
2969.02303767918
 30
0.0
 40
2.000000000000001
100
AcDbArc
 50
0.0
 51
90.0
  0
ARC
  5
B0A1
102
{ACAD_REACTORS
330
B396
102
}
330
1A
100
AcDbEntity
  8
1
  6
Continuous
100
AcDbCircle
 10
9594.716206731895
 20
2969.02303767918
 30
0.0
 40
2.000000000000001
100
AcDbArc
 50
90.0
 51
180.0
  0
LINE
  5
B0A2
102
{ACAD_REACTORS
330
B396
102
}
330
1A
100
AcDbEntity
  8
1
  6
Continuous
100
AcDbLine
 10
9594.716206731895
 20
2971.02303767918
 30
0.0
 11
9640.716206731894
 21
2971.02303767918
 31
0.0
  0
CIRCLE
  5
B0A3
102
{ACAD_REACTORS
330
B3B1
102
}
330
1A
100
AcDbEntity
  8
1
100
AcDbCircle
 10
9466.615335334987
 20
3212.207560202013
 30
0.0
 40
19.0
  0
CIRCLE
  5
B0A4
102
{ACAD_REACTORS
330
B3B1
102
}
330
1A
100
AcDbEntity
  8
1
100
AcDbCircle
 10
9466.615335334987
 20
3212.207560202013
 30
0.0
 40
18.5
  0
LINE
  5
B0A5
330
1A
100
AcDbEntity
  8
1
  6
Continuous
100
AcDbLine
 10
9444.615335334985
 20
3274.207560202013
 30
0.0
 11
9458.615335334986
 21
3274.207560202013
 31
0.0
  0
ARC
  5
B0A6
330
1A
100
AcDbEntity
  8
1
  6
Continuous
100
AcDbCircle
 10
9451.615335334984
 20
3257.207560202013
 30
0.0
 40
15.0
100
AcDbArc
 50
41.81031489579829
 51
138.1896851042017
  0
CIRCLE
  5
B0A7
330
1A
100
AcDbEntity
  8
1
  6
Continuous
100
AcDbCircle
 10
9451.615335334984
 20
3257.207560202013
 30
0.0
 40
7.0
  0
ARC
  5
B0A8
330
1A
100
AcDbEntity
  8
1
  6
Continuous
100
AcDbCircle
 10
9466.615335334985
 20
3212.207560202013
 30
0.0
 40
25.0
100
AcDbArc
 50
90.0
 51
270.0
  0
ARC
  5
B0A9
330
1A
100
AcDbEntity
  8
1
  6
Continuous
100
AcDbCircle
 10
9451.615335334984
 20
3167.207560202013
 30
0.0
 40
15.0
100
AcDbArc
 50
221.8103148957983
 51
318.1896851042017
  0
CIRCLE
  5
B0AA
330
1A
100
AcDbEntity
  8
1
  6
Continuous
100
AcDbCircle
 10
9451.615335334984
 20
3167.207560202013
 30
0.0
 40
7.0
  0
LINE
  5
B0AB
330
1A
100
AcDbEntity
  8
1
  6
Continuous
100
AcDbLine
 10
9444.615335334985
 20
3150.207560202013
 30
0.0
 11
9458.615335334986
 21
3150.207560202013
 31
0.0
  0
LINE
  5
B0AC
330
1A
100
AcDbEntity
  8
1
100
AcDbLine
 10
9444.615335334987
 20
3274.207560202013
 30
0.0
 11
9458.615335334988
 21
3274.207560202013
 31
0.0
  0
ARC
  5
B0AD
330
1A
100
AcDbEntity
  8
1
  6
Continuous
100
AcDbCircle
 10
9451.615335334988
 20
3257.207560202013
 30
0.0
 40
15.00000000000003
100
AcDbArc
 50
41.81031489578534
 51
138.1896851042017
  0
CIRCLE
  5
B0AE
330
1A
100
AcDbEntity
  8
1
  6
HIDDEN
100
AcDbCircle
 10
9451.615335334988
 20
3257.207560202013
 30
0.0
 40
9.000000000000001
  0
CIRCLE
  5
B0AF
330
1A
100
AcDbEntity
  8
1
  6
HIDDEN
100
AcDbCircle
 10
9451.615335334988
 20
3167.207560202013
 30
0.0
 40
9.000000000000001
  0
LINE
  5
B0B0
330
1A
100
AcDbEntity
  8
1
100
AcDbLine
 10
9444.615335334987
 20
3150.207560202013
 30
0.0
 11
9458.615335334988
 21
3150.207560202013
 31
0.0
  0
ARC
  5
B0B1
330
1A
100
AcDbEntity
  8
1
  6
Continuous
100
AcDbCircle
 10
9451.615335334988
 20
3167.207560202013
 30
0.0
 40
15.00000000000001
100
AcDbArc
 50
221.8103148957983
 51
318.1896851042147
  0
ARC
  5
B0B2
330
1A
100
AcDbEntity
  8
1
  6
Continuous
100
AcDbCircle
 10
9326.615335334984
 20
3212.207560202013
 30
0.0
 40
30.0
100
AcDbArc
 50
270.0
 51
90.0
  0
ARC
  5
B0B3
330
1A
100
AcDbEntity
  8
1
  6
Continuous
100
AcDbCircle
 10
9249.615335334986
 20
3252.207560202013
 30
0.0
 40
15.0
100
AcDbArc
 50
270.0
 51
0.000000000000007
  0
ARC
  5
B0B4
330
1A
100
AcDbEntity
  8
1
  6
Continuous
100
AcDbCircle
 10
9348.976015109981
 20
3147.207560202013
 30
0.0
 40
14.99999999999999
100
AcDbArc
 50
90.0
 51
138.1896851042017
  0
LINE
  5
B0B5
330
1A
100
AcDbEntity
  8
1
  6
Continuous
100
AcDbLine
 10
9331.514314820552
 20
3162.207560202013
 30
0.0
 11
9321.716355849419
 21
3162.207560202013
 31
0.0
  0
LINE
  5
B0B6
330
1A
100
AcDbEntity
  8
1
  6
Continuous
100
AcDbLine
 10
9312.473199711254
 20
3162.207560202013
 30
0.0
 11
9301.976015109987
 21
3162.207560202013
 31
0.0
  0
LINE
  5
B0B7
330
1A
100
AcDbEntity
  8
1
100
AcDbLine
 10
9343.615335334989
 20
3236.925970942351
 30
0.0
 11
9343.615335334989
 21
3187.489142565124
 31
0.0
  0
LINE
  5
B0B8
330
1A
100
AcDbEntity
  8
1
100
AcDbLine
 10
9339.615335334986
 20
3238.207556753737
 30
0.0
 11
9339.615335334986
 21
3186.207556753737
 31
0.0
  0
LINE
  5
B0B9
330
1A
100
AcDbEntity
  8
1
100
AcDbLine
 10
9337.615335334987
 20
3236.207556753737
 30
0.0
 11
9337.615335334987
 21
3188.207556753738
 31
0.0
  0
LINE
  5
B0BA
330
1A
100
AcDbEntity
  8
1
100
AcDbLine
 10
9340.615335334987
 20
3185.674558430895
 30
0.0
 11
9340.615335334987
 21
3238.74055507658
 31
0.0
  0
LINE
  5
B0BB
330
1A
100
AcDbEntity
  8
1
100
AcDbLine
 10
9336.615335334988
 20
3188.207556753738
 30
0.0
 11
9336.615335334988
 21
3236.207556753737
 31
0.0
  0
LINE
  5
B0BC
330
1A
100
AcDbEntity
  8
1
100
AcDbLine
 10
9336.615335334988
 20
3190.207556753737
 30
0.0
 11
9336.615335334988
 21
3188.207556753738
 31
0.0
  0
LINE
  5
B0BD
330
1A
100
AcDbEntity
  8
1
100
AcDbLine
 10
9337.615335334987
 20
3188.207556753738
 30
0.0
 11
9339.615335334986
 21
3186.207556753737
 31
0.0
  0
LINE
  5
B0BE
330
1A
100
AcDbEntity
  8
1
100
AcDbLine
 10
9336.615335334988
 20
3188.207556753738
 30
0.0
 11
9337.615335334987
 21
3188.207556753738
 31
0.0
  0
LINE
  5
B0BF
330
1A
100
AcDbEntity
  8
1
100
AcDbLine
 10
9339.615335334986
 20
3186.207556753737
 30
0.0
 11
9340.615335334987
 21
3186.207556753737
 31
0.0
  0
LINE
  5
B0C0
330
1A
100
AcDbEntity
  8
1
100
AcDbLine
 10
9339.615335334986
 20
3238.207556753737
 30
0.0
 11
9340.615335334987
 21
3238.207556753737
 31
0.0
  0
LINE
  5
B0C1
330
1A
100
AcDbEntity
  8
1
100
AcDbLine
 10
9336.615335334988
 20
3236.207556753737
 30
0.0
 11
9337.615335334987
 21
3236.207556753737
 31
0.0
  0
LINE
  5
B0C2
330
1A
100
AcDbEntity
  8
1
100
AcDbLine
 10
9337.615335334987
 20
3236.207556753737
 30
0.0
 11
9339.615335334986
 21
3238.207556753737
 31
0.0
  0
LINE
  5
B0C3
330
1A
100
AcDbEntity
  8
1
100
AcDbLine
 10
9336.615335334988
 20
3234.207556753737
 30
0.0
 11
9336.615335334988
 21
3236.207556753737
 31
0.0
  0
CIRCLE
  5
B0C9
330
1A
100
AcDbEntity
  8
1
  6
Continuous
100
AcDbCircle
 10
9326.615335334984
 20
3167.207560202013
 30
0.0
 40
7.0
  0
LINE
  5
B0CA
330
1A
100
AcDbEntity
  8
1
  6
Continuous
100
AcDbLine
 10
9333.615335334986
 20
3150.207560202013
 30
0.0
 11
9319.615335334985
 21
3150.207560202013
 31
0.0
  0
LINE
  5
B0CB
330
1A
100
AcDbEntity
  8
1
  6
Continuous
100
AcDbLine
 10
9319.615335334985
 20
3153.937819551761
 30
0.0
 11
9319.615335334985
 21
3150.207560202013
 31
0.0
  0
LINE
  5
B0CC
330
1A
100
AcDbEntity
  8
1
  6
Continuous
100
AcDbLine
 10
9333.615335334986
 20
3150.207560202013
 30
0.0
 11
9333.615335334986
 21
3153.927961240521
 31
0.0
  0
ARC
  5
B0CD
330
1A
100
AcDbEntity
  8
1
  6
Continuous
100
AcDbCircle
 10
9326.615335334984
 20
3167.207560202013
 30
0.0
 40
15.0
100
AcDbArc
 50
90.0
 51
318.1896851042017
  0
ARC
  5
B0CE
330
1A
100
AcDbEntity
  8
1
  6
Continuous
100
AcDbCircle
 10
9336.615335334988
 20
3236.207560202013
 30
0.0
 40
1.0
100
AcDbArc
 50
0.000000000000007
 51
90.0
  0
LINE
  5
B0CF
330
1A
100
AcDbEntity
  8
1
  6
Continuous
100
AcDbLine
 10
9264.615335334987
 20
3167.207560202013
 30
0.0
 11
9264.615335334987
 21
3172.207560202013
 31
0.0
  0
CIRCLE
  5
B0D0
330
1A
100
AcDbEntity
  8
1
  6
Continuous
100
AcDbCircle
 10
9279.615335334987
 20
3167.207560202013
 30
0.0
 40
9.000000000000007
  0
LINE
  5
B0D1
330
1A
100
AcDbEntity
  8
1
  6
Continuous
100
AcDbLine
 10
9286.615335334987
 20
3150.207560202013
 30
0.0
 11
9286.615335334987
 21
3153.937819551761
 31
0.0
  0
LINE
  5
B0D2
330
1A
100
AcDbEntity
  8
1
  6
Continuous
100
AcDbLine
 10
9272.615335334988
 20
3153.927961240521
 30
0.0
 11
9272.615335334988
 21
3150.207560202013
 31
0.0
  0
LINE
  5
B0D3
330
1A
100
AcDbEntity
  8
1
100
AcDbLine
 10
9272.615335334988
 20
3150.207560202013
 30
0.0
 11
9286.615335334987
 21
3150.207560202013
 31
0.0
  0
ARC
  5
B0D4
330
1A
100
AcDbEntity
  8
1
  6
Continuous
100
AcDbCircle
 10
9279.615335334987
 20
3167.207560202013
 30
0.0
 40
15.0
100
AcDbArc
 50
180.0
 51
318.1896851042017
  0
ARC
  5
B0D5
330
1A
100
AcDbEntity
  8
1
  6
Continuous
100
AcDbCircle
 10
9249.615335334986
 20
3172.207560202013
 30
0.0
 40
14.99999999999999
100
AcDbArc
 50
0.000000000000007
 51
90.0
  0
ARC
  5
B0D6
330
1A
100
AcDbEntity
  8
1
  6
Continuous
100
AcDbCircle
 10
9336.615335334988
 20
3188.207560202013
 30
0.0
 40
1.0
100
AcDbArc
 50
270.0
 51
0.000000000000007
  0
ARC
  5
B0D7
330
1A
100
AcDbEntity
  8
1
  6
Continuous
100
AcDbCircle
 10
9301.976015109987
 20
3147.207560202013
 30
0.0
 40
15.0
100
AcDbArc
 50
90.0
 51
138.1896851042017
  0
LINE
  5
B0D8
330
1A
100
AcDbEntity
  8
1
  6
Continuous
100
AcDbLine
 10
9337.615335334987
 20
3236.207560202013
 30
0.0
 11
9337.615335334987
 21
3188.207560202013
 31
0.0
  0
LINE
  5
B0D9
330
1A
100
AcDbEntity
  8
1
100
AcDbLine
 10
9355.615335334986
 20
3219.888702501598
 30
0.0
 11
9355.615335334986
 21
3204.526411005875
 31
0.0
  0
LINE
  5
B0DA
330
1A
100
AcDbEntity
  8
1
  6
Continuous
100
AcDbLine
 10
9362.615335334986
 20
3160.207560202013
 30
0.0
 11
9348.615335334987
 21
3160.207560202013
 31
0.0
  0
LINE
  5
B0DB
330
1A
100
AcDbEntity
  8
1
  6
Continuous
100
AcDbLine
 10
9348.615335334987
 20
3162.207560202013
 30
0.0
 11
9348.615335334987
 21
3160.207560202013
 31
0.0
  0
LINE
  5
B0DC
330
1A
100
AcDbEntity
  8
1
  6
Continuous
100
AcDbLine
 10
9362.615335334986
 20
3160.207560202013
 30
0.0
 11
9362.615335334986
 21
3162.207560202013
 31
0.0
  0
LINE
  5
B0DD
330
1A
100
AcDbEntity
  8
1
  6
Continuous
100
AcDbLine
 10
9414.615335334985
 20
3162.207560202013
 30
0.0
 11
9414.615335334985
 21
3160.207560202013
 31
0.0
  0
ARC
  5
B0DE
330
1A
100
AcDbEntity
  8
1
  6
Continuous
100
AcDbCircle
 10
9429.254655559986
 20
3147.207560202013
 30
0.0
 40
15.0
100
AcDbArc
 50
41.81031489579829
 51
90.0
  0
LINE
  5
B0DF
330
1A
100
AcDbEntity
  8
1
  6
Continuous
100
AcDbLine
 10
9428.615335334987
 20
3160.207560202013
 30
0.0
 11
9428.615335334987
 21
3162.207560202013
 31
0.0
  0
LINE
  5
B0E0
330
1A
100
AcDbEntity
  8
1
  6
Continuous
100
AcDbLine
 10
9444.615335334985
 20
3153.937819551761
 30
0.0
 11
9444.615335334985
 21
3150.207560202013
 31
0.0
  0
LINE
  5
B0E1
330
1A
100
AcDbEntity
  8
1
  6
Continuous
100
AcDbLine
 10
9348.976015109981
 20
3162.207560202013
 30
0.0
 11
9429.254655559985
 21
3162.207560202013
 31
0.0
  0
LINE
  5
B0E2
330
1A
100
AcDbEntity
  8
1
  6
Continuous
100
AcDbLine
 10
9414.615335334985
 20
3160.207560202013
 30
0.0
 11
9428.615335334987
 21
3160.207560202013
 31
0.0
  0
CIRCLE
  5
B0E3
330
1A
100
AcDbEntity
  8
1
  6
Continuous
 62
     9
100
AcDbCircle
 10
9412.615335334987
 20
3212.207560202013
 30
0.0
 40
16.0
  0
LINE
  5
B0E4
330
1A
100
AcDbEntity
  8
1
  6
Continuous
100
AcDbLine
 10
9348.615335334987
 20
3162.207560202013
 30
0.0
 11
9348.615335334987
 21
3160.207560202013
 31
0.0
  0
LINE
  5
B0E5
330
1A
100
AcDbEntity
  8
1
  6
Continuous
100
AcDbLine
 10
9362.615335334986
 20
3160.207560202013
 30
0.0
 11
9362.615335334986
 21
3162.207560202013
 31
0.0
  0
LINE
  5
B0E6
330
1A
100
AcDbEntity
  8
1
100
AcDbLine
 10
9414.615335334985
 20
3160.207560202013
 30
0.0
 11
9428.615335334987
 21
3160.207560202013
 31
0.0
  0
LINE
  5
B0E7
330
1A
100
AcDbEntity
  8
1
  6
Continuous
100
AcDbLine
 10
9414.615335334985
 20
3162.207560202013
 30
0.0
 11
9414.615335334985
 21
3160.207560202013
 31
0.0
  0
LINE
  5
B0E8
330
1A
100
AcDbEntity
  8
1
  6
Continuous
100
AcDbLine
 10
9428.615335334987
 20
3160.207560202013
 30
0.0
 11
9428.615335334987
 21
3162.207560202013
 31
0.0
  0
LINE
  5
B0E9
330
1A
100
AcDbEntity
  8
1
  6
Continuous
100
AcDbLine
 10
9444.615335334987
 20
3153.927961240521
 30
0.0
 11
9444.615335334987
 21
3150.207560202013
 31
0.0
  0
ARC
  5
B0EA
330
1A
100
AcDbEntity
  8
1
  6
Continuous
100
AcDbCircle
 10
9429.254655559992
 20
3147.207560202013
 30
0.0
 40
15.00000000000001
100
AcDbArc
 50
41.81031489579829
 51
90.0
  0
LINE
  5
B0EB
330
1A
100
AcDbEntity
  8
1
  6
Continuous
100
AcDbLine
 10
9429.254655559992
 20
3162.207560202013
 30
0.0
 11
9348.615335334988
 21
3162.207560202013
 31
0.0
  0
LINE
  5
B0EC
330
1A
100
AcDbEntity
  8
1
100
AcDbLine
 10
9348.615335334987
 20
3160.207560202013
 30
0.0
 11
9362.615335334986
 21
3160.207560202013
 31
0.0
  0
ARC
  5
B0ED
330
1A
100
AcDbEntity
  8
1
  6
Continuous
100
AcDbCircle
 10
9348.976015109981
 20
3277.207560202013
 30
0.0
 40
15.0
100
AcDbArc
 50
221.8103148957983
 51
270.0
  0
LINE
  5
B0EE
330
1A
100
AcDbEntity
  8
1
  6
Continuous
100
AcDbLine
 10
9321.716355849419
 20
3262.207560202013
 30
0.0
 11
9331.514314820552
 21
3262.207560202013
 31
0.0
  0
LINE
  5
B0EF
330
1A
100
AcDbEntity
  8
1
  6
Continuous
100
AcDbLine
 10
9333.615335334986
 20
3274.207560202013
 30
0.0
 11
9319.615335334985
 21
3274.207560202013
 31
0.0
  0
LINE
  5
B0F0
330
1A
100
AcDbEntity
  8
1
  6
Continuous
100
AcDbLine
 10
9319.615335334985
 20
3274.207560202013
 30
0.0
 11
9319.615335334985
 21
3270.477300852265
 31
0.0
  0
LINE
  5
B0F1
330
1A
100
AcDbEntity
  8
1
  6
Continuous
100
AcDbLine
 10
9333.615335334986
 20
3270.487159163505
 30
0.0
 11
9333.615335334986
 21
3274.207560202013
 31
0.0
  0
CIRCLE
  5
B0F2
330
1A
100
AcDbEntity
  8
1
  6
Continuous
100
AcDbCircle
 10
9326.615335334984
 20
3257.207560202013
 30
0.0
 40
7.000000000000006
  0
ARC
  5
B0F3
330
1A
100
AcDbEntity
  8
1
  6
Continuous
100
AcDbCircle
 10
9326.615335334984
 20
3257.207560202013
 30
0.0
 40
15.0
100
AcDbArc
 50
41.81031489579829
 51
270.0
  0
LINE
  5
B0F4
330
1A
100
AcDbEntity
  8
1
  6
Continuous
100
AcDbLine
 10
9272.615335334988
 20
3274.207560202013
 30
0.0
 11
9272.615335334988
 21
3270.487159163506
 31
0.0
  0
LINE
  5
B0F5
330
1A
100
AcDbEntity
  8
1
  6
Continuous
100
AcDbLine
 10
9286.615335334987
 20
3270.477300852265
 30
0.0
 11
9286.615335334987
 21
3274.207560202013
 31
0.0
  0
LINE
  5
B0F6
330
1A
100
AcDbEntity
  8
1
100
AcDbLine
 10
9272.615335334988
 20
3274.207560202013
 30
0.0
 11
9286.615335334987
 21
3274.207560202013
 31
0.0
  0
LINE
  5
B0F7
330
1A
100
AcDbEntity
  8
1
  6
Continuous
100
AcDbLine
 10
9264.615335334987
 20
3252.207560202013
 30
0.0
 11
9264.615335334987
 21
3257.207560202013
 31
0.0
  0
ARC
  5
B0F8
330
1A
100
AcDbEntity
  8
1
  6
Continuous
100
AcDbCircle
 10
9279.615335334987
 20
3257.207560202013
 30
0.0
 40
15.0
100
AcDbArc
 50
41.81031489579829
 51
180.0
  0
CIRCLE
  5
B0F9
330
1A
100
AcDbEntity
  8
1
  6
Continuous
100
AcDbCircle
 10
9279.615335334987
 20
3257.207560202013
 30
0.0
 40
9.000000000000007
  0
ARC
  5
B0FA
330
1A
100
AcDbEntity
  8
1
  6
Continuous
100
AcDbCircle
 10
9301.976015109987
 20
3277.207560202013
 30
0.0
 40
14.99999999999999
100
AcDbArc
 50
221.8103148957983
 51
270.0
  0
LINE
  5
B0FB
330
1A
100
AcDbEntity
  8
1
  6
Continuous
100
AcDbLine
 10
9301.976015109987
 20
3262.207560202013
 30
0.0
 11
9312.473199711254
 21
3262.207560202013
 31
0.0
  0
LINE
  5
B0FC
330
1A
100
AcDbEntity
  8
1
  6
Continuous
100
AcDbLine
 10
9348.615335334988
 20
3262.207560202013
 30
0.0
 11
9429.254655559992
 21
3262.207560202013
 31
0.0
  0
LINE
  5
B0FD
330
1A
100
AcDbEntity
  8
1
  6
Continuous
100
AcDbLine
 10
9362.615335334986
 20
3264.207560202013
 30
0.0
 11
9348.615335334987
 21
3264.207560202013
 31
0.0
  0
LINE
  5
B0FE
330
1A
100
AcDbEntity
  8
1
  6
Continuous
100
AcDbLine
 10
9348.615335334987
 20
3264.207560202013
 30
0.0
 11
9348.615335334987
 21
3262.207560202013
 31
0.0
  0
LINE
  5
B0FF
330
1A
100
AcDbEntity
  8
1
  6
Continuous
100
AcDbLine
 10
9362.615335334986
 20
3262.207560202013
 30
0.0
 11
9362.615335334986
 21
3264.207560202013
 31
0.0
  0
LINE
  5
B100
330
1A
100
AcDbEntity
  8
1
  6
Continuous
100
AcDbLine
 10
9414.615335334985
 20
3264.207560202013
 30
0.0
 11
9414.615335334985
 21
3262.207560202013
 31
0.0
  0
ARC
  5
B101
330
1A
100
AcDbEntity
  8
1
  6
Continuous
100
AcDbCircle
 10
9429.254655559985
 20
3277.207560202013
 30
0.0
 40
15.0
100
AcDbArc
 50
270.0
 51
318.1896851042017
  0
LINE
  5
B102
330
1A
100
AcDbEntity
  8
1
  6
Continuous
100
AcDbLine
 10
9428.615335334987
 20
3262.207560202013
 30
0.0
 11
9428.615335334987
 21
3264.207560202013
 31
0.0
  0
LINE
  5
B103
330
1A
100
AcDbEntity
  8
1
  6
Continuous
100
AcDbLine
 10
9444.615335334985
 20
3274.207560202013
 30
0.0
 11
9444.615335334985
 21
3270.477300852265
 31
0.0
  0
LINE
  5
B104
330
1A
100
AcDbEntity
  8
1
  6
Continuous
100
AcDbLine
 10
9429.254655559985
 20
3262.207560202013
 30
0.0
 11
9348.976015109981
 21
3262.207560202013
 31
0.0
  0
LINE
  5
B105
330
1A
100
AcDbEntity
  8
1
  6
Continuous
100
AcDbLine
 10
9414.615335334985
 20
3264.207560202013
 30
0.0
 11
9428.615335334987
 21
3264.207560202013
 31
0.0
  0
LINE
  5
B106
330
1A
100
AcDbEntity
  8
1
  6
Continuous
100
AcDbLine
 10
9348.615335334987
 20
3264.207560202013
 30
0.0
 11
9348.615335334987
 21
3262.207560202013
 31
0.0
  0
LINE
  5
B107
330
1A
100
AcDbEntity
  8
1
  6
Continuous
100
AcDbLine
 10
9362.615335334986
 20
3262.207560202013
 30
0.0
 11
9362.615335334986
 21
3264.207560202013
 31
0.0
  0
LINE
  5
B108
330
1A
100
AcDbEntity
  8
1
100
AcDbLine
 10
9414.615335334985
 20
3264.207560202013
 30
0.0
 11
9428.615335334987
 21
3264.207560202013
 31
0.0
  0
LINE
  5
B109
330
1A
100
AcDbEntity
  8
1
  6
Continuous
100
AcDbLine
 10
9414.615335334985
 20
3264.207560202013
 30
0.0
 11
9414.615335334985
 21
3262.207560202013
 31
0.0
  0
LINE
  5
B10A
330
1A
100
AcDbEntity
  8
1
  6
Continuous
100
AcDbLine
 10
9444.615335334987
 20
3274.207560202013
 30
0.0
 11
9444.615335334987
 21
3270.487159163506
 31
0.0
  0
ARC
  5
B10B
330
1A
100
AcDbEntity
  8
1
  6
Continuous
100
AcDbCircle
 10
9429.254655559992
 20
3277.207560202013
 30
0.0
 40
15.0
100
AcDbArc
 50
270.0
 51
318.1896851042017
  0
LINE
  5
B10C
330
1A
100
AcDbEntity
  8
1
  6
Continuous
100
AcDbLine
 10
9428.615335334987
 20
3262.207560202013
 30
0.0
 11
9428.615335334987
 21
3264.207560202013
 31
0.0
  0
LINE
  5
B10D
330
1A
100
AcDbEntity
  8
1
100
AcDbLine
 10
9348.615335334987
 20
3264.207560202013
 30
0.0
 11
9362.615335334986
 21
3264.207560202013
 31
0.0
  0
LINE
  5
B10E
330
1A
100
AcDbEntity
  8
1
  6
Continuous
100
AcDbLine
 10
9493.615335334984
 20
3252.207560202013
 30
0.0
 11
9493.615335334984
 21
3238.207560202013
 31
0.0
  0
LINE
  5
B10F
330
1A
100
AcDbEntity
  8
1
  6
Continuous
100
AcDbLine
 10
9491.615335334985
 20
3237.207560202013
 30
0.0
 11
9491.615335334985
 21
3262.207560202013
 31
0.0
  0
CIRCLE
  5
B110
102
{ACAD_REACTORS
330
B3B1
102
}
330
1A
100
AcDbEntity
  8
1
100
AcDbCircle
 10
9466.615335334987
 20
3199.707560202011
 30
0.0
 40
2.1
  0
CIRCLE
  5
B111
102
{ACAD_REACTORS
330
B3B1
102
}
330
1A
100
AcDbEntity
  8
1
100
AcDbCircle
 10
9466.615335334987
 20
3224.707560202011
 30
0.0
 40
2.1
  0
ARC
  5
B112
330
1A
100
AcDbEntity
  8
1
  6
Continuous
100
AcDbCircle
 10
9473.976015109981
 20
3147.207560202013
 30
0.0
 40
14.99999999999999
100
AcDbArc
 50
90.0
 51
138.1896851042017
  0
LINE
  5
B113
330
1A
100
AcDbEntity
  8
1
  6
Continuous
100
AcDbLine
 10
9458.615335334986
 20
3150.207560202013
 30
0.0
 11
9458.615335334986
 21
3153.927961240521
 31
0.0
  0
LINE
  5
B114
330
1A
100
AcDbEntity
  8
1
  6
Continuous
100
AcDbLine
 10
9491.615335334985
 20
3237.207560202013
 30
0.0
 11
9491.615335334985
 21
3187.207560202013
 31
0.0
  0
LINE
  5
B115
330
1A
100
AcDbEntity
  8
1
  6
Continuous
100
AcDbLine
 10
9493.615335334984
 20
3186.207560202013
 30
0.0
 11
9493.615335334984
 21
3172.207560202013
 31
0.0
  0
LINE
  5
B116
330
1A
100
AcDbEntity
  8
1
  6
Continuous
100
AcDbLine
 10
9491.615335334985
 20
3162.207560202013
 30
0.0
 11
9491.615335334985
 21
3187.207560202013
 31
0.0
  0
LINE
  5
B117
330
1A
100
AcDbEntity
  8
1
  6
Continuous
100
AcDbLine
 10
9491.615335334985
 20
3172.207560202013
 30
0.0
 11
9493.615335334984
 21
3172.207560202013
 31
0.0
  0
LINE
  5
B118
330
1A
100
AcDbEntity
  8
1
  6
Continuous
100
AcDbLine
 10
9493.615335334984
 20
3186.207560202013
 30
0.0
 11
9491.615335334985
 21
3186.207560202013
 31
0.0
  0
LINE
  5
B119
330
1A
100
AcDbEntity
  8
1
  6
Continuous
100
AcDbLine
 10
9491.615335334985
 20
3238.207560202013
 30
0.0
 11
9493.615335334984
 21
3238.207560202013
 31
0.0
  0
LINE
  5
B11A
330
1A
100
AcDbEntity
  8
1
  6
Continuous
100
AcDbLine
 10
9491.615335334985
 20
3187.207560202013
 30
0.0
 11
9466.615335334985
 21
3187.207560202013
 31
0.0
  0
LINE
  5
B11B
330
1A
100
AcDbEntity
  8
1
  6
Continuous
100
AcDbLine
 10
9473.976015109981
 20
3162.207560202013
 30
0.0
 11
9491.615335334985
 21
3162.207560202013
 31
0.0
  0
LINE
  5
B11C
330
1A
100
AcDbEntity
  8
1
  6
Continuous
100
AcDbLine
 10
9466.615335334985
 20
3237.207560202013
 30
0.0
 11
9491.615335334985
 21
3237.207560202013
 31
0.0
  0
LINE
  5
B11D
330
1A
100
AcDbEntity
  8
1
  6
Continuous
100
AcDbLine
 10
9458.615335334988
 20
3150.207560202013
 30
0.0
 11
9458.615335334988
 21
3153.937819551761
 31
0.0
  0
LINE
  5
B11E
330
1A
100
AcDbEntity
  8
1
  6
Continuous
100
AcDbLine
 10
9493.615335334988
 20
3219.207560202013
 30
0.0
 11
9490.621226550963
 21
3219.207560202013
 31
0.0
  0
LINE
  5
B11F
330
1A
100
AcDbEntity
  8
1
  6
Continuous
100
AcDbLine
 10
9490.622541241224
 20
3205.207560202013
 30
0.0
 11
9493.615335334988
 21
3205.207560202013
 31
0.0
  0
LINE
  5
B120
330
1A
100
AcDbEntity
  8
1
100
AcDbLine
 10
9493.615335334988
 20
3219.207560202013
 30
0.0
 11
9493.615335334988
 21
3205.207560202013
 31
0.0
  0
ARC
  5
B121
330
1A
100
AcDbEntity
  8
1
  6
Continuous
100
AcDbCircle
 10
9473.976015109981
 20
3277.207560202013
 30
0.0
 40
15.0
100
AcDbArc
 50
221.8103148957983
 51
270.0
  0
LINE
  5
B122
330
1A
100
AcDbEntity
  8
1
  6
Continuous
100
AcDbLine
 10
9458.615335334986
 20
3270.487159163505
 30
0.0
 11
9458.615335334986
 21
3274.207560202013
 31
0.0
  0
LINE
  5
B123
330
1A
100
AcDbEntity
  8
1
  6
Continuous
100
AcDbLine
 10
9493.615335334984
 20
3252.207560202013
 30
0.0
 11
9491.615335334985
 21
3252.207560202013
 31
0.0
  0
LINE
  5
B124
330
1A
100
AcDbEntity
  8
1
  6
Continuous
100
AcDbLine
 10
9491.615335334985
 20
3262.207560202013
 30
0.0
 11
9473.976015109981
 21
3262.207560202013
 31
0.0
  0
LINE
  5
B125
330
1A
100
AcDbEntity
  8
1
  6
Continuous
100
AcDbLine
 10
9458.615335334988
 20
3270.477300852265
 30
0.0
 11
9458.615335334988
 21
3274.207560202013
 31
0.0
  0
LINE
  5
BBEE
330
1A
100
AcDbEntity
  8
CENTER
100
AcDbLine
 10
9508.977896100589
 20
3212.207560202013
 30
0.0
 11
9097.635723689881
 21
3212.207560202013
 31
0.0
  0
LINE
  5
BC08
330
1A
100
AcDbEntity
  8
1
  6
HIDDEN
 48
0.5
100
AcDbLine
 10
9591.213847407754
 20
2694.409002525711
 30
0.0
 11
9591.213847407754
 21
2688.409002525712
 31
0.0
  0
LINE
  5
BC09
330
1A
100
AcDbEntity
  8
1
  6
HIDDEN
 48
0.5
100
AcDbLine
 10
9578.213847407752
 20
2694.409002525711
 30
0.0
 11
9578.213847407752
 21
2688.409002525712
 31
0.0
  0
LINE
  5
BC0A
330
1A
100
AcDbEntity
  8
CENTER
100
AcDbLine
 10
9584.713847407753
 20
2699.409002525712
 30
0.0
 11
9584.713847407753
 21
2683.409002525712
 31
0.0
  0
LINE
  5
BC0B
102
{ACAD_REACTORS
330
BC52
102
}
330
1A
100
AcDbEntity
  8
1
100
AcDbLine
 10
9598.713847407752
 20
2694.409002525711
 30
0.0
 11
9570.713847407752
 21
2694.409002525711
 31
0.0
  0
LINE
  5
BC0C
102
{ACAD_REACTORS
330
BC52
102
}
330
1A
100
AcDbEntity
  8
1
100
AcDbLine
 10
9570.713847407752
 20
2688.409002525712
 30
0.0
 11
9598.713847407752
 21
2688.409002525712
 31
0.0
  0
LINE
  5
BC0D
102
{ACAD_REACTORS
330
BC52
102
}
330
1A
100
AcDbEntity
  8
1
100
AcDbLine
 10
9570.713847407752
 20
2694.409002525711
 30
0.0
 11
9570.713847407752
 21
2688.409002525712
 31
0.0
  0
LINE
  5
BC0E
102
{ACAD_REACTORS
330
BC52
102
}
330
1A
100
AcDbEntity
  8
1
100
AcDbLine
 10
9598.713847407752
 20
2688.409002525712
 30
0.0
 11
9598.713847407752
 21
2694.409002525711
 31
0.0
  0
CIRCLE
  5
BC0F
102
{ACAD_REACTORS
330
BC51
102
}
330
1A
100
AcDbEntity
  8
1
100
AcDbCircle
 10
9584.713847407753
 20
2733.71316184675
 30
0.0
 40
6.5
  0
CIRCLE
  5
BC10
102
{ACAD_REACTORS
330
BC51
102
}
330
1A
100
AcDbEntity
  8
1
100
AcDbCircle
 10
9584.713847407753
 20
2733.71316184675
 30
0.0
 40
14.0
  0
LINE
  5
BC11
330
1A
100
AcDbEntity
  8
CENTER
100
AcDbLine
 10
9617.716206731888
 20
3021.02303767918
 30
0.0
 11
9617.716206731895
 21
2883.02303767918
 31
0.0
  0
LINE
  5
BCCC
330
1A
100
AcDbEntity
  8
CENTER
100
AcDbLine
 10
9437.101906796163
 20
2950.023037679179
 30
0.0
 11
9114.177340849012
 21
2950.023037679179
 31
0.0
  0
INSERT
  5
BD3B
330
1A
100
AcDbEntity
  8
1
100
AcDbBlockReference
  2
CBF20
 10
9279.615335334995
 20
3212.207556753738
 30
0.0
  0
CIRCLE
  5
BD3C
330
1A
100
AcDbEntity
  8
1
100
AcDbCircle
 10
9279.615335334995
 20
3212.207556753738
 30
0.0
 40
18.5
  0
CIRCLE
  5
BD3D
330
1A
100
AcDbEntity
  8
1
100
AcDbCircle
 10
9317.615335334995
 20
3212.207556753738
 30
0.0
 40
18.5
  0
INSERT
  5
BD3E
330
1A
100
AcDbEntity
  8
1
100
AcDbBlockReference
  2
CBF20
 10
9317.615335334995
 20
3212.207556753738
 30
0.0
  0
LINE
  5
BD40
330
1A
100
AcDbEntity
  8
1
100
AcDbLine
 10
9298.115335334996
 20
2976.22303767918
 30
0.0
 11
9298.115335334996
 21
2973.023037679181
 31
0.0
  0
LINE
  5
BD41
330
1A
100
AcDbEntity
  8
1
100
AcDbLine
 10
9299.115335334994
 20
2976.223037679181
 30
0.0
 11
9299.115335334994
 21
2973.023037679181
 31
0.0
  0
LINE
  5
BD43
330
1A
100
AcDbEntity
  8
1
100
AcDbLine
 10
9261.115335334995
 20
2976.22303767918
 30
0.0
 11
9261.115335334995
 21
2973.023037679181
 31
0.0
  0
LINE
  5
BD44
330
1A
100
AcDbEntity
  8
1
100
AcDbLine
 10
9261.115335334995
 20
2976.22303767918
 30
0.0
 11
9298.115335334992
 21
2976.22303767918
 31
0.0
  0
LINE
  5
BD45
330
1A
100
AcDbEntity
  8
1
100
AcDbLine
 10
9299.115335334994
 20
2976.22303767918
 30
0.0
 11
9336.115335334994
 21
2976.22303767918
 31
0.0
  0
LINE
  5
BD46
330
1A
100
AcDbEntity
  8
1
100
AcDbLine
 10
9336.115335334994
 20
2976.223037679181
 30
0.0
 11
9336.115335334994
 21
2973.023037679181
 31
0.0
  0
MTEXT
  5
BE41
102
{ACAD_REACTORS
330
BE40
102
}
330
1A
100
AcDbEntity
  8
MEASURE
 62
     2
100
AcDbMText
 10
10280.03055927117
 20
2868.629410628727
 30
0.0
 40
10.5
 41
60.0
 71
     7
 72
     1
  1

  7
AD-STANDARD
 73
     1
 44
1.0
  0
LINE
  5
BE73
330
1A
100
AcDbEntity
  8
1
 48
0.3
100
AcDbLine
 10
9264.615335334994
 20
2976.22303767918
 30
0.0
 11
9264.615335334994
 21
2995.22303767918
 31
0.0
  0
LINE
  5
BE74
330
1A
100
AcDbEntity
  8
1
 48
0.3
100
AcDbLine
 10
9294.615335334993
 20
2976.22303767918
 30
0.0
 11
9294.615335334993
 21
2995.22303767918
 31
0.0
  0
LINE
  5
BE75
330
1A
100
AcDbEntity
  8
1
 48
0.3
100
AcDbLine
 10
9294.615335334993
 20
2976.22303767918
 30
0.0
 11
9264.615335334994
 21
2976.22303767918
 31
0.0
  0
LINE
  5
BE76
330
1A
100
AcDbEntity
  8
1
 48
0.3
100
AcDbLine
 10
9292.883283719858
 20
2996.22303767918
 30
0.0
 11
9266.347386950132
 21
2996.22303767918
 31
0.0
  0
LINE
  5
BE77
330
1A
100
AcDbEntity
  8
1
 48
0.3
100
AcDbLine
 10
9264.615335334994
 20
2995.22303767918
 30
0.0
 11
9266.347386950132
 21
2996.22303767918
 31
0.0
  0
LINE
  5
BE78
330
1A
100
AcDbEntity
  8
1
 48
0.3
100
AcDbLine
 10
9272.550988765267
 20
2995.22303767918
 30
0.0
 11
9264.615335334994
 21
2995.22303767918
 31
0.0
  0
LINE
  5
BE79
330
1A
100
AcDbEntity
  8
1
 48
0.3
100
AcDbLine
 10
9286.67968190472
 20
2995.22303767918
 30
0.0
 11
9294.615335334993
 21
2995.22303767918
 31
0.0
  0
LINE
  5
BE7A
330
1A
100
AcDbEntity
  8
1
 48
0.3
100
AcDbLine
 10
9294.615335334993
 20
2995.22303767918
 30
0.0
 11
9292.883283719858
 21
2996.22303767918
 31
0.0
  0
LINE
  5
BE7B
330
1A
100
AcDbEntity
  8
1
 48
0.3
100
AcDbLine
 10
9302.615335334996
 20
2976.22303767918
 30
0.0
 11
9302.615335334996
 21
2995.22303767918
 31
0.0
  0
LINE
  5
BE7C
330
1A
100
AcDbEntity
  8
1
 48
0.3
100
AcDbLine
 10
9332.615335334995
 20
2976.22303767918
 30
0.0
 11
9332.615335334995
 21
2995.22303767918
 31
0.0
  0
LINE
  5
BE7D
330
1A
100
AcDbEntity
  8
1
 48
0.3
100
AcDbLine
 10
9332.615335334995
 20
2976.22303767918
 30
0.0
 11
9302.615335334996
 21
2976.22303767918
 31
0.0
  0
LINE
  5
BE7E
330
1A
100
AcDbEntity
  8
1
 48
0.3
100
AcDbLine
 10
9330.883283719856
 20
2996.22303767918
 30
0.0
 11
9304.347386950132
 21
2996.22303767918
 31
0.0
  0
LINE
  5
BE7F
330
1A
100
AcDbEntity
  8
1
 48
0.3
100
AcDbLine
 10
9302.615335334996
 20
2995.22303767918
 30
0.0
 11
9304.347386950132
 21
2996.22303767918
 31
0.0
  0
LINE
  5
BE80
330
1A
100
AcDbEntity
  8
1
 48
0.3
100
AcDbLine
 10
9310.550988765269
 20
2995.22303767918
 30
0.0
 11
9302.615335334996
 21
2995.22303767918
 31
0.0
  0
LINE
  5
BE81
330
1A
100
AcDbEntity
  8
1
 48
0.3
100
AcDbLine
 10
9324.679681904722
 20
2995.22303767918
 30
0.0
 11
9332.615335334995
 21
2995.22303767918
 31
0.0
  0
LINE
  5
BE82
330
1A
100
AcDbEntity
  8
1
 48
0.3
100
AcDbLine
 10
9332.615335334995
 20
2995.22303767918
 30
0.0
 11
9330.883283719856
 21
2996.22303767918
 31
0.0
  0
LINE
  5
BE87
330
1A
100
AcDbEntity
  8
1
  6
Continuous
100
AcDbLine
 10
9238.749291547406
 20
2929.523041826832
 30
0.0
 11
9237.883266547406
 21
2931.023041127456
 31
0.0
  0
LINE
  5
BE88
330
1A
100
AcDbEntity
  8
1
  6
Continuous
100
AcDbLine
 10
9237.883266547406
 20
2931.023041127456
 30
0.0
 11
9238.749291547406
 21
2932.523040428081
 31
0.0
  0
LINE
  5
BE89
330
1A
100
AcDbEntity
  8
1
  6
Continuous
100
AcDbLine
 10
9241.347366547405
 20
2931.023041127456
 30
0.0
 11
9240.481341547406
 21
2929.523041826832
 31
0.0
  0
LINE
  5
BE8A
330
1A
100
AcDbEntity
  8
1
  6
Continuous
100
AcDbLine
 10
9240.481341547406
 20
2932.523040428081
 30
0.0
 11
9241.347366547405
 21
2931.023041127456
 31
0.0
  0
LINE
  5
BE8B
330
1A
100
AcDbEntity
  8
1
  6
Continuous
100
AcDbLine
 10
9238.749291547406
 20
2932.523040428081
 30
0.0
 11
9240.481341547406
 21
2932.523040428081
 31
0.0
  0
LINE
  5
BE8C
330
1A
100
AcDbEntity
  8
1
  6
Continuous
100
AcDbLine
 10
9240.481341547406
 20
2929.523041826832
 30
0.0
 11
9238.749291547406
 21
2929.523041826832
 31
0.0
  0
CIRCLE
  5
BE8D
330
1A
100
AcDbEntity
  8
1
  6
Continuous
100
AcDbCircle
 10
9239.615316547405
 20
2931.023041127456
 30
0.0
 40
3.5
  0
CIRCLE
  5
BE8E
330
1A
100
AcDbEntity
  8
1
  6
Continuous
100
AcDbCircle
 10
9239.615316547405
 20
2931.023041127456
 30
0.0
 40
2.980384515458561
  0
CIRCLE
  5
BE8F
330
1A
100
AcDbEntity
  8
1
100
AcDbCircle
 10
9239.615335334987
 20
2931.02303767918
 30
0.0
 40
3.800000000000181
  0
LINE
  5
BE90
330
1A
100
AcDbEntity
  8
1
100
AcDbLine
 10
9237.615335334988
 20
3183.507556753738
 30
0.0
 11
9236.115335334988
 21
3183.507556753738
 31
0.0
  0
LINE
  5
BE91
330
1A
100
AcDbEntity
  8
1
100
AcDbLine
 10
9236.115335334988
 20
3183.507556753738
 30
0.0
 11
9236.634950577258
 21
3183.207556753737
 31
0.0
  0
LINE
  5
BE92
330
1A
100
AcDbEntity
  8
1
100
AcDbLine
 10
9243.115335334987
 20
3187.207556753737
 30
0.0
 11
9236.115335334988
 21
3187.207556753737
 31
0.0
  0
LINE
  5
BE93
330
1A
100
AcDbEntity
  8
1
100
AcDbLine
 10
9236.115335334988
 20
3183.507556753738
 30
0.0
 11
9236.115335334988
 21
3187.207556753737
 31
0.0
  0
LINE
  5
BE94
330
1A
100
AcDbEntity
  8
1
100
AcDbLine
 10
9243.115335334987
 20
3183.507556753738
 30
0.0
 11
9243.115335334987
 21
3187.207556753737
 31
0.0
  0
LINE
  5
BE95
330
1A
100
AcDbEntity
  8
1
100
AcDbLine
 10
9242.595720092717
 20
3183.207556753737
 30
0.0
 11
9236.634950577258
 21
3183.207556753737
 31
0.0
  0
LINE
  5
BE96
330
1A
100
AcDbEntity
  8
1
100
AcDbLine
 10
9243.115335334987
 20
3183.507556753738
 30
0.0
 11
9242.595720092717
 21
3183.207556753737
 31
0.0
  0
LINE
  5
BE97
330
1A
100
AcDbEntity
  8
1
100
AcDbLine
 10
9243.115335334987
 20
3183.507556753738
 30
0.0
 11
9241.615335334987
 21
3183.507556753738
 31
0.0
  0
LINE
  5
BE98
330
1A
100
AcDbEntity
  8
1
 48
0.3
100
AcDbLine
 10
9243.415335334987
 20
3188.207556753738
 30
0.0
 11
9235.815335334988
 21
3188.207556753738
 31
0.0
  0
LINE
  5
BE99
330
1A
100
AcDbEntity
  8
1
 48
0.3
100
AcDbLine
 10
9243.415335334987
 20
3187.207556753737
 30
0.0
 11
9235.815335334988
 21
3187.207556753737
 31
0.0
  0
LINE
  5
BE9A
330
1A
100
AcDbEntity
  8
1
 48
0.3
100
AcDbLine
 10
9239.274305502689
 20
3187.207556753737
 30
0.0
 11
9239.542254695122
 21
3188.207556753738
 31
0.0
  0
LINE
  5
BE9B
330
1A
100
AcDbEntity
  8
1
 48
0.3
100
AcDbLine
 10
9239.688415974853
 20
3187.207556753737
 30
0.0
 11
9239.956365167286
 21
3188.207556753738
 31
0.0
  0
LINE
  5
BE9C
330
1A
100
AcDbEntity
  8
1
 48
0.3
100
AcDbLine
 10
9235.815335334988
 20
3188.207556753738
 30
0.0
 11
9235.815335334988
 21
3187.207556753737
 31
0.0
  0
LINE
  5
BE9D
330
1A
100
AcDbEntity
  8
1
 48
0.3
100
AcDbLine
 10
9243.415335334987
 20
3188.207556753738
 30
0.0
 11
9243.415335334987
 21
3187.207556753737
 31
0.0
  0
VIEWPORT
  5
90F4
330
90F3
100
AcDbEntity
 67
     1
  8
0
100
AcDbViewport
 10
253.4016067445288
 20
120.5900618769262
 30
0.0
 40
643.2063017199419
 41
387.2826675848946
 68
     1
 69
     1
 12
253.4016067445288
 22
120.5900618769262
 13
0.0
 23
0.0
 14
1.0
 24
1.0
 15
10.0
 25
10.0
 16
0.0
 26
0.0
 36
1.0
 17
0.0
 27
0.0
 37
0.0
 42
50.0
 43
0.0
 44
0.0
 45
387.2826675848946
 50
0.0
 51
0.0
 72
   100
 90
    32768
  1

281
     0
 71
     1
 74
     0
110
0.0
120
0.0
130
0.0
111
1.0
121
0.0
131
0.0
112
0.0
122
1.0
132
0.0
 79
     0
146
0.0
  0
VIEWPORT
  5
90F5
330
90F3
100
AcDbEntity
 67
     1
  8
DEFPOINTS
100
AcDbViewport
 10
211.6157960726694
 20
144.4999999999999
 30
0.0
 40
383.2315921453389
 41
265.0
 68
     2
 69
     2
 12
9423.0475841488
 22
2998.185938576104
 13
0.0
 23
0.0
 14
168.0
 24
168.0
 15
0.0
 25
0.0
 16
0.0
 26
0.0
 36
1.0
 17
0.0
 27
0.0
 37
0.0
 42
50.0
 43
0.0
 44
0.0
 45
795.7957957957959
 50
0.0
 51
0.0
 72
   100
 90
    36864
  1

281
     0
 71
     1
 74
     0
110
0.0
120
0.0
130
0.0
111
1.0
121
0.0
131
0.0
112
0.0
122
1.0
132
0.0
 79
     0
146
0.0
  0
ENDSEC
  0
SECTION
  2
OBJECTS
  0
DICTIONARY
  5
C
330
0
100
AcDbDictionary
281
     1
  3
ACAD_GROUP
350
D
  3
ACAD_LAYOUT
350
2C2
  3
ACAD_MLINESTYLE
350
E
  3
ACAD_PLOTSETTINGS
350
2C3
  3
ACAD_PLOTSTYLENAME
350
2C0
  3
AcadDim
350
B770
  3
AcDbVariableDictionary
350
97C
  3
CONTENTDICTIONARY
350
234
  0
DICTIONARY
  5
6468
330
2
100
AcDbDictionary
280
     1
281
     1
  3
ACAD_LAYERFILTERS
360
6469
  0
DICTIONARY
  5
3EE
330
1A
100
AcDbDictionary
280
     1
281
     1
  3
ACAD_LAYOUTSELFREF
360
5504
  0
DICTIONARY
  5
D
102
{ACAD_REACTORS
330
C
102
}
330
C
100
AcDbDictionary
281
     1
  3
*A1
350
3E11
  3
*A2
350
B399
  3
*A3
350
8E98
  3
*A4
350
B3A7
  3
*A5
350
9C47
  3
*A6
350
9618
  3
*A7
350
B36E
  3
*A8
350
8910
  3
*A9
350
963A
  3
*A10
350
9759
  3
*A11
350
B371
  3
*A12
350
963B
  3
*A13
350
88D4
  3
*A14
350
963E
  3
*A15
350
A57A
  3
*A16
350
86D9
  3
*A17
350
B387
  3
*A18
350
A57B
  3
*A19
350
6C54
  3
*A20
350
B3CD
  3
*A21
350
9B05
  3
*A22
350
A438
  3
*A23
350
9B06
  3
*A24
350
B5C8
  3
*A25
350
622D
  3
*A26
350
9697
  3
*A27
350
9B07
  3
*A28
350
9B02
  3
*A29
350
8564
  3
*A30
350
9B0E
  3
*A31
350
9B0F
  3
*A32
350
B3A3
  3
*A33
350
6228
  3
*A34
350
622C
  3
*A35
350
B383
  3
*A36
350
9646
  3
*A37
350
9B10
  3
*A38
350
9B11
  3
*A39
350
A439
  3
*A40
350
5BDA
  3
*A41
350
B388
  3
*A42
350
B441
  3
*A43
350
B3E5
  3
*A44
350
9801
  3
*A45
350
9B52
  3
*A46
350
B5C9
  3
*A47
350
9C49
  3
*A48
350
9B12
  3
*A49
350
86BF
  3
*A50
350
9B4E
  3
*A51
350
9B4F
  3
*A52
350
9B50
  3
*A53
350
A443
  3
*A54
350
9B51
  3
*A55
350
88D3
  3
*A56
350
9D75
  3
*A57
350
B5CA
  3
*A58
350
A63D
  3
*A59
350
A5D4
  3
*A60
350
9D76
  3
*A61
350
B39E
  3
*A62
350
964C
  3
*A63
350
6CF9
  3
*A64
350
B375
  3
*A65
350
A5D3
  3
*A66
350
9EB5
  3
*A67
350
B3A1
  3
*A68
350
B3BA
  3
*A69
350
5BF3
  3
*A70
350
99D2
  3
*A71
350
B3F1
  3
*A72
350
9EB6
  3
*A73
350
9EBA
  3
*A74
350
B3F9
  3
*A75
350
88D0
  3
*A76
350
B377
  3
*A77
350
B36F
  3
*A78
350
9FC1
  3
*A79
350
9BF5
  3
*A80
350
9FC2
  3
*A81
350
A43A
  3
*A82
350
88F4
  3
*A83
350
A5D5
  3
*A84
350
A13C
  3
*A85
350
A446
  3
*A86
350
A13D
  3
*A87
350
B376
  3
*A88
350
5B9B
  3
*A89
350
A140
  3
*A90
350
B780
  3
*A91
350
8560
  3
*A92
350
A43B
  3
*A93
350
A43C
  3
*A94
350
88D7
  3
*A95
350
A43D
  3
*A96
350
B3BD
  3
*A97
350
A43E
  3
*A98
350
A43F
  3
*A99
350
A440
  3
*A100
350
A5EB
  3
*A101
350
5B8E
  3
*A102
350
B389
  3
*A103
350
967C
  3
*A104
350
6DB6
  3
*A105
350
86DB
  3
*A106
350
B419
  3
*A107
350
9BF1
  3
*A108
350
A441
  3
*A109
350
5BDD
  3
*A110
350
A442
  3
*A111
350
B378
  3
*A112
350
A13F
  3
*A113
350
A7B6
  3
*A114
350
B9D0
  3
*A115
350
B38A
  3
*A116
350
97A3
  3
*A117
350
B9D4
  3
*A118
350
B3A4
  3
*A119
350
BB87
  3
*A120
350
A436
  3
*A121
350
6DB2
  3
*A122
350
BC51
  3
*A123
350
9651
  3
*A124
350
B781
  3
*A125
350
BC52
  3
*A126
350
BC56
  3
*A127
350
470B
  3
*A128
350
B43E
  3
*A129
350
BCCD
  3
*A130
350
B379
  3
*A131
350
B37A
  3
*A132
350
B37B
  3
*A133
350
B3A5
  3
*A134
350
9BF2
  3
*A135
350
9034
  3
*A136
350
8672
  3
*A137
350
A4A3
  3
*A138
350
B37C
  3
*A139
350
731D
  3
*A140
350
890F
  3
*A141
350
460E
  3
*A142
350
A13E
  3
*A143
350
B37D
  3
*A144
350
B37E
  3
*A145
350
B37F
  3
*A146
350
8795
  3
*A147
350
B380
  3
*A148
350
A7B5
  3
*A149
350
B38C
  3
*A150
350
470E
  3
*A151
350
B38D
  3
*A152
350
B38E
  3
*A153
350
8B62
  3
*A154
350
B38F
  3
*A155
350
99D0
  3
*A156
350
B43F
  3
*A157
350
B384
  3
*A158
350
B390
  3
*A159
350
8562
  3
*A160
350
A141
  3
*A161
350
9641
  3
*A162
350
8561
  3
*A163
350
B391
  3
*A164
350
A444
  3
*A165
350
B440
  3
*A166
350
86DA
  3
*A167
350
B3A8
  3
*A168
350
5C13
  3
*A169
350
B392
  3
*A170
350
B393
  3
*A171
350
B3A6
  3
*A172
350
B394
  3
*A173
350
9702
  3
*A174
350
B395
  3
*A175
350
8565
  3
*A176
350
B396
  3
*A177
350
B397
  3
*A178
350
99D6
  3
*A179
350
A445
  3
*A180
350
9BF3
  3
*A181
350
8793
  3
*A182
350
B3AA
  3
*A183
350
855F
  3
*A184
350
B3AC
  3
*A185
350
855C
  3
*A186
350
B3AD
  3
*A187
350
B3AE
  3
*A188
350
A447
  3
*A189
350
8779
  3
*A190
350
8796
  3
*A191
350
99D3
  3
*A192
350
9B03
  3
*A193
350
A146
  3
*A194
350
B3AF
  3
*A195
350
B381
  3
*A196
350
8ECE
  3
*A197
350
B3B0
  3
*A198
350
B3B1
  3
*A199
350
B3B7
  3
*A200
350
B467
  3
*A201
350
B3B8
  3
*A202
350
A14B
  3
*A203
350
B3B2
  3
*A204
350
5A87
  3
*A205
350
622B
  3
*A206
350
B3A2
  3
*A207
350
A63E
  3
*A208
350
B3B3
  3
*A209
350
B398
  3
*A210
350
B3B4
  3
*A211
350
B3B5
  3
*A212
350
B373
  3
*A213
350
B3B6
  3
*A214
350
8F16
  3
*A215
350
BD3A
  3
*A217
350
B468
  3
*A218
350
B3BB
  3
*A219
350
B382
  3
*A220
350
9BF4
  3
*A221
350
A448
  3
*A222
350
B469
  3
*A223
350
B3C5
  3
*A224
350
470D
  3
*A225
350
B46A
  3
*A226
350
99D1
  3
*A227
350
B5A6
  3
*A228
350
A63F
  3
*A229
350
B5A7
  3
*A230
350
B5A8
  3
*A231
350
A47A
  3
*A232
350
8AB2
  3
*A233
350
A437
  3
*A234
350
9703
  3
*A235
350
99D7
  3
*A236
350
9647
  3
*A237
350
470C
  3
*A238
350
8B07
  3
*A239
350
855E
  3
*A240
350
8794
  3
*A241
350
B418
  3
*A242
350
B39B
  3
*A243
350
9BF6
  3
*A244
350
A150
  3
*A245
350
A7B7
  3
*A246
350
6229
  3
*A247
350
5B9C
  3
*A248
350
B385
  3
*A249
350
975E
  3
*A250
350
A48C
  3
*A251
350
B3B9
  3
*A252
350
8687
  3
*A253
350
5BA3
  3
*A254
350
622A
  3
*A255
350
8B22
  3
*A256
350
9BF7
  3
*A257
350
88D1
  3
*A258
350
5AE8
  3
*A259
350
59A4
  3
*A260
350
9810
  3
*A261
350
B370
  3
*A262
350
4018
  3
*A263
350
8911
  3
*A264
350
88D6
  3
*A265
350
5C12
  3
*A266
350
731B
  3
*A267
350
8661
  3
*A268
350
731C
  3
*A269
350
6DB5
  3
*A270
350
9B01
  3
*A271
350
A155
  3
*A272
350
B39D
  3
*A273
350
B3BC
  3
*A274
350
99D4
  3
*A275
350
9663
  3
*A276
350
A7B8
  3
*A277
350
6225
  3
*A278
350
867E
  3
*A279
350
868A
  3
*A280
350
B39F
  3
*A281
350
9250
  3
*A282
350
99D5
  3
*A283
350
6226
  3
*A284
350
8563
  3
*A285
350
B405
  3
*A286
350
8667
  3
*A287
350
855D
  3
*A288
350
868D
  3
*A289
350
9763
  3
*A290
350
8673
  3
*A291
350
88D5
  3
*A292
350
A4A2
  3
*A293
350
867F
  3
*A294
350
5AC8
  3
*A295
350
8E6F
  3
*A296
350
B5A9
  3
*A297
350
B386
  3
*A298
350
B3A0
  3
*A299
350
9B04
  3
*A300
350
5AA1
  3
*A301
350
855B
  3
*A302
350
88D2
  3
*A303
350
A45D
  3
*A304
350
9252
  3
*A305
350
9340
  3
*A306
350
9341
  0
DICTIONARY
  5
2C2
102
{ACAD_REACTORS
330
C
102
}
330
C
100
AcDbDictionary
281
     1
  3
Model
350
2C4
  3
ﾚｲｱｳﾄ
350
90F2
  0
DICTIONARY
  5
E
102
{ACAD_REACTORS
330
C
102
}
330
C
100
AcDbDictionary
281
     1
  3
STANDARD
350
13
  0
DICTIONARY
  5
2C3
102
{ACAD_REACTORS
330
C
102
}
330
C
100
AcDbDictionary
281
     1
  3
A3formNX710
350
2FA
  0
ACDBDICTIONARYWDFLT
  5
2C0
102
{ACAD_REACTORS
330
C
102
}
330
C
100
AcDbDictionary
281
     1
  3
Normal
350
2C1
100
AcDbDictionaryWithDefault
340
2C1
  0
XRECORD
  5
B770
102
{ACAD_REACTORS
330
C
102
}
330
C
100
AcDbXrecord
280
     1
 90
   990106
  3

 60
     0
 61
     0
 62
     4
 63
     4
 64
     1
 65
     0
 66
     0
 67
     4
 68
     1
 69
     0
 70
     0
 71
     0
 72
     0
 40
60.0
170
     2
340
0
  0
DICTIONARY
  5
97C
102
{ACAD_REACTORS
330
C
102
}
330
C
100
AcDbDictionary
281
     1
  3
SORTENTS
350
97D
  0
DICTIONARY
  5
234
102
{ACAD_REACTORS
330
C
102
}
330
C
100
AcDbDictionary
281
     1
  0
DICTIONARY
  5
6469
102
{ACAD_REACTORS
330
6468
102
}
330
6468
100
AcDbDictionary
280
     1
281
     1
  3
-100
360
646A
  3
-50
360
646B
  3
-H
360
646C
  3
-T
360
646D
  3
$
360
646E
  3
(02)幹線
360
646F
  3
（02）幹線
360
6470
  3
(03)接地
360
6471
  3
（03）接地
360
6472
  3
（04）避雷
360
6473
  3
(05)中央監視
360
6474
  3
（05）中央監視
360
6475
  3
(06)非常用ｺﾝｾﾝﾄ
360
6476
  3
（06）非常用ｺﾝｾﾝﾄ
360
6477
  3
（07）ﾊﾞｽﾀﾞｸﾄ
360
6478
  3
（08）ｹｰﾌﾞﾙﾗｯｸ
360
6479
  3
(09)動力
360
647A
  3
（09）動力
360
647B
  3
(10)ｺﾝｾﾝﾄ
360
647C
  3
（10）ｺﾝｾﾝﾄ
360
647D
  3
（11）医療接地
360
647E
  3
(12)電灯
360
647F
  3
（12）電灯
360
6480
  3
(13)空調
360
6481
  3
（13）空調
360
6482
  3
（14）航空障害灯
360
6483
  3
(15)非常照明
360
6484
  3
（15）非常照明
360
6485
  3
（16）誘導灯
360
6486
  3
(17)電話
360
6487
  3
（17）電話
360
6488
  3
(18)情報
360
6489
  3
（18）情報
360
648A
  3
(19)ﾃﾚﾋﾞ
360
648B
  3
（19）ﾃﾚﾋﾞ
360
648C
  3
(20)防犯
360
648D
  3
（20）防犯
360
648E
  3
（21）ITV
360
648F
  3
(22)ﾅｰｽｺｰﾙ
360
6490
  3
（22）ﾅｰｽｺｰﾙ
360
6491
  3
（23）外来診察
360
6492
  3
（24）ﾍﾞｯﾄｻｲﾄﾞ
360
6493
  3
（25）採尿蓄量
360
6494
  3
(26)非常放送
360
6495
  3
（26）非常放送
360
6496
  3
（27）業務放送
360
6497
  3
(28)火報
360
6498
  3
（28）火報
360
6499
  3
(29)厨房
360
649A
  3
（29）厨房
360
649B
  3
､@ｯ・U+56F3
360
649C
  3
･画ｼhｪ愠ﾜ
360
649D
  3
0
360
649E
  3
0 画層
360
649F
  3
00
360
64A0
  3
001
360
64A1
  3
01
360
64A2
  3
05
360
64A3
  3
0系
360
64A4
  3
0系+CONTINUOUS
360
64A5
  3
0床内
360
64A6
  3
0床壁
360
64A7
  3
0詳細図
360
64A8
  3
0総合図off
360
64A9
  3
0総合図枠
360
64AA
  3
0平詳枠
360
64AB
  3
1
360
64AC
  3
1-30
360
64AD
  3
1-交差点処理図（最新1案）
360
64AE
  3
1／100
360
64AF
  3
100
360
64B0
  3
10画層
360
64B1
  3
1111
360
64B2
  3
12
360
64B3
  3
19
360
64B4
  3
1床
360
64B5
  3
1芯
360
64B6
  3
1芯線
360
64B7
  3
2
360
64B8
  3
2-線形図1
360
64B9
  3
200
360
64BA
  3
21
360
64BB
  3
2100
360
64BC
  3
250
360
64BD
  3
2600
360
64BE
  3
2f
360
64BF
  3
2躯体
360
64C0
  3
2断面
360
64C1
  3
2壁
360
64C2
  3
3
360
64C3
  3
3-線形図2
360
64C4
  3
300
360
64C5
  3
32
360
64C6
  3
333
360
64C7
  3
3A
360
64C8
  3
3開口
360
64C9
  3
3見掛り
360
64CA
  3
3天井内
360
64CB
  3
4
360
64CC
  3
41
360
64CD
  3
4仕上げ
360
64CE
  3
4天井
360
64CF
  3
5
360
64D0
  3
50
360
64D1
  3
50off
360
64D2
  3
50詳細図
360
64D3
  3
51-52
360
64D4
  3
555
360
64D5
  3
5画層
360
64D6
  3
5寸法
360
64D7
  3
5文字
360
64D8
  3
6
360
64D9
  3
66-躯体図
360
64DA
  3
66躯体図
360
64DB
  3
6画層
360
64DC
  3
6記号
360
64DD
  3
6文字
360
64DE
  3
6保留
360
64DF
  3
7
360
64E0
  3
7-専用部北行
360
64E1
  3
7a画層
360
64E2
  3
7記号
360
64E3
  3
8
360
64E4
  3
8-ONﾗﾝﾌﾟ
360
64E5
  3
8寸法
360
64E6
  3
8設備
360
64E7
  3
9
360
64E8
  3
9-OFFﾗﾝﾌﾟ
360
64E9
  3
901101
360
64EA
  3
9文字
360
64EB
  3
9目地
360
64EC
  3
a
360
64ED
  3
A-
360
64EE
  3
a-roof
360
64EF
  3
A 画層
360
64F0
  3
A111-only
360
910B
  3
A3
360
64F1
  3
aa
360
64F2
  3
aaa
360
64F3
  3
AAAA
360
64F4
  3
AB棟
360
64F5
  3
ＡＢ棟
360
64F6
  3
all選択
360
64F7
  3
AREA
360
64F8
  3
AREA-SG
360
64F9
  3
ASDFCA
360
64FA
  3
aハッチング
360
64FB
  3
A空調
360
64FC
  3
Ａ断面
360
64FD
  3
b
360
64FE
  3
B 画層
360
64FF
  3
BAL
360
6500
  3
BASE
360
6501
  3
BBB
360
6502
  3
blue
360
6503
  3
BOR
360
6504
  3
b階段
360
6505
  3
Ｂ断面
360
6506
  3
B電気
360
6507
  3
B北
360
6508
  3
c
360
6509
  3
c-block
360
650A
  3
c-block-2
360
650B
  3
caa001
360
650C
  3
CABINETRY
360
650D
  3
cap-0
360
650E
  3
CASTellano
360
650F
  3
cc
360
6510
  3
CCC
360
6511
  3
ＣＤ棟
360
6512
  3
ceiling
360
6513
  3
CENTER
360
6514
  3
che
360
6515
  3
com
360
6516
  3
conotur
360
6517
  3
CONTI系
360
6518
  3
contour
360
6519
  3
conveyors
360
651A
  3
cyan
360
651B
  3
C衛生
360
651C
  3
C街区関連
360
651D
  3
c雑金物
360
651E
  3
C打計画図
360
651F
  3
Ｃ断面
360
6520
  3
C棟R部
360
6521
  3
DASHED
360
6522
  3
DASHED2
360
6523
  3
DDD
360
6524
  3
DEF
360
6525
  3
DENKI
360
6526
  3
DIM
360
6527
  3
DOORS
360
6528
  3
drain
360
6529
  3
Drow1
360
652A
  3
d外構
360
652B
  3
E
360
652C
  3
E 画層
360
652D
  3
E511-only
360
910C
  3
EEEE
360
652E
  3
EISEI
360
652F
  3
EL
360
6530
  3
ＥＬ３ｍ
360
6531
  3
ＥＬ8ｍ
360
6532
  3
ele
360
6533
  3
ELECTRICAL
360
6534
  3
ERAS1F
360
6535
  3
exterior
360
6536
  3
E南
360
6537
  3
F
360
6538
  3
feaze
360
6539
  3
FF
360
653A
  3
FLOW
360
653B
  3
Frame
360
653C
  3
freaze
360
653D
  3
freeze
360
653E
  3
Frozen
360
653F
  3
Fugou
360
6540
  3
FUKI
360
6541
  3
FUSE_00
360
6542
  3
G
360
6543
  3
GAIKOU
360
6544
  3
ganci
360
910D
  3
gasline
360
6545
  3
GLAZING
360
6546
  3
green
360
6547
  3
GRID
360
6548
  3
H
360
6549
  3
H 画層
360
654A
  3
HAISEN
360
654B
  3
HARI
360
654C
  3
HASIRA
360
654D
  3
HAT
360
654E
  3
HIDDEN
360
654F
  3
HM
360
6550
  3
HOJO
360
6551
  3
houki
360
6552
  3
i
360
6553
  3
I2
360
6554
  3
i2cl
360
6555
  3
i5
360
6556
  3
IEL
360
6557
  3
INSERT図
360
6558
  3
irc
360
6559
  3
j
360
655A
  3
jiku-0
360
655B
  3
jkhg8
360
655C
  3
KABE
360
655D
  3
KABESHIN
360
655E
  3
KAGU
360
655F
  3
key
360
6560
  3
keyplan
360
6561
  3
KIJUN
360
6562
  3
KSIN
360
6563
  3
kui
360
6564
  3
L 画層
360
6565
  3
L1
360
6566
  3
L2
360
6567
  3
layout
360
6568
  3
length
360
6569
  3
LOCK
360
656A
  3
M
360
656B
  3
magenta
360
656C
  3
MAJIKIRI
360
656D
  3
mazenda
360
656E
  3
MB
360
656F
  3
MECHANICAL
360
6570
  3
MEJI
360
6571
  3
men
360
6572
  3
MIE01
360
6573
  3
MOJI
360
6574
  3
MOJI100
360
6575
  3
MP
360
6576
  3
N
360
6577
  3
new
360
6578
  3
New Doors
360
6579
  3
New Walls
360
657A
  3
nic
360
657B
  3
NS CTS set
360
657C
  3
o
360
657D
  3
OF
360
657E
  3
Off
360
657F
  3
off文字
360
6580
  3
on
360
6581
  3
p
360
6582
  3
PARKING
360
6583
  3
PC
360
6584
  3
plot
360
6585
  3
PLUMBING
360
6586
  3
Q
360
6587
  3
R
360
6588
  3
raku
360
6589
  3
red
360
658A
  3
RJRUDDH
360
658B
  3
rock
360
658C
  3
ROOF
360
658D
  3
s
360
658E
  3
saciencewold
360
658F
  3
SC
360
6590
  3
sdfdf
360
6591
  3
SETUBI
360
6592
  3
SHITU
360
6593
  3
SHITUMEI
360
6594
  3
SIAG
360
6595
  3
SIAG-N
360
6596
  3
SIAG3
360
6597
  3
Sinm
360
6598
  3
SITA
360
6599
  3
site
360
659A
  3
SON
360
659B
  3
SS
360
659C
  3
STAIRS
360
659D
  3
standard
360
659E
  3
SUGA5
360
659F
  3
SUNP
360
65A0
  3
SUNP100
360
65A1
  3
SYOU
360
65A2
  3
S画層
360
65A3
  3
T
360
65A4
  3
TAKASA
360
65A5
  3
TATE161
360
65A6
  3
TATEGU
360
65A7
  3
TC
360
65A8
  3
TEN
360
65A9
  3
TENJYOU
360
65AA
  3
TENJYOUNAI
360
65AB
  3
test
360
65AC
  3
test1024
360
65AD
  3
test1115
360
65AE
  3
test2
360
65AF
  3
TEXT
360
65B0
  3
Thawed
360
65B1
  3
TITL
360
65B2
  3
tnjyou
360
65B3
  3
TORISHIN
360
65B4
  3
TSIN
360
65B5
  3
TTB-only
360
910E
  3
TU
360
65B6
  3
unlocked
360
65B7
  3
UNROCK
360
65B8
  3
VMB
360
65B9
  3
VOID
360
65BA
  3
waku
360
65BB
  3
WALLS
360
65BC
  3
ward
360
65BD
  3
X
360
65BE
  3
yaji
360
65BF
  3
yellow
360
65C0
  3
YUKA
360
65C1
  3
yその他
360
65C2
  3
Z
360
65C3
  3
z-CABINETRY
360
65C4
  3
z-WALLS
360
65C5
  3
ZATU
360
65C6
  3
z図枠
360
65C7
  3
ｨｾｨa
360
65C8
  3
ｨﾏ･ﾎ､､
360
65C9
  3
ガラス
360
65CA
  3
キ-プラン
360
65CB
  3
キープラン
360
65CC
  3
きんでん
360
65CD
  3
ｺﾝ
360
65CE
  3
シェルター
360
65CF
  3
すべての画層を非表示
360
65D0
  3
すべて非表示
360
65D1
  3
デッキ
360
65D2
  3
ハッチング
360
65D3
  3
ﾌﾘｰｽﾞ
360
65D4
  3
フリーズ
360
65D5
  3
フリーズof
360
65D6
  3
フリーズ画層
360
65D7
  3
ﾌﾘｰｽﾞ画層非表示
360
65D8
  3
ﾌﾘｰｽﾞ画面非表示
360
65D9
  3
ﾌﾘｰｽﾞ解除
360
65DA
  3
フリーズ解除
360
65DB
  3
ペーパー空間
360
65DC
  3
マーク
360
65DD
  3
ｭｱｿn
360
65DE
  3
ｭｫｭnｼh
360
65DF
  3
ランプ
360
65E0
  3
ロック以外
360
65E1
  3
ロック画層
360
65E2
  3
ロック解除
360
65E3
  3
ｦLｨ
360
65E4
  3
一括非表示
360
65E5
  3
一般
360
65E6
  3
一般画層
360
65E7
  3
印刷不可を表示
360
65E8
  3
荏原 機器
360
65E9
  3
荏原　機器基礎
360
65EA
  3
荏原機器
360
65EB
  3
荏原機器基礎
360
65EC
  3
衛生設備図
360
65ED
  3
黄色
360
65EE
  3
下地
360
65EF
  3
仮設
360
65F0
  3
家具
360
65F1
  3
開発画層
360
65F2
  3
外構
360
65F3
  3
外構一般画層
360
65F4
  3
外構図
360
65F5
  3
外部-フリーズ解除
360
65F6
  3
外部参照－建築
360
65F7
  3
外部参照の非表示画層
360
65F8
  3
岩級
360
65F9
  3
基
360
65FA
  3
基準
360
65FB
  3
基礎伏図
360
65FC
  3
既存杭
360
65FD
  3
機器
360
65FE
  3
機器基礎
360
65FF
  3
記号
360
6600
  3
旧
360
6601
  3
共通
360
6602
  3
区画
360
6603
  3
躯体
360
6604
  3
躯体図
360
6605
  3
駆体
360
6606
  3
空調設備図
360
6607
  3
郡川
360
6608
  3
型枠計画図
360
6609
  3
形状
360
660A
  3
形状以外
360
660B
  3
建具
360
660C
  3
建築
360
660D
  3
建築1
360
660E
  3
建築一般画層
360
660F
  3
建築図
360
6610
  3
建築接地図
360
6611
  3
建物
360
6612
  3
見え
360
6613
  3
見上
360
6614
  3
現況
360
6615
  3
現況＆境界
360
6616
  3
現在以外のすべてを選択
360
6617
  3
後付
360
6618
  3
公園
360
6619
  3
杭頭詳細図
360
661A
  3
杭伏図
360
661B
  3
高さ
360
661C
  3
高圧電気
360
661D
  3
座席のみ
360
661E
  3
作業
360
661F
  3
山止根切計画図
360
6620
  3
仕
360
6621
  3
仕上
360
6622
  3
仕上げ
360
6623
  3
仕上図
360
6624
  3
支柱取付部
360
6625
  3
施工図
360
6626
  3
紫
360
6627
  3
従属
360
6628
  3
出図
360
6629
  3
床伏
360
662A
  3
床伏図
360
662B
  3
昇降機
360
662C
  3
詳細
360
662D
  3
詳細一般画層
360
662E
  3
詳細図
360
662F
  3
上階躯体図
360
6630
  3
植栽
360
6631
  3
色番号8
360
6632
  3
新
360
6633
  3
新菱
360
6634
  3
申請用
360
6635
  3
芯
360
6636
  3
芯関係
360
6637
  3
水
360
6638
  3
水色
360
6639
  3
寸法
360
663A
  3
正面図
360
663B
  3
製作
360
663C
  3
製作-躯体
360
663D
  3
製作-建築
360
663E
  3
製作-昇降機
360
663F
  3
青
360
6640
  3
設備
360
6641
  3
設備１
360
6642
  3
専北
360
6643
  3
専用
360
6644
  3
川畑
360
6645
  3
線形
360
6646
  3
全階平面図
360
6647
  3
全帯
360
6648
  3
総合仮設図
360
6649
  3
総合図
360
664A
  3
総合図1
360
664B
  3
足場計画図
360
664C
  3
耐火
360
664D
  3
断面
360
664E
  3
断面図
360
664F
  3
中
360
6650
  3
中野
360
6651
  3
通り芯
360
6652
  3
低圧
360
6653
  3
鉄筋
360
6654
  3
鉄骨
360
6655
  3
鉄骨建方計画図
360
6656
  3
鉄骨梁見下げ
360
6657
  3
鉄骨梁見下げ3
360
6658
  3
天井
360
6659
  3
天井インサート図
360
665A
  3
天井総合図
360
665B
  3
天井伏
360
665C
  3
天井伏図
360
665D
  3
天伏
360
665E
  3
展開図
360
665F
  3
電ｺﾝｾﾝﾄ
360
6660
  3
電ﾃﾚﾋﾞ
360
6661
  3
電の画層
360
6662
  3
電の総画層
360
6663
  3
電医療接地
360
6664
  3
電気
360
6665
  3
電気画層
360
6666
  3
電気設計図
360
6667
  3
電気設備図
360
6668
  3
電電話
360
6669
  3
土留板
360
666A
  3
土留板取付詳細図
360
666B
  3
動力
360
666C
  3
道路
360
666D
  3
道路関係図
360
666E
  3
読み込み時表示層
360
666F
  3
日比谷
360
6670
  3
日比谷1
360
6671
  3
背面図
360
6672
  3
配管
360
6673
  3
配筋図
360
6674
  3
配置樹木
360
6675
  3
配置図
360
6676
  3
盤
360
6677
  3
非表示
360
6678
  3
非表示層のみ表示
360
6679
  3
表示
360
667A
  3
表示-ﾊﾟｼｺﾝ作成画層のみ
360
667B
  3
表示-近代作成画層のみ
360
667C
  3
表示-東電作成画層のみ
360
667D
  3
表示-日技作成画層のみ
360
667E
  3
表示-福山作成画層のみ
360
667F
  3
表示・非表示
360
6680
  3
表示2
360
6681
  3
表示層のみ表示
360
6682
  3
副道
360
6683
  3
分割枠
360
6684
  3
文字
360
6685
  3
平詳
360
6686
  3
平詳仕上表1
360
6687
  3
平面
360
6688
  3
平面詳細
360
6689
  3
平面詳細図
360
668A
  3
平面図
360
668B
  3
平面図のみ＠1
360
668C
  3
平面図のみ＠２
360
668D
  3
平面総合図
360
668E
  3
保留
360
668F
  3
補助線
360
6690
  3
法規チェック－区画
360
6691
  3
法規チェック－範囲
360
6692
  3
鳳文字入力
360
6693
  3
防災
360
6694
  3
名称
360
6695
  3
面積
360
6696
  3
立面図
360
6697
  3
梁
360
6698
  3
緑
360
6699
  0
XRECORD
  5
5504
102
{ACAD_REACTORS
330
3EE
102
}
330
3EE
100
AcDbXrecord
280
     1
340
1A
  0
GROUP
  5
3E11
102
{ACAD_REACTORS
330
D
102
}
330
D
100
AcDbGroup
300

 70
     1
 71
     1
  0
GROUP
  5
B399
102
{ACAD_REACTORS
330
D
102
}
330
D
100
AcDbGroup
300

 70
     1
 71
     1
340
B09F
340
B09B
340
B09A
340
B098
340
B01A
340
B025
340
B09C
340
B033
340
B032
340
B031
340
B030
340
B02F
340
B02E
340
B02D
340
B02C
340
B02B
340
B02A
340
B029
340
B028
340
B027
340
B026
340
B01B
340
B034
340
B08E
340
B08D
340
B08B
340
B08A
340
B089
340
B088
340
B085
340
B09E
340
B09D
340
B099
340
B097
340
B096
340
B095
340
B094
340
B093
340
B092
340
B091
340
B090
340
B08F
340
B087
340
B084
340
B083
340
B082
340
B08C
340
B086
  0
GROUP
  5
8E98
102
{ACAD_REACTORS
330
D
102
}
330
D
100
AcDbGroup
300

 70
     1
 71
     1
  0
GROUP
  5
B3A7
102
{ACAD_REACTORS
330
D
102
}
330
D
100
AcDbGroup
300

 70
     1
 71
     1
  0
GROUP
  5
9C47
102
{ACAD_REACTORS
330
D
102
}
330
D
100
AcDbGroup
300

 70
     1
 71
     1
  0
GROUP
  5
9618
102
{ACAD_REACTORS
330
D
102
}
330
D
100
AcDbGroup
300

 70
     1
 71
     1
  0
GROUP
  5
B36E
102
{ACAD_REACTORS
330
D
102
}
330
D
100
AcDbGroup
300

 70
     1
 71
     1
  0
GROUP
  5
8910
102
{ACAD_REACTORS
330
D
102
}
330
D
100
AcDbGroup
300

 70
     1
 71
     1
  0
GROUP
  5
963A
102
{ACAD_REACTORS
330
D
102
}
330
D
100
AcDbGroup
300

 70
     1
 71
     1
  0
GROUP
  5
9759
102
{ACAD_REACTORS
330
D
102
}
330
D
100
AcDbGroup
300

 70
     1
 71
     1
  0
GROUP
  5
B371
102
{ACAD_REACTORS
330
D
102
}
330
D
100
AcDbGroup
300

 70
     1
 71
     1
  0
GROUP
  5
963B
102
{ACAD_REACTORS
330
D
102
}
330
D
100
AcDbGroup
300

 70
     1
 71
     1
  0
GROUP
  5
88D4
102
{ACAD_REACTORS
330
D
102
}
330
D
100
AcDbGroup
300

 70
     1
 71
     1
  0
GROUP
  5
963E
102
{ACAD_REACTORS
330
D
102
}
330
D
100
AcDbGroup
300

 70
     1
 71
     1
  0
GROUP
  5
A57A
102
{ACAD_REACTORS
330
D
102
}
330
D
100
AcDbGroup
300

 70
     1
 71
     1
  0
GROUP
  5
86D9
102
{ACAD_REACTORS
330
D
102
}
330
D
100
AcDbGroup
300

 70
     1
 71
     1
  0
GROUP
  5
B387
102
{ACAD_REACTORS
330
D
102
}
330
D
100
AcDbGroup
300

 70
     1
 71
     1
  0
GROUP
  5
A57B
102
{ACAD_REACTORS
330
D
102
}
330
D
100
AcDbGroup
300

 70
     1
 71
     1
  0
GROUP
  5
6C54
102
{ACAD_REACTORS
330
D
102
}
330
D
100
AcDbGroup
300

 70
     1
 71
     1
  0
GROUP
  5
B3CD
102
{ACAD_REACTORS
330
D
102
}
330
D
100
AcDbGroup
300

 70
     1
 71
     1
  0
GROUP
  5
9B05
102
{ACAD_REACTORS
330
D
102
}
330
D
100
AcDbGroup
300

 70
     1
 71
     1
  0
GROUP
  5
A438
102
{ACAD_REACTORS
330
D
102
}
330
D
100
AcDbGroup
300

 70
     1
 71
     1
  0
GROUP
  5
9B06
102
{ACAD_REACTORS
330
D
102
}
330
D
100
AcDbGroup
300

 70
     1
 71
     1
  0
GROUP
  5
B5C8
102
{ACAD_REACTORS
330
D
102
}
330
D
100
AcDbGroup
300

 70
     1
 71
     1
  0
GROUP
  5
622D
102
{ACAD_REACTORS
330
D
102
}
330
D
100
AcDbGroup
300

 70
     1
 71
     1
  0
GROUP
  5
9697
102
{ACAD_REACTORS
330
D
102
}
330
D
100
AcDbGroup
300

 70
     1
 71
     1
  0
GROUP
  5
9B07
102
{ACAD_REACTORS
330
D
102
}
330
D
100
AcDbGroup
300

 70
     1
 71
     1
  0
GROUP
  5
9B02
102
{ACAD_REACTORS
330
D
102
}
330
D
100
AcDbGroup
300

 70
     1
 71
     1
  0
GROUP
  5
8564
102
{ACAD_REACTORS
330
D
102
}
330
D
100
AcDbGroup
300

 70
     1
 71
     1
  0
GROUP
  5
9B0E
102
{ACAD_REACTORS
330
D
102
}
330
D
100
AcDbGroup
300

 70
     1
 71
     1
  0
GROUP
  5
9B0F
102
{ACAD_REACTORS
330
D
102
}
330
D
100
AcDbGroup
300

 70
     1
 71
     1
  0
GROUP
  5
B3A3
102
{ACAD_REACTORS
330
D
102
}
330
D
100
AcDbGroup
300

 70
     1
 71
     1
  0
GROUP
  5
6228
102
{ACAD_REACTORS
330
D
102
}
330
D
100
AcDbGroup
300

 70
     1
 71
     1
  0
GROUP
  5
622C
102
{ACAD_REACTORS
330
D
102
}
330
D
100
AcDbGroup
300

 70
     1
 71
     1
  0
GROUP
  5
B383
102
{ACAD_REACTORS
330
D
102
}
330
D
100
AcDbGroup
300

 70
     1
 71
     1
  0
GROUP
  5
9646
102
{ACAD_REACTORS
330
D
102
}
330
D
100
AcDbGroup
300

 70
     1
 71
     1
  0
GROUP
  5
9B10
102
{ACAD_REACTORS
330
D
102
}
330
D
100
AcDbGroup
300

 70
     1
 71
     1
  0
GROUP
  5
9B11
102
{ACAD_REACTORS
330
D
102
}
330
D
100
AcDbGroup
300

 70
     1
 71
     1
  0
GROUP
  5
A439
102
{ACAD_REACTORS
330
D
102
}
330
D
100
AcDbGroup
300

 70
     1
 71
     1
  0
GROUP
  5
5BDA
102
{ACAD_REACTORS
330
D
102
}
330
D
100
AcDbGroup
300

 70
     1
 71
     1
  0
GROUP
  5
B388
102
{ACAD_REACTORS
330
D
102
}
330
D
100
AcDbGroup
300

 70
     1
 71
     1
  0
GROUP
  5
B441
102
{ACAD_REACTORS
330
D
102
}
330
D
100
AcDbGroup
300

 70
     1
 71
     1
  0
GROUP
  5
B3E5
102
{ACAD_REACTORS
330
D
102
}
330
D
100
AcDbGroup
300

 70
     1
 71
     1
  0
GROUP
  5
9801
102
{ACAD_REACTORS
330
D
102
}
330
D
100
AcDbGroup
300

 70
     1
 71
     1
  0
GROUP
  5
9B52
102
{ACAD_REACTORS
330
D
102
}
330
D
100
AcDbGroup
300

 70
     1
 71
     1
  0
GROUP
  5
B5C9
102
{ACAD_REACTORS
330
D
102
}
330
D
100
AcDbGroup
300

 70
     1
 71
     1
  0
GROUP
  5
9C49
102
{ACAD_REACTORS
330
D
102
}
330
D
100
AcDbGroup
300

 70
     1
 71
     1
  0
GROUP
  5
9B12
102
{ACAD_REACTORS
330
D
102
}
330
D
100
AcDbGroup
300

 70
     1
 71
     1
  0
GROUP
  5
86BF
102
{ACAD_REACTORS
330
D
102
}
330
D
100
AcDbGroup
300

 70
     1
 71
     1
  0
GROUP
  5
9B4E
102
{ACAD_REACTORS
330
D
102
}
330
D
100
AcDbGroup
300

 70
     1
 71
     1
  0
GROUP
  5
9B4F
102
{ACAD_REACTORS
330
D
102
}
330
D
100
AcDbGroup
300

 70
     1
 71
     1
  0
GROUP
  5
9B50
102
{ACAD_REACTORS
330
D
102
}
330
D
100
AcDbGroup
300

 70
     1
 71
     1
  0
GROUP
  5
A443
102
{ACAD_REACTORS
330
D
102
}
330
D
100
AcDbGroup
300

 70
     1
 71
     1
  0
GROUP
  5
9B51
102
{ACAD_REACTORS
330
D
102
}
330
D
100
AcDbGroup
300

 70
     1
 71
     1
  0
GROUP
  5
88D3
102
{ACAD_REACTORS
330
D
102
}
330
D
100
AcDbGroup
300

 70
     1
 71
     1
  0
GROUP
  5
9D75
102
{ACAD_REACTORS
330
D
102
}
330
D
100
AcDbGroup
300

 70
     1
 71
     1
  0
GROUP
  5
B5CA
102
{ACAD_REACTORS
330
D
102
}
330
D
100
AcDbGroup
300

 70
     1
 71
     1
  0
GROUP
  5
A63D
102
{ACAD_REACTORS
330
D
102
}
330
D
100
AcDbGroup
300

 70
     1
 71
     1
  0
GROUP
  5
A5D4
102
{ACAD_REACTORS
330
D
102
}
330
D
100
AcDbGroup
300

 70
     1
 71
     1
  0
GROUP
  5
9D76
102
{ACAD_REACTORS
330
D
102
}
330
D
100
AcDbGroup
300

 70
     1
 71
     1
  0
GROUP
  5
B39E
102
{ACAD_REACTORS
330
D
102
}
330
D
100
AcDbGroup
300

 70
     1
 71
     1
  0
GROUP
  5
964C
102
{ACAD_REACTORS
330
D
102
}
330
D
100
AcDbGroup
300

 70
     1
 71
     1
  0
GROUP
  5
6CF9
102
{ACAD_REACTORS
330
D
102
}
330
D
100
AcDbGroup
300

 70
     1
 71
     1
  0
GROUP
  5
B375
102
{ACAD_REACTORS
330
D
102
}
330
D
100
AcDbGroup
300

 70
     1
 71
     1
  0
GROUP
  5
A5D3
102
{ACAD_REACTORS
330
D
102
}
330
D
100
AcDbGroup
300

 70
     1
 71
     1
  0
GROUP
  5
9EB5
102
{ACAD_REACTORS
330
D
102
}
330
D
100
AcDbGroup
300

 70
     1
 71
     1
  0
GROUP
  5
B3A1
102
{ACAD_REACTORS
330
D
102
}
330
D
100
AcDbGroup
300

 70
     1
 71
     1
  0
GROUP
  5
B3BA
102
{ACAD_REACTORS
330
D
102
}
330
D
100
AcDbGroup
300

 70
     1
 71
     1
  0
GROUP
  5
5BF3
102
{ACAD_REACTORS
330
D
102
}
330
D
100
AcDbGroup
300

 70
     1
 71
     1
  0
GROUP
  5
99D2
102
{ACAD_REACTORS
330
D
102
}
330
D
100
AcDbGroup
300

 70
     1
 71
     1
  0
GROUP
  5
B3F1
102
{ACAD_REACTORS
330
D
102
}
330
D
100
AcDbGroup
300

 70
     1
 71
     1
  0
GROUP
  5
9EB6
102
{ACAD_REACTORS
330
D
102
}
330
D
100
AcDbGroup
300

 70
     1
 71
     1
  0
GROUP
  5
9EBA
102
{ACAD_REACTORS
330
D
102
}
330
D
100
AcDbGroup
300

 70
     1
 71
     1
  0
GROUP
  5
B3F9
102
{ACAD_REACTORS
330
D
102
}
330
D
100
AcDbGroup
300

 70
     1
 71
     1
  0
GROUP
  5
88D0
102
{ACAD_REACTORS
330
D
102
}
330
D
100
AcDbGroup
300

 70
     1
 71
     1
  0
GROUP
  5
B377
102
{ACAD_REACTORS
330
D
102
}
330
D
100
AcDbGroup
300

 70
     1
 71
     1
  0
GROUP
  5
B36F
102
{ACAD_REACTORS
330
D
102
}
330
D
100
AcDbGroup
300

 70
     1
 71
     1
  0
GROUP
  5
9FC1
102
{ACAD_REACTORS
330
D
102
}
330
D
100
AcDbGroup
300

 70
     1
 71
     1
  0
GROUP
  5
9BF5
102
{ACAD_REACTORS
330
D
102
}
330
D
100
AcDbGroup
300

 70
     1
 71
     1
  0
GROUP
  5
9FC2
102
{ACAD_REACTORS
330
D
102
}
330
D
100
AcDbGroup
300

 70
     1
 71
     1
  0
GROUP
  5
A43A
102
{ACAD_REACTORS
330
D
102
}
330
D
100
AcDbGroup
300

 70
     1
 71
     1
  0
GROUP
  5
88F4
102
{ACAD_REACTORS
330
D
102
}
330
D
100
AcDbGroup
300

 70
     1
 71
     1
  0
GROUP
  5
A5D5
102
{ACAD_REACTORS
330
D
102
}
330
D
100
AcDbGroup
300

 70
     1
 71
     1
  0
GROUP
  5
A13C
102
{ACAD_REACTORS
330
D
102
}
330
D
100
AcDbGroup
300

 70
     1
 71
     1
  0
GROUP
  5
A446
102
{ACAD_REACTORS
330
D
102
}
330
D
100
AcDbGroup
300

 70
     1
 71
     1
  0
GROUP
  5
A13D
102
{ACAD_REACTORS
330
D
102
}
330
D
100
AcDbGroup
300

 70
     1
 71
     1
  0
GROUP
  5
B376
102
{ACAD_REACTORS
330
D
102
}
330
D
100
AcDbGroup
300

 70
     1
 71
     1
  0
GROUP
  5
5B9B
102
{ACAD_REACTORS
330
D
102
}
330
D
100
AcDbGroup
300

 70
     1
 71
     1
  0
GROUP
  5
A140
102
{ACAD_REACTORS
330
D
102
}
330
D
100
AcDbGroup
300

 70
     1
 71
     1
  0
GROUP
  5
B780
102
{ACAD_REACTORS
330
D
102
}
330
D
100
AcDbGroup
300

 70
     1
 71
     1
  0
GROUP
  5
8560
102
{ACAD_REACTORS
330
D
102
}
330
D
100
AcDbGroup
300

 70
     1
 71
     1
  0
GROUP
  5
A43B
102
{ACAD_REACTORS
330
D
102
}
330
D
100
AcDbGroup
300

 70
     1
 71
     1
  0
GROUP
  5
A43C
102
{ACAD_REACTORS
330
D
102
}
330
D
100
AcDbGroup
300

 70
     1
 71
     1
  0
GROUP
  5
88D7
102
{ACAD_REACTORS
330
D
102
}
330
D
100
AcDbGroup
300

 70
     1
 71
     1
  0
GROUP
  5
A43D
102
{ACAD_REACTORS
330
D
102
}
330
D
100
AcDbGroup
300

 70
     1
 71
     1
  0
GROUP
  5
B3BD
102
{ACAD_REACTORS
330
D
102
}
330
D
100
AcDbGroup
300

 70
     1
 71
     1
  0
GROUP
  5
A43E
102
{ACAD_REACTORS
330
D
102
}
330
D
100
AcDbGroup
300

 70
     1
 71
     1
  0
GROUP
  5
A43F
102
{ACAD_REACTORS
330
D
102
}
330
D
100
AcDbGroup
300

 70
     1
 71
     1
  0
GROUP
  5
A440
102
{ACAD_REACTORS
330
D
102
}
330
D
100
AcDbGroup
300

 70
     1
 71
     1
  0
GROUP
  5
A5EB
102
{ACAD_REACTORS
330
D
102
}
330
D
100
AcDbGroup
300

 70
     1
 71
     1
  0
GROUP
  5
5B8E
102
{ACAD_REACTORS
330
D
102
}
330
D
100
AcDbGroup
300

 70
     1
 71
     1
  0
GROUP
  5
B389
102
{ACAD_REACTORS
330
D
102
}
330
D
100
AcDbGroup
300

 70
     1
 71
     1
  0
GROUP
  5
967C
102
{ACAD_REACTORS
330
D
102
}
330
D
100
AcDbGroup
300

 70
     1
 71
     1
  0
GROUP
  5
6DB6
102
{ACAD_REACTORS
330
D
102
}
330
D
100
AcDbGroup
300

 70
     1
 71
     1
  0
GROUP
  5
86DB
102
{ACAD_REACTORS
330
D
102
}
330
D
100
AcDbGroup
300

 70
     1
 71
     1
  0
GROUP
  5
B419
102
{ACAD_REACTORS
330
D
102
}
330
D
100
AcDbGroup
300

 70
     1
 71
     1
  0
GROUP
  5
9BF1
102
{ACAD_REACTORS
330
D
102
}
330
D
100
AcDbGroup
300

 70
     1
 71
     1
  0
GROUP
  5
A441
102
{ACAD_REACTORS
330
D
102
}
330
D
100
AcDbGroup
300

 70
     1
 71
     1
  0
GROUP
  5
5BDD
102
{ACAD_REACTORS
330
D
102
}
330
D
100
AcDbGroup
300

 70
     1
 71
     1
  0
GROUP
  5
A442
102
{ACAD_REACTORS
330
D
102
}
330
D
100
AcDbGroup
300

 70
     1
 71
     1
  0
GROUP
  5
B378
102
{ACAD_REACTORS
330
D
102
}
330
D
100
AcDbGroup
300

 70
     1
 71
     1
  0
GROUP
  5
A13F
102
{ACAD_REACTORS
330
D
102
}
330
D
100
AcDbGroup
300

 70
     1
 71
     1
  0
GROUP
  5
A7B6
102
{ACAD_REACTORS
330
D
102
}
330
D
100
AcDbGroup
300

 70
     1
 71
     1
  0
GROUP
  5
B9D0
102
{ACAD_REACTORS
330
D
102
}
330
D
100
AcDbGroup
300

 70
     1
 71
     1
  0
GROUP
  5
B38A
102
{ACAD_REACTORS
330
D
102
}
330
D
100
AcDbGroup
300

 70
     1
 71
     1
  0
GROUP
  5
97A3
102
{ACAD_REACTORS
330
D
102
}
330
D
100
AcDbGroup
300

 70
     1
 71
     1
  0
GROUP
  5
B9D4
102
{ACAD_REACTORS
330
D
102
}
330
D
100
AcDbGroup
300

 70
     1
 71
     1
  0
GROUP
  5
B3A4
102
{ACAD_REACTORS
330
D
102
}
330
D
100
AcDbGroup
300

 70
     1
 71
     1
  0
GROUP
  5
BB87
102
{ACAD_REACTORS
330
D
102
}
330
D
100
AcDbGroup
300

 70
     1
 71
     1
  0
GROUP
  5
A436
102
{ACAD_REACTORS
330
D
102
}
330
D
100
AcDbGroup
300

 70
     1
 71
     1
  0
GROUP
  5
6DB2
102
{ACAD_REACTORS
330
D
102
}
330
D
100
AcDbGroup
300

 70
     1
 71
     1
  0
GROUP
  5
BC51
102
{ACAD_REACTORS
330
D
102
}
330
D
100
AcDbGroup
300

 70
     1
 71
     1
340
BC10
340
BC0F
  0
GROUP
  5
9651
102
{ACAD_REACTORS
330
D
102
}
330
D
100
AcDbGroup
300

 70
     1
 71
     1
  0
GROUP
  5
B781
102
{ACAD_REACTORS
330
D
102
}
330
D
100
AcDbGroup
300

 70
     1
 71
     1
  0
GROUP
  5
BC52
102
{ACAD_REACTORS
330
D
102
}
330
D
100
AcDbGroup
300

 70
     1
 71
     1
340
BC0D
340
BC0C
340
BC0B
340
BC0E
  0
GROUP
  5
BC56
102
{ACAD_REACTORS
330
D
102
}
330
D
100
AcDbGroup
300

 70
     1
 71
     1
  0
GROUP
  5
470B
102
{ACAD_REACTORS
330
D
102
}
330
D
100
AcDbGroup
300

 70
     1
 71
     1
  0
GROUP
  5
B43E
102
{ACAD_REACTORS
330
D
102
}
330
D
100
AcDbGroup
300

 70
     1
 71
     1
  0
GROUP
  5
BCCD
102
{ACAD_REACTORS
330
D
102
}
330
D
100
AcDbGroup
300

 70
     1
 71
     1
  0
GROUP
  5
B379
102
{ACAD_REACTORS
330
D
102
}
330
D
100
AcDbGroup
300

 70
     1
 71
     1
  0
GROUP
  5
B37A
102
{ACAD_REACTORS
330
D
102
}
330
D
100
AcDbGroup
300

 70
     1
 71
     1
  0
GROUP
  5
B37B
102
{ACAD_REACTORS
330
D
102
}
330
D
100
AcDbGroup
300

 70
     1
 71
     1
  0
GROUP
  5
B3A5
102
{ACAD_REACTORS
330
D
102
}
330
D
100
AcDbGroup
300

 70
     1
 71
     1
  0
GROUP
  5
9BF2
102
{ACAD_REACTORS
330
D
102
}
330
D
100
AcDbGroup
300

 70
     1
 71
     1
  0
GROUP
  5
9034
102
{ACAD_REACTORS
330
D
102
}
330
D
100
AcDbGroup
300

 70
     1
 71
     1
  0
GROUP
  5
8672
102
{ACAD_REACTORS
330
D
102
}
330
D
100
AcDbGroup
300

 70
     1
 71
     1
  0
GROUP
  5
A4A3
102
{ACAD_REACTORS
330
D
102
}
330
D
100
AcDbGroup
300

 70
     1
 71
     1
  0
GROUP
  5
B37C
102
{ACAD_REACTORS
330
D
102
}
330
D
100
AcDbGroup
300

 70
     1
 71
     1
  0
GROUP
  5
731D
102
{ACAD_REACTORS
330
D
102
}
330
D
100
AcDbGroup
300

 70
     1
 71
     1
  0
GROUP
  5
890F
102
{ACAD_REACTORS
330
D
102
}
330
D
100
AcDbGroup
300

 70
     1
 71
     1
  0
GROUP
  5
460E
102
{ACAD_REACTORS
330
D
102
}
330
D
100
AcDbGroup
300

 70
     1
 71
     1
  0
GROUP
  5
A13E
102
{ACAD_REACTORS
330
D
102
}
330
D
100
AcDbGroup
300

 70
     1
 71
     1
  0
GROUP
  5
B37D
102
{ACAD_REACTORS
330
D
102
}
330
D
100
AcDbGroup
300

 70
     1
 71
     1
  0
GROUP
  5
B37E
102
{ACAD_REACTORS
330
D
102
}
330
D
100
AcDbGroup
300

 70
     1
 71
     1
  0
GROUP
  5
B37F
102
{ACAD_REACTORS
330
D
102
}
330
D
100
AcDbGroup
300

 70
     1
 71
     1
  0
GROUP
  5
8795
102
{ACAD_REACTORS
330
D
102
}
330
D
100
AcDbGroup
300

 70
     1
 71
     1
  0
GROUP
  5
B380
102
{ACAD_REACTORS
330
D
102
}
330
D
100
AcDbGroup
300

 70
     1
 71
     1
  0
GROUP
  5
A7B5
102
{ACAD_REACTORS
330
D
102
}
330
D
100
AcDbGroup
300

 70
     1
 71
     1
  0
GROUP
  5
B38C
102
{ACAD_REACTORS
330
D
102
}
330
D
100
AcDbGroup
300

 70
     1
 71
     1
  0
GROUP
  5
470E
102
{ACAD_REACTORS
330
D
102
}
330
D
100
AcDbGroup
300

 70
     1
 71
     1
  0
GROUP
  5
B38D
102
{ACAD_REACTORS
330
D
102
}
330
D
100
AcDbGroup
300

 70
     1
 71
     1
  0
GROUP
  5
B38E
102
{ACAD_REACTORS
330
D
102
}
330
D
100
AcDbGroup
300

 70
     1
 71
     1
  0
GROUP
  5
8B62
102
{ACAD_REACTORS
330
D
102
}
330
D
100
AcDbGroup
300

 70
     1
 71
     1
  0
GROUP
  5
B38F
102
{ACAD_REACTORS
330
D
102
}
330
D
100
AcDbGroup
300

 70
     1
 71
     1
  0
GROUP
  5
99D0
102
{ACAD_REACTORS
330
D
102
}
330
D
100
AcDbGroup
300

 70
     1
 71
     1
  0
GROUP
  5
B43F
102
{ACAD_REACTORS
330
D
102
}
330
D
100
AcDbGroup
300

 70
     1
 71
     1
  0
GROUP
  5
B384
102
{ACAD_REACTORS
330
D
102
}
330
D
100
AcDbGroup
300

 70
     1
 71
     1
  0
GROUP
  5
B390
102
{ACAD_REACTORS
330
D
102
}
330
D
100
AcDbGroup
300

 70
     1
 71
     1
  0
GROUP
  5
8562
102
{ACAD_REACTORS
330
D
102
}
330
D
100
AcDbGroup
300

 70
     1
 71
     1
  0
GROUP
  5
A141
102
{ACAD_REACTORS
330
D
102
}
330
D
100
AcDbGroup
300

 70
     1
 71
     1
  0
GROUP
  5
9641
102
{ACAD_REACTORS
330
D
102
}
330
D
100
AcDbGroup
300

 70
     1
 71
     1
  0
GROUP
  5
8561
102
{ACAD_REACTORS
330
D
102
}
330
D
100
AcDbGroup
300

 70
     1
 71
     1
  0
GROUP
  5
B391
102
{ACAD_REACTORS
330
D
102
}
330
D
100
AcDbGroup
300

 70
     1
 71
     1
  0
GROUP
  5
A444
102
{ACAD_REACTORS
330
D
102
}
330
D
100
AcDbGroup
300

 70
     1
 71
     1
  0
GROUP
  5
B440
102
{ACAD_REACTORS
330
D
102
}
330
D
100
AcDbGroup
300

 70
     1
 71
     1
  0
GROUP
  5
86DA
102
{ACAD_REACTORS
330
D
102
}
330
D
100
AcDbGroup
300

 70
     1
 71
     1
  0
GROUP
  5
B3A8
102
{ACAD_REACTORS
330
D
102
}
330
D
100
AcDbGroup
300

 70
     1
 71
     1
  0
GROUP
  5
5C13
102
{ACAD_REACTORS
330
D
102
}
330
D
100
AcDbGroup
300

 70
     1
 71
     1
  0
GROUP
  5
B392
102
{ACAD_REACTORS
330
D
102
}
330
D
100
AcDbGroup
300

 70
     1
 71
     1
  0
GROUP
  5
B393
102
{ACAD_REACTORS
330
D
102
}
330
D
100
AcDbGroup
300

 70
     1
 71
     1
  0
GROUP
  5
B3A6
102
{ACAD_REACTORS
330
D
102
}
330
D
100
AcDbGroup
300

 70
     1
 71
     1
  0
GROUP
  5
B394
102
{ACAD_REACTORS
330
D
102
}
330
D
100
AcDbGroup
300

 70
     1
 71
     1
  0
GROUP
  5
9702
102
{ACAD_REACTORS
330
D
102
}
330
D
100
AcDbGroup
300

 70
     1
 71
     1
  0
GROUP
  5
B395
102
{ACAD_REACTORS
330
D
102
}
330
D
100
AcDbGroup
300

 70
     1
 71
     1
  0
GROUP
  5
8565
102
{ACAD_REACTORS
330
D
102
}
330
D
100
AcDbGroup
300

 70
     1
 71
     1
  0
GROUP
  5
B396
102
{ACAD_REACTORS
330
D
102
}
330
D
100
AcDbGroup
300

 70
     1
 71
     1
340
A7C1
340
A7C2
340
ACA7
340
AC8D
340
AC7E
340
B0A2
340
ACAE
340
AB57
340
ACAF
340
B0A1
340
AC7D
340
AC8A
340
AC8B
340
AC8C
340
AC8E
340
AC8F
340
AC90
340
AC91
340
ACB3
340
ACA2
340
ACA3
340
ACA4
340
ACA5
340
ACA6
340
ACA8
340
ACA9
340
ACAA
340
B0A0
340
ACAB
340
AB56
340
ACAC
340
ACAD
340
ACB0
340
ACB1
340
ACB2
340
ACB4
  0
GROUP
  5
B397
102
{ACAD_REACTORS
330
D
102
}
330
D
100
AcDbGroup
300

 70
     1
 71
     1
340
AC4C
340
AC58
340
AC82
340
AC86
340
AB8C
340
AC50
340
AB8B
340
AC73
340
AC4D
340
AC4E
340
AC76
340
AB54
340
B017
340
AC77
340
AC81
340
AC83
340
AC84
340
B042
340
AC85
340
AB55
340
AC87
340
AC88
340
AC89
340
AFB8
340
AC5D
340
AC5E
340
AC74
340
AC75
340
AC78
340
AC79
340
AC7A
340
AC57
340
AC59
340
AC5A
340
AC5B
340
AC5C
340
AC5F
  0
GROUP
  5
99D6
102
{ACAD_REACTORS
330
D
102
}
330
D
100
AcDbGroup
300

 70
     1
 71
     1
  0
GROUP
  5
A445
102
{ACAD_REACTORS
330
D
102
}
330
D
100
AcDbGroup
300

 70
     1
 71
     1
  0
GROUP
  5
9BF3
102
{ACAD_REACTORS
330
D
102
}
330
D
100
AcDbGroup
300

 70
     1
 71
     1
  0
GROUP
  5
8793
102
{ACAD_REACTORS
330
D
102
}
330
D
100
AcDbGroup
300

 70
     1
 71
     1
  0
GROUP
  5
B3AA
102
{ACAD_REACTORS
330
D
102
}
330
D
100
AcDbGroup
300

 70
     1
 71
     1
  0
GROUP
  5
855F
102
{ACAD_REACTORS
330
D
102
}
330
D
100
AcDbGroup
300

 70
     1
 71
     1
  0
GROUP
  5
B3AC
102
{ACAD_REACTORS
330
D
102
}
330
D
100
AcDbGroup
300

 70
     1
 71
     1
  0
GROUP
  5
855C
102
{ACAD_REACTORS
330
D
102
}
330
D
100
AcDbGroup
300

 70
     1
 71
     1
  0
GROUP
  5
B3AD
102
{ACAD_REACTORS
330
D
102
}
330
D
100
AcDbGroup
300

 70
     1
 71
     1
  0
GROUP
  5
B3AE
102
{ACAD_REACTORS
330
D
102
}
330
D
100
AcDbGroup
300

 70
     1
 71
     1
  0
GROUP
  5
A447
102
{ACAD_REACTORS
330
D
102
}
330
D
100
AcDbGroup
300

 70
     1
 71
     1
  0
GROUP
  5
8779
102
{ACAD_REACTORS
330
D
102
}
330
D
100
AcDbGroup
300

 70
     1
 71
     1
  0
GROUP
  5
8796
102
{ACAD_REACTORS
330
D
102
}
330
D
100
AcDbGroup
300

 70
     1
 71
     1
  0
GROUP
  5
99D3
102
{ACAD_REACTORS
330
D
102
}
330
D
100
AcDbGroup
300

 70
     1
 71
     1
  0
GROUP
  5
9B03
102
{ACAD_REACTORS
330
D
102
}
330
D
100
AcDbGroup
300

 70
     1
 71
     1
  0
GROUP
  5
A146
102
{ACAD_REACTORS
330
D
102
}
330
D
100
AcDbGroup
300

 70
     1
 71
     1
  0
GROUP
  5
B3AF
102
{ACAD_REACTORS
330
D
102
}
330
D
100
AcDbGroup
300

 70
     1
 71
     1
  0
GROUP
  5
B381
102
{ACAD_REACTORS
330
D
102
}
330
D
100
AcDbGroup
300

 70
     1
 71
     1
  0
GROUP
  5
8ECE
102
{ACAD_REACTORS
330
D
102
}
330
D
100
AcDbGroup
300

 70
     1
 71
     1
  0
GROUP
  5
B3B0
102
{ACAD_REACTORS
330
D
102
}
330
D
100
AcDbGroup
300

 70
     1
 71
     1
  0
GROUP
  5
B3B1
102
{ACAD_REACTORS
330
D
102
}
330
D
100
AcDbGroup
300

 70
     1
 71
     1
340
B111
340
B110
340
B0A4
340
B0A3
  0
GROUP
  5
B3B7
102
{ACAD_REACTORS
330
D
102
}
330
D
100
AcDbGroup
300

 70
     1
 71
     1
  0
GROUP
  5
B467
102
{ACAD_REACTORS
330
D
102
}
330
D
100
AcDbGroup
300

 70
     1
 71
     1
  0
GROUP
  5
B3B8
102
{ACAD_REACTORS
330
D
102
}
330
D
100
AcDbGroup
300

 70
     1
 71
     1
  0
GROUP
  5
A14B
102
{ACAD_REACTORS
330
D
102
}
330
D
100
AcDbGroup
300

 70
     1
 71
     1
  0
GROUP
  5
B3B2
102
{ACAD_REACTORS
330
D
102
}
330
D
100
AcDbGroup
300

 70
     1
 71
     1
340
A7BC
340
A7BB
340
B047
340
B046
340
B045
340
B044
340
B043
340
B048
340
B04C
340
B04B
340
B04A
340
B049
340
B04D
340
B051
340
B050
340
B04F
340
B04E
  0
GROUP
  5
5A87
102
{ACAD_REACTORS
330
D
102
}
330
D
100
AcDbGroup
300

 70
     1
 71
     1
  0
GROUP
  5
622B
102
{ACAD_REACTORS
330
D
102
}
330
D
100
AcDbGroup
300

 70
     1
 71
     1
  0
GROUP
  5
B3A2
102
{ACAD_REACTORS
330
D
102
}
330
D
100
AcDbGroup
300

 70
     1
 71
     1
  0
GROUP
  5
A63E
102
{ACAD_REACTORS
330
D
102
}
330
D
100
AcDbGroup
300

 70
     1
 71
     1
  0
GROUP
  5
B3B3
102
{ACAD_REACTORS
330
D
102
}
330
D
100
AcDbGroup
300

 70
     1
 71
     1
  0
GROUP
  5
B398
102
{ACAD_REACTORS
330
D
102
}
330
D
100
AcDbGroup
300

 70
     1
 71
     1
340
A7C0
340
AFD0
340
AFCF
340
AFCB
340
B013
340
B012
340
B014
340
B010
340
B00F
340
B00E
340
B041
340
B040
340
B03F
340
B03E
340
B03D
340
B03C
340
B03B
340
B03A
340
B039
340
B038
340
B037
340
B036
340
B035
340
B011
340
AFB5
340
AFB4
340
AFB7
340
AFB6
340
AFCE
340
AFCD
340
AFCC
340
B016
340
B015
340
B00D
340
B00C
340
B00B
340
B00A
340
B009
340
B008
340
B007
340
AFC9
340
B006
340
AFBA
340
B005
340
B004
340
AFBC
340
AFBB
340
AFCA
  0
GROUP
  5
B3B4
102
{ACAD_REACTORS
330
D
102
}
330
D
100
AcDbGroup
300

 70
     1
 71
     1
  0
GROUP
  5
B3B5
102
{ACAD_REACTORS
330
D
102
}
330
D
100
AcDbGroup
300

 70
     1
 71
     1
  0
GROUP
  5
B373
102
{ACAD_REACTORS
330
D
102
}
330
D
100
AcDbGroup
300

 70
     1
 71
     1
  0
GROUP
  5
B3B6
102
{ACAD_REACTORS
330
D
102
}
330
D
100
AcDbGroup
300

 70
     1
 71
     1
  0
GROUP
  5
8F16
102
{ACAD_REACTORS
330
D
102
}
330
D
100
AcDbGroup
300

 70
     1
 71
     1
  0
GROUP
  5
BD3A
102
{ACAD_REACTORS
330
D
102
}
330
D
100
AcDbGroup
300

 70
     1
 71
     1
  0
GROUP
  5
B468
102
{ACAD_REACTORS
330
D
102
}
330
D
100
AcDbGroup
300

 70
     1
 71
     1
  0
GROUP
  5
B3BB
102
{ACAD_REACTORS
330
D
102
}
330
D
100
AcDbGroup
300

 70
     1
 71
     1
  0
GROUP
  5
B382
102
{ACAD_REACTORS
330
D
102
}
330
D
100
AcDbGroup
300

 70
     1
 71
     1
  0
GROUP
  5
9BF4
102
{ACAD_REACTORS
330
D
102
}
330
D
100
AcDbGroup
300

 70
     1
 71
     1
  0
GROUP
  5
A448
102
{ACAD_REACTORS
330
D
102
}
330
D
100
AcDbGroup
300

 70
     1
 71
     1
  0
GROUP
  5
B469
102
{ACAD_REACTORS
330
D
102
}
330
D
100
AcDbGroup
300

 70
     1
 71
     1
  0
GROUP
  5
B3C5
102
{ACAD_REACTORS
330
D
102
}
330
D
100
AcDbGroup
300

 70
     1
 71
     1
  0
GROUP
  5
470D
102
{ACAD_REACTORS
330
D
102
}
330
D
100
AcDbGroup
300

 70
     1
 71
     1
  0
GROUP
  5
B46A
102
{ACAD_REACTORS
330
D
102
}
330
D
100
AcDbGroup
300

 70
     1
 71
     1
  0
GROUP
  5
99D1
102
{ACAD_REACTORS
330
D
102
}
330
D
100
AcDbGroup
300

 70
     1
 71
     1
  0
GROUP
  5
B5A6
102
{ACAD_REACTORS
330
D
102
}
330
D
100
AcDbGroup
300

 70
     1
 71
     1
  0
GROUP
  5
A63F
102
{ACAD_REACTORS
330
D
102
}
330
D
100
AcDbGroup
300

 70
     1
 71
     1
  0
GROUP
  5
B5A7
102
{ACAD_REACTORS
330
D
102
}
330
D
100
AcDbGroup
300

 70
     1
 71
     1
  0
GROUP
  5
B5A8
102
{ACAD_REACTORS
330
D
102
}
330
D
100
AcDbGroup
300

 70
     1
 71
     1
  0
GROUP
  5
A47A
102
{ACAD_REACTORS
330
D
102
}
330
D
100
AcDbGroup
300

 70
     1
 71
     1
  0
GROUP
  5
8AB2
102
{ACAD_REACTORS
330
D
102
}
330
D
100
AcDbGroup
300

 70
     1
 71
     1
  0
GROUP
  5
A437
102
{ACAD_REACTORS
330
D
102
}
330
D
100
AcDbGroup
300

 70
     1
 71
     1
  0
GROUP
  5
9703
102
{ACAD_REACTORS
330
D
102
}
330
D
100
AcDbGroup
300

 70
     1
 71
     1
  0
GROUP
  5
99D7
102
{ACAD_REACTORS
330
D
102
}
330
D
100
AcDbGroup
300

 70
     1
 71
     1
  0
GROUP
  5
9647
102
{ACAD_REACTORS
330
D
102
}
330
D
100
AcDbGroup
300

 70
     1
 71
     1
  0
GROUP
  5
470C
102
{ACAD_REACTORS
330
D
102
}
330
D
100
AcDbGroup
300

 70
     1
 71
     1
  0
GROUP
  5
8B07
102
{ACAD_REACTORS
330
D
102
}
330
D
100
AcDbGroup
300

 70
     1
 71
     1
  0
GROUP
  5
855E
102
{ACAD_REACTORS
330
D
102
}
330
D
100
AcDbGroup
300

 70
     1
 71
     1
  0
GROUP
  5
8794
102
{ACAD_REACTORS
330
D
102
}
330
D
100
AcDbGroup
300

 70
     1
 71
     1
  0
GROUP
  5
B418
102
{ACAD_REACTORS
330
D
102
}
330
D
100
AcDbGroup
300

 70
     1
 71
     1
  0
GROUP
  5
B39B
102
{ACAD_REACTORS
330
D
102
}
330
D
100
AcDbGroup
300

 70
     1
 71
     1
340
AFE6
340
AFE5
340
AFD3
340
AFD2
340
AFFE
340
B000
340
B001
340
B002
340
B003
340
AFE0
340
AFE1
340
AFE2
340
AFE3
340
AFE4
340
AFF9
340
AFFA
340
AFFB
340
AFFC
340
AFFD
340
AFD1
340
AFD4
340
AFD5
340
AFD6
340
AFD7
340
AFD8
340
AFD9
340
AFDA
340
AFDB
340
AFDC
  0
GROUP
  5
9BF6
102
{ACAD_REACTORS
330
D
102
}
330
D
100
AcDbGroup
300

 70
     1
 71
     1
  0
GROUP
  5
A150
102
{ACAD_REACTORS
330
D
102
}
330
D
100
AcDbGroup
300

 70
     1
 71
     1
  0
GROUP
  5
A7B7
102
{ACAD_REACTORS
330
D
102
}
330
D
100
AcDbGroup
300

 70
     1
 71
     1
  0
GROUP
  5
6229
102
{ACAD_REACTORS
330
D
102
}
330
D
100
AcDbGroup
300

 70
     1
 71
     1
  0
GROUP
  5
5B9C
102
{ACAD_REACTORS
330
D
102
}
330
D
100
AcDbGroup
300

 70
     1
 71
     1
  0
GROUP
  5
B385
102
{ACAD_REACTORS
330
D
102
}
330
D
100
AcDbGroup
300

 70
     1
 71
     1
  0
GROUP
  5
975E
102
{ACAD_REACTORS
330
D
102
}
330
D
100
AcDbGroup
300

 70
     1
 71
     1
  0
GROUP
  5
A48C
102
{ACAD_REACTORS
330
D
102
}
330
D
100
AcDbGroup
300

 70
     1
 71
     1
  0
GROUP
  5
B3B9
102
{ACAD_REACTORS
330
D
102
}
330
D
100
AcDbGroup
300

 70
     1
 71
     1
  0
GROUP
  5
8687
102
{ACAD_REACTORS
330
D
102
}
330
D
100
AcDbGroup
300

 70
     1
 71
     1
  0
GROUP
  5
5BA3
102
{ACAD_REACTORS
330
D
102
}
330
D
100
AcDbGroup
300

 70
     1
 71
     1
  0
GROUP
  5
622A
102
{ACAD_REACTORS
330
D
102
}
330
D
100
AcDbGroup
300

 70
     1
 71
     1
  0
GROUP
  5
8B22
102
{ACAD_REACTORS
330
D
102
}
330
D
100
AcDbGroup
300

 70
     1
 71
     1
  0
GROUP
  5
9BF7
102
{ACAD_REACTORS
330
D
102
}
330
D
100
AcDbGroup
300

 70
     1
 71
     1
  0
GROUP
  5
88D1
102
{ACAD_REACTORS
330
D
102
}
330
D
100
AcDbGroup
300

 70
     1
 71
     1
  0
GROUP
  5
5AE8
102
{ACAD_REACTORS
330
D
102
}
330
D
100
AcDbGroup
300

 70
     1
 71
     1
  0
GROUP
  5
59A4
102
{ACAD_REACTORS
330
D
102
}
330
D
100
AcDbGroup
300

 70
     1
 71
     1
  0
GROUP
  5
9810
102
{ACAD_REACTORS
330
D
102
}
330
D
100
AcDbGroup
300

 70
     1
 71
     1
  0
GROUP
  5
B370
102
{ACAD_REACTORS
330
D
102
}
330
D
100
AcDbGroup
300

 70
     1
 71
     1
  0
GROUP
  5
4018
102
{ACAD_REACTORS
330
D
102
}
330
D
100
AcDbGroup
300

 70
     1
 71
     1
  0
GROUP
  5
8911
102
{ACAD_REACTORS
330
D
102
}
330
D
100
AcDbGroup
300

 70
     1
 71
     1
  0
GROUP
  5
88D6
102
{ACAD_REACTORS
330
D
102
}
330
D
100
AcDbGroup
300

 70
     1
 71
     1
  0
GROUP
  5
5C12
102
{ACAD_REACTORS
330
D
102
}
330
D
100
AcDbGroup
300

 70
     1
 71
     1
  0
GROUP
  5
731B
102
{ACAD_REACTORS
330
D
102
}
330
D
100
AcDbGroup
300

 70
     1
 71
     1
  0
GROUP
  5
8661
102
{ACAD_REACTORS
330
D
102
}
330
D
100
AcDbGroup
300

 70
     1
 71
     1
  0
GROUP
  5
731C
102
{ACAD_REACTORS
330
D
102
}
330
D
100
AcDbGroup
300

 70
     1
 71
     1
  0
GROUP
  5
6DB5
102
{ACAD_REACTORS
330
D
102
}
330
D
100
AcDbGroup
300

 70
     1
 71
     1
  0
GROUP
  5
9B01
102
{ACAD_REACTORS
330
D
102
}
330
D
100
AcDbGroup
300

 70
     1
 71
     1
  0
GROUP
  5
A155
102
{ACAD_REACTORS
330
D
102
}
330
D
100
AcDbGroup
300

 70
     1
 71
     1
  0
GROUP
  5
B39D
102
{ACAD_REACTORS
330
D
102
}
330
D
100
AcDbGroup
300

 70
     1
 71
     1
  0
GROUP
  5
B3BC
102
{ACAD_REACTORS
330
D
102
}
330
D
100
AcDbGroup
300

 70
     1
 71
     1
  0
GROUP
  5
99D4
102
{ACAD_REACTORS
330
D
102
}
330
D
100
AcDbGroup
300

 70
     1
 71
     1
  0
GROUP
  5
9663
102
{ACAD_REACTORS
330
D
102
}
330
D
100
AcDbGroup
300

 70
     1
 71
     1
  0
GROUP
  5
A7B8
102
{ACAD_REACTORS
330
D
102
}
330
D
100
AcDbGroup
300

 70
     1
 71
     1
  0
GROUP
  5
6225
102
{ACAD_REACTORS
330
D
102
}
330
D
100
AcDbGroup
300

 70
     1
 71
     1
  0
GROUP
  5
867E
102
{ACAD_REACTORS
330
D
102
}
330
D
100
AcDbGroup
300

 70
     1
 71
     1
  0
GROUP
  5
868A
102
{ACAD_REACTORS
330
D
102
}
330
D
100
AcDbGroup
300

 70
     1
 71
     1
  0
GROUP
  5
B39F
102
{ACAD_REACTORS
330
D
102
}
330
D
100
AcDbGroup
300

 70
     1
 71
     1
  0
GROUP
  5
9250
102
{ACAD_REACTORS
330
D
102
}
330
D
100
AcDbGroup
300

 70
     1
 71
     1
  0
GROUP
  5
99D5
102
{ACAD_REACTORS
330
D
102
}
330
D
100
AcDbGroup
300

 70
     1
 71
     1
  0
GROUP
  5
6226
102
{ACAD_REACTORS
330
D
102
}
330
D
100
AcDbGroup
300

 70
     1
 71
     1
  0
GROUP
  5
8563
102
{ACAD_REACTORS
330
D
102
}
330
D
100
AcDbGroup
300

 70
     1
 71
     1
  0
GROUP
  5
B405
102
{ACAD_REACTORS
330
D
102
}
330
D
100
AcDbGroup
300

 70
     1
 71
     1
  0
GROUP
  5
8667
102
{ACAD_REACTORS
330
D
102
}
330
D
100
AcDbGroup
300

 70
     1
 71
     1
  0
GROUP
  5
855D
102
{ACAD_REACTORS
330
D
102
}
330
D
100
AcDbGroup
300

 70
     1
 71
     1
  0
GROUP
  5
868D
102
{ACAD_REACTORS
330
D
102
}
330
D
100
AcDbGroup
300

 70
     1
 71
     1
  0
GROUP
  5
9763
102
{ACAD_REACTORS
330
D
102
}
330
D
100
AcDbGroup
300

 70
     1
 71
     1
  0
GROUP
  5
8673
102
{ACAD_REACTORS
330
D
102
}
330
D
100
AcDbGroup
300

 70
     1
 71
     1
  0
GROUP
  5
88D5
102
{ACAD_REACTORS
330
D
102
}
330
D
100
AcDbGroup
300

 70
     1
 71
     1
  0
GROUP
  5
A4A2
102
{ACAD_REACTORS
330
D
102
}
330
D
100
AcDbGroup
300

 70
     1
 71
     1
  0
GROUP
  5
867F
102
{ACAD_REACTORS
330
D
102
}
330
D
100
AcDbGroup
300

 70
     1
 71
     1
  0
GROUP
  5
5AC8
102
{ACAD_REACTORS
330
D
102
}
330
D
100
AcDbGroup
300

 70
     1
 71
     1
  0
GROUP
  5
8E6F
102
{ACAD_REACTORS
330
D
102
}
330
D
100
AcDbGroup
300

 70
     1
 71
     1
  0
GROUP
  5
B5A9
102
{ACAD_REACTORS
330
D
102
}
330
D
100
AcDbGroup
300

 70
     1
 71
     1
  0
GROUP
  5
B386
102
{ACAD_REACTORS
330
D
102
}
330
D
100
AcDbGroup
300

 70
     1
 71
     1
  0
GROUP
  5
B3A0
102
{ACAD_REACTORS
330
D
102
}
330
D
100
AcDbGroup
300

 70
     1
 71
     1
  0
GROUP
  5
9B04
102
{ACAD_REACTORS
330
D
102
}
330
D
100
AcDbGroup
300

 70
     1
 71
     1
  0
GROUP
  5
5AA1
102
{ACAD_REACTORS
330
D
102
}
330
D
100
AcDbGroup
300

 70
     1
 71
     1
  0
GROUP
  5
855B
102
{ACAD_REACTORS
330
D
102
}
330
D
100
AcDbGroup
300

 70
     1
 71
     1
  0
GROUP
  5
88D2
102
{ACAD_REACTORS
330
D
102
}
330
D
100
AcDbGroup
300

 70
     1
 71
     1
  0
GROUP
  5
A45D
102
{ACAD_REACTORS
330
D
102
}
330
D
100
AcDbGroup
300

 70
     1
 71
     1
  0
GROUP
  5
9252
102
{ACAD_REACTORS
330
D
102
}
330
D
100
AcDbGroup
300

 70
     1
 71
     1
  0
GROUP
  5
9340
102
{ACAD_REACTORS
330
D
102
}
330
D
100
AcDbGroup
300

 70
     1
 71
     1
  0
GROUP
  5
9341
102
{ACAD_REACTORS
330
D
102
}
330
D
100
AcDbGroup
300

 70
     1
 71
     1
  0
LAYOUT
  5
2C4
102
{ACAD_REACTORS
330
2C2
102
}
330
2C2
100
AcDbPlotSettings
  1

  2
Laser Wind 2080W
  4

  6

 40
0.0
 41
0.0
 42
0.0
 43
0.0
 44
0.0
 45
0.0
 46
0.0
 47
0.0
 48
0.0
 49
0.0
140
0.0
141
0.0
142
1.0
143
1.0
 70
  1712
 72
     0
 73
     0
 74
     0
  7

 75
     0
147
1.0
148
0.0
149
0.0
100
AcDbLayout
  1
Model
 70
     1
 71
     0
 10
0.0
 20
0.0
 11
12.0
 21
9.0
 12
0.0
 22
0.0
 32
0.0
 14
0.0
 24
0.0
 34
0.0
 15
0.0
 25
0.0
 35
0.0
146
0.0
 13
0.0
 23
0.0
 33
0.0
 16
1.0
 26
0.0
 36
0.0
 17
0.0
 27
1.0
 37
0.0
 76
     0
330
1A
  0
LAYOUT
  5
90F2
102
{ACAD_REACTORS
330
2C2
102
}
330
2C2
100
AcDbPlotSettings
  1
A3formNX710
  2
RICOH IPSiO NX710
  4
A3
  6

 40
5.831416606903076
 41
4.307413101196289
 42
8.244415283203125
 43
5.789093017578125
 44
296.9683227539062
 45
419.9889831542968
 46
0.0
 47
0.0
 48
0.0
 49
0.0
140
0.0
141
0.0
142
1.0
143
0.999993956865126
 70
   688
 72
     1
 73
     1
 74
     2
  7
monochrome.ctb
 75
     0
147
1.000006043171393
148
0.0
149
0.0
100
AcDbLayout
  1
ﾚｲｱｳﾄ
 70
     1
 71
     1
 10
0.0
 20
0.0
 11
409.8899999999999
 21
282.8899999999999
 12
0.0
 22
0.0
 32
0.0
 14
20.0
 24
11.99999999999994
 34
0.0
 15
403.2315921453389
 25
276.9999999999999
 35
0.0
146
0.0
 13
0.0
 23
0.0
 33
0.0
 16
1.0
 26
0.0
 36
0.0
 17
0.0
 27
1.0
 37
0.0
 76
     0
330
90F3
331
90F4
  0
MLINESTYLE
  5
13
102
{ACAD_REACTORS
330
E
102
}
330
E
100
AcDbMlineStyle
  2
STANDARD
 70
     0
  3

 62
     0
 51
90.0
 52
90.0
 71
     2
 49
0.5
 62
   256
  6
BYLAYER
 49
-0.5
 62
   256
  6
BYLAYER
  0
PLOTSETTINGS
  5
2FA
102
{ACAD_REACTORS
330
2C3
102
}
330
2C3
100
AcDbPlotSettings
  1
A3formNX710
  2
RICOH IPSiO NX710
  4
A3
  6

 40
5.831416606903076
 41
4.307413101196289
 42
8.244415283203125
 43
5.789093017578125
 44
296.9683227539062
 45
419.9889831542968
 46
0.0
 47
0.0
 48
0.0
 49
0.0
140
0.0
141
0.0
142
1.0
143
0.999993956865126
 70
   688
 72
     1
 73
     1
 74
     2
  7
monochrome.ctb
 75
     0
147
1.000006043171393
148
0.0
149
0.0
  0
ACDBPLACEHOLDER
  5
2C1
102
{ACAD_REACTORS
330
2C0
102
}
330
2C0
  0
DICTIONARYVAR
  5
97D
102
{ACAD_REACTORS
330
97C
102
}
330
97C
100
DictionaryVariables
280
     0
  1
96
  0
XRECORD
  5
646A
102
{ACAD_REACTORS
330
6469
102
}
330
6469
100
AcDbXrecord
280
     1
  1
-100
  1
*-100
  1
*
  1
*
 70
     0
  1
*
  1
*
  0
XRECORD
  5
646B
102
{ACAD_REACTORS
330
6469
102
}
330
6469
100
AcDbXrecord
280
     1
  1
-50
  1
*-50
  1
*
  1
*
 70
     0
  1
*
  1
*
  0
XRECORD
  5
646C
102
{ACAD_REACTORS
330
6469
102
}
330
6469
100
AcDbXrecord
280
     1
  1
-H
  1
00*,01*,02*,05*,1*,2*,3*,4*,5*,6*,8*
  1
*
  1
*
 70
     0
  1
*
  1
*
  0
XRECORD
  5
646D
102
{ACAD_REACTORS
330
6469
102
}
330
6469
100
AcDbXrecord
280
     1
  1
-T
  1
00*,01*,03*,05*,1*,20*,21*,22*,23*,24*,25*,26*,27*,29*,2a*,3*,4*,7*,9*
  1
*
  1
*
 70
     0
  1
*
  1
*
  0
XRECORD
  5
646E
102
{ACAD_REACTORS
330
6469
102
}
330
6469
100
AcDbXrecord
280
     1
  1
$
  1
*$0$*
  1
*
  1
*
 70
     0
  1
*
  1
*
  0
XRECORD
  5
646F
102
{ACAD_REACTORS
330
6469
102
}
330
6469
100
AcDbXrecord
280
     1
  1
(02)幹線
  1
電-幹線*
  1
*
  1
*
 70
     0
  1
*
  1
*
  0
XRECORD
  5
6470
102
{ACAD_REACTORS
330
6469
102
}
330
6469
100
AcDbXrecord
280
     1
  1
（02）幹線
  1
電-幹線*
  1
*
  1
*
 70
     0
  1
*
  1
*
  0
XRECORD
  5
6471
102
{ACAD_REACTORS
330
6469
102
}
330
6469
100
AcDbXrecord
280
     1
  1
(03)接地
  1
電-接地*
  1
*
  1
*
 70
     0
  1
*
  1
*
  0
XRECORD
  5
6472
102
{ACAD_REACTORS
330
6469
102
}
330
6469
100
AcDbXrecord
280
     1
  1
（03）接地
  1
電-接地*
  1
*
  1
*
 70
     0
  1
*
  1
*
  0
XRECORD
  5
6473
102
{ACAD_REACTORS
330
6469
102
}
330
6469
100
AcDbXrecord
280
     1
  1
（04）避雷
  1
電-避雷*
  1
*
  1
*
 70
     0
  1
*
  1
*
  0
XRECORD
  5
6474
102
{ACAD_REACTORS
330
6469
102
}
330
6469
100
AcDbXrecord
280
     1
  1
(05)中央監視
  1
電-中央監視*
  1
*
  1
*
 70
     0
  1
*
  1
*
  0
XRECORD
  5
6475
102
{ACAD_REACTORS
330
6469
102
}
330
6469
100
AcDbXrecord
280
     1
  1
（05）中央監視
  1
電-中央監視*
  1
*
  1
*
 70
     0
  1
*
  1
*
  0
XRECORD
  5
6476
102
{ACAD_REACTORS
330
6469
102
}
330
6469
100
AcDbXrecord
280
     1
  1
(06)非常用ｺﾝｾﾝﾄ
  1
電-非常用ｺﾝ*
  1
*
  1
*
 70
     0
  1
*
  1
*
  0
XRECORD
  5
6477
102
{ACAD_REACTORS
330
6469
102
}
330
6469
100
AcDbXrecord
280
     1
  1
（06）非常用ｺﾝｾﾝﾄ
  1
電-非常用ｺﾝｾﾝﾄ*
  1
*
  1
*
 70
     0
  1
*
  1
*
  0
XRECORD
  5
6478
102
{ACAD_REACTORS
330
6469
102
}
330
6469
100
AcDbXrecord
280
     1
  1
（07）ﾊﾞｽﾀﾞｸﾄ
  1
電-ﾊﾞｽﾀﾞｸﾄ*
  1
*
  1
*
 70
     0
  1
*
  1
*
  0
XRECORD
  5
6479
102
{ACAD_REACTORS
330
6469
102
}
330
6469
100
AcDbXrecord
280
     1
  1
（08）ｹｰﾌﾞﾙﾗｯｸ
  1
電-ｹｰﾌﾞﾙﾗｯｸ*
  1
*
  1
*
 70
     0
  1
*
  1
*
  0
XRECORD
  5
647A
102
{ACAD_REACTORS
330
6469
102
}
330
6469
100
AcDbXrecord
280
     1
  1
(09)動力
  1
電-動力*
  1
*
  1
*
 70
     0
  1
*
  1
*
  0
XRECORD
  5
647B
102
{ACAD_REACTORS
330
6469
102
}
330
6469
100
AcDbXrecord
280
     1
  1
（09）動力
  1
電-動力*
  1
*
  1
*
 70
     0
  1
*
  1
*
  0
XRECORD
  5
647C
102
{ACAD_REACTORS
330
6469
102
}
330
6469
100
AcDbXrecord
280
     1
  1
(10)ｺﾝｾﾝﾄ
  1
電-ｺﾝｾﾝﾄ*
  1
*
  1
*
 70
     0
  1
*
  1
*
  0
XRECORD
  5
647D
102
{ACAD_REACTORS
330
6469
102
}
330
6469
100
AcDbXrecord
280
     1
  1
（10）ｺﾝｾﾝﾄ
  1
電-ｺﾝｾﾝﾄ*
  1
*
  1
*
 70
     0
  1
*
  1
*
  0
XRECORD
  5
647E
102
{ACAD_REACTORS
330
6469
102
}
330
6469
100
AcDbXrecord
280
     1
  1
（11）医療接地
  1
電-医療*
  1
*
  1
*
 70
     0
  1
*
  1
*
  0
XRECORD
  5
647F
102
{ACAD_REACTORS
330
6469
102
}
330
6469
100
AcDbXrecord
280
     1
  1
(12)電灯
  1
電-電灯*
  1
*
  1
*
 70
     0
  1
*
  1
*
  0
XRECORD
  5
6480
102
{ACAD_REACTORS
330
6469
102
}
330
6469
100
AcDbXrecord
280
     1
  1
（12）電灯
  1
電-電灯*
  1
*
  1
*
 70
     0
  1
*
  1
*
  0
XRECORD
  5
6481
102
{ACAD_REACTORS
330
6469
102
}
330
6469
100
AcDbXrecord
280
     1
  1
(13)空調
  1
電-空調*
  1
*
  1
*
 70
     0
  1
*
  1
*
  0
XRECORD
  5
6482
102
{ACAD_REACTORS
330
6469
102
}
330
6469
100
AcDbXrecord
280
     1
  1
（13）空調
  1
電-空調*
  1
*
  1
*
 70
     0
  1
*
  1
*
  0
XRECORD
  5
6483
102
{ACAD_REACTORS
330
6469
102
}
330
6469
100
AcDbXrecord
280
     1
  1
（14）航空障害灯
  1
電-航空*
  1
*
  1
*
 70
     0
  1
*
  1
*
  0
XRECORD
  5
6484
102
{ACAD_REACTORS
330
6469
102
}
330
6469
100
AcDbXrecord
280
     1
  1
(15)非常照明
  1
電-非常照明*
  1
*
  1
*
 70
     0
  1
*
  1
*
  0
XRECORD
  5
6485
102
{ACAD_REACTORS
330
6469
102
}
330
6469
100
AcDbXrecord
280
     1
  1
（15）非常照明
  1
電-非常照明*
  1
*
  1
*
 70
     0
  1
*
  1
*
  0
XRECORD
  5
6486
102
{ACAD_REACTORS
330
6469
102
}
330
6469
100
AcDbXrecord
280
     1
  1
（16）誘導灯
  1
電-誘導灯*
  1
*
  1
*
 70
     0
  1
*
  1
*
  0
XRECORD
  5
6487
102
{ACAD_REACTORS
330
6469
102
}
330
6469
100
AcDbXrecord
280
     1
  1
(17)電話
  1
電-電話*
  1
*
  1
*
 70
     0
  1
*
  1
*
  0
XRECORD
  5
6488
102
{ACAD_REACTORS
330
6469
102
}
330
6469
100
AcDbXrecord
280
     1
  1
（17）電話
  1
電-電話*
  1
*
  1
*
 70
     0
  1
*
  1
*
  0
XRECORD
  5
6489
102
{ACAD_REACTORS
330
6469
102
}
330
6469
100
AcDbXrecord
280
     1
  1
(18)情報
  1
電-情報*
  1
*
  1
*
 70
     0
  1
*
  1
*
  0
XRECORD
  5
648A
102
{ACAD_REACTORS
330
6469
102
}
330
6469
100
AcDbXrecord
280
     1
  1
（18）情報
  1
電-情報*
  1
*
  1
*
 70
     0
  1
*
  1
*
  0
XRECORD
  5
648B
102
{ACAD_REACTORS
330
6469
102
}
330
6469
100
AcDbXrecord
280
     1
  1
(19)ﾃﾚﾋﾞ
  1
電-ﾃﾚﾋﾞ*
  1
*
  1
*
 70
     0
  1
*
  1
*
  0
XRECORD
  5
648C
102
{ACAD_REACTORS
330
6469
102
}
330
6469
100
AcDbXrecord
280
     1
  1
（19）ﾃﾚﾋﾞ
  1
電-ﾃﾚﾋﾞ*
  1
*
  1
*
 70
     0
  1
*
  1
*
  0
XRECORD
  5
648D
102
{ACAD_REACTORS
330
6469
102
}
330
6469
100
AcDbXrecord
280
     1
  1
(20)防犯
  1
電-防*
  1
*
  1
*
 70
     0
  1
*
  1
*
  0
XRECORD
  5
648E
102
{ACAD_REACTORS
330
6469
102
}
330
6469
100
AcDbXrecord
280
     1
  1
（20）防犯
  1
電-防犯*
  1
*
  1
*
 70
     0
  1
*
  1
*
  0
XRECORD
  5
648F
102
{ACAD_REACTORS
330
6469
102
}
330
6469
100
AcDbXrecord
280
     1
  1
（21）ITV
  1
電-ITV*
  1
*
  1
*
 70
     0
  1
*
  1
*
  0
XRECORD
  5
6490
102
{ACAD_REACTORS
330
6469
102
}
330
6469
100
AcDbXrecord
280
     1
  1
(22)ﾅｰｽｺｰﾙ
  1
電-ﾅｰｽｺｰﾙ*
  1
*
  1
*
 70
     0
  1
*
  1
*
  0
XRECORD
  5
6491
102
{ACAD_REACTORS
330
6469
102
}
330
6469
100
AcDbXrecord
280
     1
  1
（22）ﾅｰｽｺｰﾙ
  1
電-ﾅｰｽｺｰﾙ*
  1
*
  1
*
 70
     0
  1
*
  1
*
  0
XRECORD
  5
6492
102
{ACAD_REACTORS
330
6469
102
}
330
6469
100
AcDbXrecord
280
     1
  1
（23）外来診察
  1
電-外来診察*
  1
*
  1
*
 70
     0
  1
*
  1
*
  0
XRECORD
  5
6493
102
{ACAD_REACTORS
330
6469
102
}
330
6469
100
AcDbXrecord
280
     1
  1
（24）ﾍﾞｯﾄｻｲﾄﾞ
  1
電-ﾍﾞｯﾄｻｲﾄﾞ*
  1
*
  1
*
 70
     0
  1
*
  1
*
  0
XRECORD
  5
6494
102
{ACAD_REACTORS
330
6469
102
}
330
6469
100
AcDbXrecord
280
     1
  1
（25）採尿蓄量
  1
電-採尿蓄量*
  1
*
  1
*
 70
     0
  1
*
  1
*
  0
XRECORD
  5
6495
102
{ACAD_REACTORS
330
6469
102
}
330
6469
100
AcDbXrecord
280
     1
  1
(26)非常放送
  1
電-非常放送*
  1
*
  1
*
 70
     0
  1
*
  1
*
  0
XRECORD
  5
6496
102
{ACAD_REACTORS
330
6469
102
}
330
6469
100
AcDbXrecord
280
     1
  1
（26）非常放送
  1
電-非常放送*
  1
*
  1
*
 70
     0
  1
*
  1
*
  0
XRECORD
  5
6497
102
{ACAD_REACTORS
330
6469
102
}
330
6469
100
AcDbXrecord
280
     1
  1
（27）業務放送
  1
電-業務放送*
  1
*
  1
*
 70
     0
  1
*
  1
*
  0
XRECORD
  5
6498
102
{ACAD_REACTORS
330
6469
102
}
330
6469
100
AcDbXrecord
280
     1
  1
(28)火報
  1
電-火報*
  1
*
  1
*
 70
     0
  1
*
  1
*
  0
XRECORD
  5
6499
102
{ACAD_REACTORS
330
6469
102
}
330
6469
100
AcDbXrecord
280
     1
  1
（28）火報
  1
電-火報*
  1
*
  1
*
 70
     0
  1
*
  1
*
  0
XRECORD
  5
649A
102
{ACAD_REACTORS
330
6469
102
}
330
6469
100
AcDbXrecord
280
     1
  1
(29)厨房
  1
電-厨房*
  1
*
  1
*
 70
     0
  1
*
  1
*
  0
XRECORD
  5
649B
102
{ACAD_REACTORS
330
6469
102
}
330
6469
100
AcDbXrecord
280
     1
  1
（29）厨房
  1
電-厨房*
  1
*
  1
*
 70
     0
  1
*
  1
*
  0
XRECORD
  5
649C
102
{ACAD_REACTORS
330
6469
102
}
330
6469
100
AcDbXrecord
280
     1
  1
､@ｯ・U+56F3
  1
hatch
  1
*
  1
*
 70
     7
  1
*
  1
*
  0
XRECORD
  5
649D
102
{ACAD_REACTORS
330
6469
102
}
330
6469
100
AcDbXrecord
280
     1
  1
･画ｼhｪ愠ﾜ
  1
*
  1
*
  1
*
 70
     1
  1
*
  1
*
  0
XRECORD
  5
649E
102
{ACAD_REACTORS
330
6469
102
}
330
6469
100
AcDbXrecord
280
     1
  1
0
  1
*0*
  1
*
  1
*
 70
     0
  1
*
  1
*
  0
XRECORD
  5
649F
102
{ACAD_REACTORS
330
6469
102
}
330
6469
100
AcDbXrecord
280
     1
  1
0 画層
  1
0*,*.
  1
*
  1
*
 70
     0
  1
*
  1
*
  0
XRECORD
  5
64A0
102
{ACAD_REACTORS
330
6469
102
}
330
6469
100
AcDbXrecord
280
     1
  1
00
  1
*-100
  1
*
  1
*
 70
     0
  1
*
  1
*
  0
XRECORD
  5
64A1
102
{ACAD_REACTORS
330
6469
102
}
330
6469
100
AcDbXrecord
280
     1
  1
001
  1
*
  1
*
  1
*
 70
     3
  1
*
  1
*
  0
XRECORD
  5
64A2
102
{ACAD_REACTORS
330
6469
102
}
330
6469
100
AcDbXrecord
280
     1
  1
01
  1
*
  1
*
  1
*
 70
     0
  1
*
  1
*
  0
XRECORD
  5
64A3
102
{ACAD_REACTORS
330
6469
102
}
330
6469
100
AcDbXrecord
280
     1
  1
05
  1
*05*
  1
*
  1
*
 70
     0
  1
*
  1
*
  0
XRECORD
  5
64A4
102
{ACAD_REACTORS
330
6469
102
}
330
6469
100
AcDbXrecord
280
     1
  1
0系
  1
0*
  1
*
  1
*
 70
     0
  1
*
  1
*
  0
XRECORD
  5
64A5
102
{ACAD_REACTORS
330
6469
102
}
330
6469
100
AcDbXrecord
280
     1
  1
0系+CONTINUOUS
  1
0?*
  1
*
  1
CONTINUOUS
 70
     0
  1
*
  1
*
  0
XRECORD
  5
64A6
102
{ACAD_REACTORS
330
6469
102
}
330
6469
100
AcDbXrecord
280
     1
  1
0床内
  1
FI-*
  1
*
  1
*
 70
     0
  1
*
  1
*
  0
XRECORD
  5
64A7
102
{ACAD_REACTORS
330
6469
102
}
330
6469
100
AcDbXrecord
280
     1
  1
0床壁
  1
FW*
  1
*
  1
*
 70
     0
  1
*
  1
*
  0
XRECORD
  5
64A8
102
{ACAD_REACTORS
330
6469
102
}
330
6469
100
AcDbXrecord
280
     1
  1
0詳細図
  1
*-d
  1
*
  1
*
 70
     0
  1
*
  1
*
  0
XRECORD
  5
64A9
102
{ACAD_REACTORS
330
6469
102
}
330
6469
100
AcDbXrecord
280
     1
  1
0総合図off
  1
*-s
  1
*
  1
*
 70
     0
  1
*
  1
*
  0
XRECORD
  5
64AA
102
{ACAD_REACTORS
330
6469
102
}
330
6469
100
AcDbXrecord
280
     1
  1
0総合図枠
  1
*-2
  1
*
  1
*
 70
     0
  1
*
  1
*
  0
XRECORD
  5
64AB
102
{ACAD_REACTORS
330
6469
102
}
330
6469
100
AcDbXrecord
280
     1
  1
0平詳枠
  1
*-1
  1
*
  1
*
 70
     0
  1
*
  1
*
  0
XRECORD
  5
64AC
102
{ACAD_REACTORS
330
6469
102
}
330
6469
100
AcDbXrecord
280
     1
  1
1
  1
*
  1
9
  1
*
 70
     0
  1
*
  1
*
  0
XRECORD
  5
64AD
102
{ACAD_REACTORS
330
6469
102
}
330
6469
100
AcDbXrecord
280
     1
  1
1-30
  1
30*
  1
*
  1
*
 70
     0
  1
*
  1
*
  0
XRECORD
  5
64AE
102
{ACAD_REACTORS
330
6469
102
}
330
6469
100
AcDbXrecord
280
     1
  1
1-交差点処理図（最新1案）
  1
*交差点処理図（最新1案）*
  1
*
  1
*
 70
     0
  1
*
  1
*
  0
XRECORD
  5
64AF
102
{ACAD_REACTORS
330
6469
102
}
330
6469
100
AcDbXrecord
280
     1
  1
1／100
  1
*1／100*
  1
*
  1
*
 70
     0
  1
*
  1
*
  0
XRECORD
  5
64B0
102
{ACAD_REACTORS
330
6469
102
}
330
6469
100
AcDbXrecord
280
     1
  1
100
  1
*100*
  1
*
  1
*
 70
     0
  1
*
  1
*
  0
XRECORD
  5
64B1
102
{ACAD_REACTORS
330
6469
102
}
330
6469
100
AcDbXrecord
280
     1
  1
10画層
  1
*-10
  1
*
  1
*
 70
     0
  1
*
  1
*
  0
XRECORD
  5
64B2
102
{ACAD_REACTORS
330
6469
102
}
330
6469
100
AcDbXrecord
280
     1
  1
1111
  1
*-50
  1
*
  1
*
 70
     0
  1
*
  1
*
  0
XRECORD
  5
64B3
102
{ACAD_REACTORS
330
6469
102
}
330
6469
100
AcDbXrecord
280
     1
  1
12
  1
*
  1
*12
  1
*
 70
     0
  1
*
  1
*
  0
XRECORD
  5
64B4
102
{ACAD_REACTORS
330
6469
102
}
330
6469
100
AcDbXrecord
280
     1
  1
19
  1
*19*
  1
*
  1
*
 70
     0
  1
*
  1
*
  0
XRECORD
  5
64B5
102
{ACAD_REACTORS
330
6469
102
}
330
6469
100
AcDbXrecord
280
     1
  1
1床
  1
F-*
  1
*
  1
*
 70
     0
  1
*
  1
*
  0
XRECORD
  5
64B6
102
{ACAD_REACTORS
330
6469
102
}
330
6469
100
AcDbXrecord
280
     1
  1
1芯
  1
1*
  1
*
  1
*
 70
     0
  1
*
  1
*
  0
XRECORD
  5
64B7
102
{ACAD_REACTORS
330
6469
102
}
330
6469
100
AcDbXrecord
280
     1
  1
1芯線
  1
1*
  1
*
  1
*
 70
     0
  1
*
  1
*
  0
XRECORD
  5
64B8
102
{ACAD_REACTORS
330
6469
102
}
330
6469
100
AcDbXrecord
280
     1
  1
2
  1
*2
  1
*
  1
*
 70
     0
  1
*
  1
*
  0
XRECORD
  5
64B9
102
{ACAD_REACTORS
330
6469
102
}
330
6469
100
AcDbXrecord
280
     1
  1
2-線形図1
  1
*線形図1*
  1
*
  1
*
 70
     0
  1
*
  1
*
  0
XRECORD
  5
64BA
102
{ACAD_REACTORS
330
6469
102
}
330
6469
100
AcDbXrecord
280
     1
  1
200
  1
*
  1
*
  1
*
 70
     0
  1
*
  1
*
  0
XRECORD
  5
64BB
102
{ACAD_REACTORS
330
6469
102
}
330
6469
100
AcDbXrecord
280
     1
  1
21
  1
*
  1
21
  1
*
 70
     0
  1
*
  1
*
  0
XRECORD
  5
64BC
102
{ACAD_REACTORS
330
6469
102
}
330
6469
100
AcDbXrecord
280
     1
  1
2100
  1
*2100*
  1
*
  1
*
 70
     0
  1
*
  1
*
  0
XRECORD
  5
64BD
102
{ACAD_REACTORS
330
6469
102
}
330
6469
100
AcDbXrecord
280
     1
  1
250
  1
*250*
  1
*
  1
*
 70
     0
  1
*
  1
*
  0
XRECORD
  5
64BE
102
{ACAD_REACTORS
330
6469
102
}
330
6469
100
AcDbXrecord
280
     1
  1
2600
  1
*2600*
  1
*
  1
*
 70
     0
  1
*
  1
*
  0
XRECORD
  5
64BF
102
{ACAD_REACTORS
330
6469
102
}
330
6469
100
AcDbXrecord
280
     1
  1
2f
  1
a*
  1
*
  1
*
 70
     0
  1
*
  1
*
  0
XRECORD
  5
64C0
102
{ACAD_REACTORS
330
6469
102
}
330
6469
100
AcDbXrecord
280
     1
  1
2躯体
  1
2*
  1
*
  1
*
 70
     0
  1
*
  1
*
  0
XRECORD
  5
64C1
102
{ACAD_REACTORS
330
6469
102
}
330
6469
100
AcDbXrecord
280
     1
  1
2断面
  1
2*
  1
*
  1
*
 70
     0
  1
*
  1
*
  0
XRECORD
  5
64C2
102
{ACAD_REACTORS
330
6469
102
}
330
6469
100
AcDbXrecord
280
     1
  1
2壁
  1
W-*
  1
*
  1
*
 70
     0
  1
*
  1
*
  0
XRECORD
  5
64C3
102
{ACAD_REACTORS
330
6469
102
}
330
6469
100
AcDbXrecord
280
     1
  1
3
  1
*
  1
3
  1
*
 70
     0
  1
*
  1
*
  0
XRECORD
  5
64C4
102
{ACAD_REACTORS
330
6469
102
}
330
6469
100
AcDbXrecord
280
     1
  1
3-線形図2
  1
*線形図2*
  1
*
  1
*
 70
     0
  1
*
  1
*
  0
XRECORD
  5
64C5
102
{ACAD_REACTORS
330
6469
102
}
330
6469
100
AcDbXrecord
280
     1
  1
300
  1
*-3
  1
*
  1
*
 70
     0
  1
*
  1
*
  0
XRECORD
  5
64C6
102
{ACAD_REACTORS
330
6469
102
}
330
6469
100
AcDbXrecord
280
     1
  1
32
  1
*
  1
32
  1
*
 70
     0
  1
*
  1
*
  0
XRECORD
  5
64C7
102
{ACAD_REACTORS
330
6469
102
}
330
6469
100
AcDbXrecord
280
     1
  1
333
  1
*
  1
*
  1
*
 70
    12
  1
*
  1
*
  0
XRECORD
  5
64C8
102
{ACAD_REACTORS
330
6469
102
}
330
6469
100
AcDbXrecord
280
     1
  1
3A
  1
*-3A
  1
*
  1
*
 70
     0
  1
*
  1
*
  0
XRECORD
  5
64C9
102
{ACAD_REACTORS
330
6469
102
}
330
6469
100
AcDbXrecord
280
     1
  1
3開口
  1
3*
  1
*
  1
*
 70
     0
  1
*
  1
*
  0
XRECORD
  5
64CA
102
{ACAD_REACTORS
330
6469
102
}
330
6469
100
AcDbXrecord
280
     1
  1
3見掛り
  1
3*
  1
*
  1
*
 70
     0
  1
*
  1
*
  0
XRECORD
  5
64CB
102
{ACAD_REACTORS
330
6469
102
}
330
6469
100
AcDbXrecord
280
     1
  1
3天井内
  1
CI-*
  1
*
  1
*
 70
     0
  1
*
  1
*
  0
XRECORD
  5
64CC
102
{ACAD_REACTORS
330
6469
102
}
330
6469
100
AcDbXrecord
280
     1
  1
4
  1
*
  1
4
  1
*
 70
     0
  1
*
  1
*
  0
XRECORD
  5
64CD
102
{ACAD_REACTORS
330
6469
102
}
330
6469
100
AcDbXrecord
280
     1
  1
41
  1
41
  1
*
  1
*
 70
     1
  1
*
  1
*
  0
XRECORD
  5
64CE
102
{ACAD_REACTORS
330
6469
102
}
330
6469
100
AcDbXrecord
280
     1
  1
4仕上げ
  1
4*
  1
*
  1
*
 70
     0
  1
*
  1
*
  0
XRECORD
  5
64CF
102
{ACAD_REACTORS
330
6469
102
}
330
6469
100
AcDbXrecord
280
     1
  1
4天井
  1
C-*
  1
*
  1
*
 70
     0
  1
*
  1
*
  0
XRECORD
  5
64D0
102
{ACAD_REACTORS
330
6469
102
}
330
6469
100
AcDbXrecord
280
     1
  1
5
  1
*5
  1
*
  1
*
 70
     1
  1
*
  1
*
  0
XRECORD
  5
64D1
102
{ACAD_REACTORS
330
6469
102
}
330
6469
100
AcDbXrecord
280
     1
  1
50
  1
*-50
  1
*
  1
*
 70
     0
  1
*
  1
*
  0
XRECORD
  5
64D2
102
{ACAD_REACTORS
330
6469
102
}
330
6469
100
AcDbXrecord
280
     1
  1
50off
  1
50*
  1
*
  1
*
 70
     0
  1
*
  1
*
  0
XRECORD
  5
64D3
102
{ACAD_REACTORS
330
6469
102
}
330
6469
100
AcDbXrecord
280
     1
  1
50詳細図
  1
*
  1
*
  1
*
 70
     0
  1
*
  1
*
  0
XRECORD
  5
64D4
102
{ACAD_REACTORS
330
6469
102
}
330
6469
100
AcDbXrecord
280
     1
  1
51-52
  1
5*
  1
*
  1
*
 70
     0
  1
*
  1
*
  0
XRECORD
  5
64D5
102
{ACAD_REACTORS
330
6469
102
}
330
6469
100
AcDbXrecord
280
     1
  1
555
  1
*
  1
*
  1
*
 70
     1
  1
*
  1
*
  0
XRECORD
  5
64D6
102
{ACAD_REACTORS
330
6469
102
}
330
6469
100
AcDbXrecord
280
     1
  1
5画層
  1
*-5
  1
*
  1
*
 70
     0
  1
*
  1
*
  0
XRECORD
  5
64D7
102
{ACAD_REACTORS
330
6469
102
}
330
6469
100
AcDbXrecord
280
     1
  1
5寸法
  1
5*
  1
*
  1
*
 70
     0
  1
*
  1
*
  0
XRECORD
  5
64D8
102
{ACAD_REACTORS
330
6469
102
}
330
6469
100
AcDbXrecord
280
     1
  1
5文字
  1
*TXT*
  1
*
  1
*
 70
     0
  1
*
  1
*
  0
XRECORD
  5
64D9
102
{ACAD_REACTORS
330
6469
102
}
330
6469
100
AcDbXrecord
280
     1
  1
6
  1
*
  1
6
  1
*
 70
     0
  1
*
  1
*
  0
XRECORD
  5
64DA
102
{ACAD_REACTORS
330
6469
102
}
330
6469
100
AcDbXrecord
280
     1
  1
66-躯体図
  1
0,Defpoints,HOJO,雲マーク,000*,010*,020*,1*,400*,470*,520*,570*,08*
  1
*
  1
*
 70
     0
  1
*
  1
*
  0
XRECORD
  5
64DB
102
{ACAD_REACTORS
330
6469
102
}
330
6469
100
AcDbXrecord
280
     1
  1
66躯体図
  1
0,Defpoints,HOJO,雲マーク,000*,010*,020*,1*,400*,470*,520*,570*,08*,6*
  1
*
  1
*
 70
     0
  1
*
  1
*
  0
XRECORD
  5
64DC
102
{ACAD_REACTORS
330
6469
102
}
330
6469
100
AcDbXrecord
280
     1
  1
6画層
  1
*-6
  1
*
  1
*
 70
     0
  1
*
  1
*
  0
XRECORD
  5
64DD
102
{ACAD_REACTORS
330
6469
102
}
330
6469
100
AcDbXrecord
280
     1
  1
6記号
  1
6*
  1
*
  1
*
 70
     0
  1
*
  1
*
  0
XRECORD
  5
64DE
102
{ACAD_REACTORS
330
6469
102
}
330
6469
100
AcDbXrecord
280
     1
  1
6文字
  1
6*
  1
*
  1
*
 70
     0
  1
*
  1
*
  0
XRECORD
  5
64DF
102
{ACAD_REACTORS
330
6469
102
}
330
6469
100
AcDbXrecord
280
     1
  1
6保留
  1
*_a
  1
*
  1
*
 70
     0
  1
*
  1
*
  0
XRECORD
  5
64E0
102
{ACAD_REACTORS
330
6469
102
}
330
6469
100
AcDbXrecord
280
     1
  1
7
  1
*
  1
7
  1
*
 70
     0
  1
*
  1
*
  0
XRECORD
  5
64E1
102
{ACAD_REACTORS
330
6469
102
}
330
6469
100
AcDbXrecord
280
     1
  1
7-専用部北行
  1
80*,90*,A0*,B0*,
  1
*
  1
*
 70
     0
  1
*
  1
*
  0
XRECORD
  5
64E2
102
{ACAD_REACTORS
330
6469
102
}
330
6469
100
AcDbXrecord
280
     1
  1
7a画層
  1
*-7a
  1
*
  1
*
 70
     0
  1
*
  1
*
  0
XRECORD
  5
64E3
102
{ACAD_REACTORS
330
6469
102
}
330
6469
100
AcDbXrecord
280
     1
  1
7記号
  1
7*
  1
*
  1
*
 70
     0
  1
*
  1
*
  0
XRECORD
  5
64E4
102
{ACAD_REACTORS
330
6469
102
}
330
6469
100
AcDbXrecord
280
     1
  1
8
  1
*
  1
8
  1
*
 70
     0
  1
*
  1
*
  0
XRECORD
  5
64E5
102
{ACAD_REACTORS
330
6469
102
}
330
6469
100
AcDbXrecord
280
     1
  1
8-ONﾗﾝﾌﾟ
  1
70*,90*,A0*,B0*,
  1
*
  1
*
 70
     0
  1
*
  1
*
  0
XRECORD
  5
64E6
102
{ACAD_REACTORS
330
6469
102
}
330
6469
100
AcDbXrecord
280
     1
  1
8寸法
  1
8*
  1
*
  1
*
 70
     0
  1
*
  1
*
  0
XRECORD
  5
64E7
102
{ACAD_REACTORS
330
6469
102
}
330
6469
100
AcDbXrecord
280
     1
  1
8設備
  1
8*
  1
*
  1
*
 70
     0
  1
*
  1
*
  0
XRECORD
  5
64E8
102
{ACAD_REACTORS
330
6469
102
}
330
6469
100
AcDbXrecord
280
     1
  1
9
  1
*
  1
9
  1
*
 70
     0
  1
*
  1
*
  0
XRECORD
  5
64E9
102
{ACAD_REACTORS
330
6469
102
}
330
6469
100
AcDbXrecord
280
     1
  1
9-OFFﾗﾝﾌﾟ
  1
70*,80*,A0*B0*,
  1
*
  1
*
 70
     0
  1
*
  1
*
  0
XRECORD
  5
64EA
102
{ACAD_REACTORS
330
6469
102
}
330
6469
100
AcDbXrecord
280
     1
  1
901101
  1
*
  1
*
  1
*
 70
     0
  1
*
  1
*
  0
XRECORD
  5
64EB
102
{ACAD_REACTORS
330
6469
102
}
330
6469
100
AcDbXrecord
280
     1
  1
9文字
  1
9*
  1
*
  1
*
 70
     0
  1
*
  1
*
  0
XRECORD
  5
64EC
102
{ACAD_REACTORS
330
6469
102
}
330
6469
100
AcDbXrecord
280
     1
  1
9目地
  1
9*
  1
*
  1
*
 70
     0
  1
*
  1
*
  0
XRECORD
  5
64ED
102
{ACAD_REACTORS
330
6469
102
}
330
6469
100
AcDbXrecord
280
     1
  1
a
  1
*81,*82,*80,7212*,7213*,7211*
  1
*
  1
*
 70
     0
  1
*
  1
*
  0
XRECORD
  5
64EE
102
{ACAD_REACTORS
330
6469
102
}
330
6469
100
AcDbXrecord
280
     1
  1
A-
  1
A-*
  1
*
  1
*
 70
     0
  1
*
  1
*
  0
XRECORD
  5
64EF
102
{ACAD_REACTORS
330
6469
102
}
330
6469
100
AcDbXrecord
280
     1
  1
a-roof
  1
a-roof*
  1
*
  1
*
 70
     0
  1
*
  1
*
  0
XRECORD
  5
64F0
102
{ACAD_REACTORS
330
6469
102
}
330
6469
100
AcDbXrecord
280
     1
  1
A 画層
  1
A*,*.
  1
*
  1
*
 70
     0
  1
*
  1
*
  0
XRECORD
  5
910B
102
{ACAD_REACTORS
330
6469
102
}
330
6469
100
AcDbXrecord
280
     1
  1
A111-only
  1
A111*
  1
*
  1
*
 70
     0
  1
*
  1
*
  0
XRECORD
  5
64F1
102
{ACAD_REACTORS
330
6469
102
}
330
6469
100
AcDbXrecord
280
     1
  1
A3
  1
*A3
  1
*
  1
*
 70
     0
  1
*
  1
*
  0
XRECORD
  5
64F2
102
{ACAD_REACTORS
330
6469
102
}
330
6469
100
AcDbXrecord
280
     1
  1
aa
  1
4262*
  1
*
  1
*
 70
     0
  1
*
  1
*
  0
XRECORD
  5
64F3
102
{ACAD_REACTORS
330
6469
102
}
330
6469
100
AcDbXrecord
280
     1
  1
aaa
  1
*
  1
?
  1
*
 70
     0
  1
*
  1
*
  0
XRECORD
  5
64F4
102
{ACAD_REACTORS
330
6469
102
}
330
6469
100
AcDbXrecord
280
     1
  1
AAAA
  1
*KEL,*FIN,HASIRA
  1
*
  1
*
 70
     0
  1
*
  1
*
  0
XRECORD
  5
64F5
102
{ACAD_REACTORS
330
6469
102
}
330
6469
100
AcDbXrecord
280
     1
  1
AB棟
  1
ＡＢ棟*
  1
*
  1
*
 70
     0
  1
*
  1
*
  0
XRECORD
  5
64F6
102
{ACAD_REACTORS
330
6469
102
}
330
6469
100
AcDbXrecord
280
     1
  1
ＡＢ棟
  1
ＡＢ棟*
  1
*
  1
*
 70
     0
  1
*
  1
*
  0
XRECORD
  5
64F7
102
{ACAD_REACTORS
330
6469
102
}
330
6469
100
AcDbXrecord
280
     1
  1
all選択
  1
*
  1
*
  1
*
 70
     0
  1
*
  1
*
  0
XRECORD
  5
64F8
102
{ACAD_REACTORS
330
6469
102
}
330
6469
100
AcDbXrecord
280
     1
  1
AREA
  1
*AREA*
  1
*
  1
*
 70
     0
  1
*
  1
*
  0
XRECORD
  5
64F9
102
{ACAD_REACTORS
330
6469
102
}
330
6469
100
AcDbXrecord
280
     1
  1
AREA-SG
  1
*6AREA-SG
  1
6
  1
*
 70
     0
  1
*
  1
*
  0
XRECORD
  5
64FA
102
{ACAD_REACTORS
330
6469
102
}
330
6469
100
AcDbXrecord
280
     1
  1
ASDFCA
  1
846304*
  1
*
  1
*
 70
     0
  1
*
  1
*
  0
XRECORD
  5
64FB
102
{ACAD_REACTORS
330
6469
102
}
330
6469
100
AcDbXrecord
280
     1
  1
aハッチング
  1
a*
  1
*
  1
*
 70
     0
  1
*
  1
*
  0
XRECORD
  5
64FC
102
{ACAD_REACTORS
330
6469
102
}
330
6469
100
AcDbXrecord
280
     1
  1
A空調
  1
*
  1
*
  1
*
 70
     0
  1
*
  1
KUCYOU
  0
XRECORD
  5
64FD
102
{ACAD_REACTORS
330
6469
102
}
330
6469
100
AcDbXrecord
280
     1
  1
Ａ断面
  1
DSTD_SECT-A*
  1
*
  1
*
 70
     0
  1
*
  1
*
  0
XRECORD
  5
64FE
102
{ACAD_REACTORS
330
6469
102
}
330
6469
100
AcDbXrecord
280
     1
  1
b
  1
15法規
  1
120
  1
*
 70
     3
  1
*
  1
*
  0
XRECORD
  5
64FF
102
{ACAD_REACTORS
330
6469
102
}
330
6469
100
AcDbXrecord
280
     1
  1
B 画層
  1
B*,*.
  1
*
  1
*
 70
     0
  1
*
  1
*
  0
XRECORD
  5
6500
102
{ACAD_REACTORS
330
6469
102
}
330
6469
100
AcDbXrecord
280
     1
  1
BAL
  1
*BAL
  1
*
  1
*
 70
     0
  1
*
  1
*
  0
XRECORD
  5
6501
102
{ACAD_REACTORS
330
6469
102
}
330
6469
100
AcDbXrecord
280
     1
  1
BASE
  1
*I4BASE
  1
*
  1
*
 70
     0
  1
*
  1
*
  0
XRECORD
  5
6502
102
{ACAD_REACTORS
330
6469
102
}
330
6469
100
AcDbXrecord
280
     1
  1
BBB
  1
*HUTA
  1
*
  1
*
 70
     0
  1
*
  1
*
  0
XRECORD
  5
6503
102
{ACAD_REACTORS
330
6469
102
}
330
6469
100
AcDbXrecord
280
     1
  1
blue
  1
*
  1
blue
  1
*
 70
     0
  1
*
  1
*
  0
XRECORD
  5
6504
102
{ACAD_REACTORS
330
6469
102
}
330
6469
100
AcDbXrecord
280
     1
  1
BOR
  1
*
  1
*
  1
*
 70
     0
  1
*
  1
*
  0
XRECORD
  5
6505
102
{ACAD_REACTORS
330
6469
102
}
330
6469
100
AcDbXrecord
280
     1
  1
b階段
  1
b*
  1
*
  1
*
 70
     0
  1
*
  1
*
  0
XRECORD
  5
6506
102
{ACAD_REACTORS
330
6469
102
}
330
6469
100
AcDbXrecord
280
     1
  1
Ｂ断面
  1
DSTD_SECT-B*
  1
*
  1
*
 70
     0
  1
*
  1
*
  0
XRECORD
  5
6507
102
{ACAD_REACTORS
330
6469
102
}
330
6469
100
AcDbXrecord
280
     1
  1
B電気
  1
*
  1
*
  1
*
 70
     0
  1
*
  1
DENKI
  0
XRECORD
  5
6508
102
{ACAD_REACTORS
330
6469
102
}
330
6469
100
AcDbXrecord
280
     1
  1
B北
  1
*B北*
  1
*
  1
*
 70
     0
  1
*
  1
*
  0
XRECORD
  5
6509
102
{ACAD_REACTORS
330
6469
102
}
330
6469
100
AcDbXrecord
280
     1
  1
c
  1
c*
  1
*
  1
*
 70
    61
  1
*
  1
*
  0
XRECORD
  5
650A
102
{ACAD_REACTORS
330
6469
102
}
330
6469
100
AcDbXrecord
280
     1
  1
c-block
  1
c-*
  1
*
  1
*
 70
     0
  1
*
  1
*
  0
XRECORD
  5
650B
102
{ACAD_REACTORS
330
6469
102
}
330
6469
100
AcDbXrecord
280
     1
  1
c-block-2
  1
c-*
  1
*
  1
*
 70
  1024
  1
*
  1
*
  0
XRECORD
  5
650C
102
{ACAD_REACTORS
330
6469
102
}
330
6469
100
AcDbXrecord
280
     1
  1
caa001
  1
*
  1
*
  1
*
 70
     0
  1
*
  1
*
  0
XRECORD
  5
650D
102
{ACAD_REACTORS
330
6469
102
}
330
6469
100
AcDbXrecord
280
     1
  1
CABINETRY
  1
*CAB*
  1
*
  1
*
 70
     0
  1
*
  1
*
  0
XRECORD
  5
650E
102
{ACAD_REACTORS
330
6469
102
}
330
6469
100
AcDbXrecord
280
     1
  1
cap-0
  1
*
  1
*
  1
*
 70
     0
  1
*
  1
*
  0
XRECORD
  5
650F
102
{ACAD_REACTORS
330
6469
102
}
330
6469
100
AcDbXrecord
280
     1
  1
CASTellano
  1
A-*
  1
*
  1
*
 70
     0
  1
*
  1
*
  0
XRECORD
  5
6510
102
{ACAD_REACTORS
330
6469
102
}
330
6469
100
AcDbXrecord
280
     1
  1
cc
  1
*
  1
*
  1
*
 70
     0
  1
*
  1
*
  0
XRECORD
  5
6511
102
{ACAD_REACTORS
330
6469
102
}
330
6469
100
AcDbXrecord
280
     1
  1
CCC
  1
*45
  1
*
  1
*
 70
     0
  1
*
  1
*
  0
XRECORD
  5
6512
102
{ACAD_REACTORS
330
6469
102
}
330
6469
100
AcDbXrecord
280
     1
  1
ＣＤ棟
  1
T15-*
  1
*
  1
*
 70
     0
  1
*
  1
*
  0
XRECORD
  5
6513
102
{ACAD_REACTORS
330
6469
102
}
330
6469
100
AcDbXrecord
280
     1
  1
ceiling
  1
*-c
  1
*
  1
*
 70
     0
  1
*
  1
*
  0
XRECORD
  5
6514
102
{ACAD_REACTORS
330
6469
102
}
330
6469
100
AcDbXrecord
280
     1
  1
CENTER
  1
*
  1
*
  1
*
 70
     0
  1
*
  1
*
  0
XRECORD
  5
6515
102
{ACAD_REACTORS
330
6469
102
}
330
6469
100
AcDbXrecord
280
     1
  1
che
  1
che*
  1
*
  1
*
 70
     0
  1
*
  1
*
  0
XRECORD
  5
6516
102
{ACAD_REACTORS
330
6469
102
}
330
6469
100
AcDbXrecord
280
     1
  1
com
  1
com*
  1
*
  1
*
 70
     0
  1
*
  1
*
  0
XRECORD
  5
6517
102
{ACAD_REACTORS
330
6469
102
}
330
6469
100
AcDbXrecord
280
     1
  1
conotur
  1
*_*
  1
*
  1
*
 70
     0
  1
*
  1
*
  0
XRECORD
  5
6518
102
{ACAD_REACTORS
330
6469
102
}
330
6469
100
AcDbXrecord
280
     1
  1
CONTI系
  1
*
  1
*
  1
CONTINUOUS
 70
     0
  1
*
  1
*
  0
XRECORD
  5
6519
102
{ACAD_REACTORS
330
6469
102
}
330
6469
100
AcDbXrecord
280
     1
  1
contour
  1
*_*
  1
*
  1
*
 70
     0
  1
*
  1
*
  0
XRECORD
  5
651A
102
{ACAD_REACTORS
330
6469
102
}
330
6469
100
AcDbXrecord
280
     1
  1
conveyors
  1
*conv*
  1
*
  1
*
 70
     0
  1
*
  1
*
  0
XRECORD
  5
651B
102
{ACAD_REACTORS
330
6469
102
}
330
6469
100
AcDbXrecord
280
     1
  1
cyan
  1
*
  1
cyan
  1
*
 70
     0
  1
*
  1
*
  0
XRECORD
  5
651C
102
{ACAD_REACTORS
330
6469
102
}
330
6469
100
AcDbXrecord
280
     1
  1
C衛生
  1
*
  1
*
  1
*
 70
     0
  1
*
  1
EISEI
  0
XRECORD
  5
651D
102
{ACAD_REACTORS
330
6469
102
}
330
6469
100
AcDbXrecord
280
     1
  1
C街区関連
  1
*
  1
*
  1
*
 70
  1024
  1
*
  1
*
  0
XRECORD
  5
651E
102
{ACAD_REACTORS
330
6469
102
}
330
6469
100
AcDbXrecord
280
     1
  1
c雑金物
  1
c*
  1
*
  1
*
 70
     0
  1
*
  1
*
  0
XRECORD
  5
651F
102
{ACAD_REACTORS
330
6469
102
}
330
6469
100
AcDbXrecord
280
     1
  1
C打計画図
  1
001*,002*,003*,004*,005*,007*,012*,015*,016*,017*,018*,019*,020*,021*,049*,050*,051*,052*,053*,054*,055*,056*,057*,058*,059*,060*,061*,062*,063*,064*,065*,066*,067*,068*,069*,070*,071*,072*,073*,074*,075*
  1
*
  1
*
 70
     0
  1
*
  1
*
  0
XRECORD
  5
6520
102
{ACAD_REACTORS
330
6469
102
}
330
6469
100
AcDbXrecord
280
     1
  1
Ｃ断面
  1
DSTD_SECT-C*
  1
*
  1
*
 70
     0
  1
*
  1
*
  0
XRECORD
  5
6521
102
{ACAD_REACTORS
330
6469
102
}
330
6469
100
AcDbXrecord
280
     1
  1
C棟R部
  1
cr*
  1
*
  1
*
 70
     0
  1
*
  1
*
  0
XRECORD
  5
6522
102
{ACAD_REACTORS
330
6469
102
}
330
6469
100
AcDbXrecord
280
     1
  1
DASHED
  1
*
  1
*
  1
DASHED
 70
     0
  1
*
  1
*
  0
XRECORD
  5
6523
102
{ACAD_REACTORS
330
6469
102
}
330
6469
100
AcDbXrecord
280
     1
  1
DASHED2
  1
*
  1
*
  1
DASHED
 70
     0
  1
*
  1
*
  0
XRECORD
  5
6524
102
{ACAD_REACTORS
330
6469
102
}
330
6469
100
AcDbXrecord
280
     1
  1
DDD
  1
*LIN-M
  1
*
  1
*
 70
     0
  1
*
  1
*
  0
XRECORD
  5
6525
102
{ACAD_REACTORS
330
6469
102
}
330
6469
100
AcDbXrecord
280
     1
  1
DEF
  1
DE*
  1
*
  1
*
 70
     0
  1
*
  1
*
  0
XRECORD
  5
6526
102
{ACAD_REACTORS
330
6469
102
}
330
6469
100
AcDbXrecord
280
     1
  1
DENKI
  1
*
  1
*
  1
*
 70
     0
  1
*
  1
*
  0
XRECORD
  5
6527
102
{ACAD_REACTORS
330
6469
102
}
330
6469
100
AcDbXrecord
280
     1
  1
DIM
  1
*DIM*
  1
*
  1
*
 70
     0
  1
*
  1
*
  0
XRECORD
  5
6528
102
{ACAD_REACTORS
330
6469
102
}
330
6469
100
AcDbXrecord
280
     1
  1
DOORS
  1
*ADO*
  1
*
  1
*
 70
     0
  1
*
  1
*
  0
XRECORD
  5
6529
102
{ACAD_REACTORS
330
6469
102
}
330
6469
100
AcDbXrecord
280
     1
  1
drain
  1
ar-dr*
  1
*
  1
*
 70
     0
  1
*
  1
*
  0
XRECORD
  5
652A
102
{ACAD_REACTORS
330
6469
102
}
330
6469
100
AcDbXrecord
280
     1
  1
Drow1
  1
*
  1
*
  1
*
 70
     0
  1
*
  1
*
  0
XRECORD
  5
652B
102
{ACAD_REACTORS
330
6469
102
}
330
6469
100
AcDbXrecord
280
     1
  1
d外構
  1
d*
  1
*
  1
*
 70
     0
  1
*
  1
*
  0
XRECORD
  5
652C
102
{ACAD_REACTORS
330
6469
102
}
330
6469
100
AcDbXrecord
280
     1
  1
E
  1
*
  1
*
  1
*
 70
     0
  1
*
  1
*
  0
XRECORD
  5
652D
102
{ACAD_REACTORS
330
6469
102
}
330
6469
100
AcDbXrecord
280
     1
  1
E 画層
  1
E*,*.
  1
*
  1
*
 70
     0
  1
*
  1
*
  0
XRECORD
  5
910C
102
{ACAD_REACTORS
330
6469
102
}
330
6469
100
AcDbXrecord
280
     1
  1
E511-only
  1
E511*
  1
*
  1
*
 70
     0
  1
*
  1
*
  0
XRECORD
  5
652E
102
{ACAD_REACTORS
330
6469
102
}
330
6469
100
AcDbXrecord
280
     1
  1
EEEE
  1
*
  1
*
  1
*
 70
  1804
  1
*
  1
*
  0
XRECORD
  5
652F
102
{ACAD_REACTORS
330
6469
102
}
330
6469
100
AcDbXrecord
280
     1
  1
EISEI
  1
*4EISEI
  1
4
  1
*
 70
     0
  1
*
  1
*
  0
XRECORD
  5
6530
102
{ACAD_REACTORS
330
6469
102
}
330
6469
100
AcDbXrecord
280
     1
  1
EL
  1
ＥＬ??8m
  1
*
  1
*
 70
     0
  1
*
  1
*
  0
XRECORD
  5
6531
102
{ACAD_REACTORS
330
6469
102
}
330
6469
100
AcDbXrecord
280
     1
  1
ＥＬ３ｍ
  1
ＥＬ*3m
  1
*
  1
*
 70
     0
  1
*
  1
*
  0
XRECORD
  5
6532
102
{ACAD_REACTORS
330
6469
102
}
330
6469
100
AcDbXrecord
280
     1
  1
ＥＬ8ｍ
  1
ＥＬ*8m
  1
*
  1
*
 70
     0
  1
*
  1
*
  0
XRECORD
  5
6533
102
{ACAD_REACTORS
330
6469
102
}
330
6469
100
AcDbXrecord
280
     1
  1
ele
  1
ele*
  1
*
  1
*
 70
     0
  1
*
  1
*
  0
XRECORD
  5
6534
102
{ACAD_REACTORS
330
6469
102
}
330
6469
100
AcDbXrecord
280
     1
  1
ELECTRICAL
  1
E*
  1
*
  1
*
 70
     0
  1
*
  1
*
  0
XRECORD
  5
6535
102
{ACAD_REACTORS
330
6469
102
}
330
6469
100
AcDbXrecord
280
     1
  1
ERAS1F
  1
*2ERAS1F
  1
*
  1
*
 70
     0
  1
*
  1
*
  0
XRECORD
  5
6536
102
{ACAD_REACTORS
330
6469
102
}
330
6469
100
AcDbXrecord
280
     1
  1
exterior
  1
*-x
  1
*
  1
*
 70
     0
  1
*
  1
*
  0
XRECORD
  5
6537
102
{ACAD_REACTORS
330
6469
102
}
330
6469
100
AcDbXrecord
280
     1
  1
E南
  1
*E*南*
  1
*
  1
*
 70
     0
  1
*
  1
*
  0
XRECORD
  5
6538
102
{ACAD_REACTORS
330
6469
102
}
330
6469
100
AcDbXrecord
280
     1
  1
F
  1
*
  1
*
  1
*
 70
     4
  1
*
  1
*
  0
XRECORD
  5
6539
102
{ACAD_REACTORS
330
6469
102
}
330
6469
100
AcDbXrecord
280
     1
  1
feaze
  1
*
  1
*
  1
*
 70
     5
  1
*
  1
*
  0
XRECORD
  5
653A
102
{ACAD_REACTORS
330
6469
102
}
330
6469
100
AcDbXrecord
280
     1
  1
FF
  1
*
  1
*
  1
*
 70
     4
  1
*
  1
*
  0
XRECORD
  5
653B
102
{ACAD_REACTORS
330
6469
102
}
330
6469
100
AcDbXrecord
280
     1
  1
FLOW
  1
FLOW*
  1
*
  1
*
 70
     0
  1
*
  1
*
  0
XRECORD
  5
653C
102
{ACAD_REACTORS
330
6469
102
}
330
6469
100
AcDbXrecord
280
     1
  1
Frame
  1
F*
  1
*
  1
*
 70
     0
  1
*
  1
*
  0
XRECORD
  5
653D
102
{ACAD_REACTORS
330
6469
102
}
330
6469
100
AcDbXrecord
280
     1
  1
freaze
  1
*
  1
*
  1
*
 70
     4
  1
*
  1
*
  0
XRECORD
  5
653E
102
{ACAD_REACTORS
330
6469
102
}
330
6469
100
AcDbXrecord
280
     1
  1
freeze
  1
*
  1
*
  1
*
 70
    12
  1
*
  1
*
  0
XRECORD
  5
653F
102
{ACAD_REACTORS
330
6469
102
}
330
6469
100
AcDbXrecord
280
     1
  1
Frozen
  1
*
  1
*
  1
*
 70
     4
  1
*
  1
*
  0
XRECORD
  5
6540
102
{ACAD_REACTORS
330
6469
102
}
330
6469
100
AcDbXrecord
280
     1
  1
Fugou
  1
*-Fugou*
  1
*
  1
*
 70
     0
  1
*
  1
*
  0
XRECORD
  5
6541
102
{ACAD_REACTORS
330
6469
102
}
330
6469
100
AcDbXrecord
280
     1
  1
FUKI
  1
*FUKI
  1
*
  1
*
 70
     0
  1
*
  1
*
  0
XRECORD
  5
6542
102
{ACAD_REACTORS
330
6469
102
}
330
6469
100
AcDbXrecord
280
     1
  1
FUSE_00
  1
*
  1
*
  1
*
 70
     0
  1
*
  1
*
  0
XRECORD
  5
6543
102
{ACAD_REACTORS
330
6469
102
}
330
6469
100
AcDbXrecord
280
     1
  1
G
  1
*-G*
  1
*
  1
*
 70
     0
  1
*
  1
*
  0
XRECORD
  5
6544
102
{ACAD_REACTORS
330
6469
102
}
330
6469
100
AcDbXrecord
280
     1
  1
GAIKOU
  1
*-L
  1
*
  1
*
 70
     0
  1
*
  1
*
  0
XRECORD
  5
910D
102
{ACAD_REACTORS
330
6469
102
}
330
6469
100
AcDbXrecord
280
     1
  1
ganci
  1
anello
  1
*
  1
*
 70
     0
  1
*
  1
*
  0
XRECORD
  5
6545
102
{ACAD_REACTORS
330
6469
102
}
330
6469
100
AcDbXrecord
280
     1
  1
gasline
  1
*
  1
*
  1
*
 70
     0
  1
*
  1
*
  0
XRECORD
  5
6546
102
{ACAD_REACTORS
330
6469
102
}
330
6469
100
AcDbXrecord
280
     1
  1
GLAZING
  1
*GL*
  1
*
  1
*
 70
     0
  1
*
  1
*
  0
XRECORD
  5
6547
102
{ACAD_REACTORS
330
6469
102
}
330
6469
100
AcDbXrecord
280
     1
  1
green
  1
*
  1
green
  1
*
 70
     0
  1
*
  1
*
  0
XRECORD
  5
6548
102
{ACAD_REACTORS
330
6469
102
}
330
6469
100
AcDbXrecord
280
     1
  1
GRID
  1
G*
  1
*
  1
*
 70
     0
  1
*
  1
*
  0
XRECORD
  5
6549
102
{ACAD_REACTORS
330
6469
102
}
330
6469
100
AcDbXrecord
280
     1
  1
H
  1
00*,01*,02*,03*,05*,06*,1*,2*,3*,4*,5*,6*,8*,
  1
*
  1
*
 70
     0
  1
*
  1
*
  0
XRECORD
  5
654A
102
{ACAD_REACTORS
330
6469
102
}
330
6469
100
AcDbXrecord
280
     1
  1
H 画層
  1
H*,*.
  1
*
  1
*
 70
     0
  1
*
  1
*
  0
XRECORD
  5
654B
102
{ACAD_REACTORS
330
6469
102
}
330
6469
100
AcDbXrecord
280
     1
  1
HAISEN
  1
*1,HAISEN
  1
*
  1
*
 70
     0
  1
*
  1
*
  0
XRECORD
  5
654C
102
{ACAD_REACTORS
330
6469
102
}
330
6469
100
AcDbXrecord
280
     1
  1
HARI
  1
*HARI
  1
*
  1
*
 70
     0
  1
*
  1
*
  0
XRECORD
  5
654D
102
{ACAD_REACTORS
330
6469
102
}
330
6469
100
AcDbXrecord
280
     1
  1
HASIRA
  1
*HASIRA
  1
*
  1
*
 70
     0
  1
*
  1
*
  0
XRECORD
  5
654E
102
{ACAD_REACTORS
330
6469
102
}
330
6469
100
AcDbXrecord
280
     1
  1
HAT
  1
*HAT*
  1
*
  1
*
 70
     0
  1
*
  1
*
  0
XRECORD
  5
654F
102
{ACAD_REACTORS
330
6469
102
}
330
6469
100
AcDbXrecord
280
     1
  1
HIDDEN
  1
*
  1
*
  1
HIDDEN
 70
     0
  1
*
  1
*
  0
XRECORD
  5
6550
102
{ACAD_REACTORS
330
6469
102
}
330
6469
100
AcDbXrecord
280
     1
  1
HM
  1
-*
  1
*
  1
*
 70
     0
  1
*
  1
*
  0
XRECORD
  5
6551
102
{ACAD_REACTORS
330
6469
102
}
330
6469
100
AcDbXrecord
280
     1
  1
HOJO
  1
*HOJO
  1
*
  1
*
 70
     0
  1
*
  1
*
  0
XRECORD
  5
6552
102
{ACAD_REACTORS
330
6469
102
}
330
6469
100
AcDbXrecord
280
     1
  1
houki
  1
h*
  1
*
  1
*
 70
     0
  1
*
  1
*
  0
XRECORD
  5
6553
102
{ACAD_REACTORS
330
6469
102
}
330
6469
100
AcDbXrecord
280
     1
  1
i
  1
*
  1
*
  1
*
 70
     0
  1
*
  1
*
  0
XRECORD
  5
6554
102
{ACAD_REACTORS
330
6469
102
}
330
6469
100
AcDbXrecord
280
     1
  1
I2
  1
*I2CL*
  1
*
  1
*
 70
     0
  1
*
  1
*
  0
XRECORD
  5
6555
102
{ACAD_REACTORS
330
6469
102
}
330
6469
100
AcDbXrecord
280
     1
  1
i2cl
  1
*i2c?*
  1
*
  1
*
 70
     0
  1
*
  1
*
  0
XRECORD
  5
6556
102
{ACAD_REACTORS
330
6469
102
}
330
6469
100
AcDbXrecord
280
     1
  1
i5
  1
*i5*
  1
*
  1
*
 70
     0
  1
*
  1
*
  0
XRECORD
  5
6557
102
{ACAD_REACTORS
330
6469
102
}
330
6469
100
AcDbXrecord
280
     1
  1
IEL
  1
IE*
  1
*
  1
*
 70
     0
  1
*
  1
*
  0
XRECORD
  5
6558
102
{ACAD_REACTORS
330
6469
102
}
330
6469
100
AcDbXrecord
280
     1
  1
INSERT図
  1
*
  1
*
  1
*
 70
    12
  1
*
  1
*
  0
XRECORD
  5
6559
102
{ACAD_REACTORS
330
6469
102
}
330
6469
100
AcDbXrecord
280
     1
  1
irc
  1
irc*
  1
*
  1
*
 70
     0
  1
*
  1
*
  0
XRECORD
  5
655A
102
{ACAD_REACTORS
330
6469
102
}
330
6469
100
AcDbXrecord
280
     1
  1
j
  1
j*
  1
*
  1
*
 70
     0
  1
*
  1
*
  0
XRECORD
  5
655B
102
{ACAD_REACTORS
330
6469
102
}
330
6469
100
AcDbXrecord
280
     1
  1
jiku-0
  1
*
  1
*
  1
*
 70
     0
  1
*
  1
*
  0
XRECORD
  5
655C
102
{ACAD_REACTORS
330
6469
102
}
330
6469
100
AcDbXrecord
280
     1
  1
jkhg8
  1
814706*
  1
*
  1
*
 70
     0
  1
*
  1
*
  0
XRECORD
  5
655D
102
{ACAD_REACTORS
330
6469
102
}
330
6469
100
AcDbXrecord
280
     1
  1
KABE
  1
W-*
  1
*
  1
*
 70
     0
  1
*
  1
*
  0
XRECORD
  5
655E
102
{ACAD_REACTORS
330
6469
102
}
330
6469
100
AcDbXrecord
280
     1
  1
KABESHIN
  1
*A12
  1
*
  1
*
 70
     0
  1
*
  1
*
  0
XRECORD
  5
655F
102
{ACAD_REACTORS
330
6469
102
}
330
6469
100
AcDbXrecord
280
     1
  1
KAGU
  1
*7KAGU
  1
9
  1
*
 70
     0
  1
*
  1
*
  0
XRECORD
  5
6560
102
{ACAD_REACTORS
330
6469
102
}
330
6469
100
AcDbXrecord
280
     1
  1
key
  1
keyplan
  1
*
  1
*
 70
     0
  1
*
  1
*
  0
XRECORD
  5
6561
102
{ACAD_REACTORS
330
6469
102
}
330
6469
100
AcDbXrecord
280
     1
  1
keyplan
  1
*-k
  1
*
  1
*
 70
     0
  1
*
  1
*
  0
XRECORD
  5
6562
102
{ACAD_REACTORS
330
6469
102
}
330
6469
100
AcDbXrecord
280
     1
  1
KIJUN
  1
*KIJUN
  1
*
  1
*
 70
     0
  1
*
  1
*
  0
XRECORD
  5
6563
102
{ACAD_REACTORS
330
6469
102
}
330
6469
100
AcDbXrecord
280
     1
  1
KSIN
  1
*2KSIN
  1
21
  1
*
 70
     0
  1
*
  1
*
  0
XRECORD
  5
6564
102
{ACAD_REACTORS
330
6469
102
}
330
6469
100
AcDbXrecord
280
     1
  1
kui
  1
*
  1
*
  1
*
 70
     4
  1
*
  1
*
  0
XRECORD
  5
6565
102
{ACAD_REACTORS
330
6469
102
}
330
6469
100
AcDbXrecord
280
     1
  1
L 画層
  1
L*,*.
  1
*
  1
*
 70
     0
  1
*
  1
*
  0
XRECORD
  5
6566
102
{ACAD_REACTORS
330
6469
102
}
330
6469
100
AcDbXrecord
280
     1
  1
L1
  1
*
  1
*
  1
*
 70
     0
  1
*
  1
*
  0
XRECORD
  5
6567
102
{ACAD_REACTORS
330
6469
102
}
330
6469
100
AcDbXrecord
280
     1
  1
L2
  1
*
  1
*
  1
*
 70
     0
  1
*
  1
*
  0
XRECORD
  5
6568
102
{ACAD_REACTORS
330
6469
102
}
330
6469
100
AcDbXrecord
280
     1
  1
layout
  1
*
  1
*
  1
*
 70
     0
  1
*
  1
*
  0
XRECORD
  5
6569
102
{ACAD_REACTORS
330
6469
102
}
330
6469
100
AcDbXrecord
280
     1
  1
length
  1
*length*
  1
*
  1
*
 70
     0
  1
*
  1
*
  0
XRECORD
  5
656A
102
{ACAD_REACTORS
330
6469
102
}
330
6469
100
AcDbXrecord
280
     1
  1
LOCK
  1
*
  1
*
  1
*
 70
   256
  1
*
  1
*
  0
XRECORD
  5
656B
102
{ACAD_REACTORS
330
6469
102
}
330
6469
100
AcDbXrecord
280
     1
  1
M
  1
*M-*
  1
*
  1
*
 70
     0
  1
*
  1
*
  0
XRECORD
  5
656C
102
{ACAD_REACTORS
330
6469
102
}
330
6469
100
AcDbXrecord
280
     1
  1
magenta
  1
*
  1
magenta
  1
*
 70
     0
  1
*
  1
*
  0
XRECORD
  5
656D
102
{ACAD_REACTORS
330
6469
102
}
330
6469
100
AcDbXrecord
280
     1
  1
MAJIKIRI
  1
*MAJIKIRI
  1
*
  1
*
 70
     0
  1
*
  1
*
  0
XRECORD
  5
656E
102
{ACAD_REACTORS
330
6469
102
}
330
6469
100
AcDbXrecord
280
     1
  1
mazenda
  1
*
  1
6
  1
*
 70
     0
  1
*
  1
*
  0
XRECORD
  5
656F
102
{ACAD_REACTORS
330
6469
102
}
330
6469
100
AcDbXrecord
280
     1
  1
MB
  1
*MB
  1
*
  1
*
 70
     0
  1
*
  1
*
  0
XRECORD
  5
6570
102
{ACAD_REACTORS
330
6469
102
}
330
6469
100
AcDbXrecord
280
     1
  1
MECHANICAL
  1
M*
  1
*
  1
*
 70
     0
  1
*
  1
*
  0
XRECORD
  5
6571
102
{ACAD_REACTORS
330
6469
102
}
330
6469
100
AcDbXrecord
280
     1
  1
MEJI
  1
*7MEJI
  1
243
  1
*
 70
     0
  1
*
  1
*
  0
XRECORD
  5
6572
102
{ACAD_REACTORS
330
6469
102
}
330
6469
100
AcDbXrecord
280
     1
  1
men
  1
*tm*
  1
*
  1
*
 70
     0
  1
*
  1
*
  0
XRECORD
  5
6573
102
{ACAD_REACTORS
330
6469
102
}
330
6469
100
AcDbXrecord
280
     1
  1
MIE01
  1
MIE01
  1
*
  1
*
 70
     0
  1
*
  1
*
  0
XRECORD
  5
6574
102
{ACAD_REACTORS
330
6469
102
}
330
6469
100
AcDbXrecord
280
     1
  1
MOJI
  1
*MOJI
  1
*
  1
*
 70
     0
  1
*
  1
*
  0
XRECORD
  5
6575
102
{ACAD_REACTORS
330
6469
102
}
330
6469
100
AcDbXrecord
280
     1
  1
MOJI100
  1
*5MOJI100
  1
3
  1
*
 70
     0
  1
*
  1
*
  0
XRECORD
  5
6576
102
{ACAD_REACTORS
330
6469
102
}
330
6469
100
AcDbXrecord
280
     1
  1
MP
  1
MP_*
  1
*
  1
*
 70
     0
  1
*
  1
*
  0
XRECORD
  5
6577
102
{ACAD_REACTORS
330
6469
102
}
330
6469
100
AcDbXrecord
280
     1
  1
N
  1
*N
  1
*
  1
*
 70
     0
  1
*
  1
*
  0
XRECORD
  5
6578
102
{ACAD_REACTORS
330
6469
102
}
330
6469
100
AcDbXrecord
280
     1
  1
new
  1
new*
  1
*
  1
*
 70
     0
  1
*
  1
*
  0
XRECORD
  5
6579
102
{ACAD_REACTORS
330
6469
102
}
330
6469
100
AcDbXrecord
280
     1
  1
New Doors
  1
*ADO*
  1
*
  1
*
 70
     0
  1
*
  1
*
  0
XRECORD
  5
657A
102
{ACAD_REACTORS
330
6469
102
}
330
6469
100
AcDbXrecord
280
     1
  1
New Walls
  1
A*,2
  1
*
  1
*
 70
     0
  1
*
  1
*
  0
XRECORD
  5
657B
102
{ACAD_REACTORS
330
6469
102
}
330
6469
100
AcDbXrecord
280
     1
  1
nic
  1
*
  1
*
  1
*
 70
     0
  1
253
  1
*
  0
XRECORD
  5
657C
102
{ACAD_REACTORS
330
6469
102
}
330
6469
100
AcDbXrecord
280
     1
  1
NS CTS set
  1
*
  1
*
  1
*
 70
     0
  1
*
  1
*
  0
XRECORD
  5
657D
102
{ACAD_REACTORS
330
6469
102
}
330
6469
100
AcDbXrecord
280
     1
  1
o
  1
*
  1
*
  1
*
 70
     3
  1
*
  1
*
  0
XRECORD
  5
657E
102
{ACAD_REACTORS
330
6469
102
}
330
6469
100
AcDbXrecord
280
     1
  1
OF
  1
*
  1
*
  1
*
 70
     3
  1
*
  1
*
  0
XRECORD
  5
657F
102
{ACAD_REACTORS
330
6469
102
}
330
6469
100
AcDbXrecord
280
     1
  1
Off
  1
*
  1
*
  1
*
 70
     3
  1
*
  1
*
  0
XRECORD
  5
6580
102
{ACAD_REACTORS
330
6469
102
}
330
6469
100
AcDbXrecord
280
     1
  1
off文字
  1
*TXT*
  1
*
  1
*
 70
     0
  1
*
  1
*
  0
XRECORD
  5
6581
102
{ACAD_REACTORS
330
6469
102
}
330
6469
100
AcDbXrecord
280
     1
  1
on
  1
*
  1
*
  1
*
 70
    13
  1
*
  1
*
  0
XRECORD
  5
6582
102
{ACAD_REACTORS
330
6469
102
}
330
6469
100
AcDbXrecord
280
     1
  1
p
  1
*
  1
*
  1
*
 70
     0
  1
*
  1
*
  0
XRECORD
  5
6583
102
{ACAD_REACTORS
330
6469
102
}
330
6469
100
AcDbXrecord
280
     1
  1
PARKING
  1
P-*
  1
*
  1
*
 70
     0
  1
*
  1
*
  0
XRECORD
  5
6584
102
{ACAD_REACTORS
330
6469
102
}
330
6469
100
AcDbXrecord
280
     1
  1
PC
  1
0,11*,12*,13*,14*,15*,18*,23*,25*,30*,31*,32*,51*,52*,54*,59*,60*,66*,67*,69*,76*
  1
*
  1
*
 70
     0
  1
*
  1
*
  0
XRECORD
  5
6585
102
{ACAD_REACTORS
330
6469
102
}
330
6469
100
AcDbXrecord
280
     1
  1
plot
  1
*
  1
*
  1
*
 70
     1
  1
*
  1
*
  0
XRECORD
  5
6586
102
{ACAD_REACTORS
330
6469
102
}
330
6469
100
AcDbXrecord
280
     1
  1
PLUMBING
  1
P*
  1
*
  1
*
 70
     0
  1
*
  1
*
  0
XRECORD
  5
6587
102
{ACAD_REACTORS
330
6469
102
}
330
6469
100
AcDbXrecord
280
     1
  1
Q
  1
*
  1
*
  1
PHANTOM
 70
     0
  1
*
  1
*
  0
XRECORD
  5
6588
102
{ACAD_REACTORS
330
6469
102
}
330
6469
100
AcDbXrecord
280
     1
  1
R
  1
*-R
  1
*
  1
*
 70
     0
  1
*
  1
*
  0
XRECORD
  5
6589
102
{ACAD_REACTORS
330
6469
102
}
330
6469
100
AcDbXrecord
280
     1
  1
raku
  1
000落書き
  1
*
  1
*
 70
     0
  1
*
  1
*
  0
XRECORD
  5
658A
102
{ACAD_REACTORS
330
6469
102
}
330
6469
100
AcDbXrecord
280
     1
  1
red
  1
*
  1
10
  1
*
 70
     0
  1
*
  1
*
  0
XRECORD
  5
658B
102
{ACAD_REACTORS
330
6469
102
}
330
6469
100
AcDbXrecord
280
     1
  1
RJRUDDH
  1
*
  1
*
  1
*
 70
     0
  1
*
  1
*
  0
XRECORD
  5
658C
102
{ACAD_REACTORS
330
6469
102
}
330
6469
100
AcDbXrecord
280
     1
  1
rock
  1
*
  1
*
  1
*
 70
   768
  1
*
  1
*
  0
XRECORD
  5
658D
102
{ACAD_REACTORS
330
6469
102
}
330
6469
100
AcDbXrecord
280
     1
  1
ROOF
  1
*-R
  1
*
  1
*
 70
     0
  1
*
  1
*
  0
XRECORD
  5
658E
102
{ACAD_REACTORS
330
6469
102
}
330
6469
100
AcDbXrecord
280
     1
  1
s
  1
s*
  1
*
  1
*
 70
     0
  1
*
  1
*
  0
XRECORD
  5
658F
102
{ACAD_REACTORS
330
6469
102
}
330
6469
100
AcDbXrecord
280
     1
  1
saciencewold
  1
*
  1
*
  1
*
 70
     0
  1
*
  1
*
  0
XRECORD
  5
6590
102
{ACAD_REACTORS
330
6469
102
}
330
6469
100
AcDbXrecord
280
     1
  1
SC
  1
SC
  1
*
  1
*
 70
     0
  1
*
  1
*
  0
XRECORD
  5
6591
102
{ACAD_REACTORS
330
6469
102
}
330
6469
100
AcDbXrecord
280
     1
  1
sdfdf
  1
8141*****
  1
*
  1
*
 70
     0
  1
*
  1
*
  0
XRECORD
  5
6592
102
{ACAD_REACTORS
330
6469
102
}
330
6469
100
AcDbXrecord
280
     1
  1
SETUBI
  1
*SETUBI
  1
*
  1
*
 70
     0
  1
*
  1
*
  0
XRECORD
  5
6593
102
{ACAD_REACTORS
330
6469
102
}
330
6469
100
AcDbXrecord
280
     1
  1
SHITU
  1
*SHITUMEI*
  1
*
  1
*
 70
     0
  1
*
  1
*
  0
XRECORD
  5
6594
102
{ACAD_REACTORS
330
6469
102
}
330
6469
100
AcDbXrecord
280
     1
  1
SHITUMEI
  1
*SHITUMEI2
  1
*
  1
*
 70
     0
  1
*
  1
*
  0
XRECORD
  5
6595
102
{ACAD_REACTORS
330
6469
102
}
330
6469
100
AcDbXrecord
280
     1
  1
SIAG
  1
*3SIAG
  1
*
  1
*
 70
     0
  1
*
  1
*
  0
XRECORD
  5
6596
102
{ACAD_REACTORS
330
6469
102
}
330
6469
100
AcDbXrecord
280
     1
  1
SIAG-N
  1
*3SIAG-N
  1
7
  1
*
 70
     0
  1
*
  1
*
  0
XRECORD
  5
6597
102
{ACAD_REACTORS
330
6469
102
}
330
6469
100
AcDbXrecord
280
     1
  1
SIAG3
  1
*3SIAG3
  1
3
  1
*
 70
     0
  1
*
  1
*
  0
XRECORD
  5
6598
102
{ACAD_REACTORS
330
6469
102
}
330
6469
100
AcDbXrecord
280
     1
  1
Sinm
  1
*-Sinm*
  1
*
  1
*
 70
     0
  1
*
  1
*
  0
XRECORD
  5
6599
102
{ACAD_REACTORS
330
6469
102
}
330
6469
100
AcDbXrecord
280
     1
  1
SITA
  1
*3SITA
  1
*
  1
*
 70
     0
  1
*
  1
*
  0
XRECORD
  5
659A
102
{ACAD_REACTORS
330
6469
102
}
330
6469
100
AcDbXrecord
280
     1
  1
site
  1
site*
  1
*
  1
*
 70
     0
  1
*
  1
*
  0
XRECORD
  5
659B
102
{ACAD_REACTORS
330
6469
102
}
330
6469
100
AcDbXrecord
280
     1
  1
SON
  1
1*,9*,*KEL,HASIRA,*N-M,*RID,*DIM,*UBL,00*
  1
*
  1
*
 70
     0
  1
*
  1
*
  0
XRECORD
  5
659C
102
{ACAD_REACTORS
330
6469
102
}
330
6469
100
AcDbXrecord
280
     1
  1
SS
  1
*SS*
  1
*
  1
*
 70
     0
  1
*
  1
*
  0
XRECORD
  5
659D
102
{ACAD_REACTORS
330
6469
102
}
330
6469
100
AcDbXrecord
280
     1
  1
STAIRS
  1
*ST*
  1
*
  1
*
 70
     0
  1
*
  1
*
  0
XRECORD
  5
659E
102
{ACAD_REACTORS
330
6469
102
}
330
6469
100
AcDbXrecord
280
     1
  1
standard
  1
*
  1
*
  1
*
 70
     0
  1
*
  1
*
  0
XRECORD
  5
659F
102
{ACAD_REACTORS
330
6469
102
}
330
6469
100
AcDbXrecord
280
     1
  1
SUGA5
  1
*4SUGA5
  1
5
  1
*
 70
     0
  1
*
  1
*
  0
XRECORD
  5
65A0
102
{ACAD_REACTORS
330
6469
102
}
330
6469
100
AcDbXrecord
280
     1
  1
SUNP
  1
*5SUNP100
  1
1
  1
*
 70
     0
  1
*
  1
*
  0
XRECORD
  5
65A1
102
{ACAD_REACTORS
330
6469
102
}
330
6469
100
AcDbXrecord
280
     1
  1
SUNP100
  1
*5SUNP100
  1
*
  1
*
 70
     0
  1
*
  1
*
  0
XRECORD
  5
65A2
102
{ACAD_REACTORS
330
6469
102
}
330
6469
100
AcDbXrecord
280
     1
  1
SYOU
  1
*
  1
*
  1
*
 70
     0
  1
*
  1
SYOU
  0
XRECORD
  5
65A3
102
{ACAD_REACTORS
330
6469
102
}
330
6469
100
AcDbXrecord
280
     1
  1
S画層
  1
S*
  1
*
  1
*
 70
     0
  1
*
  1
*
  0
XRECORD
  5
65A4
102
{ACAD_REACTORS
330
6469
102
}
330
6469
100
AcDbXrecord
280
     1
  1
T
  1
00*,01*,02*,04*,05*,06*,1*,2*,3*,4*,7*,9*,
  1
*
  1
*
 70
     0
  1
*
  1
*
  0
XRECORD
  5
65A5
102
{ACAD_REACTORS
330
6469
102
}
330
6469
100
AcDbXrecord
280
     1
  1
TAKASA
  1
*
  1
2
  1
*
 70
     0
  1
*
  1
*
  0
XRECORD
  5
65A6
102
{ACAD_REACTORS
330
6469
102
}
330
6469
100
AcDbXrecord
280
     1
  1
TATE161
  1
*4TATE161
  1
161
  1
*
 70
     0
  1
*
  1
*
  0
XRECORD
  5
65A7
102
{ACAD_REACTORS
330
6469
102
}
330
6469
100
AcDbXrecord
280
     1
  1
TATEGU
  1
*TATEGU
  1
*
  1
*
 70
     0
  1
*
  1
*
  0
XRECORD
  5
65A8
102
{ACAD_REACTORS
330
6469
102
}
330
6469
100
AcDbXrecord
280
     1
  1
TC
  1
TC_*,0N
  1
*
  1
*
 70
     0
  1
*
  1
*
  0
XRECORD
  5
65A9
102
{ACAD_REACTORS
330
6469
102
}
330
6469
100
AcDbXrecord
280
     1
  1
TEN
  1
*
  1
*
  1
*
 70
     1
  1
*
  1
*
  0
XRECORD
  5
65AA
102
{ACAD_REACTORS
330
6469
102
}
330
6469
100
AcDbXrecord
280
     1
  1
TENJYOU
  1
C-*
  1
*
  1
*
 70
     0
  1
*
  1
*
  0
XRECORD
  5
65AB
102
{ACAD_REACTORS
330
6469
102
}
330
6469
100
AcDbXrecord
280
     1
  1
TENJYOUNAI
  1
CI-*
  1
*
  1
*
 70
     0
  1
*
  1
*
  0
XRECORD
  5
65AC
102
{ACAD_REACTORS
330
6469
102
}
330
6469
100
AcDbXrecord
280
     1
  1
test
  1
keyplan
  1
*
  1
*
 70
     0
  1
*
  1
*
  0
XRECORD
  5
65AD
102
{ACAD_REACTORS
330
6469
102
}
330
6469
100
AcDbXrecord
280
     1
  1
test1024
  1
*
  1
*
  1
*
 70
   769
  1
*
  1
*
  0
XRECORD
  5
65AE
102
{ACAD_REACTORS
330
6469
102
}
330
6469
100
AcDbXrecord
280
     1
  1
test1115
  1
2* 0
  1
*
  1
*
 70
     0
  1
*
  1
*
  0
XRECORD
  5
65AF
102
{ACAD_REACTORS
330
6469
102
}
330
6469
100
AcDbXrecord
280
     1
  1
test2
  1
*
  1
*
  1
*
 70
    12
  1
*
  1
*
  0
XRECORD
  5
65B0
102
{ACAD_REACTORS
330
6469
102
}
330
6469
100
AcDbXrecord
280
     1
  1
TEXT
  1
*TEXT*
  1
*
  1
*
 70
     0
  1
*
  1
*
  0
XRECORD
  5
65B1
102
{ACAD_REACTORS
330
6469
102
}
330
6469
100
AcDbXrecord
280
     1
  1
Thawed
  1
*
  1
*
  1
*
 70
    12
  1
*
  1
*
  0
XRECORD
  5
65B2
102
{ACAD_REACTORS
330
6469
102
}
330
6469
100
AcDbXrecord
280
     1
  1
TITL
  1
*8TITL
  1
4
  1
*
 70
     0
  1
*
  1
*
  0
XRECORD
  5
65B3
102
{ACAD_REACTORS
330
6469
102
}
330
6469
100
AcDbXrecord
280
     1
  1
tnjyou
  1
c-*
  1
*
  1
*
 70
     0
  1
*
  1
*
  0
XRECORD
  5
65B4
102
{ACAD_REACTORS
330
6469
102
}
330
6469
100
AcDbXrecord
280
     1
  1
TORISHIN
  1
*A11
  1
*
  1
*
 70
     0
  1
*
  1
*
  0
XRECORD
  5
65B5
102
{ACAD_REACTORS
330
6469
102
}
330
6469
100
AcDbXrecord
280
     1
  1
TSIN
  1
*2TSIN
  1
*
  1
*
 70
     0
  1
*
  1
*
  0
XRECORD
  5
910E
102
{ACAD_REACTORS
330
6469
102
}
330
6469
100
AcDbXrecord
280
     1
  1
TTB-only
  1
T*
  1
*
  1
*
 70
     0
  1
*
  1
*
  0
XRECORD
  5
65B6
102
{ACAD_REACTORS
330
6469
102
}
330
6469
100
AcDbXrecord
280
     1
  1
TU
  1
*TU*
  1
*
  1
*
 70
     0
  1
*
  1
*
  0
XRECORD
  5
65B7
102
{ACAD_REACTORS
330
6469
102
}
330
6469
100
AcDbXrecord
280
     1
  1
unlocked
  1
*
  1
*
  1
*
 70
   768
  1
*
  1
*
  0
XRECORD
  5
65B8
102
{ACAD_REACTORS
330
6469
102
}
330
6469
100
AcDbXrecord
280
     1
  1
UNROCK
  1
*
  1
*
  1
*
 70
   768
  1
*
  1
*
  0
XRECORD
  5
65B9
102
{ACAD_REACTORS
330
6469
102
}
330
6469
100
AcDbXrecord
280
     1
  1
VMB
  1
*
  1
*
  1
*
 70
     0
  1
*
  1
*
  0
XRECORD
  5
65BA
102
{ACAD_REACTORS
330
6469
102
}
330
6469
100
AcDbXrecord
280
     1
  1
VOID
  1
*void*
  1
*
  1
*
 70
     0
  1
*
  1
*
  0
XRECORD
  5
65BB
102
{ACAD_REACTORS
330
6469
102
}
330
6469
100
AcDbXrecord
280
     1
  1
waku
  1
waku
  1
*
  1
*
 70
     0
  1
*
  1
*
  0
XRECORD
  5
65BC
102
{ACAD_REACTORS
330
6469
102
}
330
6469
100
AcDbXrecord
280
     1
  1
WALLS
  1
*AWA*
  1
*
  1
*
 70
     0
  1
*
  1
*
  0
XRECORD
  5
65BD
102
{ACAD_REACTORS
330
6469
102
}
330
6469
100
AcDbXrecord
280
     1
  1
ward
  1
*
  1
*
  1
*
 70
     0
  1
*
  1
*
  0
XRECORD
  5
65BE
102
{ACAD_REACTORS
330
6469
102
}
330
6469
100
AcDbXrecord
280
     1
  1
X
  1
*$*$*
  1
*
  1
*
 70
     0
  1
*
  1
*
  0
XRECORD
  5
65BF
102
{ACAD_REACTORS
330
6469
102
}
330
6469
100
AcDbXrecord
280
     1
  1
yaji
  1
*
  1
*
  1
*
 70
     0
  1
*
  1
*
  0
XRECORD
  5
65C0
102
{ACAD_REACTORS
330
6469
102
}
330
6469
100
AcDbXrecord
280
     1
  1
yellow
  1
*
  1
yellow
  1
*
 70
     0
  1
*
  1
*
  0
XRECORD
  5
65C1
102
{ACAD_REACTORS
330
6469
102
}
330
6469
100
AcDbXrecord
280
     1
  1
YUKA
  1
F-*
  1
*
  1
*
 70
     0
  1
*
  1
*
  0
XRECORD
  5
65C2
102
{ACAD_REACTORS
330
6469
102
}
330
6469
100
AcDbXrecord
280
     1
  1
yその他
  1
y*
  1
*
  1
*
 70
     0
  1
*
  1
*
  0
XRECORD
  5
65C3
102
{ACAD_REACTORS
330
6469
102
}
330
6469
100
AcDbXrecord
280
     1
  1
Z
  1
*Z*
  1
*
  1
*
 70
     0
  1
*
  1
*
  0
XRECORD
  5
65C4
102
{ACAD_REACTORS
330
6469
102
}
330
6469
100
AcDbXrecord
280
     1
  1
z-CABINETRY
  1
*CAB*
  1
*
  1
*
 70
     0
  1
*
  1
*
  0
XRECORD
  5
65C5
102
{ACAD_REACTORS
330
6469
102
}
330
6469
100
AcDbXrecord
280
     1
  1
z-WALLS
  1
*AWA*
  1
*
  1
*
 70
     0
  1
*
  1
*
  0
XRECORD
  5
65C6
102
{ACAD_REACTORS
330
6469
102
}
330
6469
100
AcDbXrecord
280
     1
  1
ZATU
  1
*ZATU
  1
*
  1
*
 70
     0
  1
*
  1
*
  0
XRECORD
  5
65C7
102
{ACAD_REACTORS
330
6469
102
}
330
6469
100
AcDbXrecord
280
     1
  1
z図枠
  1
z*
  1
*
  1
*
 70
     0
  1
*
  1
*
  0
XRECORD
  5
65C8
102
{ACAD_REACTORS
330
6469
102
}
330
6469
100
AcDbXrecord
280
     1
  1
ｨｾｨa
  1
B*
  1
*
  1
*
 70
   768
  1
*
  1
*
  0
XRECORD
  5
65C9
102
{ACAD_REACTORS
330
6469
102
}
330
6469
100
AcDbXrecord
280
     1
  1
ｨﾏ･ﾎ､､
  1
ｨﾏ･ﾎ､､
  1
*
  1
*
 70
     1
  1
*
  1
*
  0
XRECORD
  5
65CA
102
{ACAD_REACTORS
330
6469
102
}
330
6469
100
AcDbXrecord
280
     1
  1
ガラス
  1
*HMOJI
  1
*
  1
*
 70
     0
  1
*
  1
*
  0
XRECORD
  5
65CB
102
{ACAD_REACTORS
330
6469
102
}
330
6469
100
AcDbXrecord
280
     1
  1
キ-プラン
  1
*HMOJI,*HOJO2,*HOJO4,*SINSEI
  1
*
  1
*
 70
     0
  1
*
  1
*
  0
XRECORD
  5
65CC
102
{ACAD_REACTORS
330
6469
102
}
330
6469
100
AcDbXrecord
280
     1
  1
キープラン
  1
キープラン*
  1
*
  1
*
 70
     0
  1
*
  1
*
  0
XRECORD
  5
65CD
102
{ACAD_REACTORS
330
6469
102
}
330
6469
100
AcDbXrecord
280
     1
  1
きんでん
  1
き-*
  1
*
  1
*
 70
     0
  1
*
  1
*
  0
XRECORD
  5
65CE
102
{ACAD_REACTORS
330
6469
102
}
330
6469
100
AcDbXrecord
280
     1
  1
ｺﾝ
  1
D*
  1
*
  1
*
 70
     0
  1
*
  1
*
  0
XRECORD
  5
65CF
102
{ACAD_REACTORS
330
6469
102
}
330
6469
100
AcDbXrecord
280
     1
  1
シェルター
  1
シェルター*
  1
*
  1
*
 70
     0
  1
*
  1
*
  0
XRECORD
  5
65D0
102
{ACAD_REACTORS
330
6469
102
}
330
6469
100
AcDbXrecord
280
     1
  1
すべての画層を非表示
  1
*
  1
*
  1
*
 70
     3
  1
*
  1
*
  0
XRECORD
  5
65D1
102
{ACAD_REACTORS
330
6469
102
}
330
6469
100
AcDbXrecord
280
     1
  1
すべて非表示
  1
*
  1
*
  1
*
 70
     3
  1
*
  1
*
  0
XRECORD
  5
65D2
102
{ACAD_REACTORS
330
6469
102
}
330
6469
100
AcDbXrecord
280
     1
  1
デッキ
  1
SS*
  1
*
  1
*
 70
     0
  1
*
  1
*
  0
XRECORD
  5
65D3
102
{ACAD_REACTORS
330
6469
102
}
330
6469
100
AcDbXrecord
280
     1
  1
ハッチング
  1
*HAT*
  1
*
  1
*
 70
     0
  1
*
  1
*
  0
XRECORD
  5
65D4
102
{ACAD_REACTORS
330
6469
102
}
330
6469
100
AcDbXrecord
280
     1
  1
ﾌﾘｰｽﾞ
  1
*
  1
*
  1
*
 70
    12
  1
*
  1
*
  0
XRECORD
  5
65D5
102
{ACAD_REACTORS
330
6469
102
}
330
6469
100
AcDbXrecord
280
     1
  1
フリーズ
  1
*
  1
*
  1
*
 70
    12
  1
*
  1
*
  0
XRECORD
  5
65D6
102
{ACAD_REACTORS
330
6469
102
}
330
6469
100
AcDbXrecord
280
     1
  1
フリーズof
  1
*
  1
*
  1
*
 70
    12
  1
*
  1
*
  0
XRECORD
  5
65D7
102
{ACAD_REACTORS
330
6469
102
}
330
6469
100
AcDbXrecord
280
     1
  1
フリーズ画層
  1
*
  1
*
  1
*
 70
     4
  1
*
  1
*
  0
XRECORD
  5
65D8
102
{ACAD_REACTORS
330
6469
102
}
330
6469
100
AcDbXrecord
280
     1
  1
ﾌﾘｰｽﾞ画層非表示
  1
*
  1
*
  1
*
 70
    12
  1
*
  1
*
  0
XRECORD
  5
65D9
102
{ACAD_REACTORS
330
6469
102
}
330
6469
100
AcDbXrecord
280
     1
  1
ﾌﾘｰｽﾞ画面非表示
  1
*
  1
*
  1
*
 70
    12
  1
*
  1
*
  0
XRECORD
  5
65DA
102
{ACAD_REACTORS
330
6469
102
}
330
6469
100
AcDbXrecord
280
     1
  1
ﾌﾘｰｽﾞ解除
  1
*
  1
*
  1
*
 70
    12
  1
*
  1
*
  0
XRECORD
  5
65DB
102
{ACAD_REACTORS
330
6469
102
}
330
6469
100
AcDbXrecord
280
     1
  1
フリーズ解除
  1
*
  1
*
  1
*
 70
    12
  1
*
  1
*
  0
XRECORD
  5
65DC
102
{ACAD_REACTORS
330
6469
102
}
330
6469
100
AcDbXrecord
280
     1
  1
ペーパー空間
  1
DSTD_FRAME*
  1
*
  1
*
 70
     0
  1
*
  1
*
  0
XRECORD
  5
65DD
102
{ACAD_REACTORS
330
6469
102
}
330
6469
100
AcDbXrecord
280
     1
  1
マーク
  1
*マーク
  1
*
  1
*
 70
     0
  1
*
  1
*
  0
XRECORD
  5
65DE
102
{ACAD_REACTORS
330
6469
102
}
330
6469
100
AcDbXrecord
280
     1
  1
ｭｱｿn
  1
*
  1
*
  1
*
 70
     3
  1
*
  1
*
  0
XRECORD
  5
65DF
102
{ACAD_REACTORS
330
6469
102
}
330
6469
100
AcDbXrecord
280
     1
  1
ｭｫｭnｼh
  1
8154*010
  1
*
  1
*
 70
     0
  1
*
  1
*
  0
XRECORD
  5
65E0
102
{ACAD_REACTORS
330
6469
102
}
330
6469
100
AcDbXrecord
280
     1
  1
ランプ
  1
*ランプ*
  1
*
  1
*
 70
     0
  1
*
  1
*
  0
XRECORD
  5
65E1
102
{ACAD_REACTORS
330
6469
102
}
330
6469
100
AcDbXrecord
280
     1
  1
ロック以外
  1
*
  1
*
  1
*
 70
   768
  1
*
  1
*
  0
XRECORD
  5
65E2
102
{ACAD_REACTORS
330
6469
102
}
330
6469
100
AcDbXrecord
280
     1
  1
ロック画層
  1
*
  1
*
  1
*
 70
   256
  1
*
  1
*
  0
XRECORD
  5
65E3
102
{ACAD_REACTORS
330
6469
102
}
330
6469
100
AcDbXrecord
280
     1
  1
ロック解除
  1
*
  1
*
  1
*
 70
   768
  1
*
  1
*
  0
XRECORD
  5
65E4
102
{ACAD_REACTORS
330
6469
102
}
330
6469
100
AcDbXrecord
280
     1
  1
ｦLｨ
  1
*
  1
*
  1
*
 70
    13
  1
*
  1
*
  0
XRECORD
  5
65E5
102
{ACAD_REACTORS
330
6469
102
}
330
6469
100
AcDbXrecord
280
     1
  1
一括非表示
  1
*
  1
*
  1
*
 70
     3
  1
*
  1
*
  0
XRECORD
  5
65E6
102
{ACAD_REACTORS
330
6469
102
}
330
6469
100
AcDbXrecord
280
     1
  1
一般
  1
*般*
  1
*
  1
*
 70
     0
  1
*
  1
*
  0
XRECORD
  5
65E7
102
{ACAD_REACTORS
330
6469
102
}
330
6469
100
AcDbXrecord
280
     1
  1
一般画層
  1
.*
  1
*
  1
*
 70
     0
  1
*
  1
*
  0
XRECORD
  5
65E8
102
{ACAD_REACTORS
330
6469
102
}
330
6469
100
AcDbXrecord
280
     1
  1
印刷不可を表示
  1
*
  1
*
  1
*
 70
  3072
  1
*
  1
*
  0
XRECORD
  5
65E9
102
{ACAD_REACTORS
330
6469
102
}
330
6469
100
AcDbXrecord
280
     1
  1
荏原 機器
  1
kiki*
  1
*
  1
*
 70
     0
  1
*
  1
*
  0
XRECORD
  5
65EA
102
{ACAD_REACTORS
330
6469
102
}
330
6469
100
AcDbXrecord
280
     1
  1
荏原　機器基礎
  1
a3*,KIKI*,text*,stage,矢視記号,WAKU*
  1
*
  1
*
 70
     0
  1
*
  1
*
  0
XRECORD
  5
65EB
102
{ACAD_REACTORS
330
6469
102
}
330
6469
100
AcDbXrecord
280
     1
  1
荏原機器
  1
KIKI*
  1
*
  1
*
 70
     0
  1
*
  1
*
  0
XRECORD
  5
65EC
102
{ACAD_REACTORS
330
6469
102
}
330
6469
100
AcDbXrecord
280
     1
  1
荏原機器基礎
  1
a3*,KIKI*,text*,stage,矢視記号
  1
*
  1
*
 70
     0
  1
*
  1
*
  0
XRECORD
  5
65ED
102
{ACAD_REACTORS
330
6469
102
}
330
6469
100
AcDbXrecord
280
     1
  1
衛生設備図
  1
001*,002*,004*,005*,007*,010*,039*,040*,041*,042*,043*
  1
*
  1
*
 70
     0
  1
*
  1
*
  0
XRECORD
  5
65EE
102
{ACAD_REACTORS
330
6469
102
}
330
6469
100
AcDbXrecord
280
     1
  1
黄色
  1
*
  1
YELLOW
  1
*
 70
     0
  1
*
  1
*
  0
XRECORD
  5
65EF
102
{ACAD_REACTORS
330
6469
102
}
330
6469
100
AcDbXrecord
280
     1
  1
下地
  1
*下地*
  1
*
  1
*
 70
     0
  1
*
  1
*
  0
XRECORD
  5
65F0
102
{ACAD_REACTORS
330
6469
102
}
330
6469
100
AcDbXrecord
280
     1
  1
仮設
  1
仮設*
  1
*
  1
*
 70
     0
  1
*
  1
*
  0
XRECORD
  5
65F1
102
{ACAD_REACTORS
330
6469
102
}
330
6469
100
AcDbXrecord
280
     1
  1
家具
  1
*FUN*
  1
*
  1
*
 70
     0
  1
*
  1
*
  0
XRECORD
  5
65F2
102
{ACAD_REACTORS
330
6469
102
}
330
6469
100
AcDbXrecord
280
     1
  1
開発画層
  1
L*,B*
  1
*
  1
*
 70
     0
  1
*
  1
*
  0
XRECORD
  5
65F3
102
{ACAD_REACTORS
330
6469
102
}
330
6469
100
AcDbXrecord
280
     1
  1
外構
  1
外構*
  1
*
  1
*
 70
     0
  1
*
  1
*
  0
XRECORD
  5
65F4
102
{ACAD_REACTORS
330
6469
102
}
330
6469
100
AcDbXrecord
280
     1
  1
外構一般画層
  1
L*,B*
  1
*
  1
*
 70
     0
  1
*
  1
*
  0
XRECORD
  5
65F5
102
{ACAD_REACTORS
330
6469
102
}
330
6469
100
AcDbXrecord
280
     1
  1
外構図
  1
*
  1
*
  1
*
 70
     7
  1
*
  1
*
  0
XRECORD
  5
65F6
102
{ACAD_REACTORS
330
6469
102
}
330
6469
100
AcDbXrecord
280
     1
  1
外部-フリーズ解除
  1
*|*
  1
*
  1
*
 70
    12
  1
*
  1
*
  0
XRECORD
  5
65F7
102
{ACAD_REACTORS
330
6469
102
}
330
6469
100
AcDbXrecord
280
     1
  1
外部参照－建築
  1
A*
  1
9
  1
*
 70
     0
  1
*
  1
*
  0
XRECORD
  5
65F8
102
{ACAD_REACTORS
330
6469
102
}
330
6469
100
AcDbXrecord
280
     1
  1
外部参照の非表示画層
  1
*
  1
*
  1
*
 70
     0
  1
*
  1
*
  0
XRECORD
  5
65F9
102
{ACAD_REACTORS
330
6469
102
}
330
6469
100
AcDbXrecord
280
     1
  1
岩級
  1
*岩級
  1
*
  1
*
 70
     0
  1
*
  1
*
  0
XRECORD
  5
65FA
102
{ACAD_REACTORS
330
6469
102
}
330
6469
100
AcDbXrecord
280
     1
  1
基
  1
*_基
  1
*
  1
*
 70
     0
  1
*
  1
*
  0
XRECORD
  5
65FB
102
{ACAD_REACTORS
330
6469
102
}
330
6469
100
AcDbXrecord
280
     1
  1
基準
  1
基*
  1
*
  1
*
 70
     0
  1
*
  1
*
  0
XRECORD
  5
65FC
102
{ACAD_REACTORS
330
6469
102
}
330
6469
100
AcDbXrecord
280
     1
  1
基礎伏図
  1
SIZE,HOJO,ZATU,HATCH,GL-HARI,GL-HASIRA,KISO,KUI,MOJI-K1,GL-FUGO,SUNPO-K1,SUNPO,SUNPO2,SUNPO1,KIJUN3,KIJUN,SIZE
  1
*
  1
*
 70
     0
  1
*
  1
*
  0
XRECORD
  5
65FD
102
{ACAD_REACTORS
330
6469
102
}
330
6469
100
AcDbXrecord
280
     1
  1
既存杭
  1
既存杭*
  1
*
  1
*
 70
     0
  1
*
  1
*
  0
XRECORD
  5
65FE
102
{ACAD_REACTORS
330
6469
102
}
330
6469
100
AcDbXrecord
280
     1
  1
機器
  1
KIKI*
  1
*
  1
*
 70
     0
  1
*
  1
*
  0
XRECORD
  5
65FF
102
{ACAD_REACTORS
330
6469
102
}
330
6469
100
AcDbXrecord
280
     1
  1
機器基礎
  1
a3*,KIKI*,text*,stage,矢視記号
  1
*
  1
*
 70
     0
  1
*
  1
*
  0
XRECORD
  5
6600
102
{ACAD_REACTORS
330
6469
102
}
330
6469
100
AcDbXrecord
280
     1
  1
記号
  1
*記号
  1
*
  1
*
 70
     0
  1
*
  1
*
  0
XRECORD
  5
6601
102
{ACAD_REACTORS
330
6469
102
}
330
6469
100
AcDbXrecord
280
     1
  1
旧
  1
*旧*
  1
*
  1
*
 70
     0
  1
*
  1
*
  0
XRECORD
  5
6602
102
{ACAD_REACTORS
330
6469
102
}
330
6469
100
AcDbXrecord
280
     1
  1
共通
  1
*共*
  1
*
  1
*
 70
     0
  1
*
  1
*
  0
XRECORD
  5
6603
102
{ACAD_REACTORS
330
6469
102
}
330
6469
100
AcDbXrecord
280
     1
  1
区画
  1
区画*
  1
*
  1
*
 70
     0
  1
*
  1
*
  0
XRECORD
  5
6604
102
{ACAD_REACTORS
330
6469
102
}
330
6469
100
AcDbXrecord
280
     1
  1
躯体
  1
*躯*
  1
*
  1
*
 70
     0
  1
*
  1
*
  0
XRECORD
  5
6605
102
{ACAD_REACTORS
330
6469
102
}
330
6469
100
AcDbXrecord
280
     1
  1
躯体図
  1
001*,002*,003*,004*,005*,006*,007*,008*,009*,010*,011*,012*,027*
  1
*
  1
*
 70
     0
  1
*
  1
*
  0
XRECORD
  5
6606
102
{ACAD_REACTORS
330
6469
102
}
330
6469
100
AcDbXrecord
280
     1
  1
駆体
  1
*A09*
  1
*
  1
*
 70
     0
  1
*
  1
*
  0
XRECORD
  5
6607
102
{ACAD_REACTORS
330
6469
102
}
330
6469
100
AcDbXrecord
280
     1
  1
空調設備図
  1
001*,002*,004*,005*,007*,010*,033*,034*,035*,036*,037*,038*
  1
*
  1
*
 70
     0
  1
*
  1
*
  0
XRECORD
  5
6608
102
{ACAD_REACTORS
330
6469
102
}
330
6469
100
AcDbXrecord
280
     1
  1
郡川
  1
kijun,kabe,sunpo
  1
*
  1
*
 70
     3
  1
*
  1
*
  0
XRECORD
  5
6609
102
{ACAD_REACTORS
330
6469
102
}
330
6469
100
AcDbXrecord
280
     1
  1
型枠計画図
  1
001*,002*,003*,004*,005*,006*,007*,010*,012*,050*,051*,055*,056*,057*,058*,059*,060*,061*,062*,063*,064*,065*,066*,067*,068*,069*,070*,071*,072*,073*,074*,075*
  1
*
  1
*
 70
     0
  1
*
  1
*
  0
XRECORD
  5
660A
102
{ACAD_REACTORS
330
6469
102
}
330
6469
100
AcDbXrecord
280
     1
  1
形状
  1
pen1,pen3,pen4,up,dia,low
  1
*
  1
*
 70
     0
  1
*
  1
*
  0
XRECORD
  5
660B
102
{ACAD_REACTORS
330
6469
102
}
330
6469
100
AcDbXrecord
280
     1
  1
形状以外
  1
dim,cen,text,sakuzu1,sakuzu2,siten,defpoints,0
  1
*
  1
*
 70
     0
  1
*
  1
*
  0
XRECORD
  5
660C
102
{ACAD_REACTORS
330
6469
102
}
330
6469
100
AcDbXrecord
280
     1
  1
建具
  1
*TAT*
  1
*
  1
*
 70
     0
  1
*
  1
*
  0
XRECORD
  5
660D
102
{ACAD_REACTORS
330
6469
102
}
330
6469
100
AcDbXrecord
280
     1
  1
建築
  1
*
  1
*
  1
*
 70
     0
  1
*
  1
*
  0
XRECORD
  5
660E
102
{ACAD_REACTORS
330
6469
102
}
330
6469
100
AcDbXrecord
280
     1
  1
建築1
  1
K*
  1
*
  1
*
 70
     3
  1
*
  1
*
  0
XRECORD
  5
660F
102
{ACAD_REACTORS
330
6469
102
}
330
6469
100
AcDbXrecord
280
     1
  1
建築一般画層
  1
B*,A*
  1
*
  1
*
 70
     0
  1
*
  1
*
  0
XRECORD
  5
6610
102
{ACAD_REACTORS
330
6469
102
}
330
6469
100
AcDbXrecord
280
     1
  1
建築図
  1
*
  1
9
  1
*
 70
     0
  1
*
  1
*
  0
XRECORD
  5
6611
102
{ACAD_REACTORS
330
6469
102
}
330
6469
100
AcDbXrecord
280
     1
  1
建築接地図
  1
A01*
  1
*
  1
*
 70
     0
  1
*
  1
*
  0
XRECORD
  5
6612
102
{ACAD_REACTORS
330
6469
102
}
330
6469
100
AcDbXrecord
280
     1
  1
建物
  1
T-*
  1
*
  1
*
 70
     0
  1
*
  1
*
  0
XRECORD
  5
6613
102
{ACAD_REACTORS
330
6469
102
}
330
6469
100
AcDbXrecord
280
     1
  1
見え
  1
*KEN*
  1
*
  1
*
 70
     0
  1
*
  1
*
  0
XRECORD
  5
6614
102
{ACAD_REACTORS
330
6469
102
}
330
6469
100
AcDbXrecord
280
     1
  1
見上
  1
*上*
  1
*
  1
*
 70
     0
  1
*
  1
*
  0
XRECORD
  5
6615
102
{ACAD_REACTORS
330
6469
102
}
330
6469
100
AcDbXrecord
280
     1
  1
現況
  1
00wrk*
  1
*
  1
*
 70
     0
  1
*
  1
*
  0
XRECORD
  5
6616
102
{ACAD_REACTORS
330
6469
102
}
330
6469
100
AcDbXrecord
280
     1
  1
現況＆境界
  1
*wrk*
  1
*
  1
*
 70
     0
  1
*
  1
*
  0
XRECORD
  5
6617
102
{ACAD_REACTORS
330
6469
102
}
330
6469
100
AcDbXrecord
280
     1
  1
現在以外のすべてを選択
  1
*
  1
*
  1
*
 70
     0
  1
*
  1
*
  0
XRECORD
  5
6618
102
{ACAD_REACTORS
330
6469
102
}
330
6469
100
AcDbXrecord
280
     1
  1
後付
  1
*後付*
  1
*
  1
*
 70
     0
  1
*
  1
*
  0
XRECORD
  5
6619
102
{ACAD_REACTORS
330
6469
102
}
330
6469
100
AcDbXrecord
280
     1
  1
公園
  1
K*
  1
*
  1
*
 70
     0
  1
*
  1
*
  0
XRECORD
  5
661A
102
{ACAD_REACTORS
330
6469
102
}
330
6469
100
AcDbXrecord
280
     1
  1
杭頭詳細図
  1
DSTD_PILE*
  1
*
  1
*
 70
     0
  1
*
  1
*
  0
XRECORD
  5
661B
102
{ACAD_REACTORS
330
6469
102
}
330
6469
100
AcDbXrecord
280
     1
  1
杭伏図
  1
SIZE,HOJO,KUI,SUNPO,KIJUN,KUI-SUNPO,KUI-MOJI
  1
*
  1
*
 70
     0
  1
*
  1
*
  0
XRECORD
  5
661C
102
{ACAD_REACTORS
330
6469
102
}
330
6469
100
AcDbXrecord
280
     1
  1
高さ
  1
204-TEXT,東西道路*
  1
*
  1
*
 70
     0
  1
*
  1
*
  0
XRECORD
  5
661D
102
{ACAD_REACTORS
330
6469
102
}
330
6469
100
AcDbXrecord
280
     1
  1
高圧電気
  1
高*
  1
*
  1
*
 70
     0
  1
*
  1
*
  0
XRECORD
  5
661E
102
{ACAD_REACTORS
330
6469
102
}
330
6469
100
AcDbXrecord
280
     1
  1
座席のみ
  1
*
  1
*
  1
*
 70
     0
  1
*
  1
*
  0
XRECORD
  5
661F
102
{ACAD_REACTORS
330
6469
102
}
330
6469
100
AcDbXrecord
280
     1
  1
作業
  1
100-*,地区*,
  1
*
  1
*
 70
     1
  1
*
  1
*
  0
XRECORD
  5
6620
102
{ACAD_REACTORS
330
6469
102
}
330
6469
100
AcDbXrecord
280
     1
  1
山止根切計画図
  1
001*,002*,003*,004*,005*,007*,012*,049*,050*,051*,052*,053*,054*,055*,056*,057*,058*,059*,060*,061*,062*,064*,065*,066*,067*,068*,069*,070*,071*,072*,073*,074*,075*
  1
*
  1
*
 70
     0
  1
*
  1
*
  0
XRECORD
  5
6621
102
{ACAD_REACTORS
330
6469
102
}
330
6469
100
AcDbXrecord
280
     1
  1
仕
  1
*_仕
  1
*
  1
*
 70
     0
  1
*
  1
*
  0
XRECORD
  5
6622
102
{ACAD_REACTORS
330
6469
102
}
330
6469
100
AcDbXrecord
280
     1
  1
仕上
  1
D*
  1
*
  1
*
 70
     0
  1
*
  1
*
  0
XRECORD
  5
6623
102
{ACAD_REACTORS
330
6469
102
}
330
6469
100
AcDbXrecord
280
     1
  1
仕上げ
  1
*FIN*
  1
*
  1
*
 70
     0
  1
*
  1
*
  0
XRECORD
  5
6624
102
{ACAD_REACTORS
330
6469
102
}
330
6469
100
AcDbXrecord
280
     1
  1
仕上図
  1
C*
  1
*
  1
*
 70
     0
  1
*
  1
*
  0
XRECORD
  5
6625
102
{ACAD_REACTORS
330
6469
102
}
330
6469
100
AcDbXrecord
280
     1
  1
支柱取付部
  1
DSTD_COLMN-DET*
  1
*
  1
*
 70
     0
  1
*
  1
*
  0
XRECORD
  5
6626
102
{ACAD_REACTORS
330
6469
102
}
330
6469
100
AcDbXrecord
280
     1
  1
施工図
  1
*
  1
*
  1
*
 70
     0
  1
*
  1
*
  0
XRECORD
  5
6627
102
{ACAD_REACTORS
330
6469
102
}
330
6469
100
AcDbXrecord
280
     1
  1
紫
  1
*
  1
Magenta
  1
*
 70
     0
  1
*
  1
*
  0
XRECORD
  5
6628
102
{ACAD_REACTORS
330
6469
102
}
330
6469
100
AcDbXrecord
280
     1
  1
従属
  1
*|*
  1
*
  1
*
 70
     0
  1
*
  1
*
  0
XRECORD
  5
6629
102
{ACAD_REACTORS
330
6469
102
}
330
6469
100
AcDbXrecord
280
     1
  1
出図
  1
*
  1
*
  1
*
 70
     1
  1
*
  1
*
  0
XRECORD
  5
662A
102
{ACAD_REACTORS
330
6469
102
}
330
6469
100
AcDbXrecord
280
     1
  1
床伏
  1
*床*
  1
*
  1
*
 70
     0
  1
*
  1
*
  0
XRECORD
  5
662B
102
{ACAD_REACTORS
330
6469
102
}
330
6469
100
AcDbXrecord
280
     1
  1
床伏図
  1
*U*,20,Z20,Z22,Z23
  1
*
  1
*
 70
     0
  1
*
  1
*
  0
XRECORD
  5
662C
102
{ACAD_REACTORS
330
6469
102
}
330
6469
100
AcDbXrecord
280
     1
  1
昇降機
  1
T*
  1
*
  1
*
 70
     0
  1
*
  1
*
  0
XRECORD
  5
662D
102
{ACAD_REACTORS
330
6469
102
}
330
6469
100
AcDbXrecord
280
     1
  1
詳細
  1
詳細*
  1
*
  1
*
 70
     0
  1
*
  1
*
  0
XRECORD
  5
662E
102
{ACAD_REACTORS
330
6469
102
}
330
6469
100
AcDbXrecord
280
     1
  1
詳細一般画層
  1
B*,A*,D*
  1
*
  1
*
 70
     0
  1
*
  1
*
  0
XRECORD
  5
662F
102
{ACAD_REACTORS
330
6469
102
}
330
6469
100
AcDbXrecord
280
     1
  1
詳細図
  1
9*
  1
*
  1
*
 70
    12
  1
*
  1
*
  0
XRECORD
  5
6630
102
{ACAD_REACTORS
330
6469
102
}
330
6469
100
AcDbXrecord
280
     1
  1
上階躯体図
  1
KUTAI-Z,SIZE,HOJO,ZATU,HATCH,BR-S,KABE2,KABE,MAJIKIRI,KOBARI-S,KOBARI-R,HARI-S,HARI-R,HASIRA-S,HASIRA-R,MOJI-K2,FL-FUGO,FUGO-W,SUNPO-K2,SUNPO,SUNPO2,SUNPO1,KIJUN2,KIJUN1,KIJUN,
  1
*
  1
*
 70
     0
  1
*
  1
*
  0
XRECORD
  5
6631
102
{ACAD_REACTORS
330
6469
102
}
330
6469
100
AcDbXrecord
280
     1
  1
植栽
  1
T*
  1
*
  1
*
 70
     0
  1
*
  1
*
  0
XRECORD
  5
6632
102
{ACAD_REACTORS
330
6469
102
}
330
6469
100
AcDbXrecord
280
     1
  1
色番号8
  1
*
  1
8
  1
*
 70
     0
  1
*
  1
*
  0
XRECORD
  5
6633
102
{ACAD_REACTORS
330
6469
102
}
330
6469
100
AcDbXrecord
280
     1
  1
新
  1
*新*
  1
*
  1
*
 70
     0
  1
*
  1
*
  0
XRECORD
  5
6634
102
{ACAD_REACTORS
330
6469
102
}
330
6469
100
AcDbXrecord
280
     1
  1
新菱
  1
新菱*
  1
*
  1
*
 70
     0
  1
*
  1
*
  0
XRECORD
  5
6635
102
{ACAD_REACTORS
330
6469
102
}
330
6469
100
AcDbXrecord
280
     1
  1
申請用
  1
*あ*,*き*,*グ*,*み*,*オ*,*ピ*,*92*
  1
*
  1
*
 70
     0
  1
*
  1
*
  0
XRECORD
  5
6636
102
{ACAD_REACTORS
330
6469
102
}
330
6469
100
AcDbXrecord
280
     1
  1
芯
  1
*芯*
  1
*
  1
*
 70
     0
  1
*
  1
*
  0
XRECORD
  5
6637
102
{ACAD_REACTORS
330
6469
102
}
330
6469
100
AcDbXrecord
280
     1
  1
芯関係
  1
001*,002*,032*
  1
*
  1
*
 70
     0
  1
*
  1
*
  0
XRECORD
  5
6638
102
{ACAD_REACTORS
330
6469
102
}
330
6469
100
AcDbXrecord
280
     1
  1
水
  1
*
  1
cyan
  1
*
 70
     0
  1
*
  1
*
  0
XRECORD
  5
6639
102
{ACAD_REACTORS
330
6469
102
}
330
6469
100
AcDbXrecord
280
     1
  1
水色
  1
*
  1
Cyan
  1
*
 70
     0
  1
*
  1
*
  0
XRECORD
  5
663A
102
{ACAD_REACTORS
330
6469
102
}
330
6469
100
AcDbXrecord
280
     1
  1
寸法
  1
*寸法
  1
*
  1
*
 70
     0
  1
*
  1
*
  0
XRECORD
  5
663B
102
{ACAD_REACTORS
330
6469
102
}
330
6469
100
AcDbXrecord
280
     1
  1
正面図
  1
DSTD_FRONT*
  1
*
  1
*
 70
     0
  1
*
  1
*
  0
XRECORD
  5
663C
102
{ACAD_REACTORS
330
6469
102
}
330
6469
100
AcDbXrecord
280
     1
  1
製作
  1
B*
  1
*
  1
*
 70
     0
  1
*
  1
*
  0
XRECORD
  5
663D
102
{ACAD_REACTORS
330
6469
102
}
330
6469
100
AcDbXrecord
280
     1
  1
製作-躯体
  1
BS*
  1
*
  1
*
 70
     0
  1
*
  1
*
  0
XRECORD
  5
663E
102
{ACAD_REACTORS
330
6469
102
}
330
6469
100
AcDbXrecord
280
     1
  1
製作-建築
  1
BD*
  1
*
  1
*
 70
     0
  1
*
  1
*
  0
XRECORD
  5
663F
102
{ACAD_REACTORS
330
6469
102
}
330
6469
100
AcDbXrecord
280
     1
  1
製作-昇降機
  1
BT*
  1
*
  1
*
 70
     0
  1
*
  1
*
  0
XRECORD
  5
6640
102
{ACAD_REACTORS
330
6469
102
}
330
6469
100
AcDbXrecord
280
     1
  1
青
  1
*
  1
blue
  1
*
 70
     0
  1
*
  1
*
  0
XRECORD
  5
6641
102
{ACAD_REACTORS
330
6469
102
}
330
6469
100
AcDbXrecord
280
     1
  1
設備
  1
*SET*
  1
*
  1
*
 70
     0
  1
*
  1
*
  0
XRECORD
  5
6642
102
{ACAD_REACTORS
330
6469
102
}
330
6469
100
AcDbXrecord
280
     1
  1
設備１
  1
*
  1
*
  1
*
 70
     0
  1
*
  1
*
  0
XRECORD
  5
6643
102
{ACAD_REACTORS
330
6469
102
}
330
6469
100
AcDbXrecord
280
     1
  1
専北
  1
*専北*
  1
*
  1
*
 70
     0
  1
*
  1
*
  0
XRECORD
  5
6644
102
{ACAD_REACTORS
330
6469
102
}
330
6469
100
AcDbXrecord
280
     1
  1
専用
  1
*専*
  1
*
  1
*
 70
     0
  1
*
  1
*
  0
XRECORD
  5
6645
102
{ACAD_REACTORS
330
6469
102
}
330
6469
100
AcDbXrecord
280
     1
  1
川畑
  1
*川畑
  1
*
  1
*
 70
     0
  1
*
  1
*
  0
XRECORD
  5
6646
102
{ACAD_REACTORS
330
6469
102
}
330
6469
100
AcDbXrecord
280
     1
  1
線形
  1
*線形*
  1
*
  1
*
 70
     0
  1
*
  1
*
  0
XRECORD
  5
6647
102
{ACAD_REACTORS
330
6469
102
}
330
6469
100
AcDbXrecord
280
     1
  1
全階平面図
  1
*
  1
*
  1
*
 70
     0
  1
*
  1
*
  0
XRECORD
  5
6648
102
{ACAD_REACTORS
330
6469
102
}
330
6469
100
AcDbXrecord
280
     1
  1
全帯
  1
*帯*
  1
*
  1
*
 70
     0
  1
*
  1
*
  0
XRECORD
  5
6649
102
{ACAD_REACTORS
330
6469
102
}
330
6469
100
AcDbXrecord
280
     1
  1
総合仮設図
  1
001*,002*,003*,004*,005*,007*,012*,015*,016*,017*,018*,019*,020*,021*,049*,050*,051*,052*,053*,054*,055*,056*,057*,058*,059*,060*,061*,062*,063*,064*,065*,066*,067*,068*,069*,070*,071*,072*,073*,074*,075*
  1
*
  1
*
 70
     0
  1
*
  1
*
  0
XRECORD
  5
664A
102
{ACAD_REACTORS
330
6469
102
}
330
6469
100
AcDbXrecord
280
     1
  1
総合図
  1
*
  1
*
  1
*
 70
     0
  1
*
  1
*
  0
XRECORD
  5
664B
102
{ACAD_REACTORS
330
6469
102
}
330
6469
100
AcDbXrecord
280
     1
  1
総合図1
  1
*
  1
*
  1
*
 70
    13
  1
*
  1
*
  0
XRECORD
  5
664C
102
{ACAD_REACTORS
330
6469
102
}
330
6469
100
AcDbXrecord
280
     1
  1
足場計画図
  1
001*,002*,003*,004*,005*,007*,012*,015*,049*,050*,051*,055*,056*,057*,058*,059*,060*,061*,062*,064*,065*,066*,067*,068*,069*,070*,071*,072*,073*,074*,075*
  1
*
  1
*
 70
     0
  1
*
  1
*
  0
XRECORD
  5
664D
102
{ACAD_REACTORS
330
6469
102
}
330
6469
100
AcDbXrecord
280
     1
  1
耐火
  1
耐火*
  1
*
  1
*
 70
     0
  1
*
  1
*
  0
XRECORD
  5
664E
102
{ACAD_REACTORS
330
6469
102
}
330
6469
100
AcDbXrecord
280
     1
  1
断面
  1
*断面*
  1
*
  1
*
 70
     0
  1
*
  1
*
  0
XRECORD
  5
664F
102
{ACAD_REACTORS
330
6469
102
}
330
6469
100
AcDbXrecord
280
     1
  1
断面図
  1
DSTD_SECT*
  1
*
  1
*
 70
     0
  1
*
  1
*
  0
XRECORD
  5
6650
102
{ACAD_REACTORS
330
6469
102
}
330
6469
100
AcDbXrecord
280
     1
  1
中
  1
*中*
  1
*
  1
*
 70
     0
  1
*
  1
*
  0
XRECORD
  5
6651
102
{ACAD_REACTORS
330
6469
102
}
330
6469
100
AcDbXrecord
280
     1
  1
中野
  1
中野*
  1
*
  1
*
 70
     0
  1
*
  1
*
  0
XRECORD
  5
6652
102
{ACAD_REACTORS
330
6469
102
}
330
6469
100
AcDbXrecord
280
     1
  1
通り芯
  1
sin*
  1
*
  1
*
 70
     0
  1
*
  1
*
  0
XRECORD
  5
6653
102
{ACAD_REACTORS
330
6469
102
}
330
6469
100
AcDbXrecord
280
     1
  1
低圧
  1
低*
  1
*
  1
*
 70
     0
  1
*
  1
*
  0
XRECORD
  5
6654
102
{ACAD_REACTORS
330
6469
102
}
330
6469
100
AcDbXrecord
280
     1
  1
鉄筋
  1
TEA*,TEB*,TEC*
  1
*
  1
*
 70
     0
  1
*
  1
*
  0
XRECORD
  5
6655
102
{ACAD_REACTORS
330
6469
102
}
330
6469
100
AcDbXrecord
280
     1
  1
鉄骨
  1
*鉄骨*
  1
*
  1
*
 70
     0
  1
*
  1
*
  0
XRECORD
  5
6656
102
{ACAD_REACTORS
330
6469
102
}
330
6469
100
AcDbXrecord
280
     1
  1
鉄骨建方計画図
  1
001*,002*,003*,004*,005*,007*,012*,013*,049*,050*,051*,052*,053*,054*,055*,056*,057*,058*,059*,060*,061*,062*,063*,064*,065*,066*,067*,068*,069*,070*,071*,072*,073*,074*,075*
  1
*
  1
*
 70
     0
  1
*
  1
*
  0
XRECORD
  5
6657
102
{ACAD_REACTORS
330
6469
102
}
330
6469
100
AcDbXrecord
280
     1
  1
鉄骨梁見下げ
  1
000*,110*,141*
  1
*
  1
*
 70
     0
  1
*
  1
*
  0
XRECORD
  5
6658
102
{ACAD_REACTORS
330
6469
102
}
330
6469
100
AcDbXrecord
280
     1
  1
鉄骨梁見下げ3
  1
20*
  1
*
  1
*
 70
     0
  1
*
  1
*
  0
XRECORD
  5
6659
102
{ACAD_REACTORS
330
6469
102
}
330
6469
100
AcDbXrecord
280
     1
  1
天井
  1
C*
  1
*
  1
*
 70
     0
  1
*
  1
*
  0
XRECORD
  5
665A
102
{ACAD_REACTORS
330
6469
102
}
330
6469
100
AcDbXrecord
280
     1
  1
天井インサート図
  1
001*,002*,004*,010*,022*,023*,024*,025*,026*,027*,028*,029*,037*,042*
  1
*
  1
*
 70
     0
  1
*
  1
*
  0
XRECORD
  5
665B
102
{ACAD_REACTORS
330
6469
102
}
330
6469
100
AcDbXrecord
280
     1
  1
天井総合図
  1
001*,002*,004*,005*,007*,010*,022*,023*,024*,025*,026*,027*,028*,029*,030*,031*,033*,035*,036*,037*,039*,041*,042*,044*,046*,047*
  1
*
  1
*
 70
     0
  1
*
  1
*
  0
XRECORD
  5
665C
102
{ACAD_REACTORS
330
6469
102
}
330
6469
100
AcDbXrecord
280
     1
  1
天井伏
  1
0,03*,1a*,160*,17*,28*,29*,2a*,41*,42*,43*,5*,6*,SUNPO
  1
*
  1
*
 70
     0
  1
*
  1
*
  0
XRECORD
  5
665D
102
{ACAD_REACTORS
330
6469
102
}
330
6469
100
AcDbXrecord
280
     1
  1
天井伏図
  1
001*,002*,004*,010*,022*,023*,024*,025*,026*,027*,028*,029*,033*,039*,044*
  1
*
  1
*
 70
     0
  1
*
  1
*
  0
XRECORD
  5
665E
102
{ACAD_REACTORS
330
6469
102
}
330
6469
100
AcDbXrecord
280
     1
  1
天伏
  1
****-H
  1
*
  1
*
 70
     0
  1
*
  1
*
  0
XRECORD
  5
665F
102
{ACAD_REACTORS
330
6469
102
}
330
6469
100
AcDbXrecord
280
     1
  1
展開図
  1
4*,9*,0*
  1
*
  1
*
 70
     0
  1
*
  1
*
  0
XRECORD
  5
6660
102
{ACAD_REACTORS
330
6469
102
}
330
6469
100
AcDbXrecord
280
     1
  1
電ｺﾝｾﾝﾄ
  1
電-ｺﾝｾﾝﾄ*
  1
*
  1
*
 70
     0
  1
*
  1
*
  0
XRECORD
  5
6661
102
{ACAD_REACTORS
330
6469
102
}
330
6469
100
AcDbXrecord
280
     1
  1
電ﾃﾚﾋﾞ
  1
電-ﾃﾚﾋﾞ*
  1
*
  1
*
 70
     0
  1
*
  1
*
  0
XRECORD
  5
6662
102
{ACAD_REACTORS
330
6469
102
}
330
6469
100
AcDbXrecord
280
     1
  1
電の画層
  1
電-*
  1
*
  1
*
 70
     0
  1
*
  1
*
  0
XRECORD
  5
6663
102
{ACAD_REACTORS
330
6469
102
}
330
6469
100
AcDbXrecord
280
     1
  1
電の総画層
  1
電-*
  1
*
  1
*
 70
     0
  1
*
  1
*
  0
XRECORD
  5
6664
102
{ACAD_REACTORS
330
6469
102
}
330
6469
100
AcDbXrecord
280
     1
  1
電医療接地
  1
電-医療*
  1
*
  1
*
 70
     0
  1
*
  1
*
  0
XRECORD
  5
6665
102
{ACAD_REACTORS
330
6469
102
}
330
6469
100
AcDbXrecord
280
     1
  1
電気
  1
電*
  1
*
  1
*
 70
     0
  1
*
  1
*
  0
XRECORD
  5
6666
102
{ACAD_REACTORS
330
6469
102
}
330
6469
100
AcDbXrecord
280
     1
  1
電気画層
  1
電-*
  1
*
  1
*
 70
     0
  1
*
  1
*
  0
XRECORD
  5
6667
102
{ACAD_REACTORS
330
6469
102
}
330
6469
100
AcDbXrecord
280
     1
  1
電気設計図
  1
電-S*
  1
*
  1
*
 70
     0
  1
*
  1
*
  0
XRECORD
  5
6668
102
{ACAD_REACTORS
330
6469
102
}
330
6469
100
AcDbXrecord
280
     1
  1
電気設備図
  1
001*,002*,004*,005*,007*,010*,030*,031*,044*,045*,046*,047*,048*
  1
*
  1
*
 70
     0
  1
*
  1
*
  0
XRECORD
  5
6669
102
{ACAD_REACTORS
330
6469
102
}
330
6469
100
AcDbXrecord
280
     1
  1
電電話
  1
電-電話*
  1
*
  1
*
 70
     0
  1
*
  1
*
  0
XRECORD
  5
666A
102
{ACAD_REACTORS
330
6469
102
}
330
6469
100
AcDbXrecord
280
     1
  1
土留板
  1
*_CONC
  1
*
  1
*
 70
     0
  1
*
  1
*
  0
XRECORD
  5
666B
102
{ACAD_REACTORS
330
6469
102
}
330
6469
100
AcDbXrecord
280
     1
  1
土留板取付詳細図
  1
DSTD_CONC*
  1
*
  1
*
 70
     0
  1
*
  1
*
  0
XRECORD
  5
666C
102
{ACAD_REACTORS
330
6469
102
}
330
6469
100
AcDbXrecord
280
     1
  1
動力
  1
D*
  1
*
  1
*
 70
    12
  1
*
  1
*
  0
XRECORD
  5
666D
102
{ACAD_REACTORS
330
6469
102
}
330
6469
100
AcDbXrecord
280
     1
  1
道路
  1
D-*
  1
*
  1
*
 70
     0
  1
*
  1
*
  0
XRECORD
  5
666E
102
{ACAD_REACTORS
330
6469
102
}
330
6469
100
AcDbXrecord
280
     1
  1
道路関係図
  1
001*,002*,003*,004*,007*,012*,015*,016*,017*,018*,019*,020*,021*,049*,050*,051*,052*,053*,054*,055*,056*,057*,058*,059*,060*,061*,062*,063*,064*,065*,066*,067*,068*,069*,070*,071*,072*,073*,074*,075*
  1
*
  1
*
 70
     0
  1
*
  1
*
  0
XRECORD
  5
666F
102
{ACAD_REACTORS
330
6469
102
}
330
6469
100
AcDbXrecord
280
     1
  1
読み込み時表示層
  1
*
  1
*
  1
*
 70
     0
  1
*
  1
*
  0
XRECORD
  5
6670
102
{ACAD_REACTORS
330
6469
102
}
330
6469
100
AcDbXrecord
280
     1
  1
日比谷
  1
日比谷*
  1
*
  1
*
 70
     0
  1
*
  1
*
  0
XRECORD
  5
6671
102
{ACAD_REACTORS
330
6469
102
}
330
6469
100
AcDbXrecord
280
     1
  1
日比谷1
  1
日*管
  1
*
  1
*
 70
     0
  1
*
  1
*
  0
XRECORD
  5
6672
102
{ACAD_REACTORS
330
6469
102
}
330
6469
100
AcDbXrecord
280
     1
  1
背面図
  1
DSTD_BACK*
  1
*
  1
*
 70
     0
  1
*
  1
*
  0
XRECORD
  5
6673
102
{ACAD_REACTORS
330
6469
102
}
330
6469
100
AcDbXrecord
280
     1
  1
配管
  1
PIPE*
  1
*
  1
*
 70
     0
  1
*
  1
*
  0
XRECORD
  5
6674
102
{ACAD_REACTORS
330
6469
102
}
330
6469
100
AcDbXrecord
280
     1
  1
配筋図
  1
DSTD_STEEL*
  1
*
  1
*
 70
     0
  1
*
  1
*
  0
XRECORD
  5
6675
102
{ACAD_REACTORS
330
6469
102
}
330
6469
100
AcDbXrecord
280
     1
  1
配置樹木
  1
*
  1
*
  1
*
 70
     0
  1
*
  1
*
  0
XRECORD
  5
6676
102
{ACAD_REACTORS
330
6469
102
}
330
6469
100
AcDbXrecord
280
     1
  1
配置図
  1
*
  1
*
  1
*
 70
  1024
  1
*
  1
*
  0
XRECORD
  5
6677
102
{ACAD_REACTORS
330
6469
102
}
330
6469
100
AcDbXrecord
280
     1
  1
盤
  1
盤*
  1
*
  1
*
 70
     0
  1
*
  1
*
  0
XRECORD
  5
6678
102
{ACAD_REACTORS
330
6469
102
}
330
6469
100
AcDbXrecord
280
     1
  1
非表示
  1
z*
  1
*
  1
*
 70
     0
  1
*
  1
*
  0
XRECORD
  5
6679
102
{ACAD_REACTORS
330
6469
102
}
330
6469
100
AcDbXrecord
280
     1
  1
非表示層のみ表示
  1
*
  1
*
  1
*
 70
     7
  1
*
  1
*
  0
XRECORD
  5
667A
102
{ACAD_REACTORS
330
6469
102
}
330
6469
100
AcDbXrecord
280
     1
  1
表示
  1
*
  1
*
  1
*
 70
     1
  1
*
  1
*
  0
XRECORD
  5
667B
102
{ACAD_REACTORS
330
6469
102
}
330
6469
100
AcDbXrecord
280
     1
  1
表示-ﾊﾟｼｺﾝ作成画層のみ
  1
ﾊﾟｼｺﾝ*
  1
*
  1
*
 70
     0
  1
*
  1
*
  0
XRECORD
  5
667C
102
{ACAD_REACTORS
330
6469
102
}
330
6469
100
AcDbXrecord
280
     1
  1
表示-近代作成画層のみ
  1
近*
  1
*
  1
*
 70
     0
  1
*
  1
*
  0
XRECORD
  5
667D
102
{ACAD_REACTORS
330
6469
102
}
330
6469
100
AcDbXrecord
280
     1
  1
表示-東電作成画層のみ
  1
東*
  1
*
  1
*
 70
     0
  1
*
  1
*
  0
XRECORD
  5
667E
102
{ACAD_REACTORS
330
6469
102
}
330
6469
100
AcDbXrecord
280
     1
  1
表示-日技作成画層のみ
  1
日*
  1
*
  1
*
 70
     0
  1
*
  1
*
  0
XRECORD
  5
667F
102
{ACAD_REACTORS
330
6469
102
}
330
6469
100
AcDbXrecord
280
     1
  1
表示-福山作成画層のみ
  1
福*
  1
*
  1
*
 70
     0
  1
*
  1
*
  0
XRECORD
  5
6680
102
{ACAD_REACTORS
330
6469
102
}
330
6469
100
AcDbXrecord
280
     1
  1
表示・非表示
  1
*
  1
*
  1
*
 70
     1
  1
*
  1
*
  0
XRECORD
  5
6681
102
{ACAD_REACTORS
330
6469
102
}
330
6469
100
AcDbXrecord
280
     1
  1
表示2
  1
*
  1
*
  1
*
 70
   257
  1
*
  1
*
  0
XRECORD
  5
6682
102
{ACAD_REACTORS
330
6469
102
}
330
6469
100
AcDbXrecord
280
     1
  1
表示層のみ表示
  1
*
  1
*
  1
*
 70
    13
  1
*
  1
*
  0
XRECORD
  5
6683
102
{ACAD_REACTORS
330
6469
102
}
330
6469
100
AcDbXrecord
280
     1
  1
副道
  1
*副*
  1
*
  1
*
 70
     0
  1
*
  1
*
  0
XRECORD
  5
6684
102
{ACAD_REACTORS
330
6469
102
}
330
6469
100
AcDbXrecord
280
     1
  1
分割枠
  1
枠*
  1
*
  1
*
 70
     0
  1
*
  1
*
  0
XRECORD
  5
6685
102
{ACAD_REACTORS
330
6469
102
}
330
6469
100
AcDbXrecord
280
     1
  1
文字
  1
*NAM*
  1
*
  1
*
 70
     0
  1
*
  1
*
  0
XRECORD
  5
6686
102
{ACAD_REACTORS
330
6469
102
}
330
6469
100
AcDbXrecord
280
     1
  1
平詳
  1
****-T
  1
*
  1
*
 70
     0
  1
*
  1
*
  0
XRECORD
  5
6687
102
{ACAD_REACTORS
330
6469
102
}
330
6469
100
AcDbXrecord
280
     1
  1
平詳仕上表1
  1
1_h*3,1_t*2,2_s*2
  1
*
  1
*
 70
     0
  1
*
  1
*
  0
XRECORD
  5
6688
102
{ACAD_REACTORS
330
6469
102
}
330
6469
100
AcDbXrecord
280
     1
  1
平面
  1
*-T
  1
*
  1
*
 70
     0
  1
*
  1
*
  0
XRECORD
  5
6689
102
{ACAD_REACTORS
330
6469
102
}
330
6469
100
AcDbXrecord
280
     1
  1
平面詳細
  1
04*,7*,9*,hojo
  1
*
  1
*
 70
     0
  1
*
  1
*
  0
XRECORD
  5
668A
102
{ACAD_REACTORS
330
6469
102
}
330
6469
100
AcDbXrecord
280
     1
  1
平面詳細図
  1
SUNPO-S,SIZE,HOJO,ZATU,HATCH,HWAKU,HMOJI,WARITUKE-T,WARITUKE-Y,WARITUKE-K,TATEGU1,TATEGU,BR-S,MAJIKIRI,KABE2,SIAGE,KABE1,KABE,KOBARI-S,KOBARI-R,HARI-S,HARI-R,HASIRA-S,HASIRA-R,MOJI,SHITUMEI,LABEL,FL-FUGO,FUGO-W,SUNPO,SUNPO2,SUNPO1,KIJUN2,KIJUN1,KIJUN
  1
*
  1
*
 70
     0
  1
*
  1
*
  0
XRECORD
  5
668B
102
{ACAD_REACTORS
330
6469
102
}
330
6469
100
AcDbXrecord
280
     1
  1
平面図
  1
DSTD_PLN*
  1
*
  1
*
 70
     0
  1
*
  1
*
  0
XRECORD
  5
668C
102
{ACAD_REACTORS
330
6469
102
}
330
6469
100
AcDbXrecord
280
     1
  1
平面図のみ＠1
  1
*
  1
*
  1
*
 70
     1
  1
*
  1
*
  0
XRECORD
  5
668D
102
{ACAD_REACTORS
330
6469
102
}
330
6469
100
AcDbXrecord
280
     1
  1
平面図のみ＠２
  1
*
  1
*
  1
*
 70
     1
  1
*
  1
*
  0
XRECORD
  5
668E
102
{ACAD_REACTORS
330
6469
102
}
330
6469
100
AcDbXrecord
280
     1
  1
平面総合図
  1
001*,002*,004*,010*,013*,014*,015*,016*,017*,018*,019*,020*,021*,030*,031*,034*,040*,045*
  1
*
  1
*
 70
     0
  1
*
  1
*
  0
XRECORD
  5
668F
102
{ACAD_REACTORS
330
6469
102
}
330
6469
100
AcDbXrecord
280
     1
  1
保留
  1
保留*
  1
*
  1
*
 70
     0
  1
*
  1
*
  0
XRECORD
  5
6690
102
{ACAD_REACTORS
330
6469
102
}
330
6469
100
AcDbXrecord
280
     1
  1
補助線
  1
*0
  1
*
  1
*
 70
     0
  1
*
  1
*
  0
XRECORD
  5
6691
102
{ACAD_REACTORS
330
6469
102
}
330
6469
100
AcDbXrecord
280
     1
  1
法規チェック－区画
  1
*92
  1
*
  1
*
 70
     0
  1
*
  1
*
  0
XRECORD
  5
6692
102
{ACAD_REACTORS
330
6469
102
}
330
6469
100
AcDbXrecord
280
     1
  1
法規チェック－範囲
  1
*0
  1
*
  1
*
 70
     0
  1
*
  1
*
  0
XRECORD
  5
6693
102
{ACAD_REACTORS
330
6469
102
}
330
6469
100
AcDbXrecord
280
     1
  1
鳳文字入力
  1
*
  1
*
  1
*
 70
     0
  1
*
  1
*
  0
XRECORD
  5
6694
102
{ACAD_REACTORS
330
6469
102
}
330
6469
100
AcDbXrecord
280
     1
  1
防災
  1
B*
  1
*
  1
*
 70
   768
  1
*
  1
*
  0
XRECORD
  5
6695
102
{ACAD_REACTORS
330
6469
102
}
330
6469
100
AcDbXrecord
280
     1
  1
名称
  1
*名称
  1
*
  1
*
 70
     0
  1
*
  1
*
  0
XRECORD
  5
6696
102
{ACAD_REACTORS
330
6469
102
}
330
6469
100
AcDbXrecord
280
     1
  1
面積
  1
*面積
  1
*
  1
*
 70
     0
  1
*
  1
*
  0
XRECORD
  5
6697
102
{ACAD_REACTORS
330
6469
102
}
330
6469
100
AcDbXrecord
280
     1
  1
立面図
  1
*HOJO2
  1
*
  1
*
 70
     0
  1
*
  1
*
  0
XRECORD
  5
6698
102
{ACAD_REACTORS
330
6469
102
}
330
6469
100
AcDbXrecord
280
     1
  1
梁
  1
0,08*,17*,梁*
  1
*
  1
*
 70
     0
  1
*
  1
*
  0
XRECORD
  5
6699
102
{ACAD_REACTORS
330
6469
102
}
330
6469
100
AcDbXrecord
280
     1
  1
緑
  1
*
  1
Green
  1
*
 70
     0
  1
*
  1
*
  0
ENDSEC
  0
EOF
