  0
SECTION
  2
HEADER
  9
$ACADVER
  1
AC1015
  9
$ACADMAINTVER
 70
     6
  9
$DWGCODEPAGE
  3
ANSI_932
  9
$INSBASE
 10
0.0
 20
0.0
 30
0.0
  9
$EXTMIN
 10
36.81814631968518
 20
-45.38601438129808
 30
-0.00000001
  9
$EXTMAX
 10
574.5454552667215
 20
547.898114880153
 30
0.00000001
  9
$LIMMIN
 10
0.0
 20
0.0
  9
$LIMMAX
 10
409.8899999999999
 20
282.8899999999999
  9
$ORTHOMODE
 70
     0
  9
$REGENMODE
 70
     1
  9
$FILLMODE
 70
     1
  9
$QTEXTMODE
 70
     0
  9
$MIRRTEXT
 70
     1
  9
$LTSCALE
 40
10.0
  9
$ATTMODE
 70
     1
  9
$TEXTSIZE
 40
3.5
  9
$TRACEWID
 40
1.0
  9
$TEXTSTYLE
  7
AD-STANDARD
  9
$CLAYER
  8
0
  9
$CELTYPE
  6
BYLAYER
  9
$CECOLOR
 62
   256
  9
$CELTSCALE
 40
1.0
  9
$DISPSILH
 70
     0
  9
$DIMSCALE
 40
1.0
  9
$DIMASZ
 40
0.18
  9
$DIMEXO
 40
0.0625
  9
$DIMDLI
 40
0.38
  9
$DIMRND
 40
0.0
  9
$DIMDLE
 40
0.0
  9
$DIMEXE
 40
0.18
  9
$DIMTP
 40
0.0
  9
$DIMTM
 40
0.0
  9
$DIMTXT
 40
0.18
  9
$DIMCEN
 40
0.09
  9
$DIMTSZ
 40
0.0
  9
$DIMTOL
 70
     0
  9
$DIMLIM
 70
     0
  9
$DIMTIH
 70
     1
  9
$DIMTOH
 70
     1
  9
$DIMSE1
 70
     0
  9
$DIMSE2
 70
     0
  9
$DIMTAD
 70
     0
  9
$DIMZIN
 70
     0
  9
$DIMBLK
  1

  9
$DIMASO
 70
     1
  9
$DIMSHO
 70
     1
  9
$DIMPOST
  1

  9
$DIMAPOST
  1

  9
$DIMALT
 70
     0
  9
$DIMALTD
 70
     2
  9
$DIMALTF
 40
25.4
  9
$DIMLFAC
 40
1.0
  9
$DIMTOFL
 70
     0
  9
$DIMTVP
 40
0.0
  9
$DIMTIX
 70
     0
  9
$DIMSOXD
 70
     0
  9
$DIMSAH
 70
     0
  9
$DIMBLK1
  1

  9
$DIMBLK2
  1

  9
$DIMSTYLE
  2
STANDARD
  9
$DIMCLRD
 70
     0
  9
$DIMCLRE
 70
     0
  9
$DIMCLRT
 70
     0
  9
$DIMTFAC
 40
1.0
  9
$DIMGAP
 40
0.09
  9
$DIMJUST
 70
     0
  9
$DIMSD1
 70
     0
  9
$DIMSD2
 70
     0
  9
$DIMTOLJ
 70
     1
  9
$DIMTZIN
 70
     0
  9
$DIMALTZ
 70
     0
  9
$DIMALTTZ
 70
     0
  9
$DIMUPT
 70
     0
  9
$DIMDEC
 70
     4
  9
$DIMTDEC
 70
     4
  9
$DIMALTU
 70
     2
  9
$DIMALTTD
 70
     2
  9
$DIMTXSTY
  7
STANDARD
  9
$DIMAUNIT
 70
     0
  9
$DIMADEC
 70
     0
  9
$DIMALTRND
 40
0.0
  9
$DIMAZIN
 70
     0
  9
$DIMDSEP
 70
    46
  9
$DIMATFIT
 70
     3
  9
$DIMFRAC
 70
     0
  9
$DIMLDRBLK
  1

  9
$DIMLUNIT
 70
     2
  9
$DIMLWD
 70
    -2
  9
$DIMLWE
 70
    -2
  9
$DIMTMOVE
 70
     0
  9
$LUNITS
 70
     2
  9
$LUPREC
 70
     4
  9
$SKETCHINC
 40
1.0
  9
$FILLETRAD
 40
1.0
  9
$AUNITS
 70
     0
  9
$AUPREC
 70
     0
  9
$MENU
  1
.
  9
$ELEVATION
 40
0.0
  9
$PELEVATION
 40
0.0
  9
$THICKNESS
 40
0.0
  9
$LIMCHECK
 70
     0
  9
$CHAMFERA
 40
1.0
  9
$CHAMFERB
 40
1.0
  9
$CHAMFERC
 40
673.4006734006733
  9
$CHAMFERD
 40
0.0
  9
$SKPOLY
 70
     0
  9
$TDCREATE
 40
2452473.408056250
  9
$TDUCREATE
 40
2452473.033056250
  9
$TDUPDATE
 40
2455799.870934803
  9
$TDUUPDATE
 40
2455799.495934803
  9
$TDINDWG
 40
8.6032952315
  9
$TDUSRTIMER
 40
8.6032933796
  9
$USRTIMER
 70
     1
  9
$ANGBASE
 50
0.0
  9
$ANGDIR
 70
     0
  9
$PDMODE
 70
     0
  9
$PDSIZE
 40
0.0
  9
$PLINEWID
 40
0.0
  9
$SPLFRAME
 70
     0
  9
$SPLINETYPE
 70
     6
  9
$SPLINESEGS
 70
     8
  9
$HANDSEED
  5
BE27
  9
$SURFTAB1
 70
     6
  9
$SURFTAB2
 70
     6
  9
$SURFTYPE
 70
     6
  9
$SURFU
 70
     6
  9
$SURFV
 70
     6
  9
$UCSBASE
  2

  9
$UCSNAME
  2

  9
$UCSORG
 10
0.0
 20
0.0
 30
0.0
  9
$UCSXDIR
 10
1.0
 20
0.0
 30
0.0
  9
$UCSYDIR
 10
0.0
 20
1.0
 30
0.0
  9
$UCSORTHOREF
  2

  9
$UCSORTHOVIEW
 70
     0
  9
$UCSORGTOP
 10
0.0
 20
0.0
 30
0.0
  9
$UCSORGBOTTOM
 10
0.0
 20
0.0
 30
0.0
  9
$UCSORGLEFT
 10
0.0
 20
0.0
 30
0.0
  9
$UCSORGRIGHT
 10
0.0
 20
0.0
 30
0.0
  9
$UCSORGFRONT
 10
0.0
 20
0.0
 30
0.0
  9
$UCSORGBACK
 10
0.0
 20
0.0
 30
0.0
  9
$PUCSBASE
  2

  9
$PUCSNAME
  2

  9
$PUCSORG
 10
0.0
 20
0.0
 30
0.0
  9
$PUCSXDIR
 10
1.0
 20
0.0
 30
0.0
  9
$PUCSYDIR
 10
0.0
 20
1.0
 30
0.0
  9
$PUCSORTHOREF
  2

  9
$PUCSORTHOVIEW
 70
     0
  9
$PUCSORGTOP
 10
0.0
 20
0.0
 30
0.0
  9
$PUCSORGBOTTOM
 10
0.0
 20
0.0
 30
0.0
  9
$PUCSORGLEFT
 10
0.0
 20
0.0
 30
0.0
  9
$PUCSORGRIGHT
 10
0.0
 20
0.0
 30
0.0
  9
$PUCSORGFRONT
 10
0.0
 20
0.0
 30
0.0
  9
$PUCSORGBACK
 10
0.0
 20
0.0
 30
0.0
  9
$USERI1
 70
     0
  9
$USERI2
 70
     0
  9
$USERI3
 70
     0
  9
$USERI4
 70
     0
  9
$USERI5
 70
     0
  9
$USERR1
 40
0.0
  9
$USERR2
 40
0.0
  9
$USERR3
 40
0.0
  9
$USERR4
 40
0.0
  9
$USERR5
 40
0.0
  9
$WORLDVIEW
 70
     1
  9
$SHADEDGE
 70
     3
  9
$SHADEDIF
 70
    70
  9
$TILEMODE
 70
     1
  9
$MAXACTVP
 70
    16
  9
$PINSBASE
 10
0.0
 20
0.0
 30
0.0
  9
$PLIMCHECK
 70
     0
  9
$PEXTMIN
 10
20.0
 20
11.99999999999994
 30
0.0
  9
$PEXTMAX
 10
404.9999999999998
 20
276.9999999999999
 30
0.0
  9
$PLIMMIN
 10
0.0
 20
0.0
  9
$PLIMMAX
 10
409.8899999999999
 20
282.8899999999999
  9
$UNITMODE
 70
     0
  9
$VISRETAIN
 70
     0
  9
$PLINEGEN
 70
     0
  9
$PSLTSCALE
 70
     1
  9
$TREEDEPTH
 70
  3020
  9
$CMLSTYLE
  2
STANDARD
  9
$CMLJUST
 70
     0
  9
$CMLSCALE
 40
1.0
  9
$PROXYGRAPHICS
 70
     1
  9
$MEASUREMENT
 70
     1
  9
$CELWEIGHT
370
    -1
  9
$ENDCAPS
280
     0
  9
$JOINSTYLE
280
     0
  9
$LWDISPLAY
290
     0
  9
$INSUNITS
 70
     0
  9
$HYPERLINKBASE
  1

  9
$STYLESHEET
  1

  9
$XEDIT
290
     1
  9
$CEPSNTYPE
380
     0
  9
$PSTYLEMODE
290
     1
  9
$FINGERPRINTGUID
  2
{8ACAE060-96A8-11D3-AA4A-00A0247712C1}
  9
$VERSIONGUID
  2
{D1A3CB01-F304-42DD-B792-C4E2F86F57CF}
  9
$EXTNAMES
290
     1
  9
$PSVPSCALE
 40
0.0
  9
$OLESTARTUP
290
     0
  0
ENDSEC
  0
SECTION
  2
CLASSES
  0
CLASS
  1
LWPOLYLINE
  2
AcDbPolyline
  3
AutoCAD 2000
 90
    32768
280
     0
281
     1
  0
CLASS
  1
ACDBDICTIONARYWDFLT
  2
AcDbDictionaryWithDefault
  3
AutoCAD 2000
 90
        0
280
     0
281
     0
  0
CLASS
  1
ACDBPLACEHOLDER
  2
AcDbPlaceHolder
  3
AutoCAD 2000
 90
        0
280
     0
281
     0
  0
CLASS
  1
LAYOUT
  2
AcDbLayout
  3
AutoCAD 2000
 90
        0
280
     0
281
     0
  0
CLASS
  1
PLOTSETTINGS
  2
AcDbPlotSettings
  3
AutoCAD 2000
 90
        0
280
     0
281
     0
  0
CLASS
  1
LONG_TRANSACTION
  2
AcDbLongTransaction
  3
AutoCAD 2000
 90
    32768
280
     0
281
     0
  0
CLASS
  1
LWPOLYLINE
  2
AcDbPolyline
  3
AutoCAD 2000
 90
    32768
280
     0
281
     1
  0
CLASS
  1
HATCH
  2
AcDbHatch
  3
AutoCAD 2000
 90
    32768
280
     0
281
     1
  0
CLASS
  1
XRECORD
  2
AcDbXrecord
  3
AutoCAD 2000
 90
    32768
280
     0
281
     0
  0
CLASS
  1
LONG_TRANSACTION
  2
AcDbLongTransaction
  3
AutoCAD 2000
 90
    32768
280
     0
281
     0
  0
CLASS
  1
LWPOLYLINE
  2
AcDbPolyline
  3
AutoCAD 2000
 90
    32768
280
     0
281
     1
  0
CLASS
  1
HATCH
  2
AcDbHatch
  3
AutoCAD 2000
 90
    32768
280
     0
281
     1
  0
CLASS
  1
XRECORD
  2
AcDbXrecord
  3
AutoCAD 2000
 90
    32768
280
     0
281
     0
  0
CLASS
  1
LONG_TRANSACTION
  2
AcDbLongTransaction
  3
AutoCAD 2000
 90
    32768
280
     0
281
     0
  0
CLASS
  1
LWPOLYLINE
  2
AcDbPolyline
  3
AutoCAD 2000
 90
    32768
280
     0
281
     1
  0
CLASS
  1
HATCH
  2
AcDbHatch
  3
AutoCAD 2000
 90
    32768
280
     0
281
     1
  0
CLASS
  1
XRECORD
  2
AcDbXrecord
  3
AutoCAD 2000
 90
    32768
280
     0
281
     0
  0
CLASS
  1
DICTIONARYVAR
  2
AcDbDictionaryVar
  3
AutoCAD 2000
 90
        0
280
     0
281
     0
  0
CLASS
  1
LONG_TRANSACTION
  2
AcDbLongTransaction
  3
AutoCAD 2000
 90
    32768
280
     0
281
     0
  0
CLASS
  1
LWPOLYLINE
  2
AcDbPolyline
  3
AutoCAD 2000
 90
    32768
280
     0
281
     1
  0
CLASS
  1
HATCH
  2
AcDbHatch
  3
AutoCAD 2000
 90
    32768
280
     0
281
     1
  0
CLASS
  1
XRECORD
  2
AcDbXrecord
  3
AutoCAD 2000
 90
    32768
280
     0
281
     0
  0
CLASS
  1
LONG_TRANSACTION
  2
AcDbLongTransaction
  3
AutoCAD 2000
 90
    32768
280
     0
281
     0
  0
CLASS
  1
LWPOLYLINE
  2
AcDbPolyline
  3
AutoCAD 2000
 90
    32768
280
     0
281
     1
  0
CLASS
  1
HATCH
  2
AcDbHatch
  3
AutoCAD 2000
 90
    32768
280
     0
281
     1
  0
CLASS
  1
XRECORD
  2
AcDbXrecord
  3
AutoCAD 2000
 90
    32768
280
     0
281
     0
  0
CLASS
  1
LONG_TRANSACTION
  2
AcDbLongTransaction
  3
AutoCAD 2000
 90
    32768
280
     0
281
     0
  0
CLASS
  1
LWPOLYLINE
  2
AcDbPolyline
  3
AutoCAD 2000
 90
    32768
280
     0
281
     1
  0
CLASS
  1
HATCH
  2
AcDbHatch
  3
AutoCAD 2000
 90
    32768
280
     0
281
     1
  0
CLASS
  1
XRECORD
  2
AcDbXrecord
  3
AutoCAD 2000
 90
    32768
280
     0
281
     0
  0
CLASS
  1
LONG_TRANSACTION
  2
AcDbLongTransaction
  3
AutoCAD 2000
 90
    32768
280
     0
281
     0
  0
CLASS
  1
LWPOLYLINE
  2
AcDbPolyline
  3
AutoCAD 2000
 90
    32768
280
     0
281
     1
  0
CLASS
  1
HATCH
  2
AcDbHatch
  3
AutoCAD 2000
 90
    32768
280
     0
281
     1
  0
CLASS
  1
XRECORD
  2
AcDbXrecord
  3
AutoCAD 2000
 90
    32768
280
     0
281
     0
  0
CLASS
  1
LONG_TRANSACTION
  2
AcDbLongTransaction
  3
AutoCAD 2000
 90
    32768
280
     0
281
     0
  0
CLASS
  1
LWPOLYLINE
  2
AcDbPolyline
  3
AutoCAD 2000
 90
    32768
280
     0
281
     1
  0
CLASS
  1
HATCH
  2
AcDbHatch
  3
AutoCAD 2000
 90
    32768
280
     0
281
     1
  0
CLASS
  1
XRECORD
  2
AcDbXrecord
  3
AutoCAD 2000
 90
    32768
280
     0
281
     0
  0
CLASS
  1
LONG_TRANSACTION
  2
AcDbLongTransaction
  3
AutoCAD 2000
 90
    32768
280
     0
281
     0
  0
CLASS
  1
LWPOLYLINE
  2
AcDbPolyline
  3
AutoCAD 2000
 90
    32768
280
     0
281
     1
  0
CLASS
  1
HATCH
  2
AcDbHatch
  3
AutoCAD 2000
 90
    32768
280
     0
281
     1
  0
CLASS
  1
XRECORD
  2
AcDbXrecord
  3
AutoCAD 2000
 90
    32768
280
     0
281
     0
  0
CLASS
  1
LONG_TRANSACTION
  2
AcDbLongTransaction
  3
AutoCAD 2000
 90
    32768
280
     0
281
     0
  0
CLASS
  1
LWPOLYLINE
  2
AcDbPolyline
  3
AutoCAD 2000
 90
    32768
280
     0
281
     1
  0
CLASS
  1
HATCH
  2
AcDbHatch
  3
AutoCAD 2000
 90
    32768
280
     0
281
     1
  0
CLASS
  1
XRECORD
  2
AcDbXrecord
  3
AutoCAD 2000
 90
    32768
280
     0
281
     0
  0
CLASS
  1
LONG_TRANSACTION
  2
AcDbLongTransaction
  3
AutoCAD 2000
 90
    32768
280
     0
281
     0
  0
CLASS
  1
LWPOLYLINE
  2
AcDbPolyline
  3
AutoCAD 2000
 90
    32768
280
     0
281
     1
  0
CLASS
  1
HATCH
  2
AcDbHatch
  3
AutoCAD 2000
 90
    32768
280
     0
281
     1
  0
CLASS
  1
XRECORD
  2
AcDbXrecord
  3
AutoCAD 2000
 90
    32768
280
     0
281
     0
  0
CLASS
  1
LONG_TRANSACTION
  2
AcDbLongTransaction
  3
AutoCAD 2000
 90
    32768
280
     0
281
     0
  0
CLASS
  1
LWPOLYLINE
  2
AcDbPolyline
  3
AutoCAD 2000
 90
    32768
280
     0
281
     1
  0
CLASS
  1
HATCH
  2
AcDbHatch
  3
AutoCAD 2000
 90
    32768
280
     0
281
     1
  0
CLASS
  1
XRECORD
  2
AcDbXrecord
  3
AutoCAD 2000
 90
    32768
280
     0
281
     0
  0
CLASS
  1
LONG_TRANSACTION
  2
AcDbLongTransaction
  3
AutoCAD 2000
 90
    32768
280
     0
281
     0
  0
CLASS
  1
LWPOLYLINE
  2
AcDbPolyline
  3
AutoCAD 2000
 90
    32768
280
     0
281
     1
  0
CLASS
  1
HATCH
  2
AcDbHatch
  3
AutoCAD 2000
 90
    32768
280
     0
281
     1
  0
CLASS
  1
XRECORD
  2
AcDbXrecord
  3
AutoCAD 2000
 90
    32768
280
     0
281
     0
  0
CLASS
  1
LONG_TRANSACTION
  2
AcDbLongTransaction
  3
AutoCAD 2000
 90
    32768
280
     0
281
     0
  0
CLASS
  1
LWPOLYLINE
  2
AcDbPolyline
  3
AutoCAD 2000
 90
    32768
280
     0
281
     1
  0
CLASS
  1
HATCH
  2
AcDbHatch
  3
AutoCAD 2000
 90
    32768
280
     0
281
     1
  0
CLASS
  1
XRECORD
  2
AcDbXrecord
  3
AutoCAD 2000
 90
    32768
280
     0
281
     0
  0
CLASS
  1
LONG_TRANSACTION
  2
AcDbLongTransaction
  3
AutoCAD 2000
 90
    32768
280
     0
281
     0
  0
CLASS
  1
LWPOLYLINE
  2
AcDbPolyline
  3
AutoCAD 2000
 90
    32768
280
     0
281
     1
  0
CLASS
  1
HATCH
  2
AcDbHatch
  3
AutoCAD 2000
 90
    32768
280
     0
281
     1
  0
CLASS
  1
XRECORD
  2
AcDbXrecord
  3
AutoCAD 2000
 90
    32768
280
     0
281
     0
  0
CLASS
  1
LONG_TRANSACTION
  2
AcDbLongTransaction
  3
AutoCAD 2000
 90
    32768
280
     0
281
     0
  0
CLASS
  1
LWPOLYLINE
  2
AcDbPolyline
  3
AutoCAD 2000
 90
    32768
280
     0
281
     1
  0
CLASS
  1
HATCH
  2
AcDbHatch
  3
AutoCAD 2000
 90
    32768
280
     0
281
     1
  0
CLASS
  1
XRECORD
  2
AcDbXrecord
  3
AutoCAD 2000
 90
    32768
280
     0
281
     0
  0
CLASS
  1
LONG_TRANSACTION
  2
AcDbLongTransaction
  3
AutoCAD 2000
 90
    32768
280
     0
281
     0
  0
CLASS
  1
LWPOLYLINE
  2
AcDbPolyline
  3
AutoCAD 2000
 90
    32768
280
     0
281
     1
  0
CLASS
  1
HATCH
  2
AcDbHatch
  3
AutoCAD 2000
 90
    32768
280
     0
281
     1
  0
CLASS
  1
XRECORD
  2
AcDbXrecord
  3
AutoCAD 2000
 90
    32768
280
     0
281
     0
  0
CLASS
  1
LONG_TRANSACTION
  2
AcDbLongTransaction
  3
AutoCAD 2000
 90
    32768
280
     0
281
     0
  0
CLASS
  1
LWPOLYLINE
  2
AcDbPolyline
  3
AutoCAD 2000
 90
    32768
280
     0
281
     1
  0
CLASS
  1
HATCH
  2
AcDbHatch
  3
AutoCAD 2000
 90
    32768
280
     0
281
     1
  0
CLASS
  1
XRECORD
  2
AcDbXrecord
  3
AutoCAD 2000
 90
    32768
280
     0
281
     0
  0
CLASS
  1
LONG_TRANSACTION
  2
AcDbLongTransaction
  3
AutoCAD 2000
 90
    32768
280
     0
281
     0
  0
CLASS
  1
LWPOLYLINE
  2
AcDbPolyline
  3
AutoCAD 2000
 90
    32768
280
     0
281
     1
  0
CLASS
  1
HATCH
  2
AcDbHatch
  3
AutoCAD 2000
 90
    32768
280
     0
281
     1
  0
CLASS
  1
XRECORD
  2
AcDbXrecord
  3
AutoCAD 2000
 90
    32768
280
     0
281
     0
  0
CLASS
  1
LONG_TRANSACTION
  2
AcDbLongTransaction
  3
AutoCAD 2000
 90
    32768
280
     0
281
     0
  0
CLASS
  1
LWPOLYLINE
  2
AcDbPolyline
  3
AutoCAD 2000
 90
    32768
280
     0
281
     1
  0
CLASS
  1
HATCH
  2
AcDbHatch
  3
AutoCAD 2000
 90
    32768
280
     0
281
     1
  0
CLASS
  1
XRECORD
  2
AcDbXrecord
  3
AutoCAD 2000
 90
    32768
280
     0
281
     0
  0
CLASS
  1
LONG_TRANSACTION
  2
AcDbLongTransaction
  3
AutoCAD 2000
 90
    32768
280
     0
281
     0
  0
CLASS
  1
LWPOLYLINE
  2
AcDbPolyline
  3
AutoCAD 2000
 90
    32768
280
     0
281
     1
  0
CLASS
  1
HATCH
  2
AcDbHatch
  3
AutoCAD 2000
 90
    32768
280
     0
281
     1
  0
CLASS
  1
XRECORD
  2
AcDbXrecord
  3
AutoCAD 2000
 90
    32768
280
     0
281
     0
  0
CLASS
  1
LONG_TRANSACTION
  2
AcDbLongTransaction
  3
AutoCAD 2000
 90
    32768
280
     0
281
     0
  0
CLASS
  1
LWPOLYLINE
  2
AcDbPolyline
  3
AutoCAD 2000
 90
    32768
280
     0
281
     1
  0
CLASS
  1
HATCH
  2
AcDbHatch
  3
AutoCAD 2000
 90
    32768
280
     0
281
     1
  0
CLASS
  1
XRECORD
  2
AcDbXrecord
  3
AutoCAD 2000
 90
    32768
280
     0
281
     0
  0
CLASS
  1
LONG_TRANSACTION
  2
AcDbLongTransaction
  3
AutoCAD 2000
 90
    32768
280
     0
281
     0
  0
CLASS
  1
LWPOLYLINE
  2
AcDbPolyline
  3
AutoCAD 2000
 90
    32768
280
     0
281
     1
  0
CLASS
  1
HATCH
  2
AcDbHatch
  3
AutoCAD 2000
 90
    32768
280
     0
281
     1
  0
CLASS
  1
XRECORD
  2
AcDbXrecord
  3
AutoCAD 2000
 90
    32768
280
     0
281
     0
  0
CLASS
  1
LONG_TRANSACTION
  2
AcDbLongTransaction
  3
AutoCAD 2000
 90
    32768
280
     0
281
     0
  0
CLASS
  1
LWPOLYLINE
  2
AcDbPolyline
  3
AutoCAD 2000
 90
    32768
280
     0
281
     1
  0
CLASS
  1
HATCH
  2
AcDbHatch
  3
AutoCAD 2000
 90
    32768
280
     0
281
     1
  0
CLASS
  1
XRECORD
  2
AcDbXrecord
  3
AutoCAD 2000
 90
    32768
280
     0
281
     0
  0
CLASS
  1
LONG_TRANSACTION
  2
AcDbLongTransaction
  3
AutoCAD 2000
 90
    32768
280
     0
281
     0
  0
CLASS
  1
LWPOLYLINE
  2
AcDbPolyline
  3
AutoCAD 2000
 90
    32768
280
     0
281
     1
  0
CLASS
  1
HATCH
  2
AcDbHatch
  3
AutoCAD 2000
 90
    32768
280
     0
281
     1
  0
CLASS
  1
XRECORD
  2
AcDbXrecord
  3
AutoCAD 2000
 90
    32768
280
     0
281
     0
  0
CLASS
  1
LONG_TRANSACTION
  2
AcDbLongTransaction
  3
AutoCAD 2000
 90
    32768
280
     0
281
     0
  0
CLASS
  1
LWPOLYLINE
  2
AcDbPolyline
  3
AutoCAD 2000
 90
    32768
280
     0
281
     1
  0
CLASS
  1
HATCH
  2
AcDbHatch
  3
AutoCAD 2000
 90
    32768
280
     0
281
     1
  0
CLASS
  1
XRECORD
  2
AcDbXrecord
  3
AutoCAD 2000
 90
    32768
280
     0
281
     0
  0
CLASS
  1
LONG_TRANSACTION
  2
AcDbLongTransaction
  3
AutoCAD 2000
 90
    32768
280
     0
281
     0
  0
CLASS
  1
LWPOLYLINE
  2
AcDbPolyline
  3
AutoCAD 2000
 90
    32768
280
     0
281
     1
  0
CLASS
  1
HATCH
  2
AcDbHatch
  3
AutoCAD 2000
 90
    32768
280
     0
281
     1
  0
CLASS
  1
XRECORD
  2
AcDbXrecord
  3
AutoCAD 2000
 90
    32768
280
     0
281
     0
  0
CLASS
  1
LONG_TRANSACTION
  2
AcDbLongTransaction
  3
AutoCAD 2000
 90
    32768
280
     0
281
     0
  0
CLASS
  1
LWPOLYLINE
  2
AcDbPolyline
  3
AutoCAD 2000
 90
    32768
280
     0
281
     1
  0
CLASS
  1
HATCH
  2
AcDbHatch
  3
AutoCAD 2000
 90
    32768
280
     0
281
     1
  0
CLASS
  1
XRECORD
  2
AcDbXrecord
  3
AutoCAD 2000
 90
    32768
280
     0
281
     0
  0
CLASS
  1
LONG_TRANSACTION
  2
AcDbLongTransaction
  3
AutoCAD 2000
 90
    32768
280
     0
281
     0
  0
CLASS
  1
LWPOLYLINE
  2
AcDbPolyline
  3
AutoCAD 2000
 90
    32768
280
     0
281
     1
  0
CLASS
  1
HATCH
  2
AcDbHatch
  3
AutoCAD 2000
 90
    32768
280
     0
281
     1
  0
CLASS
  1
XRECORD
  2
AcDbXrecord
  3
AutoCAD 2000
 90
    32768
280
     0
281
     0
  0
CLASS
  1
LONG_TRANSACTION
  2
AcDbLongTransaction
  3
AutoCAD 2000
 90
    32768
280
     0
281
     0
  0
CLASS
  1
LWPOLYLINE
  2
AcDbPolyline
  3
AutoCAD 2000
 90
    32768
280
     0
281
     1
  0
CLASS
  1
HATCH
  2
AcDbHatch
  3
AutoCAD 2000
 90
    32768
280
     0
281
     1
  0
CLASS
  1
XRECORD
  2
AcDbXrecord
  3
AutoCAD 2000
 90
    32768
280
     0
281
     0
  0
CLASS
  1
LONG_TRANSACTION
  2
AcDbLongTransaction
  3
AutoCAD 2000
 90
    32768
280
     0
281
     0
  0
CLASS
  1
LWPOLYLINE
  2
AcDbPolyline
  3
AutoCAD 2000
 90
    32768
280
     0
281
     1
  0
CLASS
  1
HATCH
  2
AcDbHatch
  3
AutoCAD 2000
 90
    32768
280
     0
281
     1
  0
CLASS
  1
XRECORD
  2
AcDbXrecord
  3
AutoCAD 2000
 90
    32768
280
     0
281
     0
  0
CLASS
  1
LONG_TRANSACTION
  2
AcDbLongTransaction
  3
AutoCAD 2000
 90
    32768
280
     0
281
     0
  0
CLASS
  1
LWPOLYLINE
  2
AcDbPolyline
  3
AutoCAD 2000
 90
    32768
280
     0
281
     1
  0
CLASS
  1
HATCH
  2
AcDbHatch
  3
AutoCAD 2000
 90
    32768
280
     0
281
     1
  0
CLASS
  1
XRECORD
  2
AcDbXrecord
  3
AutoCAD 2000
 90
    32768
280
     0
281
     0
  0
CLASS
  1
LONG_TRANSACTION
  2
AcDbLongTransaction
  3
AutoCAD 2000
 90
    32768
280
     0
281
     0
  0
CLASS
  1
LWPOLYLINE
  2
AcDbPolyline
  3
AutoCAD 2000
 90
    32768
280
     0
281
     1
  0
CLASS
  1
HATCH
  2
AcDbHatch
  3
AutoCAD 2000
 90
    32768
280
     0
281
     1
  0
CLASS
  1
XRECORD
  2
AcDbXrecord
  3
AutoCAD 2000
 90
    32768
280
     0
281
     0
  0
CLASS
  1
LONG_TRANSACTION
  2
AcDbLongTransaction
  3
AutoCAD 2000
 90
    32768
280
     0
281
     0
  0
CLASS
  1
LWPOLYLINE
  2
AcDbPolyline
  3
AutoCAD 2000
 90
    32768
280
     0
281
     1
  0
CLASS
  1
HATCH
  2
AcDbHatch
  3
AutoCAD 2000
 90
    32768
280
     0
281
     1
  0
CLASS
  1
XRECORD
  2
AcDbXrecord
  3
AutoCAD 2000
 90
    32768
280
     0
281
     0
  0
CLASS
  1
LONG_TRANSACTION
  2
AcDbLongTransaction
  3
AutoCAD 2000
 90
    32768
280
     0
281
     0
  0
CLASS
  1
LWPOLYLINE
  2
AcDbPolyline
  3
AutoCAD 2000
 90
    32768
280
     0
281
     1
  0
CLASS
  1
HATCH
  2
AcDbHatch
  3
AutoCAD 2000
 90
    32768
280
     0
281
     1
  0
CLASS
  1
XRECORD
  2
AcDbXrecord
  3
AutoCAD 2000
 90
    32768
280
     0
281
     0
  0
CLASS
  1
LONG_TRANSACTION
  2
AcDbLongTransaction
  3
AutoCAD 2000
 90
    32768
280
     0
281
     0
  0
CLASS
  1
LWPOLYLINE
  2
AcDbPolyline
  3
AutoCAD 2000
 90
    32768
280
     0
281
     1
  0
CLASS
  1
HATCH
  2
AcDbHatch
  3
AutoCAD 2000
 90
    32768
280
     0
281
     1
  0
CLASS
  1
XRECORD
  2
AcDbXrecord
  3
AutoCAD 2000
 90
    32768
280
     0
281
     0
  0
CLASS
  1
LONG_TRANSACTION
  2
AcDbLongTransaction
  3
AutoCAD 2000
 90
    32768
280
     0
281
     0
  0
CLASS
  1
LWPOLYLINE
  2
AcDbPolyline
  3
AutoCAD 2000
 90
    32768
280
     0
281
     1
  0
CLASS
  1
HATCH
  2
AcDbHatch
  3
AutoCAD 2000
 90
    32768
280
     0
281
     1
  0
CLASS
  1
XRECORD
  2
AcDbXrecord
  3
AutoCAD 2000
 90
    32768
280
     0
281
     0
  0
CLASS
  1
LONG_TRANSACTION
  2
AcDbLongTransaction
  3
AutoCAD 2000
 90
    32768
280
     0
281
     0
  0
CLASS
  1
LWPOLYLINE
  2
AcDbPolyline
  3
AutoCAD 2000
 90
    32768
280
     0
281
     1
  0
CLASS
  1
HATCH
  2
AcDbHatch
  3
AutoCAD 2000
 90
    32768
280
     0
281
     1
  0
CLASS
  1
XRECORD
  2
AcDbXrecord
  3
AutoCAD 2000
 90
    32768
280
     0
281
     0
  0
CLASS
  1
LONG_TRANSACTION
  2
AcDbLongTransaction
  3
AutoCAD 2000
 90
    32768
280
     0
281
     0
  0
CLASS
  1
LWPOLYLINE
  2
AcDbPolyline
  3
AutoCAD 2000
 90
    32768
280
     0
281
     1
  0
CLASS
  1
HATCH
  2
AcDbHatch
  3
AutoCAD 2000
 90
    32768
280
     0
281
     1
  0
CLASS
  1
XRECORD
  2
AcDbXrecord
  3
AutoCAD 2000
 90
    32768
280
     0
281
     0
  0
CLASS
  1
LONG_TRANSACTION
  2
AcDbLongTransaction
  3
AutoCAD 2000
 90
    32768
280
     0
281
     0
  0
CLASS
  1
LWPOLYLINE
  2
AcDbPolyline
  3
AutoCAD 2000
 90
    32768
280
     0
281
     1
  0
CLASS
  1
HATCH
  2
AcDbHatch
  3
AutoCAD 2000
 90
    32768
280
     0
281
     1
  0
CLASS
  1
XRECORD
  2
AcDbXrecord
  3
AutoCAD 2000
 90
    32768
280
     0
281
     0
  0
CLASS
  1
LONG_TRANSACTION
  2
AcDbLongTransaction
  3
AutoCAD 2000
 90
    32768
280
     0
281
     0
  0
CLASS
  1
LWPOLYLINE
  2
AcDbPolyline
  3
AutoCAD 2000
 90
    32768
280
     0
281
     1
  0
CLASS
  1
HATCH
  2
AcDbHatch
  3
AutoCAD 2000
 90
    32768
280
     0
281
     1
  0
CLASS
  1
XRECORD
  2
AcDbXrecord
  3
AutoCAD 2000
 90
    32768
280
     0
281
     0
  0
CLASS
  1
LONG_TRANSACTION
  2
AcDbLongTransaction
  3
AutoCAD 2000
 90
    32768
280
     0
281
     0
  0
CLASS
  1
LWPOLYLINE
  2
AcDbPolyline
  3
AutoCAD 2000
 90
    32768
280
     0
281
     1
  0
CLASS
  1
HATCH
  2
AcDbHatch
  3
AutoCAD 2000
 90
    32768
280
     0
281
     1
  0
CLASS
  1
XRECORD
  2
AcDbXrecord
  3
AutoCAD 2000
 90
    32768
280
     0
281
     0
  0
CLASS
  1
LONG_TRANSACTION
  2
AcDbLongTransaction
  3
AutoCAD 2000
 90
    32768
280
     0
281
     0
  0
CLASS
  1
LWPOLYLINE
  2
AcDbPolyline
  3
AutoCAD 2000
 90
    32768
280
     0
281
     1
  0
CLASS
  1
HATCH
  2
AcDbHatch
  3
AutoCAD 2000
 90
    32768
280
     0
281
     1
  0
CLASS
  1
XRECORD
  2
AcDbXrecord
  3
AutoCAD 2000
 90
    32768
280
     0
281
     0
  0
CLASS
  1
LONG_TRANSACTION
  2
AcDbLongTransaction
  3
AutoCAD 2000
 90
    32768
280
     0
281
     0
  0
CLASS
  1
LWPOLYLINE
  2
AcDbPolyline
  3
AutoCAD 2000
 90
    32768
280
     0
281
     1
  0
CLASS
  1
HATCH
  2
AcDbHatch
  3
AutoCAD 2000
 90
    32768
280
     0
281
     1
  0
CLASS
  1
XRECORD
  2
AcDbXrecord
  3
AutoCAD 2000
 90
    32768
280
     0
281
     0
  0
CLASS
  1
LONG_TRANSACTION
  2
AcDbLongTransaction
  3
AutoCAD 2000
 90
    32768
280
     0
281
     0
  0
CLASS
  1
LWPOLYLINE
  2
AcDbPolyline
  3
AutoCAD 2000
 90
    32768
280
     0
281
     1
  0
CLASS
  1
HATCH
  2
AcDbHatch
  3
AutoCAD 2000
 90
    32768
280
     0
281
     1
  0
CLASS
  1
XRECORD
  2
AcDbXrecord
  3
AutoCAD 2000
 90
    32768
280
     0
281
     0
  0
CLASS
  1
LONG_TRANSACTION
  2
AcDbLongTransaction
  3
AutoCAD 2000
 90
    32768
280
     0
281
     0
  0
CLASS
  1
LWPOLYLINE
  2
AcDbPolyline
  3
AutoCAD 2000
 90
    32768
280
     0
281
     1
  0
CLASS
  1
HATCH
  2
AcDbHatch
  3
AutoCAD 2000
 90
    32768
280
     0
281
     1
  0
CLASS
  1
XRECORD
  2
AcDbXrecord
  3
AutoCAD 2000
 90
    32768
280
     0
281
     0
  0
CLASS
  1
LONG_TRANSACTION
  2
AcDbLongTransaction
  3
AutoCAD 2000
 90
    32768
280
     0
281
     0
  0
CLASS
  1
LWPOLYLINE
  2
AcDbPolyline
  3
AutoCAD 2000
 90
    32768
280
     0
281
     1
  0
CLASS
  1
HATCH
  2
AcDbHatch
  3
AutoCAD 2000
 90
    32768
280
     0
281
     1
  0
CLASS
  1
XRECORD
  2
AcDbXrecord
  3
AutoCAD 2000
 90
    32768
280
     0
281
     0
  0
CLASS
  1
LONG_TRANSACTION
  2
AcDbLongTransaction
  3
AutoCAD 2000
 90
    32768
280
     0
281
     0
  0
CLASS
  1
LWPOLYLINE
  2
AcDbPolyline
  3
AutoCAD 2000
 90
    32768
280
     0
281
     1
  0
CLASS
  1
HATCH
  2
AcDbHatch
  3
AutoCAD 2000
 90
    32768
280
     0
281
     1
  0
CLASS
  1
XRECORD
  2
AcDbXrecord
  3
AutoCAD 2000
 90
    32768
280
     0
281
     0
  0
CLASS
  1
LONG_TRANSACTION
  2
AcDbLongTransaction
  3
AutoCAD 2000
 90
    32768
280
     0
281
     0
  0
CLASS
  1
LWPOLYLINE
  2
AcDbPolyline
  3
AutoCAD 2000
 90
    32768
280
     0
281
     1
  0
CLASS
  1
HATCH
  2
AcDbHatch
  3
AutoCAD 2000
 90
    32768
280
     0
281
     1
  0
CLASS
  1
XRECORD
  2
AcDbXrecord
  3
AutoCAD 2000
 90
    32768
280
     0
281
     0
  0
CLASS
  1
LONG_TRANSACTION
  2
AcDbLongTransaction
  3
AutoCAD 2000
 90
    32768
280
     0
281
     0
  0
CLASS
  1
LWPOLYLINE
  2
AcDbPolyline
  3
AutoCAD 2000
 90
    32768
280
     0
281
     1
  0
CLASS
  1
HATCH
  2
AcDbHatch
  3
AutoCAD 2000
 90
    32768
280
     0
281
     1
  0
CLASS
  1
XRECORD
  2
AcDbXrecord
  3
AutoCAD 2000
 90
    32768
280
     0
281
     0
  0
CLASS
  1
LONG_TRANSACTION
  2
AcDbLongTransaction
  3
AutoCAD 2000
 90
    32768
280
     0
281
     0
  0
CLASS
  1
LWPOLYLINE
  2
AcDbPolyline
  3
AutoCAD 2000
 90
    32768
280
     0
281
     1
  0
CLASS
  1
HATCH
  2
AcDbHatch
  3
AutoCAD 2000
 90
    32768
280
     0
281
     1
  0
CLASS
  1
XRECORD
  2
AcDbXrecord
  3
AutoCAD 2000
 90
    32768
280
     0
281
     0
  0
ENDSEC
  0
SECTION
  2
TABLES
  0
TABLE
  2
VPORT
  5
8
330
0
100
AcDbSymbolTable
 70
     3
  0
VPORT
  5
BE26
330
8
100
AcDbSymbolTableRecord
100
AcDbViewportTableRecord
  2
*Active
 70
     0
 10
0.0
 20
0.0
 11
1.0
 21
1.0
 12
429.2669790812389
 22
322.7176266818797
 13
0.0
 23
0.0
 14
168.0
 24
168.0
 15
0.0
 25
0.0
 16
0.0
 26
0.0
 36
1.0
 17
0.0
 27
0.0
 37
0.0
 40
1112.434635663491
 41
1.287220026350461
 42
50.0
 43
0.0
 44
0.0
 50
0.0
 51
0.0
 71
     0
 72
   100
 73
     1
 74
     0
 75
     0
 76
     0
 77
     0
 78
     1
281
     0
 65
     1
110
0.0
120
0.0
130
0.0
111
1.0
121
0.0
131
0.0
112
0.0
122
1.0
132
0.0
 79
     0
146
0.0
  0
ENDTAB
  0
TABLE
  2
LTYPE
  5
5
330
0
100
AcDbSymbolTable
 70
     4
  0
LTYPE
  5
14
330
5
100
AcDbSymbolTableRecord
100
AcDbLinetypeTableRecord
  2
BYBLOCK
 70
     0
  3

 72
    65
 73
     0
 40
0.0
  0
LTYPE
  5
15
330
5
100
AcDbSymbolTableRecord
100
AcDbLinetypeTableRecord
  2
BYLAYER
 70
     0
  3

 72
    65
 73
     0
 40
0.0
  0
LTYPE
  5
16
330
5
100
AcDbSymbolTableRecord
100
AcDbLinetypeTableRecord
  2
CONTINUOUS
 70
     0
  3
Solid line
 72
    65
 73
     0
 40
0.0
  0
LTYPE
  5
6E
330
5
100
AcDbSymbolTableRecord
100
AcDbLinetypeTableRecord
  2
CENTER
 70
     0
  3
____ _ ____ _ ____ _ ____ _ ____ _ ____ _ ____ 
 72
    65
 73
     4
 40
2.0
 49
1.25
 74
     0
 49
-0.25
 74
     0
 49
0.25
 74
     0
 49
-0.25
 74
     0
  0
LTYPE
  5
6F
330
5
100
AcDbSymbolTableRecord
100
AcDbLinetypeTableRecord
  2
HIDDEN
 70
     0
  3
__ __ __ __ __ __ __ __ __ __ __ __ __ __ __ __
 72
    65
 73
     2
 40
0.375
 49
0.25
 74
     0
 49
-0.125
 74
     0
  0
LTYPE
  5
910F
330
5
100
AcDbSymbolTableRecord
100
AcDbLinetypeTableRecord
  2
HIDDEN2
 70
     0
  3
Hidden (.5x) _ _ _ _ _ _ _ _ _ _ _ _ _ _ _ _ _ 
 72
    65
 73
     2
 40
4.7625
 49
3.174999999999999
 74
     4
 75
     0
340
0
 46
0.0
 50
0.0
 44
0.0
 45
0.0
 49
-1.587499999999999
 74
     4
 75
     0
340
0
 46
0.0
 50
0.0
 44
0.0
 45
0.0
  0
ENDTAB
  0
TABLE
  2
LAYER
  5
2
102
{ACAD_XDICTIONARY
360
6468
102
}
330
0
100
AcDbSymbolTable
 70
    14
  0
LAYER
  5
F
330
2
100
AcDbSymbolTableRecord
100
AcDbLayerTableRecord
  2
0
 70
     0
 62
     7
  6
CONTINUOUS
370
    -3
390
2C1
  0
LAYER
  5
71
330
2
100
AcDbSymbolTableRecord
100
AcDbLayerTableRecord
  2
MEASURE
 70
     0
 62
     9
  6
CONTINUOUS
370
    -3
390
2C1
  0
LAYER
  5
72
330
2
100
AcDbSymbolTableRecord
100
AcDbLayerTableRecord
  2
DEFPOINTS
 70
     0
 62
     7
  6
CONTINUOUS
290
     0
370
    -3
390
2C1
  0
LAYER
  5
74
330
2
100
AcDbSymbolTableRecord
100
AcDbLayerTableRecord
  2
CENTER
 70
     0
 62
     9
  6
CENTER
370
    -3
390
2C1
  0
LAYER
  5
BE24
330
2
100
AcDbSymbolTableRecord
100
AcDbLayerTableRecord
  2
1
 70
     0
 62
     7
  6
CONTINUOUS
370
    -3
390
2C1
  0
ENDTAB
  0
TABLE
  2
STYLE
  5
3
330
0
100
AcDbSymbolTable
 70
     5
  0
STYLE
  5
10
330
3
100
AcDbSymbolTableRecord
100
AcDbTextStyleTableRecord
  2
STANDARD
 70
     0
 40
0.0
 41
0.8
 50
0.0
 71
     0
 42
84.17508417508416
  3
TXT
  4
bigfont.shx
  0
STYLE
  5
63
330
3
100
AcDbSymbolTableRecord
100
AcDbTextStyleTableRecord
  2
AD-STANDARD
 70
     0
 40
0.0
 41
0.8
 50
0.0
 71
     0
 42
3.5
  3
C:\Program Files\AutoCAD LT\romans.shx
  4
bigfont.shx
  0
ENDTAB
  0
TABLE
  2
VIEW
  5
6
330
0
100
AcDbSymbolTable
 70
     0
  0
ENDTAB
  0
TABLE
  2
UCS
  5
7
330
0
100
AcDbSymbolTable
 70
     0
  0
ENDTAB
  0
TABLE
  2
APPID
  5
9
330
0
100
AcDbSymbolTable
 70
     5
  0
APPID
  5
11
330
9
100
AcDbSymbolTableRecord
100
AcDbRegAppTableRecord
  2
ACAD
 70
     0
  0
APPID
  5
22A
330
9
100
AcDbSymbolTableRecord
100
AcDbRegAppTableRecord
  2
CONTENTTABDATA
 70
     0
  0
APPID
  5
22B
330
9
100
AcDbSymbolTableRecord
100
AcDbRegAppTableRecord
  2
CONTENTCURRENTTAB
 70
     0
  0
APPID
  5
232
330
9
100
AcDbSymbolTableRecord
100
AcDbRegAppTableRecord
  2
CONTENTBLOCKDESCRIPTION
 70
     0
  0
APPID
  5
233
330
9
100
AcDbSymbolTableRecord
100
AcDbRegAppTableRecord
  2
CONTENTBLOCKICON
 70
     0
  0
ENDTAB
  0
TABLE
  2
DIMSTYLE
  5
A
330
0
100
AcDbSymbolTable
 70
     2
100
AcDbDimStyleTable
 71
     1
340
1D
  0
DIMSTYLE
105
1D
330
A
100
AcDbSymbolTableRecord
100
AcDbDimStyleTableRecord
  2
STANDARD
 70
     0
340
10
  0
ENDTAB
  0
TABLE
  2
BLOCK_RECORD
  5
1
330
0
100
AcDbSymbolTable
 70
    26
  0
BLOCK_RECORD
  5
1A
102
{ACAD_XDICTIONARY
360
3EE
102
}
330
1
100
AcDbSymbolTableRecord
100
AcDbBlockTableRecord
  2
*MODEL_SPACE
340
2C4
  0
BLOCK_RECORD
  5
90F3
330
1
100
AcDbSymbolTableRecord
100
AcDbBlockTableRecord
  2
*Paper_Space
340
90F2
  0
BLOCK_RECORD
  5
3E5B
330
1
100
AcDbSymbolTableRecord
100
AcDbBlockTableRecord
  2
PWF12
340
0
102
{BLKREFS
331
BD32
331
BD34
102
}
  0
BLOCK_RECORD
  5
3E61
330
1
100
AcDbSymbolTableRecord
100
AcDbBlockTableRecord
  2
PWS12
340
0
102
{BLKREFS
331
BD36
331
BD38
102
}
  0
BLOCK_RECORD
  5
3E6A
330
1
100
AcDbSymbolTableRecord
100
AcDbBlockTableRecord
  2
CBS1200
340
0
102
{BLKREFS
331
BD37
331
BD39
102
}
  0
BLOCK_RECORD
  5
3E77
330
1
100
AcDbSymbolTableRecord
100
AcDbBlockTableRecord
  2
CBF12
340
0
102
{BLKREFS
331
BD33
331
BD35
102
}
  0
ENDTAB
  0
ENDSEC
  0
SECTION
  2
BLOCKS
  0
BLOCK
  5
1B
330
1A
100
AcDbEntity
  8
0
100
AcDbBlockBegin
  2
*MODEL_SPACE
 70
     0
 10
0.0
 20
0.0
 30
0.0
  3
*MODEL_SPACE
  1

  0
ENDBLK
  5
1C
330
1A
100
AcDbEntity
  8
0
100
AcDbBlockEnd
  0
BLOCK
  5
9100
330
90F3
100
AcDbEntity
 67
     1
  8
0
100
AcDbBlockBegin
  2
*Paper_Space
 70
     0
 10
0.0
 20
0.0
 30
0.0
  3
*Paper_Space
  1

  0
ENDBLK
  5
9101
330
90F3
100
AcDbEntity
 67
     1
  8
0
100
AcDbBlockEnd
  0
BLOCK
  5
3E5D
330
3E5B
100
AcDbEntity
  8
0
100
AcDbBlockBegin
  2
PWF12
 70
     0
 10
0.0
 20
0.0
 30
0.0
  3
PWF12
  1

  0
CIRCLE
  5
3E5C
330
3E5B
100
AcDbEntity
  8
0
 48
0.3
100
AcDbCircle
 10
0.0
 20
0.0
 30
0.0
 40
12.0
  0
ENDBLK
  5
3E5E
330
3E5B
100
AcDbEntity
  8
0
100
AcDbBlockEnd
  0
BLOCK
  5
3E66
330
3E61
100
AcDbEntity
  8
0
100
AcDbBlockBegin
  2
PWS12
 70
     0
 10
0.0
 20
0.0
 30
0.0
  3
PWS12
  1

  0
LINE
  5
3E62
330
3E61
100
AcDbEntity
  8
0
 48
0.3
100
AcDbLine
 10
-2.0
 20
10.5
 30
0.0
 11
-2.0
 21
-13.5
 31
0.0
  0
LINE
  5
3E63
330
3E61
100
AcDbEntity
  8
0
 48
0.3
100
AcDbLine
 10
0.5
 20
10.5
 30
0.0
 11
0.5
 21
-13.5
 31
0.0
  0
LINE
  5
3E64
330
3E61
100
AcDbEntity
  8
0
 48
0.3
100
AcDbLine
 10
0.5
 20
-13.5
 30
0.0
 11
-2.0
 21
-13.5
 31
0.0
  0
LINE
  5
3E65
330
3E61
100
AcDbEntity
  8
0
 48
0.3
100
AcDbLine
 10
-2.0
 20
10.5
 30
0.0
 11
0.5
 21
10.5
 31
0.0
  0
ENDBLK
  5
3E67
330
3E61
100
AcDbEntity
  8
0
100
AcDbBlockEnd
  0
BLOCK
  5
3E73
330
3E6A
100
AcDbEntity
  8
0
100
AcDbBlockBegin
  2
CBS1200
 70
     0
 10
0.0
 20
0.0
 30
0.0
  3
CBS1200
  1

  0
LINE
  5
3E6B
330
3E6A
100
AcDbEntity
  8
0
 48
0.3
100
AcDbLine
 10
9.0
 20
0.0
 30
0.0
 11
-9.0
 21
0.0
 31
0.0
  0
LINE
  5
3E6C
330
3E6A
100
AcDbEntity
  8
0
 48
0.3
100
AcDbLine
 10
7.7875638694033
 20
11.99999999999998
 30
0.0
 11
-7.7875638694033
 21
11.99999999999998
 31
0.0
  0
LINE
  5
3E6D
330
3E6A
100
AcDbEntity
  8
0
 48
0.3
100
AcDbLine
 10
-9.0
 20
0.0
 30
0.0
 11
-9.0
 21
11.29999999999998
 31
0.0
  0
LINE
  5
3E6E
330
3E6A
100
AcDbEntity
  8
0
 48
0.3
100
AcDbLine
 10
-5.0
 20
11.29999999999998
 30
0.0
 11
-9.0
 21
11.29999999999998
 31
0.0
  0
LINE
  5
3E6F
330
3E6A
100
AcDbEntity
  8
0
 48
0.3
100
AcDbLine
 10
-9.0
 20
11.29999999999998
 30
0.0
 11
-7.7875638694033
 21
11.99999999999998
 31
0.0
  0
LINE
  5
3E70
330
3E6A
100
AcDbEntity
  8
0
 48
0.3
100
AcDbLine
 10
9.0
 20
0.0
 30
0.0
 11
9.0
 21
11.29999999999998
 31
0.0
  0
LINE
  5
3E71
330
3E6A
100
AcDbEntity
  8
0
 48
0.3
100
AcDbLine
 10
9.0
 20
11.29999999999998
 30
0.0
 11
5.0
 21
11.29999999999998
 31
0.0
  0
LINE
  5
3E72
330
3E6A
100
AcDbEntity
  8
0
 48
0.3
100
AcDbLine
 10
9.0
 20
11.29999999999998
 30
0.0
 11
7.7875638694033
 21
11.99999999999998
 31
0.0
  0
ENDBLK
  5
3E74
330
3E6A
100
AcDbEntity
  8
0
100
AcDbBlockEnd
  0
BLOCK
  5
3E80
330
3E77
100
AcDbEntity
  8
0
100
AcDbBlockBegin
  2
CBF12
 70
     0
 10
0.0
 20
0.0
 30
0.0
  3
CBF12
  1

  0
CIRCLE
  5
3E78
330
3E77
100
AcDbEntity
  8
0
  6
Continuous
100
AcDbCircle
 10
0.0000187875812969
 20
0.0000034482758338
 30
0.0
 40
9.0
  0
CIRCLE
  5
3E79
330
3E77
100
AcDbEntity
  8
0
  6
Continuous
100
AcDbCircle
 10
0.0000187875812969
 20
0.0000034482758338
 30
0.0
 40
7.787563869403307
  0
LINE
  5
3E7A
330
3E77
100
AcDbEntity
  8
0
  6
Continuous
100
AcDbLine
 10
-2.886731212418652
 20
-4.99999422047361
 30
0.0
 11
2.886768787581303
 21
-4.999994220473624
 31
0.0
  0
LINE
  5
3E7B
330
3E77
100
AcDbEntity
  8
0
  6
Continuous
100
AcDbLine
 10
2.886768787581303
 20
5.000001117025291
 30
0.0
 11
-2.886731212418652
 21
5.000001117025291
 31
0.0
  0
LINE
  5
3E7C
330
3E77
100
AcDbEntity
  8
0
  6
Continuous
100
AcDbLine
 10
-5.773481212418658
 20
0.0000034482758338
 30
0.0
 11
-2.886731212418652
 21
-4.99999422047361
 31
0.0
  0
LINE
  5
3E7D
330
3E77
100
AcDbEntity
  8
0
  6
Continuous
100
AcDbLine
 10
-2.886731212418652
 20
5.000001117025291
 30
0.0
 11
-5.773481212418658
 21
0.0000034482758338
 31
0.0
  0
LINE
  5
3E7E
330
3E77
100
AcDbEntity
  8
0
  6
Continuous
100
AcDbLine
 10
2.886768787581303
 20
-4.999994220473624
 30
0.0
 11
5.773518787581309
 21
0.0000034482758338
 31
0.0
  0
LINE
  5
3E7F
330
3E77
100
AcDbEntity
  8
0
  6
Continuous
100
AcDbLine
 10
5.773518787581309
 20
0.0000034482758338
 30
0.0
 11
2.886768787581303
 21
5.000001117025291
 31
0.0
  0
ENDBLK
  5
3E81
330
3E77
100
AcDbEntity
  8
0
100
AcDbBlockEnd
  0
ENDSEC
  0
SECTION
  2
ENTITIES
  0
MTEXT
  5
86E
330
1A
100
AcDbEntity
  8
MEASURE
 62
     2
100
AcDbMText
 10
5192.317162016323
 20
5007.035605496573
 30
0.0
 40
3.5
 41
18.7814
 71
     7
 72
     1
  1

  7
AD-STANDARD
 73
     1
 44
1.0
1001
ACAD
1000
MTEXTBEGIN
1070
    73
1070
     1
1070
    44
1040
1.0
1070
    74
1070
     0
1000
MTEXTEND
1000
MTEXTBEGIN
1070
    73
1070
     1
1070
    44
1040
1.0
1070
    74
1070
     0
1000
MTEXTEND
1000
MTEXTBEGIN
1070
    73
1070
     1
1070
    44
1040
1.0
1070
    74
1070
     0
1000
MTEXTEND
1000
MTEXTBEGIN
1070
    73
1070
     1
1070
    44
1040
1.0
1070
    74
1070
     0
1000
MTEXTEND
1000
MTEXTBEGIN
1070
    73
1070
     1
1070
    44
1040
1.0
1070
    74
1070
     0
1000
MTEXTEND
1000
MTEXTBEGIN
1070
    73
1070
     1
1070
    44
1040
1.0
1070
    74
1070
     0
1000
MTEXTEND
1000
MTEXTBEGIN
1070
    73
1070
     1
1070
    44
1040
1.0
1070
    74
1070
     0
1000
MTEXTEND
1000
MTEXTBEGIN
1070
    73
1070
     1
1070
    44
1040
1.0
1070
    74
1070
     0
1000
MTEXTEND
1000
MTEXTBEGIN
1070
    73
1070
     1
1070
    44
1040
1.0
1070
    74
1070
     0
1000
MTEXTEND
1000
MTEXTBEGIN
1070
    73
1070
     1
1070
    44
1040
1.0
1070
    74
1070
     0
1000
MTEXTEND
1000
MTEXTBEGIN
1070
    73
1070
     1
1070
    44
1040
1.0
1070
    74
1070
     0
1000
MTEXTEND
1000
MTEXTBEGIN
1070
    73
1070
     1
1070
    44
1040
1.0
1070
    74
1070
     0
1000
MTEXTEND
1000
MTEXTBEGIN
1070
    73
1070
     1
1070
    44
1040
1.0
1070
    74
1070
     0
1000
MTEXTEND
1000
MTEXTBEGIN
1070
    73
1070
     1
1070
    44
1040
1.0
1070
    74
1070
     0
1000
MTEXTEND
1000
MTEXTBEGIN
1070
    73
1070
     1
1070
    44
1040
1.0
1070
    74
1070
     0
1000
MTEXTEND
1000
MTEXTBEGIN
1070
    73
1070
     1
1070
    44
1040
1.0
1070
    74
1070
     0
1000
MTEXTEND
1000
MTEXTBEGIN
1070
    73
1070
     1
1070
    44
1040
1.0
1070
    74
1070
     0
1000
MTEXTEND
1000
MTEXTBEGIN
1070
    73
1070
     1
1070
    44
1040
1.0
1070
    74
1070
     0
1000
MTEXTEND
1000
MTEXTBEGIN
1070
    73
1070
     1
1070
    44
1040
1.0
1070
    74
1070
     0
1000
MTEXTEND
1000
MTEXTBEGIN
1070
    73
1070
     1
1070
    44
1040
1.0
1070
    74
1070
     0
1000
MTEXTEND
1000
MTEXTBEGIN
1070
    73
1070
     1
1070
    44
1040
1.0
1070
    74
1070
     0
1000
MTEXTEND
1000
MTEXTBEGIN
1070
    73
1070
     1
1070
    44
1040
1.0
1070
    74
1070
     0
1000
MTEXTEND
1000
MTEXTBEGIN
1070
    73
1070
     1
1070
    44
1040
1.0
1070
    74
1070
     0
1000
MTEXTEND
1000
MTEXTBEGIN
1070
    73
1070
     1
1070
    44
1040
1.0
1070
    74
1070
     0
1000
MTEXTEND
1000
MTEXTBEGIN
1070
    73
1070
     1
1070
    44
1040
1.0
1070
    74
1070
     0
1000
MTEXTEND
1000
MTEXTBEGIN
1070
    73
1070
     1
1070
    44
1040
1.0
1070
    74
1070
     0
1000
MTEXTEND
1000
MTEXTBEGIN
1070
    73
1070
     1
1070
    44
1040
1.0
1070
    74
1070
     0
1000
MTEXTEND
1000
MTEXTBEGIN
1070
    73
1070
     1
1070
    44
1040
1.0
1070
    74
1070
     0
1000
MTEXTEND
1000
MTEXTBEGIN
1070
    73
1070
     1
1070
    44
1040
1.0
1070
    74
1070
     0
1000
MTEXTEND
1000
MTEXTBEGIN
1070
    73
1070
     1
1070
    44
1040
1.0
1070
    74
1070
     0
1000
MTEXTEND
1000
MTEXTBEGIN
1070
    73
1070
     1
1070
    44
1040
1.0
1070
    74
1070
     0
1000
MTEXTEND
1000
MTEXTBEGIN
1070
    73
1070
     1
1070
    44
1040
1.0
1070
    74
1070
     0
1000
MTEXTEND
1000
MTEXTBEGIN
1070
    73
1070
     1
1070
    44
1040
1.0
1070
    74
1070
     0
1000
MTEXTEND
1000
MTEXTBEGIN
1070
    73
1070
     1
1070
    44
1040
1.0
1070
    74
1070
     0
1000
MTEXTEND
1000
MTEXTBEGIN
1070
    73
1070
     1
1070
    44
1040
1.0
1070
    74
1070
     0
1000
MTEXTEND
1000
MTEXTBEGIN
1070
    73
1070
     1
1070
    44
1040
1.0
1070
    74
1070
     0
1000
MTEXTEND
1000
MTEXTBEGIN
1070
    73
1070
     1
1070
    44
1040
1.0
1070
    74
1070
     0
1000
MTEXTEND
1000
MTEXTBEGIN
1070
    73
1070
     1
1070
    44
1040
1.0
1070
    74
1070
     0
1000
MTEXTEND
1000
MTEXTBEGIN
1070
    73
1070
     1
1070
    44
1040
1.0
1070
    74
1070
     0
1000
MTEXTEND
1000
MTEXTBEGIN
1070
    73
1070
     1
1070
    44
1040
1.0
1070
    74
1070
     0
1000
MTEXTEND
1000
MTEXTBEGIN
1070
    73
1070
     1
1070
    44
1040
1.0
1070
    74
1070
     0
1000
MTEXTEND
1000
MTEXTBEGIN
1070
    73
1070
     1
1070
    44
1040
1.0
1070
    74
1070
     0
1000
MTEXTEND
1000
MTEXTBEGIN
1070
    73
1070
     1
1070
    44
1040
1.0
1070
    74
1070
     0
1000
MTEXTEND
1000
MTEXTBEGIN
1070
    73
1070
     1
1070
    44
1040
1.0
1070
    74
1070
     0
1000
MTEXTEND
1000
MTEXTBEGIN
1070
    73
1070
     1
1070
    44
1040
1.0
1070
    74
1070
     0
1000
MTEXTEND
1000
MTEXTBEGIN
1070
    73
1070
     1
1070
    44
1040
1.0
1070
    74
1070
     0
1000
MTEXTEND
1000
MTEXTBEGIN
1070
    73
1070
     1
1070
    44
1040
1.0
1070
    74
1070
     0
1000
MTEXTEND
1000
MTEXTBEGIN
1070
    73
1070
     1
1070
    44
1040
1.0
1070
    74
1070
     0
1000
MTEXTEND
  0
ELLIPSE
  5
A7C6
102
{ACAD_REACTORS
330
B37B
102
}
330
1A
100
AcDbEntity
  8
1
100
AcDbEllipse
 10
496.3890323953146
 20
270.2280207721701
 30
0.0
 11
0.0000000000000006
 21
3.449999999999988
 31
0.0
210
0.0
220
0.0
230
-1.0
 40
0.5217391304348372
 41
0.0
 42
6.283185307179586
  0
ELLIPSE
  5
A7C7
102
{ACAD_REACTORS
330
B37B
102
}
330
1A
100
AcDbEntity
  8
1
100
AcDbEllipse
 10
528.7018781381466
 20
270.2280207721701
 30
0.0
 11
0.0000000000000006
 21
3.449999999999988
 31
0.0
210
0.0
220
0.0
230
1.0
 40
0.5217391304348372
 41
0.0
 42
6.283185307179586
  0
SPLINE
  5
A7C8
102
{ACAD_REACTORS
330
B36E
102
}
330
1A
100
AcDbEntity
  8
1
  6
Continuous
100
AcDbSpline
210
0.0
220
0.0
230
1.0
 70
    12
 71
     2
 72
     8
 73
     5
 74
     0
 42
0.0000000001
 43
0.0000000001
 40
0.0
 40
0.0
 40
0.0
 40
0.5
 40
0.5
 40
1.0
 40
1.0
 40
1.0
 10
240.6109194098589
 20
262.042975348394
 30
0.0
 41
1.0
 10
237.9528200915519
 20
263.7750261559631
 30
0.0
 41
0.7071067811866265
 10
236.5619541691794
 20
263.7750261559631
 30
0.0
 41
1.0
 10
235.1710882468086
 20
263.7750261559631
 30
0.0
 41
0.707106781186618
 10
237.8291875651175
 20
262.042975348394
 30
0.0
 41
1.0
  0
LINE
  5
AB58
102
{ACAD_REACTORS
330
B395
102
}
330
1A
100
AcDbEntity
  8
1
100
AcDbLine
 10
531.045455266716
 20
231.4280207721694
 30
0.0
 11
531.045455266716
 21
228.2280207721696
 31
0.0
  0
LINE
  5
AB59
102
{ACAD_REACTORS
330
B395
102
}
330
1A
100
AcDbEntity
  8
1
100
AcDbLine
 10
556.5454552667143
 20
239.2280207721723
 30
0.0
 11
556.5454552667143
 21
218.7280207721714
 31
0.0
  0
LINE
  5
AB5A
102
{ACAD_REACTORS
330
B395
102
}
330
1A
100
AcDbEntity
  8
1
100
AcDbLine
 10
549.5454552667142
 20
218.7280207721719
 30
0.0
 11
549.5454552667142
 21
239.2280207721723
 31
0.0
  0
LINE
  5
AB5B
102
{ACAD_REACTORS
330
B395
102
}
330
1A
100
AcDbEntity
  8
1
100
AcDbLine
 10
552.5454552667143
 20
239.2280207721723
 30
0.0
 11
552.545455266716
 21
218.7280207721714
 31
0.0
  0
LINE
  5
AB5C
102
{ACAD_REACTORS
330
B395
102
}
330
1A
100
AcDbEntity
  8
1
100
AcDbLine
 10
494.045455266716
 20
231.4280207721694
 30
0.0
 11
494.045455266716
 21
228.2280207721696
 31
0.0
  0
LINE
  5
AB5D
102
{ACAD_REACTORS
330
B395
102
}
330
1A
100
AcDbEntity
  8
1
100
AcDbLine
 10
468.545455266716
 20
239.2280207721723
 30
0.0
 11
468.5454552667124
 21
218.7280207721714
 31
0.0
  0
LINE
  5
AB5E
102
{ACAD_REACTORS
330
B395
102
}
330
1A
100
AcDbEntity
  8
1
100
AcDbLine
 10
475.5454552667161
 20
239.2280207721723
 30
0.0
 11
475.5454552667142
 21
218.7280207721714
 31
0.0
  0
LINE
  5
AB5F
102
{ACAD_REACTORS
330
B395
102
}
330
1A
100
AcDbEntity
  8
1
100
AcDbLine
 10
472.5454552667143
 20
239.2280207721723
 30
0.0
 11
472.5454552667143
 21
218.7280207721714
 31
0.0
  0
LINE
  5
AB60
102
{ACAD_REACTORS
330
B375
102
}
330
1A
100
AcDbEntity
  8
1
100
AcDbLine
 10
379.944602657375
 20
231.4280207721699
 30
0.0
 11
379.944602657375
 21
228.2280207721701
 31
0.0
  0
LINE
  5
AB61
102
{ACAD_REACTORS
330
B375
102
}
330
1A
100
AcDbEntity
  8
1
100
AcDbLine
 10
342.944602657375
 20
231.4280207721699
 30
0.0
 11
342.944602657375
 21
228.2280207721701
 31
0.0
  0
LINE
  5
AB62
102
{ACAD_REACTORS
330
BCCD
102
}
330
1A
100
AcDbEntity
  8
1
100
AcDbLine
 10
115.3491756144376
 20
231.275096775143
 30
0.0
 11
115.3491756144376
 21
224.8107833024719
 31
0.0
  0
LINE
  5
AB63
102
{ACAD_REACTORS
330
BCCD
102
}
330
1A
100
AcDbEntity
  8
1
100
AcDbLine
 10
121.903876152819
 20
231.275096775143
 30
0.0
 11
121.903876152819
 21
224.8107833024719
 31
0.0
  0
LINE
  5
AB64
102
{ACAD_REACTORS
330
BCCD
102
}
330
1A
100
AcDbEntity
  8
1
100
AcDbLine
 10
130.749175614439
 20
231.275096775143
 30
0.0
 11
130.7491756144409
 21
224.8107833024728
 31
0.0
  0
LINE
  5
AB65
102
{ACAD_REACTORS
330
BCCD
102
}
330
1A
100
AcDbEntity
  8
1
100
AcDbLine
 10
131.326525883629
 20
202.228020772171
 30
0.0
 11
131.3265258836308
 21
235.228020772171
 31
0.0
  0
LINE
  5
AB66
102
{ACAD_REACTORS
330
BCCD
102
}
330
1A
100
AcDbEntity
  8
1
100
AcDbLine
 10
115.9265258836294
 20
200.7280207721692
 30
0.0
 11
115.9265258836294
 21
236.7280207721719
 31
0.0
  0
LINE
  5
AB67
102
{ACAD_REACTORS
330
BCCD
102
}
330
1A
100
AcDbEntity
  8
1
100
AcDbLine
 10
150.4445838697956
 20
196.2280207721719
 30
0.0
 11
150.4445838697956
 21
239.2280207721719
 31
0.0
  0
LINE
  5
AB68
102
{ACAD_REACTORS
330
BCCD
102
}
330
1A
100
AcDbEntity
  8
1
100
AcDbLine
 10
150.4445838697956
 20
237.7280207721728
 30
0.0
 11
150.4445838697975
 21
199.7280207721701
 31
0.0
  0
LINE
  5
AB69
102
{ACAD_REACTORS
330
BCCD
102
}
330
1A
100
AcDbEntity
  8
1
100
AcDbLine
 10
134.4445838697974
 20
237.7280207721728
 30
0.0
 11
134.4445838697993
 21
199.728020772171
 31
0.0
  0
LINE
  5
AB6A
102
{ACAD_REACTORS
330
BCCD
102
}
330
1A
100
AcDbEntity
  8
1
100
AcDbLine
 10
121.3265258836308
 20
200.7280207721692
 30
0.0
 11
121.3265258836272
 21
236.7280207721719
 31
0.0
  0
LINE
  5
AB6B
102
{ACAD_REACTORS
330
BCCD
102
}
330
1A
100
AcDbEntity
  8
1
100
AcDbLine
 10
131.3265258836308
 20
236.7280207721719
 30
0.0
 11
131.3265258836308
 21
200.7280207721719
 31
0.0
  0
LINE
  5
AB6C
102
{ACAD_REACTORS
330
BCCD
102
}
330
1A
100
AcDbEntity
  8
1
100
AcDbLine
 10
274.4445838697956
 20
243.7280207721719
 30
0.0
 11
274.4445838697956
 21
193.7280207721719
 31
0.0
  0
LINE
  5
AB6D
102
{ACAD_REACTORS
330
BCCD
102
}
330
1A
100
AcDbEntity
  8
1
100
AcDbLine
 10
268.4445838697957
 20
243.7280207721719
 30
0.0
 11
268.4445838697957
 21
193.7280207721719
 31
0.0
  0
LINE
  5
AB6E
102
{ACAD_REACTORS
330
BCCD
102
}
330
1A
100
AcDbEntity
  8
1
100
AcDbLine
 10
262.4445838697957
 20
243.7280207721719
 30
0.0
 11
262.4445838697957
 21
193.7280207721719
 31
0.0
  0
LINE
  5
AB6F
102
{ACAD_REACTORS
330
BCCD
102
}
330
1A
100
AcDbEntity
  8
1
100
AcDbLine
 10
271.4445838697956
 20
240.7280207721719
 30
0.0
 11
271.4445838697956
 21
196.7280207721701
 31
0.0
  0
LINE
  5
AB70
102
{ACAD_REACTORS
330
BCCD
102
}
330
1A
100
AcDbEntity
  8
1
100
AcDbLine
 10
265.4445838697956
 20
240.7280207721719
 30
0.0
 11
265.4445838697956
 21
196.7280207721701
 31
0.0
  0
LINE
  5
AB71
102
{ACAD_REACTORS
330
BCCD
102
}
330
1A
100
AcDbEntity
  8
1
100
AcDbLine
 10
259.4445838697956
 20
240.7280207721728
 30
0.0
 11
259.4445838697956
 21
196.728020772171
 31
0.0
  0
LINE
  5
AB72
102
{ACAD_REACTORS
330
BCCD
102
}
330
1A
100
AcDbEntity
  8
1
100
AcDbLine
 10
247.4445838697938
 20
241.2280207721719
 30
0.0
 11
247.4445838697938
 21
196.2280207721719
 31
0.0
  0
LINE
  5
AB73
102
{ACAD_REACTORS
330
BCCD
102
}
330
1A
100
AcDbEntity
  8
1
100
AcDbLine
 10
245.4445838697956
 20
239.2280207721719
 30
0.0
 11
245.4445838697956
 21
198.2280207721719
 31
0.0
  0
LINE
  5
AB74
102
{ACAD_REACTORS
330
BCCD
102
}
330
1A
100
AcDbEntity
  8
1
100
AcDbLine
 10
248.4445838697956
 20
195.7280207721701
 30
0.0
 11
248.4445838697956
 21
241.7280207721728
 31
0.0
  0
LINE
  5
AB75
102
{ACAD_REACTORS
330
BCCD
102
}
330
1A
100
AcDbEntity
  8
1
100
AcDbLine
 10
244.4445838697956
 20
196.2280207721719
 30
0.0
 11
244.4445838697956
 21
239.2280207721728
 31
0.0
  0
LINE
  5
AB76
102
{ACAD_REACTORS
330
BCCD
102
}
330
1A
100
AcDbEntity
  8
1
100
AcDbLine
 10
277.4445838697956
 20
240.7280207721728
 30
0.0
 11
277.4445838697956
 21
196.728020772171
 31
0.0
  0
LINE
  5
AB77
102
{ACAD_REACTORS
330
BCCD
102
}
330
1A
100
AcDbEntity
  8
1
100
AcDbLine
 10
291.4445838697975
 20
239.2280207721719
 30
0.0
 11
291.4445838697975
 21
198.2280207721719
 31
0.0
  0
LINE
  5
AB78
102
{ACAD_REACTORS
330
BCCD
102
}
330
1A
100
AcDbEntity
  8
1
100
AcDbLine
 10
289.4445838697993
 20
241.2280207721719
 30
0.0
 11
289.4445838697993
 21
196.2280207721719
 31
0.0
  0
LINE
  5
AB79
102
{ACAD_REACTORS
330
BCCD
102
}
330
1A
100
AcDbEntity
  8
1
100
AcDbLine
 10
288.4445838697974
 20
195.7280207721719
 30
0.0
 11
288.4445838697974
 21
241.7280207721728
 31
0.0
  0
LINE
  5
AB7A
102
{ACAD_REACTORS
330
BCCD
102
}
330
1A
100
AcDbEntity
  8
1
100
AcDbLine
 10
292.4445838697956
 20
198.2280207721719
 30
0.0
 11
292.4445838697956
 21
239.2280207721728
 31
0.0
  0
LINE
  5
AB7B
102
{ACAD_REACTORS
330
BCCD
102
}
330
1A
100
AcDbEntity
  8
1
100
AcDbLine
 10
320.4445838697993
 20
198.2280207721719
 30
0.0
 11
320.4445838697974
 21
239.2280207721728
 31
0.0
  0
LINE
  5
AB7C
102
{ACAD_REACTORS
330
BCCD
102
}
330
1A
100
AcDbEntity
  8
1
100
AcDbLine
 10
74.90387615281907
 20
231.275096775143
 30
0.0
 11
74.90387615281725
 21
224.8107833024728
 31
0.0
  0
LINE
  5
AB7D
102
{ACAD_REACTORS
330
BCCD
102
}
330
1A
100
AcDbEntity
  8
1
100
AcDbLine
 10
64.42652588362943
 20
205.478020772171
 30
0.0
 11
64.42652588362943
 21
231.9780207721701
 31
0.0
  0
LINE
  5
AB7E
102
{ACAD_REACTORS
330
BCCD
102
}
330
1A
100
AcDbEntity
  8
1
100
AcDbLine
 10
74.32652588362907
 20
202.228020772171
 30
0.0
 11
74.32652588362725
 21
235.228020772171
 31
0.0
  0
LINE
  5
AB7F
102
{ACAD_REACTORS
330
BCCD
102
}
330
1A
100
AcDbEntity
  8
1
100
AcDbLine
 10
74.32652588362725
 20
236.7280207721719
 30
0.0
 11
74.32652588362725
 21
200.7280207721719
 31
0.0
  0
LINE
  5
AB8E
102
{ACAD_REACTORS
330
B375
102
}
330
1A
100
AcDbEntity
  8
1
100
AcDbLine
 10
342.944602657375
 20
228.2280207721701
 30
0.0
 11
379.9446026573769
 21
228.2280207721691
 31
0.0
  0
LINE
  5
AB8F
102
{ACAD_REACTORS
330
B370
102
}
330
1A
100
AcDbEntity
  8
1
100
AcDbLine
 10
386.444602657386
 20
164.2280207721714
 30
0.0
 11
150.4446026573859
 21
164.2280207721687
 31
0.0
  0
LINE
  5
AB90
102
{ACAD_REACTORS
330
B370
102
}
330
1A
100
AcDbEntity
  8
1
100
AcDbLine
 10
339.1081997807505
 20
228.2280207721723
 30
0.0
 11
383.7810055340251
 21
228.2280207721732
 31
0.0
  0
LINE
  5
AB91
102
{ACAD_REACTORS
330
BCCD
102
}
330
1A
100
AcDbEntity
  8
1
100
AcDbLine
 10
150.4445838697956
 20
196.2280207721719
 30
0.0
 11
195.4749526573759
 21
196.2280207721719
 31
0.0
  0
LINE
  5
AB92
102
{ACAD_REACTORS
330
B370
102
}
330
1A
100
AcDbEntity
  8
1
100
AcDbLine
 10
150.4446026573878
 20
196.2280207721723
 30
0.0
 11
245.4446026573878
 21
196.2280207721696
 31
0.0
  0
LINE
  5
AB93
102
{ACAD_REACTORS
330
BCCD
102
}
330
1A
100
AcDbEntity
  8
1
100
AcDbLine
 10
64.42652588362943
 20
215.2280207721719
 30
0.0
 11
48.09159616752367
 21
215.2280207721719
 31
0.0
  0
LINE
  5
AB94
102
{ACAD_REACTORS
330
BCCD
102
}
330
1A
100
AcDbEntity
  8
1
100
AcDbLine
 10
64.42652588362943
 20
222.2280207721719
 30
0.0
 11
48.09159616752367
 21
222.2280207721719
 31
0.0
  0
LINE
  5
AB95
102
{ACAD_REACTORS
330
BCCD
102
}
330
1A
100
AcDbEntity
  8
CENTER
100
AcDbLine
 10
330.4445838697974
 20
218.7280207721723
 30
0.0
 11
39.78629060303137
 21
218.7280207721719
 31
0.0
  0
LINE
  5
AB96
102
{ACAD_REACTORS
330
BCCD
102
}
330
1A
100
AcDbEntity
  8
1
100
AcDbLine
 10
130.7491756144409
 20
224.8107833024728
 30
0.0
 11
121.903876152819
 21
224.8107833024719
 31
0.0
  0
LINE
  5
AB97
102
{ACAD_REACTORS
330
BCCD
102
}
330
1A
100
AcDbEntity
  8
1
100
AcDbLine
 10
134.4445838697974
 20
224.8107833024719
 30
0.0
 11
150.4445838697956
 21
224.8107833024719
 31
0.0
  0
LINE
  5
AB98
102
{ACAD_REACTORS
330
BCCD
102
}
330
1A
100
AcDbEntity
  8
1
100
AcDbLine
 10
115.9265258836294
 20
202.228020772171
 30
0.0
 11
121.326525883629
 21
202.228020772171
 31
0.0
  0
LINE
  5
AB99
102
{ACAD_REACTORS
330
BCCD
102
}
330
1A
100
AcDbEntity
  8
1
100
AcDbLine
 10
115.3491756144376
 20
212.6452582418737
 30
0.0
 11
115.3491756144394
 21
206.180944769198
 31
0.0
  0
LINE
  5
AB9A
102
{ACAD_REACTORS
330
BCCD
102
}
330
1A
100
AcDbEntity
  8
1
100
AcDbLine
 10
121.903876152819
 20
212.6452582418737
 30
0.0
 11
121.903876152819
 21
206.180944769198
 31
0.0
  0
LINE
  5
AB9B
102
{ACAD_REACTORS
330
BCCD
102
}
330
1A
100
AcDbEntity
  8
1
100
AcDbLine
 10
130.749175614439
 20
212.6452582418737
 30
0.0
 11
130.749175614439
 21
206.1809447691989
 31
0.0
  0
LINE
  5
AB9C
102
{ACAD_REACTORS
330
BCCD
102
}
330
1A
100
AcDbEntity
  8
1
100
AcDbLine
 10
130.7491756144409
 20
206.1809447691989
 30
0.0
 11
121.903876152819
 21
206.180944769198
 31
0.0
  0
LINE
  5
AB9D
102
{ACAD_REACTORS
330
BCCD
102
}
330
1A
100
AcDbEntity
  8
1
100
AcDbLine
 10
130.749175614439
 20
212.6452582418737
 30
0.0
 11
121.903876152819
 21
212.6452582418737
 31
0.0
  0
LINE
  5
AB9E
102
{ACAD_REACTORS
330
BCCD
102
}
330
1A
100
AcDbEntity
  8
1
100
AcDbLine
 10
134.4445838697993
 20
206.180944769198
 30
0.0
 11
150.4445838697956
 21
206.180944769198
 31
0.0
  0
LINE
  5
AB9F
102
{ACAD_REACTORS
330
BCCD
102
}
330
1A
100
AcDbEntity
  8
1
100
AcDbLine
 10
134.4445838697974
 20
212.6452582418737
 30
0.0
 11
150.4445838697956
 21
212.6452582418746
 31
0.0
  0
ARC
  5
ABA0
102
{ACAD_REACTORS
330
BCCD
102
}
330
1A
100
AcDbEntity
  8
1
100
AcDbCircle
 10
83.59491080896441
 20
218.7280207721728
 30
0.0
 40
32.33161507466238
100
AcDbArc
 50
349.1559374363017
 51
10.84406256369821
  0
ARC
  5
ABA1
102
{ACAD_REACTORS
330
BCCD
102
}
330
1A
100
AcDbEntity
  8
1
100
AcDbCircle
 10
153.6581409582959
 20
218.7280207721728
 30
0.0
 40
32.33161507466238
100
AcDbArc
 50
169.1559374363017
 51
190.8440625636982
  0
ARC
  5
ABA2
102
{ACAD_REACTORS
330
BCCD
102
}
330
1A
100
AcDbEntity
  8
1
100
AcDbCircle
 10
98.99491080896588
 20
218.7280207721728
 30
0.0
 40
32.33161507466238
100
AcDbArc
 50
349.1559374363017
 51
10.84406256369821
  0
LINE
  5
ABA3
102
{ACAD_REACTORS
330
BCCD
102
}
330
1A
100
AcDbEntity
  8
1
100
AcDbLine
 10
115.9265258836294
 20
200.7280207721719
 30
0.0
 11
115.3491756144394
 21
199.7280207721719
 31
0.0
  0
LINE
  5
ABA4
102
{ACAD_REACTORS
330
BCCD
102
}
330
1A
100
AcDbEntity
  8
1
100
AcDbLine
 10
115.3491756144376
 20
200.0981822389017
 30
0.0
 11
115.3491756144376
 21
199.728020772171
 31
0.0
  0
LINE
  5
ABA5
102
{ACAD_REACTORS
330
BCCD
102
}
330
1A
100
AcDbEntity
  8
1
100
AcDbLine
 10
130.749175614439
 20
200.0981822389007
 30
0.0
 11
130.749175614439
 21
199.728020772171
 31
0.0
  0
LINE
  5
ABA6
102
{ACAD_REACTORS
330
BCCD
102
}
330
1A
100
AcDbEntity
  8
1
100
AcDbLine
 10
121.9038761528208
 20
200.0981822389017
 30
0.0
 11
121.903876152819
 21
199.728020772171
 31
0.0
  0
LINE
  5
ABA7
102
{ACAD_REACTORS
330
BCCD
102
}
330
1A
100
AcDbEntity
  8
1
100
AcDbLine
 10
121.3265258836272
 20
200.7280207721719
 30
0.0
 11
121.903876152819
 21
199.7280207721719
 31
0.0
  0
LINE
  5
ABA8
102
{ACAD_REACTORS
330
BCCD
102
}
330
1A
100
AcDbEntity
  8
1
100
AcDbLine
 10
131.3265258836308
 20
200.7280207721719
 30
0.0
 11
130.749175614439
 21
199.7280207721719
 31
0.0
  0
LINE
  5
ABA9
102
{ACAD_REACTORS
330
BCCD
102
}
330
1A
100
AcDbEntity
  8
1
100
AcDbLine
 10
130.749175614439
 20
199.728020772171
 30
0.0
 11
121.903876152819
 21
199.728020772171
 31
0.0
  0
LINE
  5
ABAA
102
{ACAD_REACTORS
330
BCCD
102
}
330
1A
100
AcDbEntity
  8
1
100
AcDbLine
 10
130.749175614439
 20
200.0981822389007
 30
0.0
 11
121.903876152819
 21
200.0981822389017
 31
0.0
  0
LINE
  5
ABAB
102
{ACAD_REACTORS
330
BCCD
102
}
330
1A
100
AcDbEntity
  8
1
100
AcDbLine
 10
131.3265258836308
 20
200.7280207721719
 30
0.0
 11
134.4445838697974
 21
200.7280207721719
 31
0.0
  0
LINE
  5
ABAC
102
{ACAD_REACTORS
330
BCCD
102
}
330
1A
100
AcDbEntity
  8
1
100
AcDbLine
 10
134.4445838697993
 20
200.0981822389017
 30
0.0
 11
150.4445838697975
 21
200.0981822389007
 31
0.0
  0
LINE
  5
ABAD
102
{ACAD_REACTORS
330
BCCD
102
}
330
1A
100
AcDbEntity
  8
1
 48
0.2
100
AcDbLine
 10
134.4445838697993
 20
199.728020772171
 30
0.0
 11
150.4445838697956
 21
199.728020772171
 31
0.0
  0
ARC
  5
ABAE
102
{ACAD_REACTORS
330
BCCD
102
}
330
1A
100
AcDbEntity
  8
1
100
AcDbCircle
 10
107.6271157640312
 20
203.1395635040494
 30
0.0
 40
8.29941011959649
100
AcDbArc
 50
338.5026913532688
 51
21.49730864677963
  0
ARC
  5
ABAF
102
{ACAD_REACTORS
330
BCCD
102
}
330
1A
100
AcDbEntity
  8
1
100
AcDbCircle
 10
129.625936003229
 20
203.1395635040494
 30
0.0
 40
8.29941011959649
100
AcDbArc
 50
158.5026913532203
 51
201.4973086467311
  0
ARC
  5
ABB0
102
{ACAD_REACTORS
330
BCCD
102
}
330
1A
100
AcDbEntity
  8
1
100
AcDbCircle
 10
123.0271157640327
 20
203.1395635040494
 30
0.0
 40
8.29941011959649
100
AcDbArc
 50
338.5026913532688
 51
21.49730864677963
  0
LINE
  5
ABB1
102
{ACAD_REACTORS
330
BCCD
102
}
330
1A
100
AcDbEntity
  8
1
100
AcDbLine
 10
64.42652588362943
 20
224.346072035732
 30
0.0
 11
73.92652588362944
 21
224.346072035732
 31
0.0
  0
LINE
  5
ABB2
102
{ACAD_REACTORS
330
BCCD
102
}
330
1A
100
AcDbEntity
  8
1
100
AcDbLine
 10
73.92652588362944
 20
213.10996950861
 30
0.0
 11
64.42652588362943
 21
213.10996950861
 31
0.0
  0
LINE
  5
ABB3
102
{ACAD_REACTORS
330
BCCD
102
}
330
1A
100
AcDbEntity
  8
1
100
AcDbLine
 10
64.42652588362943
 20
205.478020772171
 30
0.0
 11
74.32652588363089
 21
205.478020772171
 31
0.0
  0
LINE
  5
ABB4
102
{ACAD_REACTORS
330
BCCD
102
}
330
1A
100
AcDbEntity
  8
1
 62
     9
100
AcDbLine
 10
64.42652588362943
 20
224.346072035732
 30
0.0
 11
73.92652588362944
 21
213.10996950861
 31
0.0
  0
LINE
  5
ABB5
102
{ACAD_REACTORS
330
BCCD
102
}
330
1A
100
AcDbEntity
  8
1
 62
     9
100
AcDbLine
 10
73.92652588362944
 20
224.346072035732
 30
0.0
 11
64.42652588362943
 21
213.10996950861
 31
0.0
  0
LINE
  5
ABB6
102
{ACAD_REACTORS
330
BCCD
102
}
330
1A
100
AcDbEntity
  8
1
100
AcDbLine
 10
74.90387615281907
 20
212.6452582418737
 30
0.0
 11
74.90387615281907
 21
206.1809447691989
 31
0.0
  0
ARC
  5
ABB7
102
{ACAD_REACTORS
330
BCCD
102
}
330
1A
100
AcDbEntity
  8
1
100
AcDbCircle
 10
106.6581409582922
 20
218.7280207721728
 30
0.0
 40
32.33161507466238
100
AcDbArc
 50
169.1559374363017
 51
190.8440625636982
  0
LINE
  5
ABB8
102
{ACAD_REACTORS
330
BCCD
102
}
330
1A
100
AcDbEntity
  8
1
100
AcDbLine
 10
73.92652588362944
 20
224.346072035732
 30
0.0
 11
73.92652588362944
 21
213.10996950861
 31
0.0
  0
LINE
  5
ABB9
102
{ACAD_REACTORS
330
BCCD
102
}
330
1A
100
AcDbEntity
  8
1
100
AcDbLine
 10
74.32652588362725
 20
200.7280207721719
 30
0.0
 11
74.90387615281907
 21
199.7280207721719
 31
0.0
  0
LINE
  5
ABBA
102
{ACAD_REACTORS
330
BCCD
102
}
330
1A
100
AcDbEntity
  8
1
100
AcDbLine
 10
74.90387615281907
 20
200.0981822389007
 30
0.0
 11
74.90387615281907
 21
199.728020772171
 31
0.0
  0
ARC
  5
ABBB
102
{ACAD_REACTORS
330
BCCD
102
}
330
1A
100
AcDbEntity
  8
1
100
AcDbCircle
 10
82.62593600322544
 20
203.1395635040494
 30
0.0
 40
8.29941011959649
100
AcDbArc
 50
158.5026913532203
 51
201.4973086467311
  0
LINE
  5
ABBC
102
{ACAD_REACTORS
330
BCCD
102
}
330
1A
100
AcDbEntity
  8
1
100
AcDbLine
 10
74.90387615281725
 20
224.8107833024728
 30
0.0
 11
115.3491756144376
 21
224.8107833024719
 31
0.0
  0
LINE
  5
ABBD
102
{ACAD_REACTORS
330
BCCD
102
}
330
1A
100
AcDbEntity
  8
1
100
AcDbLine
 10
74.90387615281907
 20
212.6452582418737
 30
0.0
 11
115.3491756144394
 21
212.6452582418737
 31
0.0
  0
LINE
  5
ABBE
102
{ACAD_REACTORS
330
BCCD
102
}
330
1A
100
AcDbEntity
  8
1
100
AcDbLine
 10
74.90387615281725
 20
206.1809447691989
 30
0.0
 11
115.3491756144376
 21
206.180944769198
 31
0.0
  0
LINE
  5
ABBF
102
{ACAD_REACTORS
330
BCCD
102
}
330
1A
100
AcDbEntity
  8
1
100
AcDbLine
 10
74.90387615281907
 20
200.0981822389007
 30
0.0
 11
115.3491756144394
 21
200.0981822389017
 31
0.0
  0
LINE
  5
ABC0
102
{ACAD_REACTORS
330
BCCD
102
}
330
1A
100
AcDbEntity
  8
1
100
AcDbLine
 10
74.90387615281907
 20
199.728020772171
 30
0.0
 11
115.3491756144376
 21
199.728020772171
 31
0.0
  0
LINE
  5
ABC1
102
{ACAD_REACTORS
330
B370
102
}
330
1A
100
AcDbEntity
  8
1
100
AcDbLine
 10
150.4446026573878
 20
184.2280207721696
 30
0.0
 11
150.4446026573859
 21
164.2280207721687
 31
0.0
  0
LINE
  5
ABC2
102
{ACAD_REACTORS
330
B370
102
}
330
1A
100
AcDbEntity
  8
1
100
AcDbLine
 10
150.4446026573878
 20
196.2280207721723
 30
0.0
 11
150.4446026573878
 21
184.2280207721696
 31
0.0
  0
ARC
  5
ABC3
102
{ACAD_REACTORS
330
BCCD
102
}
330
1A
100
AcDbEntity
  8
1
100
AcDbCircle
 10
268.4445838697957
 20
193.7280207721719
 30
0.0
 40
2.0
100
AcDbArc
 50
195.2452637187078
 51
344.7547362813423
  0
LINE
  5
ABC4
102
{ACAD_REACTORS
330
B370
102
}
330
1A
100
AcDbEntity
  8
1
100
AcDbLine
 10
370.8196214449671
 20
188.2280207721696
 30
0.0
 11
176.444621444969
 21
188.2280207721705
 31
0.0
  0
ARC
  5
ABC5
102
{ACAD_REACTORS
330
BCCD
102
}
330
1A
100
AcDbEntity
  8
1
100
AcDbCircle
 10
262.4445838697957
 20
193.7280207721719
 30
0.0
 40
2.0
100
AcDbArc
 50
195.2452637187078
 51
344.754736281292
  0
ARC
  5
ABC6
102
{ACAD_REACTORS
330
BCCD
102
}
330
1A
100
AcDbEntity
  8
1
100
AcDbCircle
 10
259.4445838697956
 20
195.2280207721719
 30
0.0
 40
0.5
100
AcDbArc
 50
15.24526371870789
 51
90.0
  0
LINE
  5
ABC7
102
{ACAD_REACTORS
330
BCCD
102
}
330
1A
100
AcDbEntity
  8
1
100
AcDbLine
 10
260.5149657424626
 20
193.2021178508389
 30
0.0
 11
259.9269884016302
 21
195.3594965025054
 31
0.0
  0
ARC
  5
ABC8
102
{ACAD_REACTORS
330
BCCD
102
}
330
1A
100
AcDbEntity
  8
1
100
AcDbCircle
 10
265.4445838697956
 20
195.2280207721719
 30
0.0
 40
0.5
100
AcDbArc
 50
15.24526371865762
 51
164.7547362813423
  0
LINE
  5
ABC9
102
{ACAD_REACTORS
330
BCCD
102
}
330
1A
100
AcDbEntity
  8
1
100
AcDbLine
 10
266.5149657424626
 20
193.2021178508389
 30
0.0
 11
265.9269884016302
 21
195.3594965025054
 31
0.0
  0
LINE
  5
ABCA
102
{ACAD_REACTORS
330
BCCD
102
}
330
1A
100
AcDbEntity
  8
1
100
AcDbLine
 10
264.962179337961
 20
195.3594965025054
 30
0.0
 11
264.3742019971286
 21
193.2021178508389
 31
0.0
  0
LINE
  5
ABCB
102
{ACAD_REACTORS
330
BCCD
102
}
330
1A
100
AcDbEntity
  8
1
100
AcDbLine
 10
244.4445838697956
 20
198.2280207721719
 30
0.0
 11
245.4445838697956
 21
198.2280207721719
 31
0.0
  0
LINE
  5
ABCC
102
{ACAD_REACTORS
330
BCCD
102
}
330
1A
100
AcDbEntity
  8
1
100
AcDbLine
 10
244.4445838697956
 20
200.2280207721719
 30
0.0
 11
244.4445838697956
 21
198.2280207721719
 31
0.0
  0
LINE
  5
ABCD
102
{ACAD_REACTORS
330
BCCD
102
}
330
1A
100
AcDbEntity
  8
1
100
AcDbLine
 10
247.4445838697956
 20
196.2280207721719
 30
0.0
 11
248.4445838697956
 21
196.2280207721719
 31
0.0
  0
LINE
  5
ABCE
102
{ACAD_REACTORS
330
BCCD
102
}
330
1A
100
AcDbEntity
  8
1
100
AcDbLine
 10
245.4445838697956
 20
198.2280207721719
 30
0.0
 11
247.4445838697938
 21
196.2280207721719
 31
0.0
  0
LINE
  5
ABCF
102
{ACAD_REACTORS
330
BCCD
102
}
330
1A
100
AcDbEntity
  8
1
100
AcDbLine
 10
259.4445838697956
 20
195.728020772171
 30
0.0
 11
248.4445838697956
 21
195.7280207721701
 31
0.0
  0
LINE
  5
ABD0
102
{ACAD_REACTORS
330
BCCD
102
}
330
1A
100
AcDbEntity
  8
1
100
AcDbLine
 10
217.4142526573741
 20
196.2280207721719
 30
0.0
 11
244.4445838697956
 21
196.2280207721719
 31
0.0
  0
CIRCLE
  5
ABD2
102
{ACAD_REACTORS
330
B370
102
}
330
1A
100
AcDbEntity
  8
1
100
AcDbCircle
 10
206.4446214449726
 20
176.228020772166
 30
0.0
 40
7.0
  0
LINE
  5
ABD3
102
{ACAD_REACTORS
330
B370
102
}
330
1A
100
AcDbEntity
  8
1
100
AcDbLine
 10
191.4446214449672
 20
188.2280207721705
 30
0.0
 11
191.444621444969
 21
164.2280207721696
 31
0.0
  0
LINE
  5
ABD4
102
{ACAD_REACTORS
330
B370
102
}
330
1A
100
AcDbEntity
  8
1
100
AcDbLine
 10
220.5867570686987
 20
188.2280207721714
 30
0.0
 11
220.5867570686987
 21
164.2280207721696
 31
0.0
  0
CIRCLE
  5
ABD5
102
{ACAD_REACTORS
330
B370
102
}
330
1A
100
AcDbEntity
  8
1
 62
     9
100
AcDbCircle
 10
250.4446214449726
 20
176.228020772166
 30
0.0
 40
3.0
  0
CIRCLE
  5
ABD6
102
{ACAD_REACTORS
330
B370
102
}
330
1A
100
AcDbEntity
  8
1
100
AcDbCircle
 10
250.4446214449726
 20
176.228020772166
 30
0.0
 40
2.5
  0
ARC
  5
ABD7
102
{ACAD_REACTORS
330
B370
102
}
330
1A
100
AcDbEntity
  8
1
100
AcDbCircle
 10
246.4446026573877
 20
189.2280207721705
 30
0.0
 40
1.0
100
AcDbArc
 50
180.0
 51
270.0
  0
LINE
  5
ABD8
102
{ACAD_REACTORS
330
B370
102
}
330
1A
100
AcDbEntity
  8
1
100
AcDbLine
 10
245.4446026573878
 20
189.2280207721705
 30
0.0
 11
245.4446026573878
 21
196.2280207721696
 31
0.0
  0
CIRCLE
  5
ABD9
102
{ACAD_REACTORS
330
B370
102
}
330
1A
100
AcDbEntity
  8
1
100
AcDbCircle
 10
250.4446214449726
 20
176.228020772166
 30
0.0
 40
7.0
  0
ARC
  5
ABDA
102
{ACAD_REACTORS
330
BCCD
102
}
330
1A
100
AcDbEntity
  8
1
100
AcDbCircle
 10
274.4445838697956
 20
193.7280207721719
 30
0.0
 40
2.0
100
AcDbArc
 50
195.2452637187078
 51
344.754736281292
  0
ARC
  5
ABDB
102
{ACAD_REACTORS
330
BCCD
102
}
330
1A
100
AcDbEntity
  8
1
100
AcDbCircle
 10
271.4445838697956
 20
195.2280207721719
 30
0.0
 40
0.5
100
AcDbArc
 50
15.24526371870789
 51
164.7547362812921
  0
LINE
  5
ABDC
102
{ACAD_REACTORS
330
BCCD
102
}
330
1A
100
AcDbEntity
  8
1
100
AcDbLine
 10
271.9269884016302
 20
195.3594965025054
 30
0.0
 11
272.5149657424626
 21
193.2021178508389
 31
0.0
  0
LINE
  5
ABDD
102
{ACAD_REACTORS
330
BCCD
102
}
330
1A
100
AcDbEntity
  8
1
100
AcDbLine
 10
270.3742019971286
 20
193.2021178508389
 30
0.0
 11
270.962179337961
 21
195.3594965025054
 31
0.0
  0
LINE
  5
ABDE
102
{ACAD_REACTORS
330
BCCD
102
}
330
1A
100
AcDbEntity
  8
1
100
AcDbLine
 10
289.4445838697993
 20
196.2280207721719
 30
0.0
 11
288.4445838697974
 21
196.2280207721719
 31
0.0
  0
LINE
  5
ABDF
102
{ACAD_REACTORS
330
BCCD
102
}
330
1A
100
AcDbEntity
  8
1
100
AcDbLine
 10
292.4445838697975
 20
198.2280207721719
 30
0.0
 11
291.4445838697975
 21
198.2280207721719
 31
0.0
  0
LINE
  5
ABE0
102
{ACAD_REACTORS
330
BCCD
102
}
330
1A
100
AcDbEntity
  8
1
100
AcDbLine
 10
291.4445838697975
 20
198.2280207721719
 30
0.0
 11
289.4445838697993
 21
196.2280207721719
 31
0.0
  0
LINE
  5
ABE1
102
{ACAD_REACTORS
330
BCCD
102
}
330
1A
100
AcDbEntity
  8
1
100
AcDbLine
 10
292.4445838697975
 20
200.2280207721719
 30
0.0
 11
292.4445838697975
 21
198.2280207721719
 31
0.0
  0
ARC
  5
ABE2
102
{ACAD_REACTORS
330
BCCD
102
}
330
1A
100
AcDbEntity
  8
1
100
AcDbCircle
 10
277.4445838697956
 20
195.2280207721719
 30
0.0
 40
0.5
100
AcDbArc
 50
90.0
 51
164.7547362813423
  0
LINE
  5
ABE3
102
{ACAD_REACTORS
330
BCCD
102
}
330
1A
100
AcDbEntity
  8
1
100
AcDbLine
 10
276.3742019971286
 20
193.2021178508389
 30
0.0
 11
276.962179337961
 21
195.3594965025054
 31
0.0
  0
LINE
  5
ABE4
102
{ACAD_REACTORS
330
BCCD
102
}
330
1A
100
AcDbEntity
  8
1
100
AcDbLine
 10
288.4445838697993
 20
195.7280207721719
 30
0.0
 11
277.4445838697956
 21
195.728020772171
 31
0.0
  0
LINE
  5
ABE5
102
{ACAD_REACTORS
330
BCCD
102
}
330
1A
100
AcDbEntity
  8
1
100
AcDbLine
 10
292.4445838697956
 20
198.2280207721719
 30
0.0
 11
320.4445838697974
 21
198.2280207721719
 31
0.0
  0
CIRCLE
  5
ABE6
102
{ACAD_REACTORS
330
B370
102
}
330
1A
100
AcDbEntity
  8
1
100
AcDbCircle
 10
316.444621444969
 20
176.2280207721705
 30
0.0
 40
2.5
  0
CIRCLE
  5
ABE7
102
{ACAD_REACTORS
330
B370
102
}
330
1A
100
AcDbEntity
  8
1
 62
     9
100
AcDbCircle
 10
316.444621444969
 20
176.2280207721705
 30
0.0
 40
3.0
  0
CIRCLE
  5
ABE8
102
{ACAD_REACTORS
330
B370
102
}
330
1A
100
AcDbEntity
  8
1
100
AcDbCircle
 10
316.444621444969
 20
176.2280207721705
 30
0.0
 40
7.0
  0
ARC
  5
ABE9
102
{ACAD_REACTORS
330
B370
102
}
330
1A
100
AcDbEntity
  8
1
100
AcDbCircle
 10
339.1081997807505
 20
226.2280207721723
 30
0.0
 40
2.0
100
AcDbArc
 50
90.0
 51
178.9999999999726
  0
LINE
  5
ABEA
102
{ACAD_REACTORS
330
B370
102
}
330
1A
100
AcDbEntity
  8
1
100
AcDbLine
 10
336.4446026573896
 20
188.2280207721741
 30
0.0
 11
337.1085043904368
 21
226.262925585047
 31
0.0
  0
LINE
  5
ABEB
102
{ACAD_REACTORS
330
B370
102
}
330
1A
100
AcDbEntity
  8
1
100
AcDbLine
 10
332.3024858212356
 20
188.2280207721696
 30
0.0
 11
332.3024858212356
 21
164.2280207721714
 31
0.0
  0
LINE
  5
ABEC
102
{ACAD_REACTORS
330
B370
102
}
330
1A
100
AcDbEntity
  8
1
100
AcDbLine
 10
361.4446214449671
 20
188.2280207721696
 30
0.0
 11
361.4446214449671
 21
164.2280207721714
 31
0.0
  0
CIRCLE
  5
ABED
102
{ACAD_REACTORS
330
B370
102
}
330
1A
100
AcDbEntity
  8
1
100
AcDbCircle
 10
346.444621444969
 20
176.2280207721705
 30
0.0
 40
7.0
  0
LINE
  5
ABEE
102
{ACAD_REACTORS
330
B395
102
}
330
1A
100
AcDbEntity
  8
1
100
AcDbLine
 10
490.2090523900806
 20
228.2280207721691
 30
0.0
 11
534.881858143357
 21
228.2280207721701
 31
0.0
  0
LINE
  5
ABEF
102
{ACAD_REACTORS
330
B371
102
}
330
1A
100
AcDbEntity
  8
1
100
AcDbLine
 10
534.881858143357
 20
228.2280207721687
 30
0.0
 11
490.2090523900806
 21
228.2280207721696
 31
0.0
  0
LINE
  5
ABF0
102
{ACAD_REACTORS
330
B371
102
}
330
1A
100
AcDbEntity
  8
1
100
AcDbLine
 10
452.5454552667252
 20
164.2280207721714
 30
0.0
 11
572.5454552667251
 21
164.2280207721696
 31
0.0
  0
LINE
  5
ABF1
102
{ACAD_REACTORS
330
B395
102
}
330
1A
100
AcDbEntity
  8
1
100
AcDbLine
 10
475.0454552667161
 20
195.728020772171
 30
0.0
 11
487.6763682536839
 21
195.7280207721714
 31
0.0
  0
LINE
  5
ABF2
102
{ACAD_REACTORS
330
B395
102
}
330
1A
100
AcDbEntity
  8
1
100
AcDbLine
 10
475.0454552667161
 20
191.728020772171
 30
0.0
 11
487.6065479939716
 21
191.7280207721714
 31
0.0
  0
ARC
  5
ABF3
102
{ACAD_REACTORS
330
B395
102
}
330
1A
100
AcDbEntity
  8
1
100
AcDbCircle
 10
478.045455266716
 20
198.228020772171
 30
0.0
 40
2.5
100
AcDbArc
 50
180.0000000000006
 51
270.0000000000005
  0
ARC
  5
ABF4
102
{ACAD_REACTORS
330
B395
102
}
330
1A
100
AcDbEntity
  8
1
100
AcDbCircle
 10
475.0454552667161
 20
198.228020772171
 30
0.0
 40
2.5
100
AcDbArc
 50
180.0000000000006
 51
270.0000000000005
  0
ARC
  5
ABF5
102
{ACAD_REACTORS
330
B395
102
}
330
1A
100
AcDbEntity
  8
1
100
AcDbCircle
 10
475.0454552667161
 20
198.228020772171
 30
0.0
 40
6.5
100
AcDbArc
 50
180.0000000000006
 51
270.0000000000005
  0
LINE
  5
ABF6
102
{ACAD_REACTORS
330
B395
102
}
330
1A
100
AcDbEntity
  8
1
100
AcDbLine
 10
468.545455266716
 20
198.228020772171
 30
0.0
 11
468.5454552667124
 21
218.7280207721719
 31
0.0
  0
LINE
  5
ABF7
102
{ACAD_REACTORS
330
B395
102
}
330
1A
100
AcDbEntity
  8
1
100
AcDbLine
 10
472.5454552667143
 20
198.228020772171
 30
0.0
 11
472.5454552667143
 21
218.7280207721719
 31
0.0
  0
LINE
  5
ABF8
102
{ACAD_REACTORS
330
B395
102
}
330
1A
100
AcDbEntity
  8
1
100
AcDbLine
 10
475.5454552667161
 20
198.228020772171
 30
0.0
 11
475.5454552667142
 21
218.7280207721719
 31
0.0
  0
LINE
  5
ABF9
102
{ACAD_REACTORS
330
B370
102
}
330
1A
100
AcDbEntity
  8
1
100
AcDbLine
 10
386.444602657386
 20
188.2280207721741
 30
0.0
 11
386.444602657386
 21
164.228020772176
 31
0.0
  0
ARC
  5
ABFA
102
{ACAD_REACTORS
330
B370
102
}
330
1A
100
AcDbEntity
  8
1
100
AcDbCircle
 10
383.7810055340251
 20
226.2280207721733
 30
0.0
 40
2.0
100
AcDbArc
 50
0.9999999999752638
 51
90.0
  0
LINE
  5
ABFB
102
{ACAD_REACTORS
330
B370
102
}
330
1A
100
AcDbEntity
  8
1
100
AcDbLine
 10
386.444602657386
 20
188.2280207721741
 30
0.0
 11
385.7807009243387
 21
226.2629255850479
 31
0.0
  0
LINE
  5
ABFC
102
{ACAD_REACTORS
330
B370
102
}
330
1A
100
AcDbEntity
  8
1
100
AcDbLine
 10
388.444602657386
 20
183.2280207721705
 30
0.0
 11
388.444602657386
 21
169.2280207721705
 31
0.0
  0
LINE
  5
ABFD
102
{ACAD_REACTORS
330
B370
102
}
330
1A
100
AcDbEntity
  8
1
100
AcDbLine
 10
388.444602657386
 20
169.2280207721705
 30
0.0
 11
386.4446026573841
 21
169.2280207721705
 31
0.0
  0
LINE
  5
ABFE
102
{ACAD_REACTORS
330
B370
102
}
330
1A
100
AcDbEntity
  8
1
100
AcDbLine
 10
388.444602657386
 20
183.2280207721705
 30
0.0
 11
386.444602657386
 21
183.2280207721705
 31
0.0
  0
ARC
  5
ABFF
102
{ACAD_REACTORS
330
B371
102
}
330
1A
100
AcDbEntity
  8
1
100
AcDbCircle
 10
490.2090523900806
 20
226.2280207721696
 30
0.0
 40
2.0
100
AcDbArc
 50
90.0
 51
179.0000000000247
  0
ARC
  5
AC00
102
{ACAD_REACTORS
330
B371
102
}
330
1A
100
AcDbEntity
  8
1
100
AcDbCircle
 10
485.580060740489
 20
190.2280207721705
 30
0.0
 40
2.0
100
AcDbArc
 50
270.0
 51
359.0000000000247
  0
LINE
  5
AC01
102
{ACAD_REACTORS
330
B371
102
}
330
1A
100
AcDbEntity
  8
1
100
AcDbLine
 10
487.5797561308027
 20
190.1931159592959
 30
0.0
 11
488.2093569997668
 21
226.2629255850443
 31
0.0
  0
LINE
  5
AC02
102
{ACAD_REACTORS
330
B371
102
}
330
1A
100
AcDbEntity
  8
1
100
AcDbLine
 10
452.5454552667252
 20
164.2280207721714
 30
0.0
 11
452.5454552667252
 21
188.2280207721705
 31
0.0
  0
LINE
  5
AC03
102
{ACAD_REACTORS
330
B371
102
}
330
1A
100
AcDbEntity
  8
1
100
AcDbLine
 10
450.5454552667124
 20
169.2280207721742
 30
0.0
 11
450.5454552667142
 21
183.2280207721742
 31
0.0
  0
LINE
  5
AC04
102
{ACAD_REACTORS
330
B371
102
}
330
1A
100
AcDbEntity
  8
1
100
AcDbLine
 10
452.5454552667106
 20
169.2280207721751
 30
0.0
 11
450.5454552667124
 21
169.2280207721742
 31
0.0
  0
LINE
  5
AC05
102
{ACAD_REACTORS
330
B371
102
}
330
1A
100
AcDbEntity
  8
1
100
AcDbLine
 10
452.5454552667143
 20
183.2280207721742
 30
0.0
 11
450.5454552667142
 21
183.2280207721742
 31
0.0
  0
LINE
  5
AC06
102
{ACAD_REACTORS
330
B371
102
}
330
1A
100
AcDbEntity
  8
1
100
AcDbLine
 10
452.5454552667252
 20
188.2280207721705
 30
0.0
 11
489.3698349945443
 21
188.2280207721705
 31
0.0
  0
LINE
  5
AC07
102
{ACAD_REACTORS
330
B395
102
}
330
1A
100
AcDbEntity
  8
1
100
AcDbLine
 10
537.4843625394678
 20
191.7280207721714
 30
0.0
 11
550.0454552667142
 21
191.7280207721719
 31
0.0
  0
LINE
  5
AC08
102
{ACAD_REACTORS
330
B395
102
}
330
1A
100
AcDbEntity
  8
1
100
AcDbLine
 10
537.4145422797555
 20
195.7280207721714
 30
0.0
 11
550.0454552667142
 21
195.7280207721719
 31
0.0
  0
ARC
  5
AC09
102
{ACAD_REACTORS
330
B395
102
}
330
1A
100
AcDbEntity
  8
1
100
AcDbCircle
 10
550.0454552667142
 20
198.2280207721719
 30
0.0
 40
6.5
100
AcDbArc
 50
270.0000000000005
 51
0.0000000000005695
  0
ARC
  5
AC0A
102
{ACAD_REACTORS
330
B395
102
}
330
1A
100
AcDbEntity
  8
1
100
AcDbCircle
 10
550.0454552667142
 20
198.2280207721719
 30
0.0
 40
2.5
100
AcDbArc
 50
270.0000000000005
 51
0.0000000000005695
  0
ARC
  5
AC0B
102
{ACAD_REACTORS
330
B395
102
}
330
1A
100
AcDbEntity
  8
1
100
AcDbCircle
 10
547.0454552667142
 20
198.2280207721719
 30
0.0
 40
2.5
100
AcDbArc
 50
270.0000000000005
 51
0.0000000000005695
  0
LINE
  5
AC0C
102
{ACAD_REACTORS
330
B395
102
}
330
1A
100
AcDbEntity
  8
1
100
AcDbLine
 10
549.5454552667142
 20
218.7280207721723
 30
0.0
 11
549.5454552667142
 21
198.2280207721719
 31
0.0
  0
LINE
  5
AC0D
102
{ACAD_REACTORS
330
B395
102
}
330
1A
100
AcDbEntity
  8
1
100
AcDbLine
 10
552.5454552667143
 20
198.2280207721719
 30
0.0
 11
552.545455266716
 21
218.7280207721728
 31
0.0
  0
LINE
  5
AC0E
102
{ACAD_REACTORS
330
B395
102
}
330
1A
100
AcDbEntity
  8
1
100
AcDbLine
 10
556.5454552667143
 20
198.2280207721719
 30
0.0
 11
556.5454552667143
 21
218.7280207721728
 31
0.0
  0
LINE
  5
AC0F
102
{ACAD_REACTORS
330
B371
102
}
330
1A
100
AcDbEntity
  8
1
100
AcDbLine
 10
572.5454552667215
 20
164.2280207721696
 30
0.0
 11
572.5454552667197
 21
188.2280207721705
 31
0.0
  0
LINE
  5
AC10
102
{ACAD_REACTORS
330
B371
102
}
330
1A
100
AcDbEntity
  8
1
100
AcDbLine
 10
574.5454552667215
 20
169.2280207721705
 30
0.0
 11
574.5454552667215
 21
183.2280207721705
 31
0.0
  0
LINE
  5
AC11
102
{ACAD_REACTORS
330
B371
102
}
330
1A
100
AcDbEntity
  8
1
100
AcDbLine
 10
572.5454552667233
 20
169.2280207721714
 30
0.0
 11
574.5454552667215
 21
169.2280207721705
 31
0.0
  0
LINE
  5
AC12
102
{ACAD_REACTORS
330
B371
102
}
330
1A
100
AcDbEntity
  8
1
100
AcDbLine
 10
572.5454552667215
 20
183.2280207721705
 30
0.0
 11
574.5454552667215
 21
183.2280207721705
 31
0.0
  0
ARC
  5
AC13
102
{ACAD_REACTORS
330
B371
102
}
330
1A
100
AcDbEntity
  8
1
100
AcDbCircle
 10
534.881858143357
 20
226.2280207721687
 30
0.0
 40
2.0
100
AcDbArc
 50
1.000000000027358
 51
90.0
  0
ARC
  5
AC14
102
{ACAD_REACTORS
330
B371
102
}
330
1A
100
AcDbEntity
  8
1
100
AcDbCircle
 10
539.5108497929486
 20
190.2280207721705
 30
0.0
 40
2.0
100
AcDbArc
 50
181.0000000000273
 51
270.0
  0
LINE
  5
AC15
102
{ACAD_REACTORS
330
B371
102
}
330
1A
100
AcDbEntity
  8
1
100
AcDbLine
 10
537.5111544026367
 20
190.1931159592959
 30
0.0
 11
536.8815535336689
 21
226.2629255850433
 31
0.0
  0
CIRCLE
  5
AC16
102
{ACAD_REACTORS
330
B371
102
}
330
1A
100
AcDbEntity
  8
1
100
AcDbCircle
 10
512.5454552667179
 20
176.2280207721705
 30
0.0
 40
2.5
  0
CIRCLE
  5
AC17
102
{ACAD_REACTORS
330
B371
102
}
330
1A
100
AcDbEntity
  8
1
100
AcDbCircle
 10
512.5454552667179
 20
176.2280207721705
 30
0.0
 40
7.0
  0
CIRCLE
  5
AC18
102
{ACAD_REACTORS
330
B371
102
}
330
1A
100
AcDbEntity
  8
1
 62
     9
100
AcDbCircle
 10
512.5454552667179
 20
176.2280207721705
 30
0.0
 40
3.0
  0
LINE
  5
AC19
102
{ACAD_REACTORS
330
B371
102
}
330
1A
100
AcDbEntity
  8
1
100
AcDbLine
 10
535.7210755388914
 20
188.2280207721705
 30
0.0
 11
572.5454552667197
 21
188.2280207721705
 31
0.0
  0
CIRCLE
  5
ADA7
102
{ACAD_REACTORS
330
B37A
102
}
330
1A
100
AcDbEntity
  8
1
100
AcDbCircle
 10
361.444602657386
 20
483.4125432950031
 30
0.0
 40
18.5
  0
CIRCLE
  5
ADA8
102
{ACAD_REACTORS
330
B37A
102
}
330
1A
100
AcDbEntity
  8
1
100
AcDbCircle
 10
361.444602657386
 20
483.4125432950031
 30
0.0
 40
19.0
  0
LINE
  5
ADA9
102
{ACAD_REACTORS
330
B375
102
}
330
1A
100
AcDbEntity
  8
1
100
AcDbLine
 10
342.944602657375
 20
231.4280207721699
 30
0.0
 11
379.9446026573769
 21
231.4280207721708
 31
0.0
  0
LINE
  5
ADAA
102
{ACAD_REACTORS
330
B375
102
}
330
1A
100
AcDbEntity
  8
1
100
AcDbLine
 10
344.1240945816862
 20
231.4280207721708
 30
0.0
 11
378.7651107330639
 21
231.4280207721699
 31
0.0
  0
ARC
  5
ADAB
102
{ACAD_REACTORS
330
B375
102
}
330
1A
100
AcDbEntity
  8
1
100
AcDbCircle
 10
374.4349837141417
 20
239.7605525269032
 30
0.0
 40
7.667468245267238
100
AcDbArc
 50
55.61575253194652
 51
124.3842474680534
  0
LINE
  5
ADAC
102
{ACAD_REACTORS
330
B375
102
}
330
1A
100
AcDbEntity
  8
1
100
AcDbLine
 10
376.444602657375
 20
247.4280207721699
 30
0.0
 11
378.7651107330639
 21
246.0882748100143
 31
0.0
  0
LINE
  5
ADAE
330
1A
100
AcDbEntity
  8
1
  6
Continuous
100
AcDbLine
 10
386.4446026573878
 20
533.4125432950031
 30
0.0
 11
368.8052824323877
 21
533.4125432950031
 31
0.0
  0
LINE
  5
ADAF
330
1A
100
AcDbEntity
  8
1
  6
Continuous
100
AcDbLine
 10
386.4446026573878
 20
458.4125432950031
 30
0.0
 11
361.4446026573878
 21
458.4125432950031
 31
0.0
  0
LINE
  5
ADB0
330
1A
100
AcDbEntity
  8
1
  6
Continuous
100
AcDbLine
 10
368.8052824323877
 20
433.4125432950031
 30
0.0
 11
386.4446026573878
 21
433.4125432950031
 31
0.0
  0
LINE
  5
ADB1
330
1A
100
AcDbEntity
  8
1
  6
Continuous
100
AcDbLine
 10
361.4446026573878
 20
508.4125432950031
 30
0.0
 11
386.4446026573878
 21
508.4125432950031
 31
0.0
  0
LINE
  5
ADB2
102
{ACAD_REACTORS
330
B36E
102
}
330
1A
100
AcDbEntity
  8
1
  6
Continuous
100
AcDbLine
 10
386.4446026573878
 20
252.2280207721705
 30
0.0
 11
361.6432868109605
 21
252.2280207721705
 31
0.0
  0
LINE
  5
ADB3
102
{ACAD_REACTORS
330
B36E
102
}
330
1A
100
AcDbEntity
  8
1
  6
Continuous
100
AcDbLine
 10
368.8052824323877
 20
266.2280207721705
 30
0.0
 11
386.4446026573878
 21
266.2280207721705
 31
0.0
  0
LINE
  5
ADB4
102
{ACAD_REACTORS
330
B36E
102
}
330
1A
100
AcDbEntity
  8
1
  6
Continuous
100
AcDbLine
 10
368.8052824323877
 20
282.2280207721705
 30
0.0
 11
386.4446026573878
 21
282.2280207721705
 31
0.0
  0
LINE
  5
ADB5
102
{ACAD_REACTORS
330
BCCD
102
}
330
1A
100
AcDbEntity
  8
1
100
AcDbLine
 10
150.4445838697956
 20
239.2280207721719
 30
0.0
 11
244.4445838697956
 21
239.2280207721728
 31
0.0
  0
LINE
  5
ADB6
102
{ACAD_REACTORS
330
BCCD
102
}
330
1A
100
AcDbEntity
  8
1
100
AcDbLine
 10
115.9265258836294
 20
235.228020772171
 30
0.0
 11
121.326525883629
 21
235.228020772171
 31
0.0
  0
ARC
  5
ADB7
102
{ACAD_REACTORS
330
BCCD
102
}
330
1A
100
AcDbEntity
  8
1
100
AcDbCircle
 10
107.6271157640348
 20
234.3164780402907
 30
0.0
 40
8.299410119592771
100
AcDbArc
 50
338.5026913532688
 51
21.49730864677963
  0
LINE
  5
ADB8
102
{ACAD_REACTORS
330
BCCD
102
}
330
1A
100
AcDbEntity
  8
1
100
AcDbLine
 10
115.9265258836294
 20
236.7280207721719
 30
0.0
 11
115.3491756144394
 21
237.7280207721719
 31
0.0
  0
LINE
  5
ADB9
102
{ACAD_REACTORS
330
BCCD
102
}
330
1A
100
AcDbEntity
  8
1
100
AcDbLine
 10
115.3491756144394
 20
237.7280207721719
 30
0.0
 11
115.3491756144376
 21
237.3578593054394
 31
0.0
  0
ARC
  5
ADBA
102
{ACAD_REACTORS
330
BCCD
102
}
330
1A
100
AcDbEntity
  8
1
100
AcDbCircle
 10
129.6259360032254
 20
234.3164780402907
 30
0.0
 40
8.299410119592771
100
AcDbArc
 50
158.5026913532203
 51
201.4973086467311
  0
ARC
  5
ADBB
102
{ACAD_REACTORS
330
BCCD
102
}
330
1A
100
AcDbEntity
  8
1
100
AcDbCircle
 10
123.0271157640363
 20
234.3164780402907
 30
0.0
 40
8.299410119592771
100
AcDbArc
 50
338.5026913532688
 51
21.49730864677963
  0
LINE
  5
ADBC
102
{ACAD_REACTORS
330
BCCD
102
}
330
1A
100
AcDbEntity
  8
1
100
AcDbLine
 10
130.749175614439
 20
231.275096775143
 30
0.0
 11
121.903876152819
 21
231.275096775143
 31
0.0
  0
LINE
  5
ADBD
102
{ACAD_REACTORS
330
BCCD
102
}
330
1A
100
AcDbEntity
  8
1
100
AcDbLine
 10
121.903876152819
 20
237.7280207721719
 30
0.0
 11
121.9038761528226
 21
237.3578593054394
 31
0.0
  0
LINE
  5
ADBE
102
{ACAD_REACTORS
330
BCCD
102
}
330
1A
100
AcDbEntity
  8
1
100
AcDbLine
 10
130.749175614439
 20
237.7280207721728
 30
0.0
 11
130.749175614439
 21
237.3578593054394
 31
0.0
  0
LINE
  5
ADBF
102
{ACAD_REACTORS
330
BCCD
102
}
330
1A
100
AcDbEntity
  8
1
100
AcDbLine
 10
121.3265258836272
 20
236.7280207721719
 30
0.0
 11
121.903876152819
 21
237.7280207721719
 31
0.0
  0
LINE
  5
ADC0
102
{ACAD_REACTORS
330
BCCD
102
}
330
1A
100
AcDbEntity
  8
1
100
AcDbLine
 10
131.3265258836308
 20
236.7280207721719
 30
0.0
 11
130.749175614439
 21
237.7280207721719
 31
0.0
  0
LINE
  5
ADC1
102
{ACAD_REACTORS
330
BCCD
102
}
330
1A
100
AcDbEntity
  8
1
100
AcDbLine
 10
130.7491756144409
 20
237.3578593054394
 30
0.0
 11
121.903876152819
 21
237.3578593054394
 31
0.0
  0
LINE
  5
ADC2
102
{ACAD_REACTORS
330
BCCD
102
}
330
1A
100
AcDbEntity
  8
1
100
AcDbLine
 10
130.749175614439
 20
237.7280207721728
 30
0.0
 11
121.903876152819
 21
237.7280207721719
 31
0.0
  0
LINE
  5
ADC3
102
{ACAD_REACTORS
330
BCCD
102
}
330
1A
100
AcDbEntity
  8
1
100
AcDbLine
 10
131.3265258836308
 20
236.7280207721719
 30
0.0
 11
134.4445838697974
 21
236.7280207721719
 31
0.0
  0
LINE
  5
ADC4
102
{ACAD_REACTORS
330
BCCD
102
}
330
1A
100
AcDbEntity
  8
1
100
AcDbLine
 10
134.4445838697956
 20
231.275096775143
 30
0.0
 11
150.4445838697956
 21
231.275096775143
 31
0.0
  0
LINE
  5
ADC5
102
{ACAD_REACTORS
330
BCCD
102
}
330
1A
100
AcDbEntity
  8
1
100
AcDbLine
 10
134.4445838697974
 20
237.3578593054394
 30
0.0
 11
150.4445838697956
 21
237.3578593054394
 31
0.0
  0
LINE
  5
ADC6
102
{ACAD_REACTORS
330
BCCD
102
}
330
1A
100
AcDbEntity
  8
1
 48
0.2
100
AcDbLine
 10
134.4445838697993
 20
237.7280207721728
 30
0.0
 11
150.4445838697956
 21
237.7280207721728
 31
0.0
  0
LINE
  5
ADC7
102
{ACAD_REACTORS
330
BCCD
102
}
330
1A
100
AcDbEntity
  8
1
100
AcDbLine
 10
64.42652588362943
 20
231.978020772171
 30
0.0
 11
74.32652588362725
 21
231.978020772171
 31
0.0
  0
ARC
  5
ADC8
102
{ACAD_REACTORS
330
BCCD
102
}
330
1A
100
AcDbEntity
  8
1
100
AcDbCircle
 10
82.6259360032218
 20
234.3164780402907
 30
0.0
 40
8.299410119592771
100
AcDbArc
 50
158.5026913532203
 51
201.4973086467311
  0
LINE
  5
ADC9
102
{ACAD_REACTORS
330
BCCD
102
}
330
1A
100
AcDbEntity
  8
1
100
AcDbLine
 10
74.32652588362725
 20
236.7280207721719
 30
0.0
 11
74.90387615281907
 21
237.7280207721719
 31
0.0
  0
LINE
  5
ADCA
102
{ACAD_REACTORS
330
BCCD
102
}
330
1A
100
AcDbEntity
  8
1
100
AcDbLine
 10
74.90387615281907
 20
237.7280207721728
 30
0.0
 11
74.90387615281907
 21
237.3578593054394
 31
0.0
  0
LINE
  5
ADCB
102
{ACAD_REACTORS
330
BCCD
102
}
330
1A
100
AcDbEntity
  8
1
100
AcDbLine
 10
74.90387615281907
 20
231.275096775143
 30
0.0
 11
115.3491756144376
 21
231.275096775143
 31
0.0
  0
LINE
  5
ADCC
102
{ACAD_REACTORS
330
BCCD
102
}
330
1A
100
AcDbEntity
  8
1
100
AcDbLine
 10
74.90387615281725
 20
237.3578593054394
 30
0.0
 11
115.3491756144376
 21
237.3578593054394
 31
0.0
  0
LINE
  5
ADCD
102
{ACAD_REACTORS
330
BCCD
102
}
330
1A
100
AcDbEntity
  8
1
100
AcDbLine
 10
74.90387615281907
 20
237.7280207721728
 30
0.0
 11
115.3491756144394
 21
237.7280207721719
 31
0.0
  0
ARC
  5
ADCE
102
{ACAD_REACTORS
330
BCCD
102
}
330
1A
100
AcDbEntity
  8
1
100
AcDbCircle
 10
268.4445838697957
 20
243.7280207721719
 30
0.0
 40
2.0
100
AcDbArc
 50
15.24526371865762
 51
164.7547362812921
  0
LINE
  5
ADCF
102
{ACAD_REACTORS
330
B36E
102
}
330
1A
100
AcDbEntity
  8
1
  6
Continuous
100
AcDbLine
 10
280.9852619534412
 20
252.2280207721705
 30
0.0
 11
255.6734822136022
 21
252.2280207721705
 31
0.0
  0
LINE
  5
ADD0
102
{ACAD_REACTORS
330
B36E
102
}
330
1A
100
AcDbEntity
  8
1
  6
Continuous
100
AcDbLine
 10
256.1891653039256
 20
266.2280207721705
 30
0.0
 11
310.7000400108499
 21
266.2280207721705
 31
0.0
  0
LINE
  5
ADD1
102
{ACAD_REACTORS
330
B36E
102
}
330
1A
100
AcDbEntity
  8
1
  6
Continuous
100
AcDbLine
 10
243.8052824323877
 20
282.2280207721705
 30
0.0
 11
324.0839228823915
 21
282.2280207721705
 31
0.0
  0
LINE
  5
ADD4
102
{ACAD_REACTORS
330
BCCD
102
}
330
1A
100
AcDbEntity
  8
1
100
AcDbLine
 10
264.962179337961
 20
242.0965450418384
 30
0.0
 11
264.3742019971286
 21
244.2539236935049
 31
0.0
  0
LINE
  5
ADD5
102
{ACAD_REACTORS
330
BCCD
102
}
330
1A
100
AcDbEntity
  8
1
100
AcDbLine
 10
266.5149657424626
 20
244.2539236935049
 30
0.0
 11
265.9269884016302
 21
242.0965450418384
 31
0.0
  0
ARC
  5
ADD6
102
{ACAD_REACTORS
330
BCCD
102
}
330
1A
100
AcDbEntity
  8
1
100
AcDbCircle
 10
265.4445838697956
 20
242.2280207721719
 30
0.0
 40
0.5
100
AcDbArc
 50
195.2452637186576
 51
344.7547362813423
  0
LINE
  5
ADD7
102
{ACAD_REACTORS
330
BCCD
102
}
330
1A
100
AcDbEntity
  8
1
100
AcDbLine
 10
260.5149657424626
 20
244.2539236935049
 30
0.0
 11
259.9269884016302
 21
242.0965450418384
 31
0.0
  0
ARC
  5
ADD8
102
{ACAD_REACTORS
330
BCCD
102
}
330
1A
100
AcDbEntity
  8
1
100
AcDbCircle
 10
259.4445838697956
 20
242.2280207721719
 30
0.0
 40
0.5
100
AcDbArc
 50
270.0
 51
344.754736281292
  0
ARC
  5
ADD9
102
{ACAD_REACTORS
330
BCCD
102
}
330
1A
100
AcDbEntity
  8
1
100
AcDbCircle
 10
262.4445838697957
 20
243.7280207721719
 30
0.0
 40
2.0
100
AcDbArc
 50
15.24526371870789
 51
164.7547362812921
  0
LINE
  5
ADDA
102
{ACAD_REACTORS
330
BCCD
102
}
330
1A
100
AcDbEntity
  8
1
100
AcDbLine
 10
244.4445838697956
 20
239.2280207721719
 30
0.0
 11
245.4445838697956
 21
239.2280207721719
 31
0.0
  0
LINE
  5
ADDB
102
{ACAD_REACTORS
330
BCCD
102
}
330
1A
100
AcDbEntity
  8
1
100
AcDbLine
 10
247.4445838697956
 20
241.2280207721719
 30
0.0
 11
248.4445838697956
 21
241.2280207721719
 31
0.0
  0
LINE
  5
ADDC
102
{ACAD_REACTORS
330
BCCD
102
}
330
1A
100
AcDbEntity
  8
1
100
AcDbLine
 10
245.4445838697956
 20
239.2280207721719
 30
0.0
 11
247.4445838697938
 21
241.2280207721719
 31
0.0
  0
LINE
  5
ADDD
102
{ACAD_REACTORS
330
BCCD
102
}
330
1A
100
AcDbEntity
  8
1
100
AcDbLine
 10
244.4445838697956
 20
237.2280207721719
 30
0.0
 11
244.4445838697956
 21
239.2280207721719
 31
0.0
  0
LINE
  5
ADDE
102
{ACAD_REACTORS
330
BCCD
102
}
330
1A
100
AcDbEntity
  8
1
100
AcDbLine
 10
259.4445838697956
 20
241.7280207721728
 30
0.0
 11
248.4445838697956
 21
241.7280207721737
 31
0.0
  0
CIRCLE
  5
ADE1
102
{ACAD_REACTORS
330
B36E
102
}
330
1A
100
AcDbEntity
  8
1
  6
Continuous
100
AcDbCircle
 10
250.4446026573877
 20
270.2280207721705
 30
0.0
 40
6.999999999999999
  0
LINE
  5
ADE2
102
{ACAD_REACTORS
330
B36E
102
}
330
1A
100
AcDbEntity
  8
1
  6
Continuous
100
AcDbLine
 10
255.6734822136022
 20
252.2280207721705
 30
0.0
 11
240.6109194098589
 21
262.042975348394
 31
0.0
  0
LINE
  5
ADE3
102
{ACAD_REACTORS
330
B36E
102
}
330
1A
100
AcDbEntity
  8
1
  6
Continuous
100
AcDbLine
 10
237.8291875651175
 20
262.042975348394
 30
0.0
 11
252.8917503688626
 21
252.2280207721705
 31
0.0
  0
LINE
  5
ADE4
102
{ACAD_REACTORS
330
B36E
102
}
330
1A
100
AcDbEntity
  8
1
  6
Continuous
100
AcDbLine
 10
232.6249425448877
 20
266.2280207721705
 30
0.0
 11
243.8052824323877
 21
266.2280207721705
 31
0.0
  0
LINE
  5
ADE5
102
{ACAD_REACTORS
330
B36E
102
}
330
1A
100
AcDbEntity
  8
1
  6
Continuous
100
AcDbLine
 10
232.6249425448877
 20
282.2280207721705
 30
0.0
 11
243.8052824323877
 21
282.2280207721705
 31
0.0
  0
LINE
  5
ADE6
102
{ACAD_REACTORS
330
B36E
102
}
330
1A
100
AcDbEntity
  8
1
  6
Continuous
100
AcDbLine
 10
243.8052824323877
 20
266.2280207721705
 30
0.0
 11
244.7000400108499
 21
266.2280207721705
 31
0.0
  0
LINE
  5
ADE7
102
{ACAD_REACTORS
330
B36E
102
}
330
1A
100
AcDbEntity
  8
1
  6
Continuous
100
AcDbLine
 10
236.2200534874882
 20
266.2280207721705
 30
0.0
 11
236.2200534874882
 21
263.5776297053516
 31
0.0
  0
CIRCLE
  5
ADE8
102
{ACAD_REACTORS
330
B36E
102
}
330
1A
100
AcDbEntity
  8
1
  6
Continuous
 62
     9
100
AcDbCircle
 10
250.4446026573877
 20
270.2280207721705
 30
0.0
 40
3.0
  0
LINE
  5
ADE9
102
{ACAD_REACTORS
330
B36E
102
}
330
1A
100
AcDbEntity
  8
1
  6
Continuous
100
AcDbLine
 10
252.8917503688626
 20
252.2280207721705
 30
0.0
 11
255.6734822136022
 21
252.2280207721705
 31
0.0
  0
CIRCLE
  5
ADEA
102
{ACAD_REACTORS
330
B36E
102
}
330
1A
100
AcDbEntity
  8
1
  6
Continuous
100
AcDbCircle
 10
250.4446026573877
 20
270.2280207721705
 30
0.0
 40
2.458499999999999
  0
LINE
  5
ADEB
102
{ACAD_REACTORS
330
B36E
102
}
330
1A
100
AcDbEntity
  8
1
  6
Continuous
100
AcDbLine
 10
206.4446026573877
 20
282.2280207721705
 30
0.0
 11
206.4446026573877
 21
266.2280207721705
 31
0.0
  0
CIRCLE
  5
ADEC
102
{ACAD_REACTORS
330
B36E
102
}
330
1A
100
AcDbEntity
  8
1
  6
Continuous
100
AcDbCircle
 10
221.4446026573877
 20
274.2280207721705
 30
0.0
 40
7.0
  0
ARC
  5
ADED
102
{ACAD_REACTORS
330
B36E
102
}
330
1A
100
AcDbEntity
  8
1
  6
HIDDEN2
100
AcDbCircle
 10
221.4446026573877
 20
274.2280207721705
 30
0.0
 40
6.999999999999997
100
AcDbArc
 50
86.88646558693154
 51
90.85678676254502
  0
ARC
  5
ADEE
102
{ACAD_REACTORS
330
B36E
102
}
330
1A
100
AcDbEntity
  8
1
  6
HIDDEN2
100
AcDbCircle
 10
221.4446026573877
 20
274.2280207721705
 30
0.0
 40
6.999999999999997
100
AcDbArc
 50
0.000000000000007
 51
0.4802147141776855
  0
ARC
  5
ADEF
102
{ACAD_REACTORS
330
B36E
102
}
330
1A
100
AcDbEntity
  8
1
  6
HIDDEN2
100
AcDbCircle
 10
221.4446026573877
 20
274.2280207721705
 30
0.0
 40
6.999999999999997
100
AcDbArc
 50
354.464296727896
 51
0.000000000000007
  0
LINE
  5
ADF0
102
{ACAD_REACTORS
330
B36E
102
}
330
1A
100
AcDbEntity
  8
1
  6
Continuous
100
AcDbLine
 10
206.4446026573896
 20
266.2280207721705
 30
0.0
 11
232.6249425448877
 21
266.2280207721705
 31
0.0
  0
LINE
  5
ADF1
102
{ACAD_REACTORS
330
B36E
102
}
330
1A
100
AcDbEntity
  8
1
  6
Continuous
100
AcDbLine
 10
206.4446026573896
 20
282.2280207721705
 30
0.0
 11
232.6249425448877
 21
282.2280207721705
 31
0.0
  0
ARC
  5
ADF2
102
{ACAD_REACTORS
330
B373
102
}
330
1A
100
AcDbEntity
  8
1
100
AcDbCircle
 10
320.4446026573768
 20
246.2280207721728
 30
0.0
 40
3.0
100
AcDbArc
 50
270.0
 51
90.0
  0
LINE
  5
ADF3
102
{ACAD_REACTORS
330
B373
102
}
330
1A
100
AcDbEntity
  8
1
100
AcDbLine
 10
322.4446026573768
 20
241.2280207721728
 30
0.0
 11
318.9446026573769
 21
241.2280207721728
 31
0.0
  0
LINE
  5
ADF4
102
{ACAD_REACTORS
330
B373
102
}
330
1A
100
AcDbEntity
  8
1
100
AcDbLine
 10
322.4446026573768
 20
239.2280207721728
 30
0.0
 11
317.9446026573768
 21
239.2280207721728
 31
0.0
  0
ARC
  5
ADF5
102
{ACAD_REACTORS
330
B373
102
}
330
1A
100
AcDbEntity
  8
1
100
AcDbCircle
 10
319.4446026573769
 20
250.2280207721728
 30
0.0
 40
1.0
100
AcDbArc
 50
180.0
 51
270.0
  0
ARC
  5
ADF6
102
{ACAD_REACTORS
330
B373
102
}
330
1A
100
AcDbEntity
  8
1
100
AcDbCircle
 10
318.9446026573769
 20
242.2280207721728
 30
0.0
 40
1.0
100
AcDbArc
 50
90.0
 51
270.0
  0
LINE
  5
ADF7
102
{ACAD_REACTORS
330
B373
102
}
330
1A
100
AcDbEntity
  8
1
100
AcDbLine
 10
320.4446026573768
 20
249.2280207721728
 30
0.0
 11
319.4446026573769
 21
249.2280207721728
 31
0.0
  0
LINE
  5
ADF8
102
{ACAD_REACTORS
330
B373
102
}
330
1A
100
AcDbEntity
  8
1
100
AcDbLine
 10
320.4446026573768
 20
243.2280207721728
 30
0.0
 11
318.9446026573769
 21
243.2280207721728
 31
0.0
  0
LINE
  5
ADF9
102
{ACAD_REACTORS
330
B375
102
}
330
1A
100
AcDbEntity
  8
1
100
AcDbLine
 10
370.1048566952195
 20
246.0882748100143
 30
0.0
 11
370.1048566952195
 21
231.4280207721699
 31
0.0
  0
LINE
  5
ADFA
102
{ACAD_REACTORS
330
B375
102
}
330
1A
100
AcDbEntity
  8
1
100
AcDbLine
 10
352.7843486195288
 20
246.0882748100143
 30
0.0
 11
352.7843486195306
 21
231.4280207721699
 31
0.0
  0
LINE
  5
ADFB
102
{ACAD_REACTORS
330
B375
102
}
330
1A
100
AcDbEntity
  8
1
100
AcDbLine
 10
344.1240945816844
 20
246.0882748100143
 30
0.0
 11
344.1240945816862
 21
231.4280207721708
 31
0.0
  0
ARC
  5
ADFC
102
{ACAD_REACTORS
330
B375
102
}
330
1A
100
AcDbEntity
  8
1
100
AcDbCircle
 10
361.444602657375
 20
218.7677667343255
 30
0.0
 40
28.66025403784447
100
AcDbArc
 50
72.41204622600619
 51
107.5879537739938
  0
ARC
  5
ADFD
102
{ACAD_REACTORS
330
B375
102
}
330
1A
100
AcDbEntity
  8
1
100
AcDbCircle
 10
348.4542216006084
 20
239.7605525269032
 30
0.0
 40
7.667468245267238
100
AcDbArc
 50
55.61575253194651
 51
124.3842474680534
  0
LINE
  5
ADFE
102
{ACAD_REACTORS
330
B375
102
}
330
1A
100
AcDbEntity
  8
1
100
AcDbLine
 10
346.444602657375
 20
247.4280207721699
 30
0.0
 11
376.444602657375
 21
247.4280207721699
 31
0.0
  0
LINE
  5
ADFF
102
{ACAD_REACTORS
330
B375
102
}
330
1A
100
AcDbEntity
  8
1
100
AcDbLine
 10
346.444602657375
 20
247.4280207721699
 30
0.0
 11
344.1240945816862
 21
246.0882748100143
 31
0.0
  0
LINE
  5
AE00
102
{ACAD_REACTORS
330
B375
102
}
330
1A
100
AcDbEntity
  8
1
100
AcDbLine
 10
371.444602657375
 20
252.2280207721701
 30
0.0
 11
371.444602657375
 21
247.4280207721699
 31
0.0
  0
LINE
  5
AE01
102
{ACAD_REACTORS
330
B375
102
}
330
1A
100
AcDbEntity
  8
1
100
AcDbLine
 10
351.444602657375
 20
252.2280207721701
 30
0.0
 11
351.444602657375
 21
247.4280207721699
 31
0.0
  0
LINE
  5
AE02
102
{ACAD_REACTORS
330
B373
102
}
330
1A
100
AcDbEntity
  8
1
100
AcDbLine
 10
322.4446026573768
 20
239.2280207721728
 30
0.0
 11
322.4446026573768
 21
241.2280207721728
 31
0.0
  0
LINE
  5
AE03
102
{ACAD_REACTORS
330
B373
102
}
330
1A
100
AcDbEntity
  8
1
100
AcDbLine
 10
324.4446026573787
 20
250.2280207721728
 30
0.0
 11
324.4446026573768
 21
252.2280207721692
 31
0.0
  0
ARC
  5
AE04
102
{ACAD_REACTORS
330
BCCD
102
}
330
1A
100
AcDbEntity
  8
1
100
AcDbCircle
 10
274.4445838697956
 20
243.7280207721719
 30
0.0
 40
2.0
100
AcDbArc
 50
15.24526371870789
 51
164.7547362812921
  0
LINE
  5
AE05
102
{ACAD_REACTORS
330
BCCD
102
}
330
1A
100
AcDbEntity
  8
1
100
AcDbLine
 10
270.3742019971286
 20
244.2539236935049
 30
0.0
 11
270.962179337961
 21
242.0965450418384
 31
0.0
  0
LINE
  5
AE06
102
{ACAD_REACTORS
330
BCCD
102
}
330
1A
100
AcDbEntity
  8
1
100
AcDbLine
 10
271.9269884016302
 20
242.0965450418384
 30
0.0
 11
272.5149657424626
 21
244.2539236935049
 31
0.0
  0
ARC
  5
AE07
102
{ACAD_REACTORS
330
BCCD
102
}
330
1A
100
AcDbEntity
  8
1
100
AcDbCircle
 10
271.4445838697956
 20
242.2280207721719
 30
0.0
 40
0.5
100
AcDbArc
 50
195.2452637187078
 51
344.754736281292
  0
LINE
  5
AE08
102
{ACAD_REACTORS
330
BCCD
102
}
330
1A
100
AcDbEntity
  8
1
100
AcDbLine
 10
291.4445838697975
 20
239.2280207721719
 30
0.0
 11
289.4445838697993
 21
241.2280207721719
 31
0.0
  0
LINE
  5
AE09
102
{ACAD_REACTORS
330
BCCD
102
}
330
1A
100
AcDbEntity
  8
1
100
AcDbLine
 10
292.4445838697975
 20
239.2280207721719
 30
0.0
 11
291.4445838697975
 21
239.2280207721719
 31
0.0
  0
LINE
  5
AE0A
102
{ACAD_REACTORS
330
BCCD
102
}
330
1A
100
AcDbEntity
  8
1
100
AcDbLine
 10
289.4445838697993
 20
241.2280207721719
 30
0.0
 11
288.4445838697974
 21
241.2280207721719
 31
0.0
  0
LINE
  5
AE0B
102
{ACAD_REACTORS
330
BCCD
102
}
330
1A
100
AcDbEntity
  8
1
100
AcDbLine
 10
276.3742019971286
 20
244.2539236935049
 30
0.0
 11
276.962179337961
 21
242.0965450418384
 31
0.0
  0
ARC
  5
AE0C
102
{ACAD_REACTORS
330
BCCD
102
}
330
1A
100
AcDbEntity
  8
1
100
AcDbCircle
 10
277.4445838697956
 20
242.2280207721719
 30
0.0
 40
0.5
100
AcDbArc
 50
195.2452637186576
 51
270.0
  0
LINE
  5
AE0D
102
{ACAD_REACTORS
330
BCCD
102
}
330
1A
100
AcDbEntity
  8
1
100
AcDbLine
 10
288.4445838697993
 20
241.7280207721719
 30
0.0
 11
277.4445838697956
 21
241.7280207721728
 31
0.0
  0
LINE
  5
AE0E
102
{ACAD_REACTORS
330
BCCD
102
}
330
1A
100
AcDbEntity
  8
1
100
AcDbLine
 10
292.4445838697975
 20
237.2280207721719
 30
0.0
 11
292.4445838697975
 21
239.2280207721719
 31
0.0
  0
ARC
  5
AE0F
102
{ACAD_REACTORS
330
B373
102
}
330
1A
100
AcDbEntity
  8
1
100
AcDbCircle
 10
294.4446026573769
 20
246.2280207721728
 30
0.0
 40
3.0
100
AcDbArc
 50
90.0
 51
270.0
  0
ARC
  5
AE10
102
{ACAD_REACTORS
330
B373
102
}
330
1A
100
AcDbEntity
  8
1
100
AcDbCircle
 10
295.4446026573768
 20
250.2280207721728
 30
0.0
 40
1.0
100
AcDbArc
 50
270.0
 51
0.0
  0
ARC
  5
AE11
102
{ACAD_REACTORS
330
B373
102
}
330
1A
100
AcDbEntity
  8
1
100
AcDbCircle
 10
295.9446026573768
 20
242.2280207721728
 30
0.0
 40
1.0
100
AcDbArc
 50
270.0
 51
90.0
  0
LINE
  5
AE12
102
{ACAD_REACTORS
330
B373
102
}
330
1A
100
AcDbEntity
  8
1
100
AcDbLine
 10
292.4446026573768
 20
239.2280207721728
 30
0.0
 11
296.9446026573768
 21
239.2280207721728
 31
0.0
  0
LINE
  5
AE13
102
{ACAD_REACTORS
330
B373
102
}
330
1A
100
AcDbEntity
  8
1
100
AcDbLine
 10
292.4446026573768
 20
239.2280207721728
 30
0.0
 11
292.4446026573768
 21
241.2280207721728
 31
0.0
  0
LINE
  5
AE14
102
{ACAD_REACTORS
330
B373
102
}
330
1A
100
AcDbEntity
  8
1
100
AcDbLine
 10
292.4446026573768
 20
241.2280207721728
 30
0.0
 11
295.9446026573768
 21
241.2280207721728
 31
0.0
  0
LINE
  5
AE15
102
{ACAD_REACTORS
330
B373
102
}
330
1A
100
AcDbEntity
  8
1
100
AcDbLine
 10
294.4446026573769
 20
243.2280207721728
 30
0.0
 11
295.9446026573768
 21
243.2280207721728
 31
0.0
  0
LINE
  5
AE16
102
{ACAD_REACTORS
330
B373
102
}
330
1A
100
AcDbEntity
  8
1
100
AcDbLine
 10
294.4446026573769
 20
249.2280207721728
 30
0.0
 11
295.4446026573768
 21
249.2280207721728
 31
0.0
  0
LINE
  5
AE17
102
{ACAD_REACTORS
330
B373
102
}
330
1A
100
AcDbEntity
  8
1
100
AcDbLine
 10
290.4446026573787
 20
250.228020772171
 30
0.0
 11
290.4446026573787
 21
252.2280207721692
 31
0.0
  0
LINE
  5
AE18
102
{ACAD_REACTORS
330
B373
102
}
330
1A
100
AcDbEntity
  8
1
100
AcDbLine
 10
290.4446026573787
 20
250.228020772171
 30
0.0
 11
324.4446026573787
 21
250.2280207721719
 31
0.0
  0
LINE
  5
AE19
102
{ACAD_REACTORS
330
BCCD
102
}
330
1A
100
AcDbEntity
  8
1
100
AcDbLine
 10
292.4445838697956
 20
239.2280207721728
 30
0.0
 11
320.4445838697974
 21
239.2280207721728
 31
0.0
  0
LINE
  5
AE1A
102
{ACAD_REACTORS
330
B373
102
}
330
1A
100
AcDbEntity
  8
1
100
AcDbLine
 10
295.4446026573768
 20
249.2280207721728
 30
0.0
 11
319.4446026573769
 21
249.2280207721728
 31
0.0
  0
LINE
  5
AE1B
102
{ACAD_REACTORS
330
B373
102
}
330
1A
100
AcDbEntity
  8
1
100
AcDbLine
 10
295.9446026573768
 20
243.2280207721728
 30
0.0
 11
318.9446026573769
 21
243.2280207721728
 31
0.0
  0
LINE
  5
AE1C
102
{ACAD_REACTORS
330
B373
102
}
330
1A
100
AcDbEntity
  8
1
100
AcDbLine
 10
295.9446026573768
 20
241.2280207721728
 30
0.0
 11
318.9446026573769
 21
241.2280207721728
 31
0.0
  0
CIRCLE
  5
AE1D
102
{ACAD_REACTORS
330
B36E
102
}
330
1A
100
AcDbEntity
  8
1
  6
Continuous
 62
     9
100
AcDbCircle
 10
316.4446026573878
 20
270.2280207721705
 30
0.0
 40
3.0
  0
CIRCLE
  5
AE1E
102
{ACAD_REACTORS
330
B36E
102
}
330
1A
100
AcDbEntity
  8
1
  6
Continuous
100
AcDbCircle
 10
316.4446026573878
 20
270.2280207721705
 30
0.0
 40
2.458499999999999
  0
LINE
  5
AE1F
102
{ACAD_REACTORS
330
B36E
102
}
330
1A
100
AcDbEntity
  8
1
  6
Continuous
100
AcDbLine
 10
284.7262973865854
 20
252.2280207721705
 30
0.0
 11
280.9852619534412
 21
252.2280207721705
 31
0.0
  0
LINE
  5
AE20
102
{ACAD_REACTORS
330
B36E
102
}
330
1A
100
AcDbEntity
  8
1
  6
Continuous
100
AcDbLine
 10
307.4446026573878
 20
252.2280207721705
 30
0.0
 11
284.7262973865854
 21
252.2280207721705
 31
0.0
  0
LINE
  5
AE21
102
{ACAD_REACTORS
330
B36E
102
}
330
1A
100
AcDbEntity
  8
1
  6
Continuous
100
AcDbLine
 10
324.0839228823915
 20
266.2280207721705
 30
0.0
 11
335.2642627698896
 21
266.2280207721705
 31
0.0
  0
LINE
  5
AE22
102
{ACAD_REACTORS
330
B36E
102
}
330
1A
100
AcDbEntity
  8
1
  6
Continuous
100
AcDbLine
 10
324.0839228823915
 20
282.2280207721705
 30
0.0
 11
335.2642627698896
 21
282.2280207721705
 31
0.0
  0
LINE
  5
AE23
102
{ACAD_REACTORS
330
B36E
102
}
330
1A
100
AcDbEntity
  8
1
  6
Continuous
100
AcDbLine
 10
322.1891653039256
 20
266.2280207721705
 30
0.0
 11
324.0839228823915
 21
266.2280207721705
 31
0.0
  0
CIRCLE
  5
AE24
102
{ACAD_REACTORS
330
B36E
102
}
330
1A
100
AcDbEntity
  8
1
  6
Continuous
100
AcDbCircle
 10
346.4446026573877
 20
274.2280207721705
 30
0.0
 40
7.000000000000006
  0
LINE
  5
AE25
102
{ACAD_REACTORS
330
B36E
102
}
330
1A
100
AcDbEntity
  8
1
  6
Continuous
100
AcDbLine
 10
361.6432868109605
 20
252.2280207721705
 30
0.0
 11
346.4446026573877
 21
252.2280207721705
 31
0.0
  0
LINE
  5
AE26
102
{ACAD_REACTORS
330
B36E
102
}
330
1A
100
AcDbEntity
  8
1
  6
Continuous
100
AcDbLine
 10
335.2642627698896
 20
266.2280207721705
 30
0.0
 11
357.6249425448877
 21
266.2280207721705
 31
0.0
  0
LINE
  5
AE27
102
{ACAD_REACTORS
330
B36E
102
}
330
1A
100
AcDbEntity
  8
1
  6
Continuous
100
AcDbLine
 10
335.2642627698896
 20
282.2280207721705
 30
0.0
 11
357.6249425448877
 21
282.2280207721705
 31
0.0
  0
ARC
  5
AE28
102
{ACAD_REACTORS
330
B36E
102
}
330
1A
100
AcDbEntity
  8
1
  6
HIDDEN2
100
AcDbCircle
 10
346.4446026573877
 20
274.2280207721705
 30
0.0
 40
7.000000000000007
100
AcDbArc
 50
86.88646558693154
 51
90.85678676254502
  0
LINE
  5
AE29
102
{ACAD_REACTORS
330
B36E
102
}
330
1A
100
AcDbEntity
  8
1
  6
Continuous
100
AcDbLine
 10
357.6249425448877
 20
266.2280207721705
 30
0.0
 11
368.8052824323877
 21
266.2280207721705
 31
0.0
  0
LINE
  5
AE2A
102
{ACAD_REACTORS
330
B36E
102
}
330
1A
100
AcDbEntity
  8
1
  6
Continuous
100
AcDbLine
 10
361.6432868109605
 20
266.2280207721705
 30
0.0
 11
361.6432868109605
 21
252.2280207721705
 31
0.0
  0
LINE
  5
AE2B
102
{ACAD_REACTORS
330
B36E
102
}
330
1A
100
AcDbEntity
  8
1
  6
Continuous
100
AcDbLine
 10
357.6249425448877
 20
282.2280207721705
 30
0.0
 11
368.8052824323877
 21
282.2280207721705
 31
0.0
  0
ARC
  5
AE2C
102
{ACAD_REACTORS
330
B36E
102
}
330
1A
100
AcDbEntity
  8
1
  6
HIDDEN2
100
AcDbCircle
 10
346.4446026573877
 20
274.2280207721705
 30
0.0
 40
7.000000000000007
100
AcDbArc
 50
0.000000000000007
 51
0.4802147141776855
  0
ARC
  5
AE2D
102
{ACAD_REACTORS
330
B36E
102
}
330
1A
100
AcDbEntity
  8
1
  6
HIDDEN2
100
AcDbCircle
 10
346.4446026573877
 20
274.2280207721705
 30
0.0
 40
7.000000000000007
100
AcDbArc
 50
354.464296727896
 51
0.000000000000007
  0
CIRCLE
  5
AE2E
102
{ACAD_REACTORS
330
B36E
102
}
330
1A
100
AcDbEntity
  8
1
  6
Continuous
100
AcDbCircle
 10
316.4446026573878
 20
270.2280207721705
 30
0.0
 40
7.000000000000006
  0
LINE
  5
AE2F
102
{ACAD_REACTORS
330
B36E
102
}
330
1A
100
AcDbEntity
  8
1
  6
Continuous
100
AcDbLine
 10
346.4446026573877
 20
252.2280207721705
 30
0.0
 11
307.4446026573878
 21
252.2280207721705
 31
0.0
  0
LINE
  5
AE30
330
1A
100
AcDbEntity
  8
1
100
AcDbLine
 10
150.4445838698084
 20
504.9125398467267
 30
0.0
 11
242.3670598227181
 21
504.9125398467249
 31
0.0
  0
LINE
  5
AE31
330
1A
100
AcDbEntity
  8
1
100
AcDbLine
 10
150.4445838698084
 20
461.9125398467267
 30
0.0
 11
242.3670598227181
 21
461.9125398467286
 31
0.0
  0
LINE
  5
AE32
330
1A
100
AcDbEntity
  8
1
100
AcDbLine
 10
152.4446026573878
 20
506.4125432950032
 30
0.0
 11
240.7059629416453
 21
506.4125432950032
 31
0.0
  0
LINE
  5
AE33
330
1A
100
AcDbEntity
  8
1
100
AcDbLine
 10
152.4446026573878
 20
460.4125432950032
 30
0.0
 11
240.7059629416471
 21
460.4125432950036
 31
0.0
  0
LINE
  5
AE34
330
1A
100
AcDbEntity
  8
1
100
AcDbLine
 10
64.4265174650609
 20
486.9125398467267
 30
0.0
 11
48.09158774895696
 21
486.9125398467267
 31
0.0
  0
LINE
  5
AE35
330
1A
100
AcDbEntity
  8
1
100
AcDbLine
 10
64.4265174650609
 20
479.9125398467267
 30
0.0
 11
48.09158774895696
 21
479.9125398467267
 31
0.0
  0
LINE
  5
AE36
330
1A
100
AcDbEntity
  8
1
100
AcDbLine
 10
150.4445754512271
 20
502.4125398467276
 30
0.0
 11
150.4445754512307
 21
464.4125398467249
 31
0.0
  0
LINE
  5
AE37
330
1A
100
AcDbEntity
  8
1
100
AcDbLine
 10
150.4445754512271
 20
461.9125398467267
 30
0.0
 11
150.4445754512271
 21
504.9125398467267
 31
0.0
  0
LINE
  5
AE38
330
1A
100
AcDbEntity
  8
1
100
AcDbLine
 10
115.9265174650609
 20
499.9125398467258
 30
0.0
 11
121.3265174650623
 21
499.9125398467258
 31
0.0
  0
LINE
  5
AE39
330
1A
100
AcDbEntity
  8
1
100
AcDbLine
 10
115.3491587772878
 20
497.6803667231588
 30
0.0
 11
115.3491587772878
 21
501.4125398467268
 31
0.0
  0
LINE
  5
AE3A
330
1A
100
AcDbEntity
  8
1
100
AcDbLine
 10
115.3491587772878
 20
479.680366723146
 30
0.0
 11
115.3491587772878
 21
487.1447129702964
 31
0.0
  0
ARC
  5
AE3B
330
1A
100
AcDbEntity
  8
1
100
AcDbCircle
 10
91.60598358457354
 20
492.4125398467285
 30
0.0
 40
24.32053388048727
100
AcDbArc
 50
347.4905891078892
 51
12.50941089211071
  0
LINE
  5
AE3C
330
1A
100
AcDbEntity
  8
1
100
AcDbLine
 10
121.9038761528354
 20
497.6803667231588
 30
0.0
 11
121.9038761528354
 21
501.4125398467268
 31
0.0
  0
LINE
  5
AE3D
330
1A
100
AcDbEntity
  8
1
100
AcDbLine
 10
130.7491756144518
 20
497.6803667231588
 30
0.0
 11
130.7491756144518
 21
501.4125398467268
 31
0.0
  0
LINE
  5
AE3E
330
1A
100
AcDbEntity
  8
1
100
AcDbLine
 10
121.3265174650623
 20
501.4125398467268
 30
0.0
 11
131.3265174650623
 21
501.4125398467268
 31
0.0
  0
LINE
  5
AE3F
330
1A
100
AcDbEntity
  8
1
100
AcDbLine
 10
121.9038761528354
 20
497.6803667231597
 30
0.0
 11
130.7491756144518
 21
497.6803667231588
 31
0.0
  0
LINE
  5
AE40
330
1A
100
AcDbEntity
  8
1
100
AcDbLine
 10
131.3265174650623
 20
501.4125398467268
 30
0.0
 11
134.4445754512307
 21
501.4125398467268
 31
0.0
  0
LINE
  5
AE41
330
1A
100
AcDbEntity
  8
1
100
AcDbLine
 10
121.9038761528354
 20
487.1447129702964
 30
0.0
 11
130.7491756144518
 21
487.1447129702964
 31
0.0
  0
LINE
  5
AE42
330
1A
100
AcDbEntity
  8
1
100
AcDbLine
 10
121.9038761528354
 20
479.6803667231452
 30
0.0
 11
130.7491756144518
 21
479.680366723146
 31
0.0
  0
LINE
  5
AE43
330
1A
100
AcDbEntity
  8
1
100
AcDbLine
 10
121.9038761528354
 20
479.680366723146
 30
0.0
 11
121.9038761528354
 21
487.1447129702964
 31
0.0
  0
LINE
  5
AE44
330
1A
100
AcDbEntity
  8
1
100
AcDbLine
 10
130.7491756144518
 20
479.680366723146
 30
0.0
 11
130.7491756144518
 21
487.1447129702964
 31
0.0
  0
ARC
  5
AE45
330
1A
100
AcDbEntity
  8
1
100
AcDbCircle
 10
145.6470513455496
 20
492.4125398467285
 30
0.0
 40
24.32053388048727
100
AcDbArc
 50
167.4905891078892
 51
192.5094108921107
  0
ARC
  5
AE46
330
1A
100
AcDbEntity
  8
1
100
AcDbCircle
 10
107.0052911562052
 20
492.4125398467277
 30
0.0
 40
24.32122630885832
100
AcDbArc
 50
347.4909510210519
 51
12.50904897894807
  0
LINE
  5
AE47
330
1A
100
AcDbEntity
  8
1
100
AcDbLine
 10
134.4445754512271
 20
497.6803667231543
 30
0.0
 11
150.4445754512271
 21
497.6803667231543
 31
0.0
  0
LINE
  5
AE48
330
1A
100
AcDbEntity
  8
1
100
AcDbLine
 10
134.4445754512307
 20
501.4125398467268
 30
0.0
 11
150.4445754512271
 21
501.4125398467268
 31
0.0
  0
LINE
  5
AE49
330
1A
100
AcDbEntity
  8
1
100
AcDbLine
 10
134.4445754512307
 20
487.1447129703001
 30
0.0
 11
150.4445754512271
 21
487.1447129702992
 31
0.0
  0
LINE
  5
AE4A
330
1A
100
AcDbEntity
  8
1
100
AcDbLine
 10
134.4445754512307
 20
479.6803667231524
 30
0.0
 11
150.4445754512271
 21
479.6803667231524
 31
0.0
  0
LINE
  5
AE4B
330
1A
100
AcDbEntity
  8
1
100
AcDbLine
 10
115.9265174650609
 20
466.9125398467258
 30
0.0
 11
121.3265174650623
 21
466.9125398467258
 31
0.0
  0
LINE
  5
AE4C
330
1A
100
AcDbEntity
  8
1
100
AcDbLine
 10
115.3491587772878
 20
465.4125398467267
 30
0.0
 11
115.3491587772878
 21
469.1447129703083
 31
0.0
  0
LINE
  5
AE4D
330
1A
100
AcDbEntity
  8
1
100
AcDbLine
 10
121.9038761528354
 20
465.4125398467267
 30
0.0
 11
121.9038761528354
 21
469.1447129703083
 31
0.0
  0
LINE
  5
AE4E
330
1A
100
AcDbEntity
  8
1
100
AcDbLine
 10
130.7491756144518
 20
465.4125398467267
 30
0.0
 11
130.7491756144554
 21
469.1447129703091
 31
0.0
  0
LINE
  5
AE4F
330
1A
100
AcDbEntity
  8
1
100
AcDbLine
 10
121.3265174650623
 20
465.4125398467267
 30
0.0
 11
131.3265174650623
 21
465.4125398467267
 31
0.0
  0
LINE
  5
AE50
330
1A
100
AcDbEntity
  8
1
100
AcDbLine
 10
121.9038761528354
 20
469.1447129703074
 30
0.0
 11
130.7491756144518
 21
469.1447129703074
 31
0.0
  0
LINE
  5
AE51
330
1A
100
AcDbEntity
  8
1
100
AcDbLine
 10
131.3265174650623
 20
465.4125398467267
 30
0.0
 11
134.4445754512307
 21
465.4125398467267
 31
0.0
  0
LINE
  5
AE52
330
1A
100
AcDbEntity
  8
1
100
AcDbLine
 10
134.4445754512271
 20
469.1447129703028
 30
0.0
 11
150.4445754512307
 21
469.1447129703028
 31
0.0
  0
LINE
  5
AE53
330
1A
100
AcDbEntity
  8
1
100
AcDbLine
 10
134.4445754512307
 20
465.4125398467276
 30
0.0
 11
150.4445754512307
 21
465.4125398467267
 31
0.0
  0
ARC
  5
AE54
330
1A
100
AcDbEntity
  8
1
100
AcDbCircle
 10
91.60598358468268
 20
474.4125398467267
 30
0.0
 40
24.32053388037816
100
AcDbArc
 50
347.4905891078384
 51
12.50941089216158
  0
LINE
  5
AE55
330
1A
100
AcDbEntity
  8
1
100
AcDbLine
 10
115.9265174650609
 20
465.4125398467267
 30
0.0
 11
115.9265174650609
 21
501.4125398467268
 31
0.0
  0
ARC
  5
AE56
330
1A
100
AcDbEntity
  8
1
100
AcDbCircle
 10
145.6470513454405
 20
474.4125398467267
 30
0.0
 40
24.32053388037816
100
AcDbArc
 50
167.4905891078384
 51
192.5094108921615
  0
ARC
  5
AE57
330
1A
100
AcDbEntity
  8
1
100
AcDbCircle
 10
107.0052911563034
 20
474.4125398467276
 30
0.0
 40
24.32122630875789
100
AcDbArc
 50
347.4909510210519
 51
12.50904897894807
  0
LINE
  5
AE58
330
1A
100
AcDbEntity
  8
1
100
AcDbLine
 10
134.4445754512307
 20
501.4125398467268
 30
0.0
 11
134.4445754512307
 21
465.4125398467267
 31
0.0
  0
LINE
  5
AE59
330
1A
100
AcDbEntity
  8
1
100
AcDbLine
 10
121.3265174650623
 20
465.4125398467267
 30
0.0
 11
121.3265174650623
 21
501.4125398467268
 31
0.0
  0
LINE
  5
AE5A
330
1A
100
AcDbEntity
  8
1
100
AcDbLine
 10
131.3265174650623
 20
501.4125398467268
 30
0.0
 11
131.3265174650623
 21
465.4125398467267
 31
0.0
  0
LINE
  5
AE5B
330
1A
100
AcDbEntity
  8
1
100
AcDbLine
 10
64.4265174650609
 20
495.4125398467267
 30
0.0
 11
73.92651746506089
 21
495.4125398467267
 31
0.0
  0
LINE
  5
AE5C
330
1A
100
AcDbEntity
  8
1
100
AcDbLine
 10
64.4265174650609
 20
471.4125398467267
 30
0.0
 11
73.92651746506089
 21
471.4125398467267
 31
0.0
  0
LINE
  5
AE5D
330
1A
100
AcDbEntity
  8
1
100
AcDbLine
 10
64.4265174650609
 20
471.4125398467267
 30
0.0
 11
64.4265174650609
 21
495.4125398467267
 31
0.0
  0
LINE
  5
AE5E
330
1A
100
AcDbEntity
  8
1
100
AcDbLine
 10
74.90385931566925
 20
497.6803667231588
 30
0.0
 11
74.90385931566925
 21
501.4125398467268
 31
0.0
  0
LINE
  5
AE5F
330
1A
100
AcDbEntity
  8
1
100
AcDbLine
 10
73.92651746506089
 20
496.6625398467258
 30
0.0
 11
73.92651746506089
 21
495.4125398467267
 31
0.0
  0
LINE
  5
AE60
330
1A
100
AcDbEntity
  8
1
100
AcDbLine
 10
73.92651746506089
 20
496.6625398467258
 30
0.0
 11
74.32651746505872
 21
496.6625398467258
 31
0.0
  0
LINE
  5
AE61
330
1A
100
AcDbEntity
  8
1
100
AcDbLine
 10
74.90385931566925
 20
479.680366723146
 30
0.0
 11
74.90385931566925
 21
487.1447129702964
 31
0.0
  0
ARC
  5
AE62
330
1A
100
AcDbEntity
  8
1
100
AcDbCircle
 10
98.64774377391951
 20
492.4125398467277
 30
0.0
 40
24.32122630885832
100
AcDbArc
 50
167.4909510210519
 51
192.509048978948
  0
LINE
  5
AE63
330
1A
100
AcDbEntity
  8
1
100
AcDbLine
 10
73.92651746506089
 20
471.4125398467267
 30
0.0
 11
73.92651746506089
 21
470.1625398467258
 31
0.0
  0
LINE
  5
AE64
330
1A
100
AcDbEntity
  8
1
100
AcDbLine
 10
74.90385931566925
 20
465.4125398467267
 30
0.0
 11
74.90385931566925
 21
469.1447129703091
 31
0.0
  0
LINE
  5
AE65
330
1A
100
AcDbEntity
  8
1
100
AcDbLine
 10
73.92651746506089
 20
470.1625398467258
 30
0.0
 11
74.32651746506235
 21
470.1625398467258
 31
0.0
  0
ARC
  5
AE66
330
1A
100
AcDbEntity
  8
1
100
AcDbCircle
 10
98.64774377381763
 20
474.4125398467276
 30
0.0
 40
24.32122630875789
100
AcDbArc
 50
167.4909510210519
 51
192.509048978948
  0
LINE
  5
AE67
330
1A
100
AcDbEntity
  8
1
100
AcDbLine
 10
74.32651746506235
 20
501.4125398467268
 30
0.0
 11
74.32651746506235
 21
465.4125398467267
 31
0.0
  0
LINE
  5
AE68
330
1A
100
AcDbEntity
  8
1
100
AcDbLine
 10
115.9265174650609
 20
501.4125398467268
 30
0.0
 11
74.32651746506235
 21
501.4125398467268
 31
0.0
  0
LINE
  5
AE69
330
1A
100
AcDbEntity
  8
1
100
AcDbLine
 10
115.3491587772878
 20
497.6803667231597
 30
0.0
 11
74.90385931566925
 21
497.6803667231588
 31
0.0
  0
LINE
  5
AE6A
330
1A
100
AcDbEntity
  8
1
100
AcDbLine
 10
115.3491587772878
 20
487.1447129702964
 30
0.0
 11
74.90385931566925
 21
487.1447129702964
 31
0.0
  0
LINE
  5
AE6B
330
1A
100
AcDbEntity
  8
1
100
AcDbLine
 10
115.3491587772878
 20
479.6803667231452
 30
0.0
 11
74.90385931566925
 21
479.680366723146
 31
0.0
  0
LINE
  5
AE6C
330
1A
100
AcDbEntity
  8
1
100
AcDbLine
 10
115.9265174650609
 20
465.4125398467267
 30
0.0
 11
74.32651746506235
 21
465.4125398467267
 31
0.0
  0
LINE
  5
AE6D
330
1A
100
AcDbEntity
  8
1
100
AcDbLine
 10
115.3491587772878
 20
469.1447129703074
 30
0.0
 11
74.90385931566925
 21
469.1447129703074
 31
0.0
  0
ARC
  5
AE6E
330
1A
100
AcDbEntity
  8
1
100
AcDbCircle
 10
152.4446026573878
 20
504.4125432950031
 30
0.0
 40
2.0
100
AcDbArc
 50
90.0
 51
180.0
  0
ARC
  5
AE6F
330
1A
100
AcDbEntity
  8
1
100
AcDbCircle
 10
152.4446026573878
 20
462.4125432950031
 30
0.0
 40
2.0
100
AcDbArc
 50
180.0
 51
270.0
  0
LINE
  5
AE70
330
1A
100
AcDbEntity
  8
1
100
AcDbLine
 10
150.4446026573878
 20
504.4125432950031
 30
0.0
 11
150.4446026573878
 21
462.4125432950031
 31
0.0
  0
ARC
  5
AE71
330
1A
100
AcDbEntity
  8
1
100
AcDbCircle
 10
176.4446026573896
 20
521.4125432950031
 30
0.0
 40
15.0
100
AcDbArc
 50
270.0
 51
0.000000000000007
  0
ARC
  5
AE72
330
1A
100
AcDbEntity
  8
1
  6
Continuous
100
AcDbCircle
 10
221.4446026573877
 20
483.4125432950031
 30
0.0
 40
30.0
100
AcDbArc
 50
270.0
 51
90.0
  0
LINE
  5
AE73
330
1A
100
AcDbEntity
  8
1
100
AcDbLine
 10
324.0839228823915
 20
433.4125432950031
 30
0.0
 11
243.444599209115
 21
433.4125432950031
 31
0.0
  0
LINE
  5
AE74
330
1A
100
AcDbEntity
  8
1
  6
Continuous
100
AcDbLine
 10
243.8052824323877
 20
433.4125432950031
 30
0.0
 11
324.0839228823915
 21
433.4125432950031
 31
0.0
  0
ARC
  5
AE75
330
1A
100
AcDbEntity
  8
1
100
AcDbCircle
 10
206.4446026573896
 20
438.4125432950022
 30
0.0
 40
9.0
100
AcDbArc
 50
342.1480544732922
 51
17.85194552671327
  0
ARC
  5
AE76
330
1A
100
AcDbEntity
  8
1
  6
HIDDEN
 48
0.5
100
AcDbCircle
 10
206.4446026573896
 20
438.4125432950022
 30
0.0
 40
9.0
100
AcDbArc
 50
287.4576031237146
 51
72.54239687629636
  0
LINE
  5
AE7B
330
1A
100
AcDbEntity
  8
1
100
AcDbLine
 10
248.4445838698084
 20
470.3358430161052
 30
0.0
 11
248.4445838698084
 21
496.4892366773492
 31
0.0
  0
LINE
  5
AE7C
330
1A
100
AcDbEntity
  8
1
100
AcDbLine
 10
247.4445838698084
 20
498.3791693938228
 30
0.0
 11
247.4445838698084
 21
468.4459102996306
 31
0.0
  0
LINE
  5
AE7D
330
1A
100
AcDbEntity
  8
1
100
AcDbLine
 10
245.4445838698084
 20
501.4125398467268
 30
0.0
 11
245.4445838698084
 21
465.4125398467267
 31
0.0
  0
LINE
  5
AE7E
330
1A
100
AcDbEntity
  8
1
100
AcDbLine
 10
244.4445838698084
 20
464.1511795624692
 30
0.0
 11
244.4445838698084
 21
502.6739001309851
 31
0.0
  0
ARC
  5
AE7F
330
1A
100
AcDbEntity
  8
1
100
AcDbCircle
 10
206.4446026573896
 20
438.4125432950031
 30
0.0
 40
15.0
100
AcDbArc
 50
180.0
 51
299.999999999993
  0
ARC
  5
AE80
330
1A
100
AcDbEntity
  8
1
100
AcDbCircle
 10
206.4446026573896
 20
438.4125432950022
 30
0.0
 40
9.0
100
AcDbArc
 50
72.54239687629636
 51
287.4576031237146
  0
LINE
  5
AE81
330
1A
100
AcDbEntity
  8
1
100
AcDbLine
 10
213.444599209115
 20
421.4125620825844
 30
0.0
 11
199.444599209115
 21
421.4125620825861
 31
0.0
  0
LINE
  5
AE82
330
1A
100
AcDbEntity
  8
1
100
AcDbLine
 10
191.4446026573896
 20
438.4125432950031
 30
0.0
 11
191.4446026573896
 21
445.4125432950031
 31
0.0
  0
LINE
  5
AE83
330
1A
100
AcDbEntity
  8
1
100
AcDbLine
 10
199.444599209115
 20
421.4125620825853
 30
0.0
 11
199.444599209115
 21
425.1460629211633
 31
0.0
  0
ARC
  5
AE84
330
1A
100
AcDbEntity
  8
1
100
AcDbCircle
 10
228.8052824323876
 20
418.4125432950041
 30
0.0
 40
15.0
100
AcDbArc
 50
100.4922109129559
 51
119.9184496673282
  0
LINE
  5
AE85
330
1A
100
AcDbEntity
  8
1
100
AcDbLine
 10
213.444599209115
 20
421.4125620825853
 30
0.0
 11
213.444599209115
 21
425.1460629211633
 31
0.0
  0
LINE
  5
AE86
330
1A
100
AcDbEntity
  8
1
100
AcDbLine
 10
257.444599209115
 20
431.412543295004
 30
0.0
 11
257.444599209115
 21
433.412543295004
 31
0.0
  0
LINE
  5
AE87
330
1A
100
AcDbEntity
  8
1
100
AcDbLine
 10
243.444599209115
 20
431.412543295004
 30
0.0
 11
243.444599209115
 21
433.412543295004
 31
0.0
  0
LINE
  5
AE88
330
1A
100
AcDbEntity
  8
1
100
AcDbLine
 10
257.444599209115
 20
431.412543295004
 30
0.0
 11
243.444599209115
 21
431.412543295004
 31
0.0
  0
LINE
  5
AE89
330
1A
100
AcDbEntity
  8
1
100
AcDbLine
 10
245.4446026573896
 20
501.4125432949994
 30
0.0
 11
245.4446026573878
 21
465.412543295004
 31
0.0
  0
ARC
  5
AE8A
330
1A
100
AcDbEntity
  8
1
100
AcDbCircle
 10
176.4446026573896
 20
445.4125432950031
 30
0.0
 40
15.0
100
AcDbArc
 50
0.000000000000007
 51
90.0
  0
ARC
  5
AE8B
330
1A
100
AcDbEntity
  8
1
  6
Continuous
100
AcDbCircle
 10
243.8052824323877
 20
418.4125432950031
 30
0.0
 40
14.99999999999999
100
AcDbArc
 50
90.0
 51
138.1896851042017
  0
LINE
  5
AE8C
330
1A
100
AcDbEntity
  8
1
  6
Continuous
100
AcDbLine
 10
257.4446026573878
 20
431.4125432950032
 30
0.0
 11
243.4446026573878
 21
431.4125432950032
 31
0.0
  0
LINE
  5
AE8D
330
1A
100
AcDbEntity
  8
1
  6
Continuous
100
AcDbLine
 10
243.4446026573878
 20
433.4125432950031
 30
0.0
 11
243.4446026573878
 21
431.4125432950032
 31
0.0
  0
LINE
  5
AE8E
330
1A
100
AcDbEntity
  8
1
  6
Continuous
100
AcDbLine
 10
257.4446026573878
 20
431.4125432950032
 30
0.0
 11
257.4446026573878
 21
433.4125432950031
 31
0.0
  0
CIRCLE
  5
AE8F
330
1A
100
AcDbEntity
  8
1
  6
Continuous
100
AcDbCircle
 10
221.4446026573877
 20
438.4125432950031
 30
0.0
 40
7.0
  0
LINE
  5
AE90
330
1A
100
AcDbEntity
  8
1
  6
Continuous
100
AcDbLine
 10
228.4446026573878
 20
421.4125432950031
 30
0.0
 11
214.4446026573878
 21
421.4125432950031
 31
0.0
  0
LINE
  5
AE91
330
1A
100
AcDbEntity
  8
1
  6
Continuous
100
AcDbLine
 10
214.4446026573878
 20
425.1428026447511
 30
0.0
 11
214.4446026573878
 21
421.4125432950031
 31
0.0
  0
LINE
  5
AE92
330
1A
100
AcDbEntity
  8
1
  6
Continuous
100
AcDbLine
 10
228.4446026573878
 20
421.4125432950031
 30
0.0
 11
228.4446026573878
 21
425.1329443335107
 31
0.0
  0
ARC
  5
AE93
330
1A
100
AcDbEntity
  8
1
  6
Continuous
100
AcDbCircle
 10
221.4446026573877
 20
438.4125432950031
 30
0.0
 40
15.0
100
AcDbArc
 50
90.0
 51
318.1896851042017
  0
CIRCLE
  5
AE94
102
{ACAD_REACTORS
330
B37A
102
}
330
1A
100
AcDbEntity
  8
1
100
AcDbCircle
 10
361.444602657386
 20
495.9125432950013
 30
0.0
 40
2.1
  0
CIRCLE
  5
AE95
102
{ACAD_REACTORS
330
B37A
102
}
330
1A
100
AcDbEntity
  8
1
100
AcDbCircle
 10
361.444602657386
 20
470.9125432950013
 30
0.0
 40
2.1
  0
LINE
  5
AE96
330
1A
100
AcDbEntity
  8
1
100
AcDbLine
 10
323.4445992091114
 20
431.4125432950022
 30
0.0
 11
309.4445992091114
 21
431.412543295004
 31
0.0
  0
LINE
  5
AE97
330
1A
100
AcDbEntity
  8
1
100
AcDbLine
 10
309.4445992091095
 20
431.4125432950032
 30
0.0
 11
309.4445992091114
 21
433.4125432950031
 31
0.0
  0
LINE
  5
AE98
330
1A
100
AcDbEntity
  8
1
100
AcDbLine
 10
323.4445992091114
 20
431.4125432950032
 30
0.0
 11
323.4445992091114
 21
433.4125432950031
 31
0.0
  0
CIRCLE
  5
AE99
330
1A
100
AcDbEntity
  8
1
  6
HIDDEN
 48
0.5
100
AcDbCircle
 10
346.4446026573877
 20
438.4125432950031
 30
0.0
 40
9.0
  0
LINE
  5
AE9A
330
1A
100
AcDbEntity
  8
1
100
AcDbLine
 10
339.4445992091132
 20
421.4125620825853
 30
0.0
 11
339.444599209115
 21
425.1460629211633
 31
0.0
  0
LINE
  5
AE9B
330
1A
100
AcDbEntity
  8
1
100
AcDbLine
 10
353.444599209115
 20
421.4125620825853
 30
0.0
 11
353.444599209115
 21
425.1460629211633
 31
0.0
  0
LINE
  5
AE9C
330
1A
100
AcDbEntity
  8
1
100
AcDbLine
 10
353.444599209115
 20
421.4125620825844
 30
0.0
 11
339.444599209115
 21
421.4125620825861
 31
0.0
  0
ARC
  5
AE9D
330
1A
100
AcDbEntity
  8
1
100
AcDbCircle
 10
346.4446026573877
 20
438.4125432950031
 30
0.0
 40
15.0
100
AcDbArc
 50
221.8103148957983
 51
318.1896851042239
  0
ARC
  5
AE9E
330
1A
100
AcDbEntity
  8
1
100
AcDbCircle
 10
324.0839228823915
 20
418.4125432950031
 30
0.0
 40
15.0
100
AcDbArc
 50
41.81031489579829
 51
90.0
  0
LINE
  5
AE9F
330
1A
100
AcDbEntity
  8
1
  6
Continuous
100
AcDbLine
 10
309.4446026573878
 20
433.4125432950031
 30
0.0
 11
309.4446026573878
 21
431.4125432950032
 31
0.0
  0
ARC
  5
AEA0
330
1A
100
AcDbEntity
  8
1
  6
Continuous
100
AcDbCircle
 10
324.0839228823915
 20
418.4125432950031
 30
0.0
 40
15.0
100
AcDbArc
 50
41.81031489579829
 51
90.0
  0
LINE
  5
AEA1
330
1A
100
AcDbEntity
  8
1
  6
Continuous
100
AcDbLine
 10
323.4446026573877
 20
431.4125432950032
 30
0.0
 11
323.4446026573877
 21
433.4125432950031
 31
0.0
  0
ARC
  5
AEA2
330
1A
100
AcDbEntity
  8
1
  6
Continuous
100
AcDbCircle
 10
361.4446026573878
 20
483.4125432950031
 30
0.0
 40
25.0
100
AcDbArc
 50
90.0
 51
270.0
  0
ARC
  5
AEA3
330
1A
100
AcDbEntity
  8
1
  6
Continuous
100
AcDbCircle
 10
368.8052824323877
 20
418.4125432950031
 30
0.0
 40
14.99999999999999
100
AcDbArc
 50
90.0
 51
138.1896851042017
  0
ARC
  5
AEA4
330
1A
100
AcDbEntity
  8
1
  6
Continuous
100
AcDbCircle
 10
346.4446026573877
 20
438.4125432950031
 30
0.0
 40
15.0
100
AcDbArc
 50
221.8103148957983
 51
318.1896851042017
  0
CIRCLE
  5
AEA5
330
1A
100
AcDbEntity
  8
1
  6
Continuous
100
AcDbCircle
 10
346.4446026573877
 20
438.4125432950031
 30
0.0
 40
7.0
  0
LINE
  5
AEA6
330
1A
100
AcDbEntity
  8
1
  6
Continuous
100
AcDbLine
 10
339.4446026573878
 20
421.4125432950031
 30
0.0
 11
353.4446026573878
 21
421.4125432950031
 31
0.0
  0
LINE
  5
AEA7
330
1A
100
AcDbEntity
  8
1
  6
Continuous
100
AcDbLine
 10
339.4446026573878
 20
425.1428026447511
 30
0.0
 11
339.4446026573878
 21
421.4125432950031
 31
0.0
  0
LINE
  5
AEA8
330
1A
100
AcDbEntity
  8
1
  6
Continuous
100
AcDbLine
 10
353.4446026573878
 20
421.4125432950031
 30
0.0
 11
353.4446026573878
 21
425.1329443335107
 31
0.0
  0
LINE
  5
AEA9
330
1A
100
AcDbEntity
  8
1
  6
Continuous
100
AcDbLine
 10
309.4446026573878
 20
431.4125432950032
 30
0.0
 11
323.4446026573877
 21
431.4125432950032
 31
0.0
  0
CIRCLE
  5
AEAA
330
1A
100
AcDbEntity
  8
1
  6
Continuous
 62
     9
100
AcDbCircle
 10
307.4446026573878
 20
483.4125432950031
 30
0.0
 40
14.0
  0
LINE
  5
AEAB
330
1A
100
AcDbEntity
  8
1
  6
Continuous
100
AcDbLine
 10
324.0839228823915
 20
533.4125432950031
 30
0.0
 11
243.8052824323877
 21
533.4125432950031
 31
0.0
  0
ARC
  5
AEAC
330
1A
100
AcDbEntity
  8
1
100
AcDbCircle
 10
206.4446026573896
 20
528.4125432950022
 30
0.0
 40
9.0
100
AcDbArc
 50
342.148054473295
 51
17.85194552671051
  0
ARC
  5
AEAD
330
1A
100
AcDbEntity
  8
1
  6
HIDDEN
 48
0.5
100
AcDbCircle
 10
206.4446026573896
 20
528.4125432950022
 30
0.0
 40
9.0
100
AcDbArc
 50
287.4576031237146
 51
72.54239687629636
  0
ARC
  5
AEAE
330
1A
100
AcDbEntity
  8
1
100
AcDbCircle
 10
206.4446026573896
 20
528.4125432950031
 30
0.0
 40
15.0
100
AcDbArc
 50
60.00000000000185
 51
180.0
  0
LINE
  5
AEAF
330
1A
100
AcDbEntity
  8
1
100
AcDbLine
 10
213.444599209115
 20
545.4125245074219
 30
0.0
 11
199.444599209115
 21
545.4125245074201
 31
0.0
  0
ARC
  5
AEB0
330
1A
100
AcDbEntity
  8
1
100
AcDbCircle
 10
206.4446026573896
 20
528.4125432950022
 30
0.0
 40
9.0
100
AcDbArc
 50
72.54239687629636
 51
287.4576031237146
  0
LINE
  5
AEB1
330
1A
100
AcDbEntity
  8
1
100
AcDbLine
 10
191.4446026573896
 20
521.4125432950031
 30
0.0
 11
191.4446026573896
 21
528.4125432950031
 31
0.0
  0
LINE
  5
AEB2
330
1A
100
AcDbEntity
  8
1
100
AcDbLine
 10
199.444599209115
 20
545.412524507421
 30
0.0
 11
199.444599209115
 21
541.679023668843
 31
0.0
  0
ARC
  5
AEB3
330
1A
100
AcDbEntity
  8
1
100
AcDbCircle
 10
228.8052856147023
 20
548.4125397370653
 30
0.0
 40
15.0
100
AcDbArc
 50
240.0815234699827
 51
259.5077932839288
  0
LINE
  5
AEB4
330
1A
100
AcDbEntity
  8
1
100
AcDbLine
 10
213.444599209115
 20
545.412524507421
 30
0.0
 11
213.444599209115
 21
541.679023668843
 31
0.0
  0
LINE
  5
AEB5
330
1A
100
AcDbEntity
  8
1
100
AcDbLine
 10
257.444599209115
 20
535.4125432950022
 30
0.0
 11
257.444599209115
 21
533.4125432950022
 31
0.0
  0
LINE
  5
AEB6
330
1A
100
AcDbEntity
  8
1
100
AcDbLine
 10
243.444599209115
 20
535.4125432950022
 30
0.0
 11
243.444599209115
 21
533.4125432950022
 31
0.0
  0
LINE
  5
AEB7
330
1A
100
AcDbEntity
  8
1
100
AcDbLine
 10
257.444599209115
 20
535.4125432950022
 30
0.0
 11
243.444599209115
 21
535.4125432950022
 31
0.0
  0
ARC
  5
AEB8
330
1A
100
AcDbEntity
  8
1
  6
Continuous
100
AcDbCircle
 10
243.8052824323877
 20
548.4125432950031
 30
0.0
 40
15.0
100
AcDbArc
 50
221.8103148957983
 51
270.0
  0
LINE
  5
AEB9
330
1A
100
AcDbEntity
  8
1
  6
Continuous
100
AcDbLine
 10
257.4446026573878
 20
535.4125432950032
 30
0.0
 11
243.4446026573878
 21
535.4125432950032
 31
0.0
  0
LINE
  5
AEBA
330
1A
100
AcDbEntity
  8
1
  6
Continuous
100
AcDbLine
 10
243.4446026573878
 20
535.4125432950032
 30
0.0
 11
243.4446026573878
 21
533.4125432950031
 31
0.0
  0
LINE
  5
AEBB
330
1A
100
AcDbEntity
  8
1
  6
Continuous
100
AcDbLine
 10
257.4446026573878
 20
533.4125432950031
 30
0.0
 11
257.4446026573878
 21
535.4125432950032
 31
0.0
  0
LINE
  5
AEBC
330
1A
100
AcDbEntity
  8
1
  6
Continuous
100
AcDbLine
 10
228.4446026573878
 20
545.4125432950031
 30
0.0
 11
214.4446026573878
 21
545.4125432950031
 31
0.0
  0
LINE
  5
AEBD
330
1A
100
AcDbEntity
  8
1
  6
Continuous
100
AcDbLine
 10
214.4446026573878
 20
545.4125432950031
 30
0.0
 11
214.4446026573878
 21
541.6822839452552
 31
0.0
  0
LINE
  5
AEBE
330
1A
100
AcDbEntity
  8
1
  6
Continuous
100
AcDbLine
 10
228.4446026573878
 20
541.6921422564955
 30
0.0
 11
228.4446026573878
 21
545.4125432950031
 31
0.0
  0
CIRCLE
  5
AEBF
330
1A
100
AcDbEntity
  8
1
  6
Continuous
100
AcDbCircle
 10
221.4446026573877
 20
528.4125432950031
 30
0.0
 40
7.000000000000006
  0
ARC
  5
AEC0
330
1A
100
AcDbEntity
  8
1
  6
Continuous
100
AcDbCircle
 10
221.4446026573877
 20
528.4125432950031
 30
0.0
 40
15.0
100
AcDbArc
 50
41.81031489579829
 51
270.0
  0
LINE
  5
AEC1
330
1A
100
AcDbEntity
  8
1
100
AcDbLine
 10
323.4445992091114
 20
535.412543295004
 30
0.0
 11
309.4445992091114
 21
535.4125432950022
 31
0.0
  0
LINE
  5
AEC2
330
1A
100
AcDbEntity
  8
1
100
AcDbLine
 10
309.4445992091095
 20
535.4125432950032
 30
0.0
 11
309.4445992091114
 21
533.4125432950031
 31
0.0
  0
LINE
  5
AEC3
330
1A
100
AcDbEntity
  8
1
100
AcDbLine
 10
323.4445992091114
 20
535.4125432950032
 30
0.0
 11
323.4445992091114
 21
533.4125432950031
 31
0.0
  0
CIRCLE
  5
AEC4
330
1A
100
AcDbEntity
  8
1
  6
HIDDEN
 48
0.5
100
AcDbCircle
 10
346.4446026573877
 20
528.4125432950031
 30
0.0
 40
9.0
  0
LINE
  5
AEC5
330
1A
100
AcDbEntity
  8
1
100
AcDbLine
 10
339.4445992091132
 20
545.412524507421
 30
0.0
 11
339.444599209115
 21
541.679023668843
 31
0.0
  0
LINE
  5
AEC6
330
1A
100
AcDbEntity
  8
1
100
AcDbLine
 10
353.444599209115
 20
545.4125245074219
 30
0.0
 11
339.444599209115
 21
545.4125245074201
 31
0.0
  0
LINE
  5
AEC7
330
1A
100
AcDbEntity
  8
1
100
AcDbLine
 10
353.444599209115
 20
545.412524507421
 30
0.0
 11
353.444599209115
 21
541.679023668843
 31
0.0
  0
ARC
  5
AEC8
330
1A
100
AcDbEntity
  8
1
100
AcDbCircle
 10
346.4446026573877
 20
528.4125432950031
 30
0.0
 40
15.0
100
AcDbArc
 50
41.81031489577607
 51
138.1897003495505
  0
ARC
  5
AEC9
330
1A
100
AcDbEntity
  8
1
100
AcDbCircle
 10
324.0839175607707
 20
548.4125373452489
 30
0.0
 40
15.0
100
AcDbArc
 50
269.9999985617582
 51
318.1897003495506
  0
LINE
  5
AECA
330
1A
100
AcDbEntity
  8
1
100
AcDbLine
 10
324.083917184218
 20
533.4125373452488
 30
0.0
 11
307.4446026573878
 21
533.4125377629516
 31
0.0
  0
LINE
  5
AECB
330
1A
100
AcDbEntity
  8
1
  6
Continuous
100
AcDbLine
 10
309.4446026573878
 20
535.4125432950032
 30
0.0
 11
309.4446026573878
 21
533.4125432950031
 31
0.0
  0
ARC
  5
AECC
330
1A
100
AcDbEntity
  8
1
  6
Continuous
100
AcDbCircle
 10
324.0839228823915
 20
548.4125432950031
 30
0.0
 40
15.0
100
AcDbArc
 50
270.0
 51
318.1896851042017
  0
LINE
  5
AECD
330
1A
100
AcDbEntity
  8
1
  6
Continuous
100
AcDbLine
 10
323.4446026573877
 20
533.4125432950031
 30
0.0
 11
323.4446026573877
 21
535.4125432950032
 31
0.0
  0
LINE
  5
AECE
330
1A
100
AcDbEntity
  8
1
  6
Continuous
100
AcDbLine
 10
339.4446026573878
 20
545.4125432950031
 30
0.0
 11
353.4446026573878
 21
545.4125432950031
 31
0.0
  0
ARC
  5
AECF
330
1A
100
AcDbEntity
  8
1
  6
Continuous
100
AcDbCircle
 10
346.4446026573877
 20
528.4125432950031
 30
0.0
 40
15.0
100
AcDbArc
 50
41.81031489579829
 51
138.1896851042017
  0
LINE
  5
AED0
330
1A
100
AcDbEntity
  8
1
  6
Continuous
100
AcDbLine
 10
339.4446026573878
 20
545.4125432950031
 30
0.0
 11
339.4446026573878
 21
541.6822839452552
 31
0.0
  0
ARC
  5
AED1
330
1A
100
AcDbEntity
  8
1
  6
Continuous
100
AcDbCircle
 10
368.8052824323877
 20
548.4125432950031
 30
0.0
 40
15.0
100
AcDbArc
 50
221.8103148957983
 51
270.0
  0
LINE
  5
AED2
330
1A
100
AcDbEntity
  8
1
  6
Continuous
100
AcDbLine
 10
353.4446026573878
 20
541.6921422564955
 30
0.0
 11
353.4446026573878
 21
545.4125432950031
 31
0.0
  0
CIRCLE
  5
AED3
330
1A
100
AcDbEntity
  8
1
  6
Continuous
100
AcDbCircle
 10
346.4446026573877
 20
528.4125432950031
 30
0.0
 40
7.0
  0
LINE
  5
AED4
330
1A
100
AcDbEntity
  8
1
  6
Continuous
100
AcDbLine
 10
309.4446026573878
 20
535.4125432950032
 30
0.0
 11
323.4446026573877
 21
535.4125432950032
 31
0.0
  0
ARC
  5
AED5
102
{ACAD_REACTORS
330
B395
102
}
330
1A
100
AcDbEntity
  8
1
100
AcDbCircle
 10
499.5550742099494
 20
239.7605525269027
 30
0.0
 40
7.667468245267238
100
AcDbArc
 50
55.61575253194651
 51
124.3842474680534
  0
LINE
  5
AED6
102
{ACAD_REACTORS
330
B395
102
}
330
1A
100
AcDbEntity
  8
1
100
AcDbLine
 10
495.5454552667106
 20
250.2280207721714
 30
0.0
 11
502.545455266716
 21
250.2280207721724
 31
0.0
  0
ARC
  5
AED7
102
{ACAD_REACTORS
330
B395
102
}
330
1A
100
AcDbEntity
  8
1
100
AcDbCircle
 10
499.5454552667106
 20
246.2280207721732
 30
0.0
 40
3.0
100
AcDbArc
 50
90.0
 51
167.1763979233968
  0
LINE
  5
AED8
102
{ACAD_REACTORS
330
B395
102
}
330
1A
100
AcDbEntity
  8
1
100
AcDbLine
 10
497.545455266716
 20
247.4280207721694
 30
0.0
 11
527.545455266716
 21
247.4280207721694
 31
0.0
  0
LINE
  5
AED9
102
{ACAD_REACTORS
330
B395
102
}
330
1A
100
AcDbEntity
  8
1
100
AcDbLine
 10
495.2249471910272
 20
231.4280207721703
 30
0.0
 11
529.8659633424049
 21
231.4280207721694
 31
0.0
  0
LINE
  5
AEDA
102
{ACAD_REACTORS
330
B395
102
}
330
1A
100
AcDbEntity
  8
1
100
AcDbLine
 10
494.045455266716
 20
231.4280207721694
 30
0.0
 11
531.0454552667179
 21
231.4280207721703
 31
0.0
  0
LINE
  5
AEDB
102
{ACAD_REACTORS
330
B37B
102
}
330
1A
100
AcDbEntity
  8
1
100
AcDbLine
 10
530.5454552667306
 20
277.2280207721701
 30
0.0
 11
494.5454552667306
 21
277.2280207721701
 31
0.0
  0
LINE
  5
AEDC
102
{ACAD_REACTORS
330
B37B
102
}
330
1A
100
AcDbEntity
  8
1
100
AcDbLine
 10
493.5454552667306
 20
276.2280207721701
 30
0.0
 11
531.5454552667306
 21
276.2280207721701
 31
0.0
  0
LINE
  5
AEDD
102
{ACAD_REACTORS
330
B37B
102
}
330
1A
100
AcDbEntity
  8
1
100
AcDbLine
 10
494.5454552667306
 20
263.2280207721701
 30
0.0
 11
530.5454552667306
 21
263.2280207721701
 31
0.0
  0
LINE
  5
AEDE
102
{ACAD_REACTORS
330
B37B
102
}
330
1A
100
AcDbEntity
  8
1
100
AcDbLine
 10
493.5454552667306
 20
264.2280207721701
 30
0.0
 11
531.5454552667306
 21
264.2280207721701
 31
0.0
  0
LINE
  5
AEDF
102
{ACAD_REACTORS
330
B36F
102
}
330
1A
100
AcDbEntity
  8
1
  6
Continuous
100
AcDbLine
 10
487.5454552667179
 20
260.2280207721705
 30
0.0
 11
537.5454552667179
 21
260.2280207721705
 31
0.0
  0
LINE
  5
AEE0
102
{ACAD_REACTORS
330
B36F
102
}
330
1A
100
AcDbEntity
  8
1
  6
Continuous
100
AcDbLine
 10
537.5454552667179
 20
282.2280207721705
 30
0.0
 11
487.5454552667179
 21
282.2280207721705
 31
0.0
  0
LINE
  5
AEE1
102
{ACAD_REACTORS
330
B36F
102
}
330
1A
100
AcDbEntity
  8
1
  6
Continuous
100
AcDbLine
 10
552.5454552667179
 20
252.2280207721705
 30
0.0
 11
472.5454552667179
 21
252.2280207721705
 31
0.0
  0
LINE
  5
AEE2
102
{ACAD_REACTORS
330
B395
102
}
330
1A
100
AcDbEntity
  8
1
100
AcDbLine
 10
495.2249471910272
 20
241.2280207721723
 30
0.0
 11
494.5454552667142
 21
241.2280207721733
 31
0.0
  0
LINE
  5
AEE3
102
{ACAD_REACTORS
330
B395
102
}
330
1A
100
AcDbEntity
  8
1
100
AcDbLine
 10
497.545455266716
 20
247.4280207721694
 30
0.0
 11
495.2249471910272
 21
246.0882748100138
 31
0.0
  0
LINE
  5
AEE4
102
{ACAD_REACTORS
330
B395
102
}
330
1A
100
AcDbEntity
  8
1
100
AcDbLine
 10
495.2249471910254
 20
246.0882748100138
 30
0.0
 11
495.2249471910272
 21
231.4280207721703
 31
0.0
  0
LINE
  5
AEE5
102
{ACAD_REACTORS
330
B395
102
}
330
1A
100
AcDbEntity
  8
1
100
AcDbLine
 10
494.545455266716
 20
241.2280207721733
 30
0.0
 11
495.2249471910272
 21
240.5485288478612
 31
0.0
  0
LINE
  5
AEE6
102
{ACAD_REACTORS
330
B395
102
}
330
1A
100
AcDbEntity
  8
1
100
AcDbLine
 10
495.5454552667106
 20
250.2280207721714
 30
0.0
 11
495.5454552667106
 21
252.2280207721724
 31
0.0
  0
LINE
  5
AEE7
102
{ACAD_REACTORS
330
B395
102
}
330
1A
100
AcDbEntity
  8
1
100
AcDbLine
 10
494.545455266716
 20
241.2280207721733
 30
0.0
 11
494.5454552667142
 21
231.4280207721703
 31
0.0
  0
ARC
  5
AEE8
102
{ACAD_REACTORS
330
B395
102
}
330
1A
100
AcDbEntity
  8
1
100
AcDbCircle
 10
475.0454552667161
 20
239.2280207721723
 30
0.0
 40
6.5
100
AcDbArc
 50
90.0
 51
180.0
  0
ARC
  5
AEE9
102
{ACAD_REACTORS
330
B395
102
}
330
1A
100
AcDbEntity
  8
1
100
AcDbCircle
 10
475.0454552667161
 20
239.2280207721723
 30
0.0
 40
2.5
100
AcDbArc
 50
90.0
 51
180.0
  0
ARC
  5
AEEA
102
{ACAD_REACTORS
330
B395
102
}
330
1A
100
AcDbEntity
  8
1
100
AcDbCircle
 10
478.045455266716
 20
239.2280207721723
 30
0.0
 40
2.5
100
AcDbArc
 50
90.0
 51
180.0
  0
LINE
  5
AEEB
102
{ACAD_REACTORS
330
B395
102
}
330
1A
100
AcDbEntity
  8
1
100
AcDbLine
 10
475.0454552667161
 20
245.7280207721723
 30
0.0
 11
495.2249471910254
 21
245.7280207721723
 31
0.0
  0
LINE
  5
AEEC
102
{ACAD_REACTORS
330
B395
102
}
330
1A
100
AcDbEntity
  8
1
100
AcDbLine
 10
475.0454552667161
 20
241.7280207721723
 30
0.0
 11
495.2249471910272
 21
241.7280207721723
 31
0.0
  0
LINE
  5
AEED
102
{ACAD_REACTORS
330
B37B
102
}
330
1A
100
AcDbEntity
  8
1
100
AcDbLine
 10
493.5454552667306
 20
276.2280207721701
 30
0.0
 11
493.5454552667306
 21
264.2280207721701
 31
0.0
  0
LINE
  5
AEEE
102
{ACAD_REACTORS
330
B37B
102
}
330
1A
100
AcDbEntity
  8
1
100
AcDbLine
 10
494.5454552667306
 20
277.2280207721701
 30
0.0
 11
493.5454552667306
 21
276.2280207721701
 31
0.0
  0
LINE
  5
AEEF
102
{ACAD_REACTORS
330
B37B
102
}
330
1A
100
AcDbEntity
  8
1
100
AcDbLine
 10
493.5454552667306
 20
264.2280207721701
 30
0.0
 11
494.5454552667306
 21
263.2280207721701
 31
0.0
  0
LINE
  5
AEF0
102
{ACAD_REACTORS
330
B375
102
}
330
1A
100
AcDbEntity
  8
1
100
AcDbLine
 10
378.7651107330639
 20
246.0882748100134
 30
0.0
 11
378.7651107330639
 21
231.4280207721708
 31
0.0
  0
LINE
  5
AEF1
102
{ACAD_REACTORS
330
B36E
102
}
330
1A
100
AcDbEntity
  8
1
  6
Continuous
100
AcDbLine
 10
388.4446026573878
 20
277.2280207721705
 30
0.0
 11
388.4446026573878
 21
263.2280207721705
 31
0.0
  0
LINE
  5
AEF2
102
{ACAD_REACTORS
330
B36E
102
}
330
1A
100
AcDbEntity
  8
1
  6
Continuous
100
AcDbLine
 10
386.4446026573878
 20
282.2280207721705
 30
0.0
 11
386.4446026573878
 21
266.2280207721705
 31
0.0
  0
LINE
  5
AEF3
102
{ACAD_REACTORS
330
B36E
102
}
330
1A
100
AcDbEntity
  8
1
  6
Continuous
100
AcDbLine
 10
386.4446026573878
 20
266.2280207721705
 30
0.0
 11
386.4446026573878
 21
252.2280207721705
 31
0.0
  0
LINE
  5
AEF4
102
{ACAD_REACTORS
330
B36E
102
}
330
1A
100
AcDbEntity
  8
1
  6
Continuous
100
AcDbLine
 10
386.4446026573878
 20
263.2280207721705
 30
0.0
 11
388.4446026573878
 21
263.2280207721705
 31
0.0
  0
LINE
  5
AEF5
102
{ACAD_REACTORS
330
B36E
102
}
330
1A
100
AcDbEntity
  8
1
  6
Continuous
100
AcDbLine
 10
388.4446026573878
 20
277.2280207721705
 30
0.0
 11
386.4446026573878
 21
277.2280207721705
 31
0.0
  0
LINE
  5
AEF6
102
{ACAD_REACTORS
330
B36F
102
}
330
1A
100
AcDbEntity
  8
1
  6
Continuous
100
AcDbLine
 10
462.5454552667179
 20
282.2280207721705
 30
0.0
 11
462.5454552667179
 21
266.2280207721705
 31
0.0
  0
LINE
  5
AEF7
102
{ACAD_REACTORS
330
B36F
102
}
330
1A
100
AcDbEntity
  8
1
  6
Continuous
100
AcDbLine
 10
460.5454552667179
 20
266.2280207721705
 30
0.0
 11
460.5454552667179
 21
263.2280207721705
 31
0.0
  0
CIRCLE
  5
AEF8
102
{ACAD_REACTORS
330
B36F
102
}
330
1A
100
AcDbEntity
  8
1
  6
Continuous
100
AcDbCircle
 10
479.5454552667179
 20
270.2280207721705
 30
0.0
 40
7.0
  0
LINE
  5
AEF9
102
{ACAD_REACTORS
330
B36F
102
}
330
1A
100
AcDbEntity
  8
1
  6
Continuous
100
AcDbLine
 10
487.5454552667179
 20
260.2280207721705
 30
0.0
 11
487.5454552667179
 21
282.2280207721705
 31
0.0
  0
CIRCLE
  5
AEFA
102
{ACAD_REACTORS
330
B36F
102
}
330
1A
100
AcDbEntity
  8
1
  6
Continuous
100
AcDbCircle
 10
479.5454552667179
 20
270.2280207721705
 30
0.0
 40
3.0
  0
CIRCLE
  5
AEFB
102
{ACAD_REACTORS
330
B36F
102
}
330
1A
100
AcDbEntity
  8
1
  6
Continuous
100
AcDbCircle
 10
479.5454552667179
 20
270.2280207721705
 30
0.0
 40
2.458499999999999
  0
LINE
  5
AEFC
102
{ACAD_REACTORS
330
B36F
102
}
330
1A
100
AcDbEntity
  8
1
  6
Continuous
100
AcDbLine
 10
472.5454552667179
 20
266.2280207721705
 30
0.0
 11
472.5454552667179
 21
252.2280207721705
 31
0.0
  0
LINE
  5
AEFD
102
{ACAD_REACTORS
330
B36F
102
}
330
1A
100
AcDbEntity
  8
1
  6
Continuous
100
AcDbLine
 10
468.5454552667179
 20
266.2280207721705
 30
0.0
 11
468.5454552667179
 21
263.2280207721705
 31
0.0
  0
LINE
  5
AEFE
102
{ACAD_REACTORS
330
B36F
102
}
330
1A
100
AcDbEntity
  8
1
  6
Continuous
100
AcDbLine
 10
487.5454552667179
 20
282.2280207721705
 30
0.0
 11
462.5454552667179
 21
282.2280207721705
 31
0.0
  0
LINE
  5
AEFF
102
{ACAD_REACTORS
330
B36F
102
}
330
1A
100
AcDbEntity
  8
1
  6
Continuous
100
AcDbLine
 10
468.5454552667179
 20
263.2280207721705
 30
0.0
 11
460.5454552667179
 21
263.2280207721705
 31
0.0
  0
LINE
  5
AF00
102
{ACAD_REACTORS
330
B36F
102
}
330
1A
100
AcDbEntity
  8
1
  6
Continuous
100
AcDbLine
 10
472.5454552667179
 20
266.2280207721705
 30
0.0
 11
462.5454552667179
 21
266.2280207721705
 31
0.0
  0
LINE
  5
AF01
102
{ACAD_REACTORS
330
B36F
102
}
330
1A
100
AcDbEntity
  8
1
  6
Continuous
100
AcDbLine
 10
452.5454552667179
 20
266.2280207721705
 30
0.0
 11
452.5454552667179
 21
267.2339093645214
 31
0.0
  0
LINE
  5
AF02
102
{ACAD_REACTORS
330
B36F
102
}
330
1A
100
AcDbEntity
  8
1
  6
Continuous
100
AcDbLine
 10
452.5454552667179
 20
266.2280207721705
 30
0.0
 11
457.5454552667179
 21
266.2280207721705
 31
0.0
  0
LINE
  5
AF03
102
{ACAD_REACTORS
330
B36F
102
}
330
1A
100
AcDbEntity
  8
1
  6
Continuous
100
AcDbLine
 10
452.5454552667179
 20
267.2280207721705
 30
0.0
 11
450.5454552667178
 21
267.2280207721705
 31
0.0
  0
LINE
  5
AF04
102
{ACAD_REACTORS
330
B36F
102
}
330
1A
100
AcDbEntity
  8
1
  6
Continuous
100
AcDbLine
 10
452.548211371335
 20
267.2280207721705
 30
0.0
 11
450.5454552667178
 21
267.2280207721705
 31
0.0
  0
LINE
  5
AF05
102
{ACAD_REACTORS
330
B36F
102
}
330
1A
100
AcDbEntity
  8
1
  6
Continuous
100
AcDbLine
 10
450.5454552667178
 20
281.2280207721705
 30
0.0
 11
452.5454552667179
 21
281.2280207721705
 31
0.0
  0
ARC
  5
AF06
102
{ACAD_REACTORS
330
B36F
102
}
330
1A
100
AcDbEntity
  8
1
  6
Continuous
100
AcDbCircle
 10
439.255649937635
 20
274.2280206007708
 30
0.0
 40
15.02061676778102
100
AcDbArc
 50
332.2233501015002
 51
27.77665281317911
  0
LINE
  5
AF07
102
{ACAD_REACTORS
330
B36F
102
}
330
1A
100
AcDbEntity
  8
1
  6
HIDDEN2
100
AcDbLine
 10
452.548211371335
 20
267.2280207721705
 30
0.0
 11
452.5454552667179
 21
267.2280207721705
 31
0.0
  0
LINE
  5
AF08
102
{ACAD_REACTORS
330
B36F
102
}
330
1A
100
AcDbEntity
  8
1
  6
Continuous
100
AcDbLine
 10
452.5454552667179
 20
282.2280207721705
 30
0.0
 11
457.5454552667179
 21
282.2280207721705
 31
0.0
  0
LINE
  5
AF09
102
{ACAD_REACTORS
330
B36F
102
}
330
1A
100
AcDbEntity
  8
1
  6
Continuous
100
AcDbLine
 10
452.5454552667179
 20
281.2280207721705
 30
0.0
 11
452.5454552667179
 21
282.2280207721705
 31
0.0
  0
LINE
  5
AF0A
102
{ACAD_REACTORS
330
B36F
102
}
330
1A
100
AcDbEntity
  8
1
  6
Continuous
100
AcDbLine
 10
450.5454552667178
 20
281.2280207721705
 30
0.0
 11
450.5454552667178
 21
267.2280207721705
 31
0.0
  0
LINE
  5
AF0B
102
{ACAD_REACTORS
330
B36F
102
}
330
1A
100
AcDbEntity
  8
1
  6
Continuous
100
AcDbLine
 10
462.5454552667179
 20
266.2280207721705
 30
0.0
 11
457.5454552667179
 21
266.2280207721705
 31
0.0
  0
LINE
  5
AF0C
102
{ACAD_REACTORS
330
B36F
102
}
330
1A
100
AcDbEntity
  8
1
  6
Continuous
100
AcDbLine
 10
462.5454552667179
 20
282.2280207721705
 30
0.0
 11
457.5454552667179
 21
282.2280207721705
 31
0.0
  0
LINE
  5
AF0D
102
{ACAD_REACTORS
330
B395
102
}
330
1A
100
AcDbEntity
  8
1
100
AcDbLine
 10
527.545455266716
 20
247.4280207721694
 30
0.0
 11
529.8659633424049
 21
246.0882748100138
 31
0.0
  0
LINE
  5
AF0E
102
{ACAD_REACTORS
330
B395
102
}
330
1A
100
AcDbEntity
  8
1
100
AcDbLine
 10
529.8659633424049
 20
246.088274810013
 30
0.0
 11
529.8659633424049
 21
231.4280207721703
 31
0.0
  0
LINE
  5
AF0F
102
{ACAD_REACTORS
330
B395
102
}
330
1A
100
AcDbEntity
  8
1
100
AcDbLine
 10
530.5454552667161
 20
241.2280207721733
 30
0.0
 11
529.8659633424031
 21
240.5485288478612
 31
0.0
  0
LINE
  5
AF10
102
{ACAD_REACTORS
330
B395
102
}
330
1A
100
AcDbEntity
  8
1
100
AcDbLine
 10
529.5454552667106
 20
250.2280207721732
 30
0.0
 11
529.5454552667106
 21
252.2280207721724
 31
0.0
  0
LINE
  5
AF11
102
{ACAD_REACTORS
330
B395
102
}
330
1A
100
AcDbEntity
  8
1
100
AcDbLine
 10
530.5454552667142
 20
231.4280207721712
 30
0.0
 11
530.5454552667161
 21
241.2280207721733
 31
0.0
  0
LINE
  5
AF12
102
{ACAD_REACTORS
330
B395
102
}
330
1A
100
AcDbEntity
  8
1
100
AcDbLine
 10
530.5454552667161
 20
241.2280207721733
 30
0.0
 11
529.8659633424031
 21
241.2280207721733
 31
0.0
  0
LINE
  5
AF13
102
{ACAD_REACTORS
330
B395
102
}
330
1A
100
AcDbEntity
  8
1
100
AcDbLine
 10
522.545455266716
 20
252.2280207721724
 30
0.0
 11
522.545455266716
 21
247.4280207721694
 31
0.0
  0
LINE
  5
AF14
102
{ACAD_REACTORS
330
B395
102
}
330
1A
100
AcDbEntity
  8
1
100
AcDbLine
 10
521.2057093045605
 20
246.0882748100138
 30
0.0
 11
521.2057093045605
 21
231.4280207721694
 31
0.0
  0
ARC
  5
AF15
102
{ACAD_REACTORS
330
B395
102
}
330
1A
100
AcDbEntity
  8
1
100
AcDbCircle
 10
524.5454552667106
 20
250.2280207721732
 30
0.0
 40
1.0
100
AcDbArc
 50
180.0
 51
270.0
  0
LINE
  5
AF16
102
{ACAD_REACTORS
330
B395
102
}
330
1A
100
AcDbEntity
  8
1
100
AcDbLine
 10
525.5454552667106
 20
249.2280207721733
 30
0.0
 11
524.5454552667106
 21
249.2280207721733
 31
0.0
  0
LINE
  5
AF17
102
{ACAD_REACTORS
330
B395
102
}
330
1A
100
AcDbEntity
  8
1
100
AcDbLine
 10
522.545455266716
 20
250.2280207721732
 30
0.0
 11
529.5454552667106
 21
250.2280207721724
 31
0.0
  0
ARC
  5
AF18
102
{ACAD_REACTORS
330
B395
102
}
330
1A
100
AcDbEntity
  8
1
100
AcDbCircle
 10
525.5358363234827
 20
239.7605525269027
 30
0.0
 40
7.667468245267238
100
AcDbArc
 50
55.61575253194652
 51
124.3842474680534
  0
ARC
  5
AF19
102
{ACAD_REACTORS
330
B395
102
}
330
1A
100
AcDbEntity
  8
1
100
AcDbCircle
 10
525.5454552667106
 20
246.2280207721732
 30
0.0
 40
3.0
100
AcDbArc
 50
12.82360207674637
 51
90.0
  0
LINE
  5
AF1A
102
{ACAD_REACTORS
330
B395
102
}
330
1A
100
AcDbEntity
  8
1
100
AcDbLine
 10
529.8659633424031
 20
241.7280207721723
 30
0.0
 11
550.0454552667142
 21
241.7280207721723
 31
0.0
  0
LINE
  5
AF1B
102
{ACAD_REACTORS
330
B395
102
}
330
1A
100
AcDbEntity
  8
1
100
AcDbLine
 10
529.8659633424031
 20
245.7280207721733
 30
0.0
 11
550.0454552667142
 21
245.7280207721723
 31
0.0
  0
LINE
  5
AF1C
102
{ACAD_REACTORS
330
B395
102
}
330
1A
100
AcDbEntity
  8
1
100
AcDbLine
 10
502.545455266716
 20
252.2280207721724
 30
0.0
 11
502.545455266716
 21
247.4280207721694
 31
0.0
  0
LINE
  5
AF1D
102
{ACAD_REACTORS
330
B395
102
}
330
1A
100
AcDbEntity
  8
1
100
AcDbLine
 10
503.8852012288698
 20
246.0882748100138
 30
0.0
 11
503.8852012288717
 21
231.4280207721694
 31
0.0
  0
LINE
  5
AF1E
102
{ACAD_REACTORS
330
B395
102
}
330
1A
100
AcDbEntity
  8
1
100
AcDbLine
 10
499.5454552667106
 20
249.2280207721733
 30
0.0
 11
500.5454552667106
 21
249.2280207721733
 31
0.0
  0
ARC
  5
AF1F
102
{ACAD_REACTORS
330
B395
102
}
330
1A
100
AcDbEntity
  8
1
100
AcDbCircle
 10
500.5454552667106
 20
250.2280207721732
 30
0.0
 40
1.0
100
AcDbArc
 50
270.0
 51
0.0
  0
ARC
  5
AF20
102
{ACAD_REACTORS
330
B395
102
}
330
1A
100
AcDbEntity
  8
1
100
AcDbCircle
 10
512.5454552667161
 20
218.767766734325
 30
0.0
 40
28.66025403784447
100
AcDbArc
 50
72.41204622600619
 51
107.5879537739938
  0
ARC
  5
AF21
102
{ACAD_REACTORS
330
B395
102
}
330
1A
100
AcDbEntity
  8
1
100
AcDbCircle
 10
547.0454552667142
 20
239.2280207721723
 30
0.0
 40
2.5
100
AcDbArc
 50
0.0
 51
90.0
  0
ARC
  5
AF22
102
{ACAD_REACTORS
330
B395
102
}
330
1A
100
AcDbEntity
  8
1
100
AcDbCircle
 10
550.0454552667142
 20
239.2280207721723
 30
0.0
 40
2.5
100
AcDbArc
 50
0.0
 51
90.0
  0
ARC
  5
AF23
102
{ACAD_REACTORS
330
B395
102
}
330
1A
100
AcDbEntity
  8
1
100
AcDbCircle
 10
550.0454552667142
 20
239.2280207721723
 30
0.0
 40
6.5
100
AcDbArc
 50
0.0
 51
90.0
  0
CIRCLE
  5
AF24
102
{ACAD_REACTORS
330
B37B
102
}
330
1A
100
AcDbEntity
  8
1
100
AcDbCircle
 10
512.5454552667306
 20
270.2280207721701
 30
0.0
 40
3.45
  0
LINE
  5
AF25
102
{ACAD_REACTORS
330
B37B
102
}
330
1A
100
AcDbEntity
  8
1
100
AcDbLine
 10
531.5454552667306
 20
264.2280207721701
 30
0.0
 11
531.5454552667306
 21
276.2280207721701
 31
0.0
  0
LINE
  5
AF26
102
{ACAD_REACTORS
330
B37B
102
}
330
1A
100
AcDbEntity
  8
1
100
AcDbLine
 10
530.5454552667306
 20
277.2280207721701
 30
0.0
 11
531.5454552667306
 21
276.2280207721701
 31
0.0
  0
ARC
  5
AF27
102
{ACAD_REACTORS
330
B37B
102
}
330
1A
100
AcDbEntity
  8
1
100
AcDbCircle
 10
501.545455266727
 20
262.2280207721701
 30
0.0
 40
1.0
100
AcDbArc
 50
0.0
 51
89.99999999999998
  0
ARC
  5
AF28
102
{ACAD_REACTORS
330
B37B
102
}
330
1A
100
AcDbEntity
  8
1
100
AcDbCircle
 10
523.5454552667306
 20
262.2280207721701
 30
0.0
 40
1.0
100
AcDbArc
 50
89.99999999999998
 51
180.0
  0
LINE
  5
AF29
102
{ACAD_REACTORS
330
B37B
102
}
330
1A
100
AcDbEntity
  8
1
100
AcDbLine
 10
530.5454552667306
 20
263.2280207721701
 30
0.0
 11
531.5454552667306
 21
264.2280207721701
 31
0.0
  0
LINE
  5
AF2A
102
{ACAD_REACTORS
330
B37B
102
}
330
1A
100
AcDbEntity
  8
1
100
AcDbLine
 10
502.5454552667288
 20
260.2280207721705
 30
0.0
 11
502.5454552667288
 21
262.2280207721701
 31
0.0
  0
LINE
  5
AF2B
102
{ACAD_REACTORS
330
B37B
102
}
330
1A
100
AcDbEntity
  8
1
100
AcDbLine
 10
522.5454552667306
 20
260.2280207721705
 30
0.0
 11
522.5454552667306
 21
262.2280207721701
 31
0.0
  0
LINE
  5
AF2C
102
{ACAD_REACTORS
330
B36F
102
}
330
1A
100
AcDbEntity
  8
1
  6
Continuous
100
AcDbLine
 10
574.5454552667179
 20
267.2280207721705
 30
0.0
 11
574.5454552667179
 21
281.2280207721705
 31
0.0
  0
LINE
  5
AF2D
102
{ACAD_REACTORS
330
B36F
102
}
330
1A
100
AcDbEntity
  8
1
  6
Continuous
100
AcDbLine
 10
567.5454552667178
 20
266.2280207721705
 30
0.0
 11
562.5454552667179
 21
266.2280207721705
 31
0.0
  0
LINE
  5
AF2E
102
{ACAD_REACTORS
330
B36F
102
}
330
1A
100
AcDbEntity
  8
1
  6
Continuous
100
AcDbLine
 10
564.5454552667179
 20
263.2280207721705
 30
0.0
 11
556.5454552667179
 21
263.2280207721705
 31
0.0
  0
LINE
  5
AF2F
102
{ACAD_REACTORS
330
B36F
102
}
330
1A
100
AcDbEntity
  8
1
  6
Continuous
100
AcDbLine
 10
567.5454552667178
 20
282.2280207721705
 30
0.0
 11
562.5454552667179
 21
282.2280207721705
 31
0.0
  0
LINE
  5
AF30
102
{ACAD_REACTORS
330
B36F
102
}
330
1A
100
AcDbEntity
  8
1
  6
Continuous
100
AcDbLine
 10
572.5454552667179
 20
267.2280207721705
 30
0.0
 11
572.5454552667179
 21
266.2280207721705
 31
0.0
  0
LINE
  5
AF31
102
{ACAD_REACTORS
330
B36F
102
}
330
1A
100
AcDbEntity
  8
1
  6
Continuous
100
AcDbLine
 10
567.5454552667178
 20
266.2280207721705
 30
0.0
 11
572.5454552667179
 21
266.2280207721705
 31
0.0
  0
LINE
  5
AF32
102
{ACAD_REACTORS
330
B36F
102
}
330
1A
100
AcDbEntity
  8
1
  6
Continuous
100
AcDbLine
 10
564.5454552667179
 20
263.2280207721705
 30
0.0
 11
564.5454552667179
 21
266.2280207721705
 31
0.0
  0
ARC
  5
AF33
102
{ACAD_REACTORS
330
B36F
102
}
330
1A
100
AcDbEntity
  8
1
  6
Continuous
100
AcDbCircle
 10
585.8352605958007
 20
274.2280209435703
 30
0.0
 40
15.0206167677811
100
AcDbArc
 50
152.2233501015002
 51
207.7766528131791
  0
LINE
  5
AF34
102
{ACAD_REACTORS
330
B36F
102
}
330
1A
100
AcDbEntity
  8
1
  6
Continuous
100
AcDbLine
 10
567.5454552667178
 20
282.2280207721705
 30
0.0
 11
572.5454552667179
 21
282.2280207721705
 31
0.0
  0
LINE
  5
AF35
102
{ACAD_REACTORS
330
B36F
102
}
330
1A
100
AcDbEntity
  8
1
  6
Continuous
100
AcDbLine
 10
572.5454552667179
 20
282.2280207721705
 30
0.0
 11
572.5454552667179
 21
281.2221321798188
 31
0.0
  0
LINE
  5
AF36
102
{ACAD_REACTORS
330
B36F
102
}
330
1A
100
AcDbEntity
  8
1
  6
Continuous
100
AcDbLine
 10
537.5454552667179
 20
260.2280207721705
 30
0.0
 11
537.5454552667179
 21
282.2280207721705
 31
0.0
  0
LINE
  5
AF37
102
{ACAD_REACTORS
330
B36F
102
}
330
1A
100
AcDbEntity
  8
1
  6
Continuous
100
AcDbLine
 10
562.5454552667179
 20
266.2280207721705
 30
0.0
 11
552.5454552667179
 21
266.2280207721705
 31
0.0
  0
LINE
  5
AF38
102
{ACAD_REACTORS
330
B36F
102
}
330
1A
100
AcDbEntity
  8
1
  6
Continuous
100
AcDbLine
 10
562.5454552667179
 20
282.2280207721705
 30
0.0
 11
562.5454552667179
 21
266.2280207721705
 31
0.0
  0
LINE
  5
AF39
102
{ACAD_REACTORS
330
B36F
102
}
330
1A
100
AcDbEntity
  8
1
  6
Continuous
100
AcDbLine
 10
556.5454552667179
 20
263.2280207721705
 30
0.0
 11
556.5454552667179
 21
266.2280207721705
 31
0.0
  0
LINE
  5
AF3A
102
{ACAD_REACTORS
330
B36F
102
}
330
1A
100
AcDbEntity
  8
1
  6
Continuous
100
AcDbLine
 10
552.5454552667179
 20
266.2280207721705
 30
0.0
 11
552.5454552667179
 21
252.2280207721705
 31
0.0
  0
LINE
  5
AF3B
102
{ACAD_REACTORS
330
B36F
102
}
330
1A
100
AcDbEntity
  8
1
  6
Continuous
100
AcDbLine
 10
562.5454552667179
 20
282.2280207721705
 30
0.0
 11
537.5454552667179
 21
282.2280207721705
 31
0.0
  0
CIRCLE
  5
AF3C
102
{ACAD_REACTORS
330
B36F
102
}
330
1A
100
AcDbEntity
  8
1
  6
Continuous
100
AcDbCircle
 10
545.5454552667179
 20
270.2280207721705
 30
0.0
 40
6.999999999999999
  0
CIRCLE
  5
AF3D
102
{ACAD_REACTORS
330
B36F
102
}
330
1A
100
AcDbEntity
  8
1
  6
Continuous
100
AcDbCircle
 10
545.5454552667179
 20
270.2280207721705
 30
0.0
 40
3.0
  0
CIRCLE
  5
AF3E
102
{ACAD_REACTORS
330
B36F
102
}
330
1A
100
AcDbEntity
  8
1
  6
Continuous
100
AcDbCircle
 10
545.5454552667179
 20
270.2280207721705
 30
0.0
 40
2.458499999999999
  0
LINE
  5
AF3F
102
{ACAD_REACTORS
330
B36F
102
}
330
1A
100
AcDbEntity
  8
1
  6
Continuous
100
AcDbLine
 10
574.5454552667179
 20
267.2280207721705
 30
0.0
 11
572.5454552667179
 21
267.2280207721705
 31
0.0
  0
LINE
  5
AF40
102
{ACAD_REACTORS
330
B36F
102
}
330
1A
100
AcDbEntity
  8
1
  6
Continuous
100
AcDbLine
 10
574.5454552667179
 20
267.2280207721705
 30
0.0
 11
572.5454552667179
 21
267.2280207721705
 31
0.0
  0
LINE
  5
AF41
102
{ACAD_REACTORS
330
B36F
102
}
330
1A
100
AcDbEntity
  8
1
  6
Continuous
100
AcDbLine
 10
572.5426991621007
 20
281.2280207721705
 30
0.0
 11
574.5454552667179
 21
281.2280207721705
 31
0.0
  0
LINE
  5
AF5D
330
1A
100
AcDbEntity
  8
1
  6
Continuous
100
AcDbLine
 10
388.4446026573878
 20
523.4125432950031
 30
0.0
 11
388.4446026573878
 21
509.4125432950031
 31
0.0
  0
LINE
  5
AF5E
330
1A
100
AcDbEntity
  8
1
  6
Continuous
100
AcDbLine
 10
386.4446026573878
 20
508.4125432950031
 30
0.0
 11
386.4446026573878
 21
533.4125432950031
 31
0.0
  0
LINE
  5
AF5F
330
1A
100
AcDbEntity
  8
1
100
AcDbLine
 10
388.4446026573878
 20
476.4125432950031
 30
0.0
 11
386.4446026573878
 21
476.4125432950031
 31
0.0
  0
LINE
  5
AF60
330
1A
100
AcDbEntity
  8
1
100
AcDbLine
 10
388.4446026573878
 20
490.4125432950031
 30
0.0
 11
386.4446026573878
 21
490.4125432950031
 31
0.0
  0
LINE
  5
AF61
330
1A
100
AcDbEntity
  8
1
100
AcDbLine
 10
388.4446026573878
 20
490.4125432950031
 30
0.0
 11
388.4446026573878
 21
476.4125432950031
 31
0.0
  0
LINE
  5
AF62
330
1A
100
AcDbEntity
  8
1
  6
Continuous
100
AcDbLine
 10
386.4446026573878
 20
508.4125432950031
 30
0.0
 11
386.4446026573878
 21
458.4125432950031
 31
0.0
  0
LINE
  5
AF63
330
1A
100
AcDbEntity
  8
1
  6
Continuous
100
AcDbLine
 10
388.4446026573878
 20
457.4125432950031
 30
0.0
 11
388.4446026573878
 21
443.4125432950032
 31
0.0
  0
LINE
  5
AF64
330
1A
100
AcDbEntity
  8
1
  6
Continuous
100
AcDbLine
 10
386.4446026573878
 20
433.4125432950031
 30
0.0
 11
386.4446026573878
 21
458.4125432950031
 31
0.0
  0
LINE
  5
AF65
330
1A
100
AcDbEntity
  8
1
  6
Continuous
100
AcDbLine
 10
386.4446026573878
 20
443.4125432950032
 30
0.0
 11
388.4446026573878
 21
443.4125432950032
 31
0.0
  0
LINE
  5
AF66
330
1A
100
AcDbEntity
  8
1
  6
Continuous
100
AcDbLine
 10
388.4446026573878
 20
457.4125432950031
 30
0.0
 11
386.4446026573878
 21
457.4125432950031
 31
0.0
  0
LINE
  5
AF67
330
1A
100
AcDbEntity
  8
1
  6
Continuous
100
AcDbLine
 10
386.4446026573878
 20
509.4125432950031
 30
0.0
 11
388.4446026573878
 21
509.4125432950031
 31
0.0
  0
LINE
  5
AF68
330
1A
100
AcDbEntity
  8
1
  6
Continuous
100
AcDbLine
 10
388.4446026573878
 20
523.4125432950031
 30
0.0
 11
386.4446026573878
 21
523.4125432950031
 31
0.0
  0
LINE
  5
B503
330
1A
100
AcDbEntity
  8
CENTER
100
AcDbLine
 10
403.8071634229909
 20
483.4125432950031
 30
0.0
 11
36.81814631968518
 21
483.4125432950031
 31
0.0
  0
LINE
  5
B52E
330
1A
100
AcDbEntity
  8
CENTER
100
AcDbLine
 10
512.5454552667179
 20
292.2280207721705
 30
0.0
 11
512.5454552667251
 21
154.2280207721705
 31
0.0
  0
CIRCLE
  5
B77A
102
{ACAD_REACTORS
330
B780
102
}
330
1A
100
AcDbEntity
  8
1
100
AcDbCircle
 10
498.0939032537717
 20
4.918144939741068
 30
0.0
 40
14.0
  0
CIRCLE
  5
B77B
102
{ACAD_REACTORS
330
B780
102
}
330
1A
100
AcDbEntity
  8
1
100
AcDbCircle
 10
498.0939032537717
 20
4.918144939741068
 30
0.0
 40
6.5
  0
LINE
  5
B77C
102
{ACAD_REACTORS
330
B781
102
}
330
1A
100
AcDbEntity
  8
1
100
AcDbLine
 10
512.0939032537717
 20
-40.38601438129808
 30
0.0
 11
512.0939032537717
 21
-34.38601438129808
 31
0.0
  0
LINE
  5
B77D
102
{ACAD_REACTORS
330
B781
102
}
330
1A
100
AcDbEntity
  8
1
100
AcDbLine
 10
484.0939032537717
 20
-34.38601438129808
 30
0.0
 11
484.0939032537717
 21
-40.38601438129808
 31
0.0
  0
LINE
  5
B77E
102
{ACAD_REACTORS
330
B781
102
}
330
1A
100
AcDbEntity
  8
1
100
AcDbLine
 10
484.0939032537717
 20
-40.38601438129808
 30
0.0
 11
512.0939032537717
 21
-40.38601438129808
 31
0.0
  0
LINE
  5
B77F
102
{ACAD_REACTORS
330
B781
102
}
330
1A
100
AcDbEntity
  8
1
100
AcDbLine
 10
512.0939032537717
 20
-34.38601438129808
 30
0.0
 11
484.0939032537717
 21
-34.38601438129808
 31
0.0
  0
LINE
  5
B7B1
330
1A
100
AcDbEntity
  8
CENTER
100
AcDbLine
 10
498.0939032537717
 20
-29.38601438129808
 30
0.0
 11
498.0939032537717
 21
-45.38601438129808
 31
0.0
  0
LINE
  5
B7B4
330
1A
100
AcDbEntity
  8
1
  6
HIDDEN
 48
0.5
100
AcDbLine
 10
491.5939032537717
 20
-34.38601438129808
 30
0.0
 11
491.5939032537717
 21
-40.38601438129808
 31
0.0
  0
LINE
  5
B7B6
330
1A
100
AcDbEntity
  8
1
  6
HIDDEN
 48
0.5
100
AcDbLine
 10
504.5939032537717
 20
-34.38601438129808
 30
0.0
 11
504.5939032537717
 21
-40.38601438129808
 31
0.0
  0
INSERT
  5
BD32
330
1A
100
AcDbEntity
  8
1
100
AcDbBlockReference
  2
PWF12
 10
206.4445838698083
 20
483.4125398467267
 30
0.0
  0
INSERT
  5
BD33
330
1A
100
AcDbEntity
  8
1
100
AcDbBlockReference
  2
CBF12
 10
206.4445838698083
 20
483.4125398467267
 30
0.0
  0
INSERT
  5
BD34
330
1A
100
AcDbEntity
  8
1
100
AcDbBlockReference
  2
PWF12
 10
231.444583869812
 20
483.4125398467267
 30
0.0
  0
INSERT
  5
BD35
330
1A
100
AcDbEntity
  8
1
100
AcDbBlockReference
  2
CBF12
 10
231.4445838698083
 20
483.4125398467267
 30
0.0
  0
INSERT
  5
BD36
102
{ACAD_REACTORS
330
BD3A
102
}
330
1A
100
AcDbEntity
  8
1
100
AcDbBlockReference
  2
PWS12
 10
204.944602657375
 20
241.2280207721701
 30
0.0
 50
90.0
  0
INSERT
  5
BD37
102
{ACAD_REACTORS
330
BD3A
102
}
330
1A
100
AcDbEntity
  8
1
100
AcDbBlockReference
  2
CBS1200
 10
206.444602657375
 20
241.7280207721701
 30
0.0
  0
INSERT
  5
BD38
102
{ACAD_REACTORS
330
BD3A
102
}
330
1A
100
AcDbEntity
  8
1
100
AcDbBlockReference
  2
PWS12
 10
229.9446026573787
 20
241.2280207721701
 30
0.0
 50
90.0
  0
INSERT
  5
BD39
102
{ACAD_REACTORS
330
BD3A
102
}
330
1A
100
AcDbEntity
  8
1
100
AcDbBlockReference
  2
CBS1200
 10
231.4446026573786
 20
241.7280207721701
 30
0.0
  0
MTEXT
  5
BDEB
102
{ACAD_REACTORS
330
BDEA
102
}
330
1A
100
AcDbEntity
  8
MEASURE
 62
     2
100
AcDbMText
 10
9600.449701235836
 20
2868.629410628728
 30
0.0
 40
10.5
 41
60.0
 71
     7
 72
     1
  1

  7
AD-STANDARD
 73
     1
 44
1.0
  0
VIEWPORT
  5
90F4
330
90F3
100
AcDbEntity
 67
     1
  8
0
100
AcDbViewport
 10
211.2952979366644
 20
135.4161460090709
 30
0.0
 40
405.9144668576194
 41
315.3419450818148
 68
     1
 69
     1
 12
211.2952979366644
 22
135.4161460090709
 13
0.0
 23
0.0
 14
1.0
 24
1.0
 15
10.0
 25
10.0
 16
0.0
 26
0.0
 36
1.0
 17
0.0
 27
0.0
 37
0.0
 42
50.0
 43
0.0
 44
0.0
 45
315.3419450818148
 50
0.0
 51
0.0
 72
   100
 90
    32768
  1

281
     0
 71
     1
 74
     0
110
0.0
120
0.0
130
0.0
111
1.0
121
0.0
131
0.0
112
0.0
122
1.0
132
0.0
 79
     0
146
0.0
  0
VIEWPORT
  5
90F5
330
90F3
100
AcDbEntity
 67
     1
  8
DEFPOINTS
100
AcDbViewport
 10
212.4999999999999
 20
144.4999999999999
 30
0.0
 40
384.9999999999998
 41
265.0
 68
     2
 69
     2
 12
305.6831516008504
 22
251.2528105372322
 13
0.0
 23
0.0
 14
168.0
 24
168.0
 15
0.0
 25
0.0
 16
0.0
 26
0.0
 36
1.0
 17
0.0
 27
0.0
 37
0.0
 42
50.0
 43
0.0
 44
0.0
 45
598.9022187180421
 50
0.0
 51
0.0
 72
   100
 90
    36864
  1

281
     0
 71
     1
 74
     0
110
0.0
120
0.0
130
0.0
111
1.0
121
0.0
131
0.0
112
0.0
122
1.0
132
0.0
 79
     0
146
0.0
  0
ENDSEC
  0
SECTION
  2
OBJECTS
  0
DICTIONARY
  5
C
330
0
100
AcDbDictionary
281
     1
  3
ACAD_GROUP
350
D
  3
ACAD_LAYOUT
350
2C2
  3
ACAD_MLINESTYLE
350
E
  3
ACAD_PLOTSETTINGS
350
2C3
  3
ACAD_PLOTSTYLENAME
350
2C0
  3
AcadDim
350
B770
  3
AcDbVariableDictionary
350
97C
  3
CONTENTDICTIONARY
350
234
  0
DICTIONARY
  5
6468
330
2
100
AcDbDictionary
280
     1
281
     1
  3
ACAD_LAYERFILTERS
360
6469
  0
DICTIONARY
  5
3EE
330
1A
100
AcDbDictionary
280
     1
281
     1
  3
ACAD_LAYOUTSELFREF
360
5504
  0
DICTIONARY
  5
D
102
{ACAD_REACTORS
330
C
102
}
330
C
100
AcDbDictionary
281
     1
  3
*A1
350
3E11
  3
*A2
350
99D4
  3
*A3
350
A5D3
  3
*A4
350
B3B8
  3
*A5
350
BC51
  3
*A6
350
9EB5
  3
*A7
350
B3A1
  3
*A8
350
B3BA
  3
*A9
350
5BF3
  3
*A10
350
B36E
  3
*A11
350
99D2
  3
*A12
350
B3F1
  3
*A13
350
9663
  3
*A14
350
9EB6
  3
*A15
350
9EBA
  3
*A16
350
9BF1
  3
*A17
350
A14B
  3
*A18
350
B3F9
  3
*A19
350
9651
  3
*A20
350
88D0
  3
*A21
350
B377
  3
*A22
350
B36F
  3
*A23
350
9FC1
  3
*A24
350
A7B8
  3
*A25
350
9BF5
  3
*A26
350
8910
  3
*A27
350
9FC2
  3
*A28
350
A43A
  3
*A29
350
B3B2
  3
*A30
350
88F4
  3
*A31
350
A5D5
  3
*A32
350
B781
  3
*A33
350
A13C
  3
*A34
350
A446
  3
*A35
350
8ECE
  3
*A36
350
A13D
  3
*A37
350
B376
  3
*A38
350
5B9B
  3
*A39
350
A140
  3
*A40
350
963A
  3
*A41
350
5A87
  3
*A42
350
B780
  3
*A43
350
8560
  3
*A44
350
A43B
  3
*A45
350
A5EB
  3
*A46
350
6225
  3
*A47
350
BC52
  3
*A48
350
A43C
  3
*A49
350
88D7
  3
*A50
350
A43D
  3
*A51
350
B3BD
  3
*A52
350
A43E
  3
*A53
350
622B
  3
*A54
350
A43F
  3
*A55
350
A440
  3
*A56
350
BC56
  3
*A57
350
867E
  3
*A58
350
470B
  3
*A59
350
B43E
  3
*A60
350
BCCD
  3
*A61
350
88D4
  3
*A62
350
B379
  3
*A63
350
B37A
  3
*A64
350
B37B
  3
*A65
350
5BDD
  3
*A66
350
B3A5
  3
*A67
350
5B8E
  3
*A68
350
9759
  3
*A69
350
9BF2
  3
*A70
350
9034
  3
*A71
350
8672
  3
*A72
350
A4A3
  3
*A73
350
B37C
  3
*A74
350
731D
  3
*A75
350
963E
  3
*A76
350
890F
  3
*A77
350
B3A2
  3
*A78
350
460E
  3
*A79
350
97A3
  3
*A80
350
A13E
  3
*A81
350
B389
  3
*A82
350
B37D
  3
*A83
350
B37E
  3
*A84
350
B37F
  3
*A85
350
8795
  3
*A86
350
B380
  3
*A87
350
A7B5
  3
*A88
350
B38C
  3
*A89
350
A63E
  3
*A90
350
868A
  3
*A91
350
A57A
  3
*A92
350
470E
  3
*A93
350
B38D
  3
*A94
350
967C
  3
*A95
350
B38E
  3
*A96
350
8B62
  3
*A97
350
B38F
  3
*A98
350
99D0
  3
*A99
350
B43F
  3
*A100
350
B384
  3
*A101
350
9B02
  3
*A102
350
B3B3
  3
*A103
350
B390
  3
*A104
350
8562
  3
*A105
350
86D9
  3
*A106
350
A141
  3
*A107
350
6DB6
  3
*A108
350
9641
  3
*A109
350
8561
  3
*A110
350
B391
  3
*A111
350
A444
  3
*A112
350
B381
  3
*A113
350
B39F
  3
*A114
350
B440
  3
*A115
350
B398
  3
*A116
350
86DA
  3
*A117
350
B3A8
  3
*A118
350
5C13
  3
*A119
350
B392
  3
*A120
350
B387
  3
*A121
350
86DB
  3
*A122
350
B393
  3
*A123
350
B3A6
  3
*A124
350
9250
  3
*A125
350
B394
  3
*A126
350
9702
  3
*A127
350
9B05
  3
*A128
350
B395
  3
*A129
350
8565
  3
*A130
350
B396
  3
*A131
350
B397
  3
*A132
350
99D6
  3
*A133
350
A445
  3
*A134
350
B419
  3
*A135
350
99D5
  3
*A136
350
A57B
  3
*A137
350
9BF3
  3
*A138
350
8793
  3
*A139
350
8779
  3
*A140
350
B3B4
  3
*A141
350
B3AA
  3
*A142
350
855F
  3
*A143
350
B3AC
  3
*A144
350
855C
  3
*A145
350
B3AD
  3
*A146
350
6226
  3
*A147
350
B3AE
  3
*A148
350
A447
  3
*A149
350
B3B5
  3
*A150
350
B373
  3
*A151
350
B3B6
  3
*A152
350
8F16
  3
*A153
350
B371
  3
*A154
350
BD3A
  3
*A155
350
BD47
  3
*A156
350
B468
  3
*A157
350
B3B0
  3
*A158
350
B3BB
  3
*A159
350
6C54
  3
*A160
350
B382
  3
*A161
350
A438
  3
*A162
350
9BF4
  3
*A163
350
A448
  3
*A164
350
B469
  3
*A165
350
B3C5
  3
*A166
350
A442
  3
*A167
350
470D
  3
*A168
350
8563
  3
*A169
350
B46A
  3
*A170
350
99D1
  3
*A171
350
8796
  3
*A172
350
B5A6
  3
*A173
350
A63F
  3
*A174
350
B5A7
  3
*A175
350
9B06
  3
*A176
350
B5A8
  3
*A177
350
A47A
  3
*A178
350
8AB2
  3
*A179
350
B405
  3
*A180
350
B378
  3
*A181
350
A437
  3
*A182
350
9703
  3
*A183
350
99D3
  3
*A184
350
99D7
  3
*A185
350
9647
  3
*A186
350
470C
  3
*A187
350
8B07
  3
*A188
350
855E
  3
*A189
350
B5C8
  3
*A190
350
8667
  3
*A191
350
8794
  3
*A192
350
B418
  3
*A193
350
A13F
  3
*A194
350
B39B
  3
*A195
350
9B03
  3
*A196
350
9BF6
  3
*A197
350
A150
  3
*A198
350
A7B7
  3
*A199
350
6229
  3
*A200
350
5B9C
  3
*A201
350
855D
  3
*A202
350
B385
  3
*A203
350
975E
  3
*A204
350
622D
  3
*A205
350
A48C
  3
*A206
350
A7B6
  3
*A207
350
A146
  3
*A208
350
B3B9
  3
*A209
350
8687
  3
*A210
350
5BA3
  3
*A211
350
622A
  3
*A212
350
B9D4
  3
*A213
350
8B22
  3
*A214
350
9BF7
  3
*A215
350
88D1
  3
*A216
350
5AE8
  3
*A217
350
59A4
  3
*A218
350
9697
  3
*A219
350
B3AF
  3
*A220
350
B9D0
  3
*A221
350
9810
  3
*A222
350
B370
  3
*A223
350
6DB5
  3
*A224
350
868D
  3
*A225
350
4018
  3
*A226
350
8911
  3
*A227
350
88D6
  3
*A228
350
5C12
  3
*A229
350
731B
  3
*A230
350
8661
  3
*A231
350
731C
  3
*A232
350
9763
  3
*A233
350
8564
  3
*A234
350
8673
  3
*A235
350
88D5
  3
*A236
350
A441
  3
*A237
350
A4A2
  3
*A238
350
867F
  3
*A239
350
5AC8
  3
*A240
350
8E6F
  3
*A241
350
B38A
  3
*A242
350
B5A9
  3
*A243
350
B3A4
  3
*A244
350
B386
  3
*A245
350
B3A0
  3
*A246
350
9B04
  3
*A247
350
8E98
  3
*A248
350
B3B1
  3
*A249
350
9B0E
  3
*A250
350
5AA1
  3
*A251
350
855B
  3
*A252
350
9B07
  3
*A253
350
88D2
  3
*A254
350
A45D
  3
*A255
350
9252
  3
*A256
350
BB87
  3
*A257
350
9340
  3
*A258
350
9341
  3
*A259
350
9B0F
  3
*A260
350
B3B7
  3
*A261
350
B3A3
  3
*A262
350
6228
  3
*A263
350
9B01
  3
*A264
350
622C
  3
*A265
350
B383
  3
*A266
350
9646
  3
*A267
350
9B10
  3
*A268
350
9B11
  3
*A269
350
963B
  3
*A270
350
A439
  3
*A271
350
B3A7
  3
*A272
350
B399
  3
*A273
350
5BDA
  3
*A274
350
A155
  3
*A275
350
B388
  3
*A276
350
B441
  3
*A277
350
B3E5
  3
*A278
350
9801
  3
*A279
350
9B52
  3
*A280
350
B5C9
  3
*A281
350
9C49
  3
*A282
350
A436
  3
*A283
350
9B12
  3
*A284
350
B3CD
  3
*A285
350
B39D
  3
*A286
350
86BF
  3
*A287
350
9C47
  3
*A288
350
9B4E
  3
*A289
350
9B4F
  3
*A290
350
9B50
  3
*A291
350
A443
  3
*A292
350
9B51
  3
*A293
350
88D3
  3
*A294
350
9D75
  3
*A295
350
6DB2
  3
*A296
350
B3BC
  3
*A297
350
B467
  3
*A298
350
B5CA
  3
*A299
350
A63D
  3
*A300
350
A5D4
  3
*A301
350
9618
  3
*A302
350
9D76
  3
*A303
350
B39E
  3
*A304
350
964C
  3
*A305
350
6CF9
  3
*A306
350
B375
  0
DICTIONARY
  5
2C2
102
{ACAD_REACTORS
330
C
102
}
330
C
100
AcDbDictionary
281
     1
  3
Model
350
2C4
  3
ﾚｲｱｳﾄ1
350
90F2
  0
DICTIONARY
  5
E
102
{ACAD_REACTORS
330
C
102
}
330
C
100
AcDbDictionary
281
     1
  3
STANDARD
350
13
  0
DICTIONARY
  5
2C3
102
{ACAD_REACTORS
330
C
102
}
330
C
100
AcDbDictionary
281
     1
  3
A3formNX710
350
2FA
  0
ACDBDICTIONARYWDFLT
  5
2C0
102
{ACAD_REACTORS
330
C
102
}
330
C
100
AcDbDictionary
281
     1
  3
Normal
350
2C1
100
AcDbDictionaryWithDefault
340
2C1
  0
XRECORD
  5
B770
102
{ACAD_REACTORS
330
C
102
}
330
C
100
AcDbXrecord
280
     1
 90
   990106
  3

 60
     0
 61
     0
 62
     4
 63
     4
 64
     1
 65
     0
 66
     0
 67
     4
 68
     1
 69
     0
 70
     0
 71
     0
 72
     0
 40
60.0
170
     2
340
BDEB
  0
DICTIONARY
  5
97C
102
{ACAD_REACTORS
330
C
102
}
330
C
100
AcDbDictionary
281
     1
  3
SORTENTS
350
97D
  0
DICTIONARY
  5
234
102
{ACAD_REACTORS
330
C
102
}
330
C
100
AcDbDictionary
281
     1
  0
DICTIONARY
  5
6469
102
{ACAD_REACTORS
330
6468
102
}
330
6468
100
AcDbDictionary
280
     1
281
     1
  3
-100
360
646A
  3
-50
360
646B
  3
-H
360
646C
  3
-T
360
646D
  3
$
360
646E
  3
(02)幹線
360
646F
  3
（02）幹線
360
6470
  3
(03)接地
360
6471
  3
（03）接地
360
6472
  3
（04）避雷
360
6473
  3
(05)中央監視
360
6474
  3
（05）中央監視
360
6475
  3
(06)非常用ｺﾝｾﾝﾄ
360
6476
  3
（06）非常用ｺﾝｾﾝﾄ
360
6477
  3
（07）ﾊﾞｽﾀﾞｸﾄ
360
6478
  3
（08）ｹｰﾌﾞﾙﾗｯｸ
360
6479
  3
(09)動力
360
647A
  3
（09）動力
360
647B
  3
(10)ｺﾝｾﾝﾄ
360
647C
  3
（10）ｺﾝｾﾝﾄ
360
647D
  3
（11）医療接地
360
647E
  3
(12)電灯
360
647F
  3
（12）電灯
360
6480
  3
(13)空調
360
6481
  3
（13）空調
360
6482
  3
（14）航空障害灯
360
6483
  3
(15)非常照明
360
6484
  3
（15）非常照明
360
6485
  3
（16）誘導灯
360
6486
  3
(17)電話
360
6487
  3
（17）電話
360
6488
  3
(18)情報
360
6489
  3
（18）情報
360
648A
  3
(19)ﾃﾚﾋﾞ
360
648B
  3
（19）ﾃﾚﾋﾞ
360
648C
  3
(20)防犯
360
648D
  3
（20）防犯
360
648E
  3
（21）ITV
360
648F
  3
(22)ﾅｰｽｺｰﾙ
360
6490
  3
（22）ﾅｰｽｺｰﾙ
360
6491
  3
（23）外来診察
360
6492
  3
（24）ﾍﾞｯﾄｻｲﾄﾞ
360
6493
  3
（25）採尿蓄量
360
6494
  3
(26)非常放送
360
6495
  3
（26）非常放送
360
6496
  3
（27）業務放送
360
6497
  3
(28)火報
360
6498
  3
（28）火報
360
6499
  3
(29)厨房
360
649A
  3
（29）厨房
360
649B
  3
､@ｯ・U+56F3
360
649C
  3
･画ｼhｪ愠ﾜ
360
649D
  3
0
360
649E
  3
0 画層
360
649F
  3
00
360
64A0
  3
001
360
64A1
  3
01
360
64A2
  3
05
360
64A3
  3
0系
360
64A4
  3
0系+CONTINUOUS
360
64A5
  3
0床内
360
64A6
  3
0床壁
360
64A7
  3
0詳細図
360
64A8
  3
0総合図off
360
64A9
  3
0総合図枠
360
64AA
  3
0平詳枠
360
64AB
  3
1
360
64AC
  3
1-30
360
64AD
  3
1-交差点処理図（最新1案）
360
64AE
  3
1／100
360
64AF
  3
100
360
64B0
  3
10画層
360
64B1
  3
1111
360
64B2
  3
12
360
64B3
  3
19
360
64B4
  3
1床
360
64B5
  3
1芯
360
64B6
  3
1芯線
360
64B7
  3
2
360
64B8
  3
2-線形図1
360
64B9
  3
200
360
64BA
  3
21
360
64BB
  3
2100
360
64BC
  3
250
360
64BD
  3
2600
360
64BE
  3
2f
360
64BF
  3
2躯体
360
64C0
  3
2断面
360
64C1
  3
2壁
360
64C2
  3
3
360
64C3
  3
3-線形図2
360
64C4
  3
300
360
64C5
  3
32
360
64C6
  3
333
360
64C7
  3
3A
360
64C8
  3
3開口
360
64C9
  3
3見掛り
360
64CA
  3
3天井内
360
64CB
  3
4
360
64CC
  3
41
360
64CD
  3
4仕上げ
360
64CE
  3
4天井
360
64CF
  3
5
360
64D0
  3
50
360
64D1
  3
50off
360
64D2
  3
50詳細図
360
64D3
  3
51-52
360
64D4
  3
555
360
64D5
  3
5画層
360
64D6
  3
5寸法
360
64D7
  3
5文字
360
64D8
  3
6
360
64D9
  3
66-躯体図
360
64DA
  3
66躯体図
360
64DB
  3
6画層
360
64DC
  3
6記号
360
64DD
  3
6文字
360
64DE
  3
6保留
360
64DF
  3
7
360
64E0
  3
7-専用部北行
360
64E1
  3
7a画層
360
64E2
  3
7記号
360
64E3
  3
8
360
64E4
  3
8-ONﾗﾝﾌﾟ
360
64E5
  3
8寸法
360
64E6
  3
8設備
360
64E7
  3
9
360
64E8
  3
9-OFFﾗﾝﾌﾟ
360
64E9
  3
901101
360
64EA
  3
9文字
360
64EB
  3
9目地
360
64EC
  3
a
360
64ED
  3
A-
360
64EE
  3
a-roof
360
64EF
  3
A 画層
360
64F0
  3
A111-only
360
910B
  3
A3
360
64F1
  3
aa
360
64F2
  3
aaa
360
64F3
  3
AAAA
360
64F4
  3
AB棟
360
64F5
  3
ＡＢ棟
360
64F6
  3
all選択
360
64F7
  3
AREA
360
64F8
  3
AREA-SG
360
64F9
  3
ASDFCA
360
64FA
  3
aハッチング
360
64FB
  3
A空調
360
64FC
  3
Ａ断面
360
64FD
  3
b
360
64FE
  3
B 画層
360
64FF
  3
BAL
360
6500
  3
BASE
360
6501
  3
BBB
360
6502
  3
blue
360
6503
  3
BOR
360
6504
  3
b階段
360
6505
  3
Ｂ断面
360
6506
  3
B電気
360
6507
  3
B北
360
6508
  3
c
360
6509
  3
c-block
360
650A
  3
c-block-2
360
650B
  3
caa001
360
650C
  3
CABINETRY
360
650D
  3
cap-0
360
650E
  3
CASTellano
360
650F
  3
cc
360
6510
  3
CCC
360
6511
  3
ＣＤ棟
360
6512
  3
ceiling
360
6513
  3
CENTER
360
6514
  3
che
360
6515
  3
com
360
6516
  3
conotur
360
6517
  3
CONTI系
360
6518
  3
contour
360
6519
  3
conveyors
360
651A
  3
cyan
360
651B
  3
C衛生
360
651C
  3
C街区関連
360
651D
  3
c雑金物
360
651E
  3
C打計画図
360
651F
  3
Ｃ断面
360
6520
  3
C棟R部
360
6521
  3
DASHED
360
6522
  3
DASHED2
360
6523
  3
DDD
360
6524
  3
DEF
360
6525
  3
DENKI
360
6526
  3
DIM
360
6527
  3
DOORS
360
6528
  3
drain
360
6529
  3
Drow1
360
652A
  3
d外構
360
652B
  3
E
360
652C
  3
E 画層
360
652D
  3
E511-only
360
910C
  3
EEEE
360
652E
  3
EISEI
360
652F
  3
EL
360
6530
  3
ＥＬ３ｍ
360
6531
  3
ＥＬ8ｍ
360
6532
  3
ele
360
6533
  3
ELECTRICAL
360
6534
  3
ERAS1F
360
6535
  3
exterior
360
6536
  3
E南
360
6537
  3
F
360
6538
  3
feaze
360
6539
  3
FF
360
653A
  3
FLOW
360
653B
  3
Frame
360
653C
  3
freaze
360
653D
  3
freeze
360
653E
  3
Frozen
360
653F
  3
Fugou
360
6540
  3
FUKI
360
6541
  3
FUSE_00
360
6542
  3
G
360
6543
  3
GAIKOU
360
6544
  3
ganci
360
910D
  3
gasline
360
6545
  3
GLAZING
360
6546
  3
green
360
6547
  3
GRID
360
6548
  3
H
360
6549
  3
H 画層
360
654A
  3
HAISEN
360
654B
  3
HARI
360
654C
  3
HASIRA
360
654D
  3
HAT
360
654E
  3
HIDDEN
360
654F
  3
HM
360
6550
  3
HOJO
360
6551
  3
houki
360
6552
  3
i
360
6553
  3
I2
360
6554
  3
i2cl
360
6555
  3
i5
360
6556
  3
IEL
360
6557
  3
INSERT図
360
6558
  3
irc
360
6559
  3
j
360
655A
  3
jiku-0
360
655B
  3
jkhg8
360
655C
  3
KABE
360
655D
  3
KABESHIN
360
655E
  3
KAGU
360
655F
  3
key
360
6560
  3
keyplan
360
6561
  3
KIJUN
360
6562
  3
KSIN
360
6563
  3
kui
360
6564
  3
L 画層
360
6565
  3
L1
360
6566
  3
L2
360
6567
  3
layout
360
6568
  3
length
360
6569
  3
LOCK
360
656A
  3
M
360
656B
  3
magenta
360
656C
  3
MAJIKIRI
360
656D
  3
mazenda
360
656E
  3
MB
360
656F
  3
MECHANICAL
360
6570
  3
MEJI
360
6571
  3
men
360
6572
  3
MIE01
360
6573
  3
MOJI
360
6574
  3
MOJI100
360
6575
  3
MP
360
6576
  3
N
360
6577
  3
new
360
6578
  3
New Doors
360
6579
  3
New Walls
360
657A
  3
nic
360
657B
  3
NS CTS set
360
657C
  3
o
360
657D
  3
OF
360
657E
  3
Off
360
657F
  3
off文字
360
6580
  3
on
360
6581
  3
p
360
6582
  3
PARKING
360
6583
  3
PC
360
6584
  3
plot
360
6585
  3
PLUMBING
360
6586
  3
Q
360
6587
  3
R
360
6588
  3
raku
360
6589
  3
red
360
658A
  3
RJRUDDH
360
658B
  3
rock
360
658C
  3
ROOF
360
658D
  3
s
360
658E
  3
saciencewold
360
658F
  3
SC
360
6590
  3
sdfdf
360
6591
  3
SETUBI
360
6592
  3
SHITU
360
6593
  3
SHITUMEI
360
6594
  3
SIAG
360
6595
  3
SIAG-N
360
6596
  3
SIAG3
360
6597
  3
Sinm
360
6598
  3
SITA
360
6599
  3
site
360
659A
  3
SON
360
659B
  3
SS
360
659C
  3
STAIRS
360
659D
  3
standard
360
659E
  3
SUGA5
360
659F
  3
SUNP
360
65A0
  3
SUNP100
360
65A1
  3
SYOU
360
65A2
  3
S画層
360
65A3
  3
T
360
65A4
  3
TAKASA
360
65A5
  3
TATE161
360
65A6
  3
TATEGU
360
65A7
  3
TC
360
65A8
  3
TEN
360
65A9
  3
TENJYOU
360
65AA
  3
TENJYOUNAI
360
65AB
  3
test
360
65AC
  3
test1024
360
65AD
  3
test1115
360
65AE
  3
test2
360
65AF
  3
TEXT
360
65B0
  3
Thawed
360
65B1
  3
TITL
360
65B2
  3
tnjyou
360
65B3
  3
TORISHIN
360
65B4
  3
TSIN
360
65B5
  3
TTB-only
360
910E
  3
TU
360
65B6
  3
unlocked
360
65B7
  3
UNROCK
360
65B8
  3
VMB
360
65B9
  3
VOID
360
65BA
  3
waku
360
65BB
  3
WALLS
360
65BC
  3
ward
360
65BD
  3
X
360
65BE
  3
yaji
360
65BF
  3
yellow
360
65C0
  3
YUKA
360
65C1
  3
yその他
360
65C2
  3
Z
360
65C3
  3
z-CABINETRY
360
65C4
  3
z-WALLS
360
65C5
  3
ZATU
360
65C6
  3
z図枠
360
65C7
  3
ｨｾｨa
360
65C8
  3
ｨﾏ･ﾎ､､
360
65C9
  3
ガラス
360
65CA
  3
キ-プラン
360
65CB
  3
キープラン
360
65CC
  3
きんでん
360
65CD
  3
ｺﾝ
360
65CE
  3
シェルター
360
65CF
  3
すべての画層を非表示
360
65D0
  3
すべて非表示
360
65D1
  3
デッキ
360
65D2
  3
ハッチング
360
65D3
  3
ﾌﾘｰｽﾞ
360
65D4
  3
フリーズ
360
65D5
  3
フリーズof
360
65D6
  3
フリーズ画層
360
65D7
  3
ﾌﾘｰｽﾞ画層非表示
360
65D8
  3
ﾌﾘｰｽﾞ画面非表示
360
65D9
  3
ﾌﾘｰｽﾞ解除
360
65DA
  3
フリーズ解除
360
65DB
  3
ペーパー空間
360
65DC
  3
マーク
360
65DD
  3
ｭｱｿn
360
65DE
  3
ｭｫｭnｼh
360
65DF
  3
ランプ
360
65E0
  3
ロック以外
360
65E1
  3
ロック画層
360
65E2
  3
ロック解除
360
65E3
  3
ｦLｨ
360
65E4
  3
一括非表示
360
65E5
  3
一般
360
65E6
  3
一般画層
360
65E7
  3
印刷不可を表示
360
65E8
  3
荏原 機器
360
65E9
  3
荏原　機器基礎
360
65EA
  3
荏原機器
360
65EB
  3
荏原機器基礎
360
65EC
  3
衛生設備図
360
65ED
  3
黄色
360
65EE
  3
下地
360
65EF
  3
仮設
360
65F0
  3
家具
360
65F1
  3
開発画層
360
65F2
  3
外構
360
65F3
  3
外構一般画層
360
65F4
  3
外構図
360
65F5
  3
外部-フリーズ解除
360
65F6
  3
外部参照－建築
360
65F7
  3
外部参照の非表示画層
360
65F8
  3
岩級
360
65F9
  3
基
360
65FA
  3
基準
360
65FB
  3
基礎伏図
360
65FC
  3
既存杭
360
65FD
  3
機器
360
65FE
  3
機器基礎
360
65FF
  3
記号
360
6600
  3
旧
360
6601
  3
共通
360
6602
  3
区画
360
6603
  3
躯体
360
6604
  3
躯体図
360
6605
  3
駆体
360
6606
  3
空調設備図
360
6607
  3
郡川
360
6608
  3
型枠計画図
360
6609
  3
形状
360
660A
  3
形状以外
360
660B
  3
建具
360
660C
  3
建築
360
660D
  3
建築1
360
660E
  3
建築一般画層
360
660F
  3
建築図
360
6610
  3
建築接地図
360
6611
  3
建物
360
6612
  3
見え
360
6613
  3
見上
360
6614
  3
現況
360
6615
  3
現況＆境界
360
6616
  3
現在以外のすべてを選択
360
6617
  3
後付
360
6618
  3
公園
360
6619
  3
杭頭詳細図
360
661A
  3
杭伏図
360
661B
  3
高さ
360
661C
  3
高圧電気
360
661D
  3
座席のみ
360
661E
  3
作業
360
661F
  3
山止根切計画図
360
6620
  3
仕
360
6621
  3
仕上
360
6622
  3
仕上げ
360
6623
  3
仕上図
360
6624
  3
支柱取付部
360
6625
  3
施工図
360
6626
  3
紫
360
6627
  3
従属
360
6628
  3
出図
360
6629
  3
床伏
360
662A
  3
床伏図
360
662B
  3
昇降機
360
662C
  3
詳細
360
662D
  3
詳細一般画層
360
662E
  3
詳細図
360
662F
  3
上階躯体図
360
6630
  3
植栽
360
6631
  3
色番号8
360
6632
  3
新
360
6633
  3
新菱
360
6634
  3
申請用
360
6635
  3
芯
360
6636
  3
芯関係
360
6637
  3
水
360
6638
  3
水色
360
6639
  3
寸法
360
663A
  3
正面図
360
663B
  3
製作
360
663C
  3
製作-躯体
360
663D
  3
製作-建築
360
663E
  3
製作-昇降機
360
663F
  3
青
360
6640
  3
設備
360
6641
  3
設備１
360
6642
  3
専北
360
6643
  3
専用
360
6644
  3
川畑
360
6645
  3
線形
360
6646
  3
全階平面図
360
6647
  3
全帯
360
6648
  3
総合仮設図
360
6649
  3
総合図
360
664A
  3
総合図1
360
664B
  3
足場計画図
360
664C
  3
耐火
360
664D
  3
断面
360
664E
  3
断面図
360
664F
  3
中
360
6650
  3
中野
360
6651
  3
通り芯
360
6652
  3
低圧
360
6653
  3
鉄筋
360
6654
  3
鉄骨
360
6655
  3
鉄骨建方計画図
360
6656
  3
鉄骨梁見下げ
360
6657
  3
鉄骨梁見下げ3
360
6658
  3
天井
360
6659
  3
天井インサート図
360
665A
  3
天井総合図
360
665B
  3
天井伏
360
665C
  3
天井伏図
360
665D
  3
天伏
360
665E
  3
展開図
360
665F
  3
電ｺﾝｾﾝﾄ
360
6660
  3
電ﾃﾚﾋﾞ
360
6661
  3
電の画層
360
6662
  3
電の総画層
360
6663
  3
電医療接地
360
6664
  3
電気
360
6665
  3
電気画層
360
6666
  3
電気設計図
360
6667
  3
電気設備図
360
6668
  3
電電話
360
6669
  3
土留板
360
666A
  3
土留板取付詳細図
360
666B
  3
動力
360
666C
  3
道路
360
666D
  3
道路関係図
360
666E
  3
読み込み時表示層
360
666F
  3
日比谷
360
6670
  3
日比谷1
360
6671
  3
背面図
360
6672
  3
配管
360
6673
  3
配筋図
360
6674
  3
配置樹木
360
6675
  3
配置図
360
6676
  3
盤
360
6677
  3
非表示
360
6678
  3
非表示層のみ表示
360
6679
  3
表示
360
667A
  3
表示-ﾊﾟｼｺﾝ作成画層のみ
360
667B
  3
表示-近代作成画層のみ
360
667C
  3
表示-東電作成画層のみ
360
667D
  3
表示-日技作成画層のみ
360
667E
  3
表示-福山作成画層のみ
360
667F
  3
表示・非表示
360
6680
  3
表示2
360
6681
  3
表示層のみ表示
360
6682
  3
副道
360
6683
  3
分割枠
360
6684
  3
文字
360
6685
  3
平詳
360
6686
  3
平詳仕上表1
360
6687
  3
平面
360
6688
  3
平面詳細
360
6689
  3
平面詳細図
360
668A
  3
平面図
360
668B
  3
平面図のみ＠1
360
668C
  3
平面図のみ＠２
360
668D
  3
平面総合図
360
668E
  3
保留
360
668F
  3
補助線
360
6690
  3
法規チェック－区画
360
6691
  3
法規チェック－範囲
360
6692
  3
鳳文字入力
360
6693
  3
防災
360
6694
  3
名称
360
6695
  3
面積
360
6696
  3
立面図
360
6697
  3
梁
360
6698
  3
緑
360
6699
  0
XRECORD
  5
5504
102
{ACAD_REACTORS
330
3EE
102
}
330
3EE
100
AcDbXrecord
280
     1
340
1A
  0
GROUP
  5
3E11
102
{ACAD_REACTORS
330
D
102
}
330
D
100
AcDbGroup
300

 70
     1
 71
     1
  0
GROUP
  5
99D4
102
{ACAD_REACTORS
330
D
102
}
330
D
100
AcDbGroup
300

 70
     1
 71
     1
  0
GROUP
  5
A5D3
102
{ACAD_REACTORS
330
D
102
}
330
D
100
AcDbGroup
300

 70
     1
 71
     1
  0
GROUP
  5
B3B8
102
{ACAD_REACTORS
330
D
102
}
330
D
100
AcDbGroup
300

 70
     1
 71
     1
  0
GROUP
  5
BC51
102
{ACAD_REACTORS
330
D
102
}
330
D
100
AcDbGroup
300

 70
     1
 71
     1
  0
GROUP
  5
9EB5
102
{ACAD_REACTORS
330
D
102
}
330
D
100
AcDbGroup
300

 70
     1
 71
     1
  0
GROUP
  5
B3A1
102
{ACAD_REACTORS
330
D
102
}
330
D
100
AcDbGroup
300

 70
     1
 71
     1
  0
GROUP
  5
B3BA
102
{ACAD_REACTORS
330
D
102
}
330
D
100
AcDbGroup
300

 70
     1
 71
     1
  0
GROUP
  5
5BF3
102
{ACAD_REACTORS
330
D
102
}
330
D
100
AcDbGroup
300

 70
     1
 71
     1
  0
GROUP
  5
B36E
102
{ACAD_REACTORS
330
D
102
}
330
D
100
AcDbGroup
300

 70
     1
 71
     1
340
A7C8
340
AE20
340
ADD0
340
ADD1
340
AE1D
340
AE1E
340
AE21
340
AE22
340
AE23
340
AE24
340
AE25
340
AE26
340
AE27
340
AE28
340
AE29
340
AE2A
340
AE2B
340
AE2C
340
AE2D
340
AEF1
340
AEF2
340
AEF3
340
AEF4
340
AEF5
340
ADB2
340
ADB3
340
ADB4
340
AE2E
340
AE2F
340
ADE1
340
ADE2
340
ADE3
340
ADE4
340
ADE5
340
ADE6
340
ADE7
340
ADE8
340
ADE9
340
ADEA
340
ADEB
340
ADEC
340
ADED
340
ADEE
340
ADEF
340
ADF0
340
ADF1
340
AE1F
340
ADCF
  0
GROUP
  5
99D2
102
{ACAD_REACTORS
330
D
102
}
330
D
100
AcDbGroup
300

 70
     1
 71
     1
  0
GROUP
  5
B3F1
102
{ACAD_REACTORS
330
D
102
}
330
D
100
AcDbGroup
300

 70
     1
 71
     1
  0
GROUP
  5
9663
102
{ACAD_REACTORS
330
D
102
}
330
D
100
AcDbGroup
300

 70
     1
 71
     1
  0
GROUP
  5
9EB6
102
{ACAD_REACTORS
330
D
102
}
330
D
100
AcDbGroup
300

 70
     1
 71
     1
  0
GROUP
  5
9EBA
102
{ACAD_REACTORS
330
D
102
}
330
D
100
AcDbGroup
300

 70
     1
 71
     1
  0
GROUP
  5
9BF1
102
{ACAD_REACTORS
330
D
102
}
330
D
100
AcDbGroup
300

 70
     1
 71
     1
  0
GROUP
  5
A14B
102
{ACAD_REACTORS
330
D
102
}
330
D
100
AcDbGroup
300

 70
     1
 71
     1
  0
GROUP
  5
B3F9
102
{ACAD_REACTORS
330
D
102
}
330
D
100
AcDbGroup
300

 70
     1
 71
     1
  0
GROUP
  5
9651
102
{ACAD_REACTORS
330
D
102
}
330
D
100
AcDbGroup
300

 70
     1
 71
     1
  0
GROUP
  5
88D0
102
{ACAD_REACTORS
330
D
102
}
330
D
100
AcDbGroup
300

 70
     1
 71
     1
  0
GROUP
  5
B377
102
{ACAD_REACTORS
330
D
102
}
330
D
100
AcDbGroup
300

 70
     1
 71
     1
  0
GROUP
  5
B36F
102
{ACAD_REACTORS
330
D
102
}
330
D
100
AcDbGroup
300

 70
     1
 71
     1
340
AEDF
340
AEE0
340
AEE1
340
AEF6
340
AEF7
340
AEF8
340
AEF9
340
AEFA
340
AEFB
340
AEFC
340
AEFD
340
AEFE
340
AEFF
340
AF00
340
AF01
340
AF02
340
AF03
340
AF04
340
AF05
340
AF06
340
AF07
340
AF08
340
AF09
340
AF0A
340
AF0B
340
AF0C
340
AF2C
340
AF2D
340
AF2E
340
AF2F
340
AF30
340
AF31
340
AF32
340
AF33
340
AF34
340
AF35
340
AF36
340
AF37
340
AF38
340
AF39
340
AF3A
340
AF3B
340
AF3C
340
AF3D
340
AF3E
340
AF3F
340
AF40
340
AF41
  0
GROUP
  5
9FC1
102
{ACAD_REACTORS
330
D
102
}
330
D
100
AcDbGroup
300

 70
     1
 71
     1
  0
GROUP
  5
A7B8
102
{ACAD_REACTORS
330
D
102
}
330
D
100
AcDbGroup
300

 70
     1
 71
     1
  0
GROUP
  5
9BF5
102
{ACAD_REACTORS
330
D
102
}
330
D
100
AcDbGroup
300

 70
     1
 71
     1
  0
GROUP
  5
8910
102
{ACAD_REACTORS
330
D
102
}
330
D
100
AcDbGroup
300

 70
     1
 71
     1
  0
GROUP
  5
9FC2
102
{ACAD_REACTORS
330
D
102
}
330
D
100
AcDbGroup
300

 70
     1
 71
     1
  0
GROUP
  5
A43A
102
{ACAD_REACTORS
330
D
102
}
330
D
100
AcDbGroup
300

 70
     1
 71
     1
  0
GROUP
  5
B3B2
102
{ACAD_REACTORS
330
D
102
}
330
D
100
AcDbGroup
300

 70
     1
 71
     1
  0
GROUP
  5
88F4
102
{ACAD_REACTORS
330
D
102
}
330
D
100
AcDbGroup
300

 70
     1
 71
     1
  0
GROUP
  5
A5D5
102
{ACAD_REACTORS
330
D
102
}
330
D
100
AcDbGroup
300

 70
     1
 71
     1
  0
GROUP
  5
B781
102
{ACAD_REACTORS
330
D
102
}
330
D
100
AcDbGroup
300

 70
     1
 71
     1
340
B77D
340
B77E
340
B77F
340
B77C
  0
GROUP
  5
A13C
102
{ACAD_REACTORS
330
D
102
}
330
D
100
AcDbGroup
300

 70
     1
 71
     1
  0
GROUP
  5
A446
102
{ACAD_REACTORS
330
D
102
}
330
D
100
AcDbGroup
300

 70
     1
 71
     1
  0
GROUP
  5
8ECE
102
{ACAD_REACTORS
330
D
102
}
330
D
100
AcDbGroup
300

 70
     1
 71
     1
  0
GROUP
  5
A13D
102
{ACAD_REACTORS
330
D
102
}
330
D
100
AcDbGroup
300

 70
     1
 71
     1
  0
GROUP
  5
B376
102
{ACAD_REACTORS
330
D
102
}
330
D
100
AcDbGroup
300

 70
     1
 71
     1
  0
GROUP
  5
5B9B
102
{ACAD_REACTORS
330
D
102
}
330
D
100
AcDbGroup
300

 70
     1
 71
     1
  0
GROUP
  5
A140
102
{ACAD_REACTORS
330
D
102
}
330
D
100
AcDbGroup
300

 70
     1
 71
     1
  0
GROUP
  5
963A
102
{ACAD_REACTORS
330
D
102
}
330
D
100
AcDbGroup
300

 70
     1
 71
     1
  0
GROUP
  5
5A87
102
{ACAD_REACTORS
330
D
102
}
330
D
100
AcDbGroup
300

 70
     1
 71
     1
  0
GROUP
  5
B780
102
{ACAD_REACTORS
330
D
102
}
330
D
100
AcDbGroup
300

 70
     1
 71
     1
340
B77A
340
B77B
  0
GROUP
  5
8560
102
{ACAD_REACTORS
330
D
102
}
330
D
100
AcDbGroup
300

 70
     1
 71
     1
  0
GROUP
  5
A43B
102
{ACAD_REACTORS
330
D
102
}
330
D
100
AcDbGroup
300

 70
     1
 71
     1
  0
GROUP
  5
A5EB
102
{ACAD_REACTORS
330
D
102
}
330
D
100
AcDbGroup
300

 70
     1
 71
     1
  0
GROUP
  5
6225
102
{ACAD_REACTORS
330
D
102
}
330
D
100
AcDbGroup
300

 70
     1
 71
     1
  0
GROUP
  5
BC52
102
{ACAD_REACTORS
330
D
102
}
330
D
100
AcDbGroup
300

 70
     1
 71
     1
  0
GROUP
  5
A43C
102
{ACAD_REACTORS
330
D
102
}
330
D
100
AcDbGroup
300

 70
     1
 71
     1
  0
GROUP
  5
88D7
102
{ACAD_REACTORS
330
D
102
}
330
D
100
AcDbGroup
300

 70
     1
 71
     1
  0
GROUP
  5
A43D
102
{ACAD_REACTORS
330
D
102
}
330
D
100
AcDbGroup
300

 70
     1
 71
     1
  0
GROUP
  5
B3BD
102
{ACAD_REACTORS
330
D
102
}
330
D
100
AcDbGroup
300

 70
     1
 71
     1
  0
GROUP
  5
A43E
102
{ACAD_REACTORS
330
D
102
}
330
D
100
AcDbGroup
300

 70
     1
 71
     1
  0
GROUP
  5
622B
102
{ACAD_REACTORS
330
D
102
}
330
D
100
AcDbGroup
300

 70
     1
 71
     1
  0
GROUP
  5
A43F
102
{ACAD_REACTORS
330
D
102
}
330
D
100
AcDbGroup
300

 70
     1
 71
     1
  0
GROUP
  5
A440
102
{ACAD_REACTORS
330
D
102
}
330
D
100
AcDbGroup
300

 70
     1
 71
     1
  0
GROUP
  5
BC56
102
{ACAD_REACTORS
330
D
102
}
330
D
100
AcDbGroup
300

 70
     1
 71
     1
  0
GROUP
  5
867E
102
{ACAD_REACTORS
330
D
102
}
330
D
100
AcDbGroup
300

 70
     1
 71
     1
  0
GROUP
  5
470B
102
{ACAD_REACTORS
330
D
102
}
330
D
100
AcDbGroup
300

 70
     1
 71
     1
  0
GROUP
  5
B43E
102
{ACAD_REACTORS
330
D
102
}
330
D
100
AcDbGroup
300

 70
     1
 71
     1
  0
GROUP
  5
BCCD
102
{ACAD_REACTORS
330
D
102
}
330
D
100
AcDbGroup
300

 70
     1
 71
     1
340
AB7B
340
AB7A
340
AB79
340
AB78
340
AB77
340
AB76
340
AB75
340
AB74
340
AB73
340
AB72
340
AB71
340
AB70
340
AB6F
340
AB6E
340
AB6D
340
AB6C
340
ABA2
340
ABA1
340
ABA0
340
AB6B
340
AB6A
340
AB68
340
AB67
340
AB66
340
AB65
340
ABB8
340
ABB7
340
ABB5
340
ABB4
340
AB7F
340
AB7E
340
AB7D
340
AB69
340
AB95
340
ABD0
340
AB9D
340
ABAA
340
ABA9
340
AB9C
340
ABAF
340
ABAE
340
ABA7
340
ABA6
340
ABA4
340
ABA3
340
AB98
340
AB9A
340
AB99
340
ABB2
340
ABBB
340
ABBA
340
ABB9
340
ABB3
340
ABB6
340
AB93
340
ABC0
340
ABBF
340
ABBE
340
ABBD
340
AB9F
340
ABB0
340
ABAD
340
ABAC
340
ABAB
340
ABA8
340
ABA5
340
AB9E
340
AB9B
340
AB91
340
ABE4
340
ABE3
340
ABE2
340
ABE1
340
ABE0
340
ABDF
340
ABDE
340
ABCF
340
ABCE
340
ABCD
340
ABCC
340
ABCB
340
ABC3
340
ABCA
340
ABC9
340
ABC8
340
ABC7
340
ABC6
340
ABC5
340
ABDD
340
ABDC
340
ABDB
340
ABDA
340
ABE5
340
ADB5
340
ADC2
340
ADC1
340
ADBC
340
AB96
340
ADBF
340
ADBD
340
ADBA
340
ADB9
340
ADB8
340
ADB7
340
ADB6
340
AB63
340
AB62
340
ADCA
340
ADC9
340
ADC8
340
ADC7
340
ABB1
340
AB7C
340
AB94
340
ADCD
340
ADCC
340
ADCB
340
ABBC
340
ADC6
340
ADC5
340
ADC4
340
ADC3
340
ADC0
340
ADBE
340
ADBB
340
AB97
340
AB64
340
AE0E
340
AE0D
340
AE0C
340
AE0B
340
AE0A
340
AE09
340
AE08
340
ADDE
340
ADDD
340
ADDC
340
ADDB
340
ADDA
340
ADCE
340
ADD9
340
ADD8
340
ADD7
340
ADD6
340
ADD5
340
ADD4
340
AE07
340
AE06
340
AE05
340
AE04
340
AE19
  0
GROUP
  5
88D4
102
{ACAD_REACTORS
330
D
102
}
330
D
100
AcDbGroup
300

 70
     1
 71
     1
  0
GROUP
  5
B379
102
{ACAD_REACTORS
330
D
102
}
330
D
100
AcDbGroup
300

 70
     1
 71
     1
  0
GROUP
  5
B37A
102
{ACAD_REACTORS
330
D
102
}
330
D
100
AcDbGroup
300

 70
     1
 71
     1
340
AE94
340
AE95
340
ADA7
340
ADA8
  0
GROUP
  5
B37B
102
{ACAD_REACTORS
330
D
102
}
330
D
100
AcDbGroup
300

 70
     1
 71
     1
340
A7C6
340
A7C7
340
AF24
340
AEDB
340
AEDC
340
AEDD
340
AEDE
340
AF2A
340
AEED
340
AEEE
340
AEEF
340
AF27
340
AF2B
340
AF25
340
AF26
340
AF28
340
AF29
  0
GROUP
  5
5BDD
102
{ACAD_REACTORS
330
D
102
}
330
D
100
AcDbGroup
300

 70
     1
 71
     1
  0
GROUP
  5
B3A5
102
{ACAD_REACTORS
330
D
102
}
330
D
100
AcDbGroup
300

 70
     1
 71
     1
  0
GROUP
  5
5B8E
102
{ACAD_REACTORS
330
D
102
}
330
D
100
AcDbGroup
300

 70
     1
 71
     1
  0
GROUP
  5
9759
102
{ACAD_REACTORS
330
D
102
}
330
D
100
AcDbGroup
300

 70
     1
 71
     1
  0
GROUP
  5
9BF2
102
{ACAD_REACTORS
330
D
102
}
330
D
100
AcDbGroup
300

 70
     1
 71
     1
  0
GROUP
  5
9034
102
{ACAD_REACTORS
330
D
102
}
330
D
100
AcDbGroup
300

 70
     1
 71
     1
  0
GROUP
  5
8672
102
{ACAD_REACTORS
330
D
102
}
330
D
100
AcDbGroup
300

 70
     1
 71
     1
  0
GROUP
  5
A4A3
102
{ACAD_REACTORS
330
D
102
}
330
D
100
AcDbGroup
300

 70
     1
 71
     1
  0
GROUP
  5
B37C
102
{ACAD_REACTORS
330
D
102
}
330
D
100
AcDbGroup
300

 70
     1
 71
     1
  0
GROUP
  5
731D
102
{ACAD_REACTORS
330
D
102
}
330
D
100
AcDbGroup
300

 70
     1
 71
     1
  0
GROUP
  5
963E
102
{ACAD_REACTORS
330
D
102
}
330
D
100
AcDbGroup
300

 70
     1
 71
     1
  0
GROUP
  5
890F
102
{ACAD_REACTORS
330
D
102
}
330
D
100
AcDbGroup
300

 70
     1
 71
     1
  0
GROUP
  5
B3A2
102
{ACAD_REACTORS
330
D
102
}
330
D
100
AcDbGroup
300

 70
     1
 71
     1
  0
GROUP
  5
460E
102
{ACAD_REACTORS
330
D
102
}
330
D
100
AcDbGroup
300

 70
     1
 71
     1
  0
GROUP
  5
97A3
102
{ACAD_REACTORS
330
D
102
}
330
D
100
AcDbGroup
300

 70
     1
 71
     1
  0
GROUP
  5
A13E
102
{ACAD_REACTORS
330
D
102
}
330
D
100
AcDbGroup
300

 70
     1
 71
     1
  0
GROUP
  5
B389
102
{ACAD_REACTORS
330
D
102
}
330
D
100
AcDbGroup
300

 70
     1
 71
     1
  0
GROUP
  5
B37D
102
{ACAD_REACTORS
330
D
102
}
330
D
100
AcDbGroup
300

 70
     1
 71
     1
  0
GROUP
  5
B37E
102
{ACAD_REACTORS
330
D
102
}
330
D
100
AcDbGroup
300

 70
     1
 71
     1
  0
GROUP
  5
B37F
102
{ACAD_REACTORS
330
D
102
}
330
D
100
AcDbGroup
300

 70
     1
 71
     1
  0
GROUP
  5
8795
102
{ACAD_REACTORS
330
D
102
}
330
D
100
AcDbGroup
300

 70
     1
 71
     1
  0
GROUP
  5
B380
102
{ACAD_REACTORS
330
D
102
}
330
D
100
AcDbGroup
300

 70
     1
 71
     1
  0
GROUP
  5
A7B5
102
{ACAD_REACTORS
330
D
102
}
330
D
100
AcDbGroup
300

 70
     1
 71
     1
  0
GROUP
  5
B38C
102
{ACAD_REACTORS
330
D
102
}
330
D
100
AcDbGroup
300

 70
     1
 71
     1
  0
GROUP
  5
A63E
102
{ACAD_REACTORS
330
D
102
}
330
D
100
AcDbGroup
300

 70
     1
 71
     1
  0
GROUP
  5
868A
102
{ACAD_REACTORS
330
D
102
}
330
D
100
AcDbGroup
300

 70
     1
 71
     1
  0
GROUP
  5
A57A
102
{ACAD_REACTORS
330
D
102
}
330
D
100
AcDbGroup
300

 70
     1
 71
     1
  0
GROUP
  5
470E
102
{ACAD_REACTORS
330
D
102
}
330
D
100
AcDbGroup
300

 70
     1
 71
     1
  0
GROUP
  5
B38D
102
{ACAD_REACTORS
330
D
102
}
330
D
100
AcDbGroup
300

 70
     1
 71
     1
  0
GROUP
  5
967C
102
{ACAD_REACTORS
330
D
102
}
330
D
100
AcDbGroup
300

 70
     1
 71
     1
  0
GROUP
  5
B38E
102
{ACAD_REACTORS
330
D
102
}
330
D
100
AcDbGroup
300

 70
     1
 71
     1
  0
GROUP
  5
8B62
102
{ACAD_REACTORS
330
D
102
}
330
D
100
AcDbGroup
300

 70
     1
 71
     1
  0
GROUP
  5
B38F
102
{ACAD_REACTORS
330
D
102
}
330
D
100
AcDbGroup
300

 70
     1
 71
     1
  0
GROUP
  5
99D0
102
{ACAD_REACTORS
330
D
102
}
330
D
100
AcDbGroup
300

 70
     1
 71
     1
  0
GROUP
  5
B43F
102
{ACAD_REACTORS
330
D
102
}
330
D
100
AcDbGroup
300

 70
     1
 71
     1
  0
GROUP
  5
B384
102
{ACAD_REACTORS
330
D
102
}
330
D
100
AcDbGroup
300

 70
     1
 71
     1
  0
GROUP
  5
9B02
102
{ACAD_REACTORS
330
D
102
}
330
D
100
AcDbGroup
300

 70
     1
 71
     1
  0
GROUP
  5
B3B3
102
{ACAD_REACTORS
330
D
102
}
330
D
100
AcDbGroup
300

 70
     1
 71
     1
  0
GROUP
  5
B390
102
{ACAD_REACTORS
330
D
102
}
330
D
100
AcDbGroup
300

 70
     1
 71
     1
  0
GROUP
  5
8562
102
{ACAD_REACTORS
330
D
102
}
330
D
100
AcDbGroup
300

 70
     1
 71
     1
  0
GROUP
  5
86D9
102
{ACAD_REACTORS
330
D
102
}
330
D
100
AcDbGroup
300

 70
     1
 71
     1
  0
GROUP
  5
A141
102
{ACAD_REACTORS
330
D
102
}
330
D
100
AcDbGroup
300

 70
     1
 71
     1
  0
GROUP
  5
6DB6
102
{ACAD_REACTORS
330
D
102
}
330
D
100
AcDbGroup
300

 70
     1
 71
     1
  0
GROUP
  5
9641
102
{ACAD_REACTORS
330
D
102
}
330
D
100
AcDbGroup
300

 70
     1
 71
     1
  0
GROUP
  5
8561
102
{ACAD_REACTORS
330
D
102
}
330
D
100
AcDbGroup
300

 70
     1
 71
     1
  0
GROUP
  5
B391
102
{ACAD_REACTORS
330
D
102
}
330
D
100
AcDbGroup
300

 70
     1
 71
     1
  0
GROUP
  5
A444
102
{ACAD_REACTORS
330
D
102
}
330
D
100
AcDbGroup
300

 70
     1
 71
     1
  0
GROUP
  5
B381
102
{ACAD_REACTORS
330
D
102
}
330
D
100
AcDbGroup
300

 70
     1
 71
     1
  0
GROUP
  5
B39F
102
{ACAD_REACTORS
330
D
102
}
330
D
100
AcDbGroup
300

 70
     1
 71
     1
  0
GROUP
  5
B440
102
{ACAD_REACTORS
330
D
102
}
330
D
100
AcDbGroup
300

 70
     1
 71
     1
  0
GROUP
  5
B398
102
{ACAD_REACTORS
330
D
102
}
330
D
100
AcDbGroup
300

 70
     1
 71
     1
  0
GROUP
  5
86DA
102
{ACAD_REACTORS
330
D
102
}
330
D
100
AcDbGroup
300

 70
     1
 71
     1
  0
GROUP
  5
B3A8
102
{ACAD_REACTORS
330
D
102
}
330
D
100
AcDbGroup
300

 70
     1
 71
     1
  0
GROUP
  5
5C13
102
{ACAD_REACTORS
330
D
102
}
330
D
100
AcDbGroup
300

 70
     1
 71
     1
  0
GROUP
  5
B392
102
{ACAD_REACTORS
330
D
102
}
330
D
100
AcDbGroup
300

 70
     1
 71
     1
  0
GROUP
  5
B387
102
{ACAD_REACTORS
330
D
102
}
330
D
100
AcDbGroup
300

 70
     1
 71
     1
  0
GROUP
  5
86DB
102
{ACAD_REACTORS
330
D
102
}
330
D
100
AcDbGroup
300

 70
     1
 71
     1
  0
GROUP
  5
B393
102
{ACAD_REACTORS
330
D
102
}
330
D
100
AcDbGroup
300

 70
     1
 71
     1
  0
GROUP
  5
B3A6
102
{ACAD_REACTORS
330
D
102
}
330
D
100
AcDbGroup
300

 70
     1
 71
     1
  0
GROUP
  5
9250
102
{ACAD_REACTORS
330
D
102
}
330
D
100
AcDbGroup
300

 70
     1
 71
     1
  0
GROUP
  5
B394
102
{ACAD_REACTORS
330
D
102
}
330
D
100
AcDbGroup
300

 70
     1
 71
     1
  0
GROUP
  5
9702
102
{ACAD_REACTORS
330
D
102
}
330
D
100
AcDbGroup
300

 70
     1
 71
     1
  0
GROUP
  5
9B05
102
{ACAD_REACTORS
330
D
102
}
330
D
100
AcDbGroup
300

 70
     1
 71
     1
  0
GROUP
  5
B395
102
{ACAD_REACTORS
330
D
102
}
330
D
100
AcDbGroup
300

 70
     1
 71
     1
340
AF20
340
AED8
340
AED9
340
AEDA
340
ABEE
340
ABF1
340
ABF2
340
ABF3
340
ABF4
340
ABF5
340
ABF6
340
ABF7
340
ABF8
340
AB5E
340
AB5F
340
AB5D
340
AEE2
340
AF1C
340
AF1D
340
AF1E
340
AF1F
340
AEE3
340
AEE4
340
AB5C
340
AEE5
340
AEE6
340
AEE7
340
AED5
340
AED6
340
AED7
340
AEE8
340
AEE9
340
AEEA
340
AEEB
340
AEEC
340
AC07
340
AC08
340
AC09
340
AC0A
340
AC0B
340
AC0C
340
AC0D
340
AC0E
340
AB59
340
AB5B
340
AB5A
340
AF0D
340
AF0E
340
AB58
340
AF0F
340
AF10
340
AF11
340
AF12
340
AF13
340
AF14
340
AF15
340
AF16
340
AF17
340
AF18
340
AF19
340
AF1A
340
AF1B
340
AF21
340
AF22
340
AF23
  0
GROUP
  5
8565
102
{ACAD_REACTORS
330
D
102
}
330
D
100
AcDbGroup
300

 70
     1
 71
     1
  0
GROUP
  5
B396
102
{ACAD_REACTORS
330
D
102
}
330
D
100
AcDbGroup
300

 70
     1
 71
     1
  0
GROUP
  5
B397
102
{ACAD_REACTORS
330
D
102
}
330
D
100
AcDbGroup
300

 70
     1
 71
     1
  0
GROUP
  5
99D6
102
{ACAD_REACTORS
330
D
102
}
330
D
100
AcDbGroup
300

 70
     1
 71
     1
  0
GROUP
  5
A445
102
{ACAD_REACTORS
330
D
102
}
330
D
100
AcDbGroup
300

 70
     1
 71
     1
  0
GROUP
  5
B419
102
{ACAD_REACTORS
330
D
102
}
330
D
100
AcDbGroup
300

 70
     1
 71
     1
  0
GROUP
  5
99D5
102
{ACAD_REACTORS
330
D
102
}
330
D
100
AcDbGroup
300

 70
     1
 71
     1
  0
GROUP
  5
A57B
102
{ACAD_REACTORS
330
D
102
}
330
D
100
AcDbGroup
300

 70
     1
 71
     1
  0
GROUP
  5
9BF3
102
{ACAD_REACTORS
330
D
102
}
330
D
100
AcDbGroup
300

 70
     1
 71
     1
  0
GROUP
  5
8793
102
{ACAD_REACTORS
330
D
102
}
330
D
100
AcDbGroup
300

 70
     1
 71
     1
  0
GROUP
  5
8779
102
{ACAD_REACTORS
330
D
102
}
330
D
100
AcDbGroup
300

 70
     1
 71
     1
  0
GROUP
  5
B3B4
102
{ACAD_REACTORS
330
D
102
}
330
D
100
AcDbGroup
300

 70
     1
 71
     1
  0
GROUP
  5
B3AA
102
{ACAD_REACTORS
330
D
102
}
330
D
100
AcDbGroup
300

 70
     1
 71
     1
  0
GROUP
  5
855F
102
{ACAD_REACTORS
330
D
102
}
330
D
100
AcDbGroup
300

 70
     1
 71
     1
  0
GROUP
  5
B3AC
102
{ACAD_REACTORS
330
D
102
}
330
D
100
AcDbGroup
300

 70
     1
 71
     1
  0
GROUP
  5
855C
102
{ACAD_REACTORS
330
D
102
}
330
D
100
AcDbGroup
300

 70
     1
 71
     1
  0
GROUP
  5
B3AD
102
{ACAD_REACTORS
330
D
102
}
330
D
100
AcDbGroup
300

 70
     1
 71
     1
  0
GROUP
  5
6226
102
{ACAD_REACTORS
330
D
102
}
330
D
100
AcDbGroup
300

 70
     1
 71
     1
  0
GROUP
  5
B3AE
102
{ACAD_REACTORS
330
D
102
}
330
D
100
AcDbGroup
300

 70
     1
 71
     1
  0
GROUP
  5
A447
102
{ACAD_REACTORS
330
D
102
}
330
D
100
AcDbGroup
300

 70
     1
 71
     1
  0
GROUP
  5
B3B5
102
{ACAD_REACTORS
330
D
102
}
330
D
100
AcDbGroup
300

 70
     1
 71
     1
  0
GROUP
  5
B373
102
{ACAD_REACTORS
330
D
102
}
330
D
100
AcDbGroup
300

 70
     1
 71
     1
340
AE12
340
AE11
340
AE1C
340
AE1B
340
AE1A
340
AE18
340
AE17
340
AE16
340
AE15
340
AE14
340
AE13
340
AE10
340
AE0F
340
AE03
340
AE02
340
ADF8
340
ADF7
340
ADF6
340
ADF5
340
ADF4
340
ADF3
340
ADF2
  0
GROUP
  5
B3B6
102
{ACAD_REACTORS
330
D
102
}
330
D
100
AcDbGroup
300

 70
     1
 71
     1
  0
GROUP
  5
8F16
102
{ACAD_REACTORS
330
D
102
}
330
D
100
AcDbGroup
300

 70
     1
 71
     1
  0
GROUP
  5
B371
102
{ACAD_REACTORS
330
D
102
}
330
D
100
AcDbGroup
300

 70
     1
 71
     1
340
AC06
340
ABF0
340
AC02
340
AC03
340
AC04
340
AC05
340
AC19
340
AC13
340
AC14
340
AC15
340
AC16
340
AC17
340
AC18
340
ABFF
340
AC00
340
AC01
340
ABEF
340
AC0F
340
AC10
340
AC11
340
AC12
  0
GROUP
  5
BD3A
102
{ACAD_REACTORS
330
D
102
}
330
D
100
AcDbGroup
300

 70
     1
 71
     1
340
BD38
340
BD36
340
BD39
340
BD37
  0
GROUP
  5
BD47
102
{ACAD_REACTORS
330
D
102
}
330
D
100
AcDbGroup
300

 70
     1
 71
     1
  0
GROUP
  5
B468
102
{ACAD_REACTORS
330
D
102
}
330
D
100
AcDbGroup
300

 70
     1
 71
     1
  0
GROUP
  5
B3B0
102
{ACAD_REACTORS
330
D
102
}
330
D
100
AcDbGroup
300

 70
     1
 71
     1
  0
GROUP
  5
B3BB
102
{ACAD_REACTORS
330
D
102
}
330
D
100
AcDbGroup
300

 70
     1
 71
     1
  0
GROUP
  5
6C54
102
{ACAD_REACTORS
330
D
102
}
330
D
100
AcDbGroup
300

 70
     1
 71
     1
  0
GROUP
  5
B382
102
{ACAD_REACTORS
330
D
102
}
330
D
100
AcDbGroup
300

 70
     1
 71
     1
  0
GROUP
  5
A438
102
{ACAD_REACTORS
330
D
102
}
330
D
100
AcDbGroup
300

 70
     1
 71
     1
  0
GROUP
  5
9BF4
102
{ACAD_REACTORS
330
D
102
}
330
D
100
AcDbGroup
300

 70
     1
 71
     1
  0
GROUP
  5
A448
102
{ACAD_REACTORS
330
D
102
}
330
D
100
AcDbGroup
300

 70
     1
 71
     1
  0
GROUP
  5
B469
102
{ACAD_REACTORS
330
D
102
}
330
D
100
AcDbGroup
300

 70
     1
 71
     1
  0
GROUP
  5
B3C5
102
{ACAD_REACTORS
330
D
102
}
330
D
100
AcDbGroup
300

 70
     1
 71
     1
  0
GROUP
  5
A442
102
{ACAD_REACTORS
330
D
102
}
330
D
100
AcDbGroup
300

 70
     1
 71
     1
  0
GROUP
  5
470D
102
{ACAD_REACTORS
330
D
102
}
330
D
100
AcDbGroup
300

 70
     1
 71
     1
  0
GROUP
  5
8563
102
{ACAD_REACTORS
330
D
102
}
330
D
100
AcDbGroup
300

 70
     1
 71
     1
  0
GROUP
  5
B46A
102
{ACAD_REACTORS
330
D
102
}
330
D
100
AcDbGroup
300

 70
     1
 71
     1
  0
GROUP
  5
99D1
102
{ACAD_REACTORS
330
D
102
}
330
D
100
AcDbGroup
300

 70
     1
 71
     1
  0
GROUP
  5
8796
102
{ACAD_REACTORS
330
D
102
}
330
D
100
AcDbGroup
300

 70
     1
 71
     1
  0
GROUP
  5
B5A6
102
{ACAD_REACTORS
330
D
102
}
330
D
100
AcDbGroup
300

 70
     1
 71
     1
  0
GROUP
  5
A63F
102
{ACAD_REACTORS
330
D
102
}
330
D
100
AcDbGroup
300

 70
     1
 71
     1
  0
GROUP
  5
B5A7
102
{ACAD_REACTORS
330
D
102
}
330
D
100
AcDbGroup
300

 70
     1
 71
     1
  0
GROUP
  5
9B06
102
{ACAD_REACTORS
330
D
102
}
330
D
100
AcDbGroup
300

 70
     1
 71
     1
  0
GROUP
  5
B5A8
102
{ACAD_REACTORS
330
D
102
}
330
D
100
AcDbGroup
300

 70
     1
 71
     1
  0
GROUP
  5
A47A
102
{ACAD_REACTORS
330
D
102
}
330
D
100
AcDbGroup
300

 70
     1
 71
     1
  0
GROUP
  5
8AB2
102
{ACAD_REACTORS
330
D
102
}
330
D
100
AcDbGroup
300

 70
     1
 71
     1
  0
GROUP
  5
B405
102
{ACAD_REACTORS
330
D
102
}
330
D
100
AcDbGroup
300

 70
     1
 71
     1
  0
GROUP
  5
B378
102
{ACAD_REACTORS
330
D
102
}
330
D
100
AcDbGroup
300

 70
     1
 71
     1
  0
GROUP
  5
A437
102
{ACAD_REACTORS
330
D
102
}
330
D
100
AcDbGroup
300

 70
     1
 71
     1
  0
GROUP
  5
9703
102
{ACAD_REACTORS
330
D
102
}
330
D
100
AcDbGroup
300

 70
     1
 71
     1
  0
GROUP
  5
99D3
102
{ACAD_REACTORS
330
D
102
}
330
D
100
AcDbGroup
300

 70
     1
 71
     1
  0
GROUP
  5
99D7
102
{ACAD_REACTORS
330
D
102
}
330
D
100
AcDbGroup
300

 70
     1
 71
     1
  0
GROUP
  5
9647
102
{ACAD_REACTORS
330
D
102
}
330
D
100
AcDbGroup
300

 70
     1
 71
     1
  0
GROUP
  5
470C
102
{ACAD_REACTORS
330
D
102
}
330
D
100
AcDbGroup
300

 70
     1
 71
     1
  0
GROUP
  5
8B07
102
{ACAD_REACTORS
330
D
102
}
330
D
100
AcDbGroup
300

 70
     1
 71
     1
  0
GROUP
  5
855E
102
{ACAD_REACTORS
330
D
102
}
330
D
100
AcDbGroup
300

 70
     1
 71
     1
  0
GROUP
  5
B5C8
102
{ACAD_REACTORS
330
D
102
}
330
D
100
AcDbGroup
300

 70
     1
 71
     1
  0
GROUP
  5
8667
102
{ACAD_REACTORS
330
D
102
}
330
D
100
AcDbGroup
300

 70
     1
 71
     1
  0
GROUP
  5
8794
102
{ACAD_REACTORS
330
D
102
}
330
D
100
AcDbGroup
300

 70
     1
 71
     1
  0
GROUP
  5
B418
102
{ACAD_REACTORS
330
D
102
}
330
D
100
AcDbGroup
300

 70
     1
 71
     1
  0
GROUP
  5
A13F
102
{ACAD_REACTORS
330
D
102
}
330
D
100
AcDbGroup
300

 70
     1
 71
     1
  0
GROUP
  5
B39B
102
{ACAD_REACTORS
330
D
102
}
330
D
100
AcDbGroup
300

 70
     1
 71
     1
  0
GROUP
  5
9B03
102
{ACAD_REACTORS
330
D
102
}
330
D
100
AcDbGroup
300

 70
     1
 71
     1
  0
GROUP
  5
9BF6
102
{ACAD_REACTORS
330
D
102
}
330
D
100
AcDbGroup
300

 70
     1
 71
     1
  0
GROUP
  5
A150
102
{ACAD_REACTORS
330
D
102
}
330
D
100
AcDbGroup
300

 70
     1
 71
     1
  0
GROUP
  5
A7B7
102
{ACAD_REACTORS
330
D
102
}
330
D
100
AcDbGroup
300

 70
     1
 71
     1
  0
GROUP
  5
6229
102
{ACAD_REACTORS
330
D
102
}
330
D
100
AcDbGroup
300

 70
     1
 71
     1
  0
GROUP
  5
5B9C
102
{ACAD_REACTORS
330
D
102
}
330
D
100
AcDbGroup
300

 70
     1
 71
     1
  0
GROUP
  5
855D
102
{ACAD_REACTORS
330
D
102
}
330
D
100
AcDbGroup
300

 70
     1
 71
     1
  0
GROUP
  5
B385
102
{ACAD_REACTORS
330
D
102
}
330
D
100
AcDbGroup
300

 70
     1
 71
     1
  0
GROUP
  5
975E
102
{ACAD_REACTORS
330
D
102
}
330
D
100
AcDbGroup
300

 70
     1
 71
     1
  0
GROUP
  5
622D
102
{ACAD_REACTORS
330
D
102
}
330
D
100
AcDbGroup
300

 70
     1
 71
     1
  0
GROUP
  5
A48C
102
{ACAD_REACTORS
330
D
102
}
330
D
100
AcDbGroup
300

 70
     1
 71
     1
  0
GROUP
  5
A7B6
102
{ACAD_REACTORS
330
D
102
}
330
D
100
AcDbGroup
300

 70
     1
 71
     1
  0
GROUP
  5
A146
102
{ACAD_REACTORS
330
D
102
}
330
D
100
AcDbGroup
300

 70
     1
 71
     1
  0
GROUP
  5
B3B9
102
{ACAD_REACTORS
330
D
102
}
330
D
100
AcDbGroup
300

 70
     1
 71
     1
  0
GROUP
  5
8687
102
{ACAD_REACTORS
330
D
102
}
330
D
100
AcDbGroup
300

 70
     1
 71
     1
  0
GROUP
  5
5BA3
102
{ACAD_REACTORS
330
D
102
}
330
D
100
AcDbGroup
300

 70
     1
 71
     1
  0
GROUP
  5
622A
102
{ACAD_REACTORS
330
D
102
}
330
D
100
AcDbGroup
300

 70
     1
 71
     1
  0
GROUP
  5
B9D4
102
{ACAD_REACTORS
330
D
102
}
330
D
100
AcDbGroup
300

 70
     1
 71
     1
  0
GROUP
  5
8B22
102
{ACAD_REACTORS
330
D
102
}
330
D
100
AcDbGroup
300

 70
     1
 71
     1
  0
GROUP
  5
9BF7
102
{ACAD_REACTORS
330
D
102
}
330
D
100
AcDbGroup
300

 70
     1
 71
     1
  0
GROUP
  5
88D1
102
{ACAD_REACTORS
330
D
102
}
330
D
100
AcDbGroup
300

 70
     1
 71
     1
  0
GROUP
  5
5AE8
102
{ACAD_REACTORS
330
D
102
}
330
D
100
AcDbGroup
300

 70
     1
 71
     1
  0
GROUP
  5
59A4
102
{ACAD_REACTORS
330
D
102
}
330
D
100
AcDbGroup
300

 70
     1
 71
     1
  0
GROUP
  5
9697
102
{ACAD_REACTORS
330
D
102
}
330
D
100
AcDbGroup
300

 70
     1
 71
     1
  0
GROUP
  5
B3AF
102
{ACAD_REACTORS
330
D
102
}
330
D
100
AcDbGroup
300

 70
     1
 71
     1
  0
GROUP
  5
B9D0
102
{ACAD_REACTORS
330
D
102
}
330
D
100
AcDbGroup
300

 70
     1
 71
     1
  0
GROUP
  5
9810
102
{ACAD_REACTORS
330
D
102
}
330
D
100
AcDbGroup
300

 70
     1
 71
     1
  0
GROUP
  5
B370
102
{ACAD_REACTORS
330
D
102
}
330
D
100
AcDbGroup
300

 70
     1
 71
     1
340
ABED
340
ABC4
340
AB8F
340
AB90
340
ABEC
340
ABF9
340
ABFA
340
ABFB
340
ABFC
340
ABFD
340
ABFE
340
ABD5
340
ABD6
340
ABD9
340
ABE6
340
ABE7
340
ABE8
340
ABE9
340
ABEA
340
ABEB
340
ABC1
340
ABC2
340
ABD2
340
ABD3
340
ABD4
340
ABD7
340
ABD8
340
AB92
  0
GROUP
  5
6DB5
102
{ACAD_REACTORS
330
D
102
}
330
D
100
AcDbGroup
300

 70
     1
 71
     1
  0
GROUP
  5
868D
102
{ACAD_REACTORS
330
D
102
}
330
D
100
AcDbGroup
300

 70
     1
 71
     1
  0
GROUP
  5
4018
102
{ACAD_REACTORS
330
D
102
}
330
D
100
AcDbGroup
300

 70
     1
 71
     1
  0
GROUP
  5
8911
102
{ACAD_REACTORS
330
D
102
}
330
D
100
AcDbGroup
300

 70
     1
 71
     1
  0
GROUP
  5
88D6
102
{ACAD_REACTORS
330
D
102
}
330
D
100
AcDbGroup
300

 70
     1
 71
     1
  0
GROUP
  5
5C12
102
{ACAD_REACTORS
330
D
102
}
330
D
100
AcDbGroup
300

 70
     1
 71
     1
  0
GROUP
  5
731B
102
{ACAD_REACTORS
330
D
102
}
330
D
100
AcDbGroup
300

 70
     1
 71
     1
  0
GROUP
  5
8661
102
{ACAD_REACTORS
330
D
102
}
330
D
100
AcDbGroup
300

 70
     1
 71
     1
  0
GROUP
  5
731C
102
{ACAD_REACTORS
330
D
102
}
330
D
100
AcDbGroup
300

 70
     1
 71
     1
  0
GROUP
  5
9763
102
{ACAD_REACTORS
330
D
102
}
330
D
100
AcDbGroup
300

 70
     1
 71
     1
  0
GROUP
  5
8564
102
{ACAD_REACTORS
330
D
102
}
330
D
100
AcDbGroup
300

 70
     1
 71
     1
  0
GROUP
  5
8673
102
{ACAD_REACTORS
330
D
102
}
330
D
100
AcDbGroup
300

 70
     1
 71
     1
  0
GROUP
  5
88D5
102
{ACAD_REACTORS
330
D
102
}
330
D
100
AcDbGroup
300

 70
     1
 71
     1
  0
GROUP
  5
A441
102
{ACAD_REACTORS
330
D
102
}
330
D
100
AcDbGroup
300

 70
     1
 71
     1
  0
GROUP
  5
A4A2
102
{ACAD_REACTORS
330
D
102
}
330
D
100
AcDbGroup
300

 70
     1
 71
     1
  0
GROUP
  5
867F
102
{ACAD_REACTORS
330
D
102
}
330
D
100
AcDbGroup
300

 70
     1
 71
     1
  0
GROUP
  5
5AC8
102
{ACAD_REACTORS
330
D
102
}
330
D
100
AcDbGroup
300

 70
     1
 71
     1
  0
GROUP
  5
8E6F
102
{ACAD_REACTORS
330
D
102
}
330
D
100
AcDbGroup
300

 70
     1
 71
     1
  0
GROUP
  5
B38A
102
{ACAD_REACTORS
330
D
102
}
330
D
100
AcDbGroup
300

 70
     1
 71
     1
  0
GROUP
  5
B5A9
102
{ACAD_REACTORS
330
D
102
}
330
D
100
AcDbGroup
300

 70
     1
 71
     1
  0
GROUP
  5
B3A4
102
{ACAD_REACTORS
330
D
102
}
330
D
100
AcDbGroup
300

 70
     1
 71
     1
  0
GROUP
  5
B386
102
{ACAD_REACTORS
330
D
102
}
330
D
100
AcDbGroup
300

 70
     1
 71
     1
  0
GROUP
  5
B3A0
102
{ACAD_REACTORS
330
D
102
}
330
D
100
AcDbGroup
300

 70
     1
 71
     1
  0
GROUP
  5
9B04
102
{ACAD_REACTORS
330
D
102
}
330
D
100
AcDbGroup
300

 70
     1
 71
     1
  0
GROUP
  5
8E98
102
{ACAD_REACTORS
330
D
102
}
330
D
100
AcDbGroup
300

 70
     1
 71
     1
  0
GROUP
  5
B3B1
102
{ACAD_REACTORS
330
D
102
}
330
D
100
AcDbGroup
300

 70
     1
 71
     1
  0
GROUP
  5
9B0E
102
{ACAD_REACTORS
330
D
102
}
330
D
100
AcDbGroup
300

 70
     1
 71
     1
  0
GROUP
  5
5AA1
102
{ACAD_REACTORS
330
D
102
}
330
D
100
AcDbGroup
300

 70
     1
 71
     1
  0
GROUP
  5
855B
102
{ACAD_REACTORS
330
D
102
}
330
D
100
AcDbGroup
300

 70
     1
 71
     1
  0
GROUP
  5
9B07
102
{ACAD_REACTORS
330
D
102
}
330
D
100
AcDbGroup
300

 70
     1
 71
     1
  0
GROUP
  5
88D2
102
{ACAD_REACTORS
330
D
102
}
330
D
100
AcDbGroup
300

 70
     1
 71
     1
  0
GROUP
  5
A45D
102
{ACAD_REACTORS
330
D
102
}
330
D
100
AcDbGroup
300

 70
     1
 71
     1
  0
GROUP
  5
9252
102
{ACAD_REACTORS
330
D
102
}
330
D
100
AcDbGroup
300

 70
     1
 71
     1
  0
GROUP
  5
BB87
102
{ACAD_REACTORS
330
D
102
}
330
D
100
AcDbGroup
300

 70
     1
 71
     1
  0
GROUP
  5
9340
102
{ACAD_REACTORS
330
D
102
}
330
D
100
AcDbGroup
300

 70
     1
 71
     1
  0
GROUP
  5
9341
102
{ACAD_REACTORS
330
D
102
}
330
D
100
AcDbGroup
300

 70
     1
 71
     1
  0
GROUP
  5
9B0F
102
{ACAD_REACTORS
330
D
102
}
330
D
100
AcDbGroup
300

 70
     1
 71
     1
  0
GROUP
  5
B3B7
102
{ACAD_REACTORS
330
D
102
}
330
D
100
AcDbGroup
300

 70
     1
 71
     1
  0
GROUP
  5
B3A3
102
{ACAD_REACTORS
330
D
102
}
330
D
100
AcDbGroup
300

 70
     1
 71
     1
  0
GROUP
  5
6228
102
{ACAD_REACTORS
330
D
102
}
330
D
100
AcDbGroup
300

 70
     1
 71
     1
  0
GROUP
  5
9B01
102
{ACAD_REACTORS
330
D
102
}
330
D
100
AcDbGroup
300

 70
     1
 71
     1
  0
GROUP
  5
622C
102
{ACAD_REACTORS
330
D
102
}
330
D
100
AcDbGroup
300

 70
     1
 71
     1
  0
GROUP
  5
B383
102
{ACAD_REACTORS
330
D
102
}
330
D
100
AcDbGroup
300

 70
     1
 71
     1
  0
GROUP
  5
9646
102
{ACAD_REACTORS
330
D
102
}
330
D
100
AcDbGroup
300

 70
     1
 71
     1
  0
GROUP
  5
9B10
102
{ACAD_REACTORS
330
D
102
}
330
D
100
AcDbGroup
300

 70
     1
 71
     1
  0
GROUP
  5
9B11
102
{ACAD_REACTORS
330
D
102
}
330
D
100
AcDbGroup
300

 70
     1
 71
     1
  0
GROUP
  5
963B
102
{ACAD_REACTORS
330
D
102
}
330
D
100
AcDbGroup
300

 70
     1
 71
     1
  0
GROUP
  5
A439
102
{ACAD_REACTORS
330
D
102
}
330
D
100
AcDbGroup
300

 70
     1
 71
     1
  0
GROUP
  5
B3A7
102
{ACAD_REACTORS
330
D
102
}
330
D
100
AcDbGroup
300

 70
     1
 71
     1
  0
GROUP
  5
B399
102
{ACAD_REACTORS
330
D
102
}
330
D
100
AcDbGroup
300

 70
     1
 71
     1
  0
GROUP
  5
5BDA
102
{ACAD_REACTORS
330
D
102
}
330
D
100
AcDbGroup
300

 70
     1
 71
     1
  0
GROUP
  5
A155
102
{ACAD_REACTORS
330
D
102
}
330
D
100
AcDbGroup
300

 70
     1
 71
     1
  0
GROUP
  5
B388
102
{ACAD_REACTORS
330
D
102
}
330
D
100
AcDbGroup
300

 70
     1
 71
     1
  0
GROUP
  5
B441
102
{ACAD_REACTORS
330
D
102
}
330
D
100
AcDbGroup
300

 70
     1
 71
     1
  0
GROUP
  5
B3E5
102
{ACAD_REACTORS
330
D
102
}
330
D
100
AcDbGroup
300

 70
     1
 71
     1
  0
GROUP
  5
9801
102
{ACAD_REACTORS
330
D
102
}
330
D
100
AcDbGroup
300

 70
     1
 71
     1
  0
GROUP
  5
9B52
102
{ACAD_REACTORS
330
D
102
}
330
D
100
AcDbGroup
300

 70
     1
 71
     1
  0
GROUP
  5
B5C9
102
{ACAD_REACTORS
330
D
102
}
330
D
100
AcDbGroup
300

 70
     1
 71
     1
  0
GROUP
  5
9C49
102
{ACAD_REACTORS
330
D
102
}
330
D
100
AcDbGroup
300

 70
     1
 71
     1
  0
GROUP
  5
A436
102
{ACAD_REACTORS
330
D
102
}
330
D
100
AcDbGroup
300

 70
     1
 71
     1
  0
GROUP
  5
9B12
102
{ACAD_REACTORS
330
D
102
}
330
D
100
AcDbGroup
300

 70
     1
 71
     1
  0
GROUP
  5
B3CD
102
{ACAD_REACTORS
330
D
102
}
330
D
100
AcDbGroup
300

 70
     1
 71
     1
  0
GROUP
  5
B39D
102
{ACAD_REACTORS
330
D
102
}
330
D
100
AcDbGroup
300

 70
     1
 71
     1
  0
GROUP
  5
86BF
102
{ACAD_REACTORS
330
D
102
}
330
D
100
AcDbGroup
300

 70
     1
 71
     1
  0
GROUP
  5
9C47
102
{ACAD_REACTORS
330
D
102
}
330
D
100
AcDbGroup
300

 70
     1
 71
     1
  0
GROUP
  5
9B4E
102
{ACAD_REACTORS
330
D
102
}
330
D
100
AcDbGroup
300

 70
     1
 71
     1
  0
GROUP
  5
9B4F
102
{ACAD_REACTORS
330
D
102
}
330
D
100
AcDbGroup
300

 70
     1
 71
     1
  0
GROUP
  5
9B50
102
{ACAD_REACTORS
330
D
102
}
330
D
100
AcDbGroup
300

 70
     1
 71
     1
  0
GROUP
  5
A443
102
{ACAD_REACTORS
330
D
102
}
330
D
100
AcDbGroup
300

 70
     1
 71
     1
  0
GROUP
  5
9B51
102
{ACAD_REACTORS
330
D
102
}
330
D
100
AcDbGroup
300

 70
     1
 71
     1
  0
GROUP
  5
88D3
102
{ACAD_REACTORS
330
D
102
}
330
D
100
AcDbGroup
300

 70
     1
 71
     1
  0
GROUP
  5
9D75
102
{ACAD_REACTORS
330
D
102
}
330
D
100
AcDbGroup
300

 70
     1
 71
     1
  0
GROUP
  5
6DB2
102
{ACAD_REACTORS
330
D
102
}
330
D
100
AcDbGroup
300

 70
     1
 71
     1
  0
GROUP
  5
B3BC
102
{ACAD_REACTORS
330
D
102
}
330
D
100
AcDbGroup
300

 70
     1
 71
     1
  0
GROUP
  5
B467
102
{ACAD_REACTORS
330
D
102
}
330
D
100
AcDbGroup
300

 70
     1
 71
     1
  0
GROUP
  5
B5CA
102
{ACAD_REACTORS
330
D
102
}
330
D
100
AcDbGroup
300

 70
     1
 71
     1
  0
GROUP
  5
A63D
102
{ACAD_REACTORS
330
D
102
}
330
D
100
AcDbGroup
300

 70
     1
 71
     1
  0
GROUP
  5
A5D4
102
{ACAD_REACTORS
330
D
102
}
330
D
100
AcDbGroup
300

 70
     1
 71
     1
  0
GROUP
  5
9618
102
{ACAD_REACTORS
330
D
102
}
330
D
100
AcDbGroup
300

 70
     1
 71
     1
  0
GROUP
  5
9D76
102
{ACAD_REACTORS
330
D
102
}
330
D
100
AcDbGroup
300

 70
     1
 71
     1
  0
GROUP
  5
B39E
102
{ACAD_REACTORS
330
D
102
}
330
D
100
AcDbGroup
300

 70
     1
 71
     1
  0
GROUP
  5
964C
102
{ACAD_REACTORS
330
D
102
}
330
D
100
AcDbGroup
300

 70
     1
 71
     1
  0
GROUP
  5
6CF9
102
{ACAD_REACTORS
330
D
102
}
330
D
100
AcDbGroup
300

 70
     1
 71
     1
  0
GROUP
  5
B375
102
{ACAD_REACTORS
330
D
102
}
330
D
100
AcDbGroup
300

 70
     1
 71
     1
340
AEF0
340
AE01
340
AE00
340
ADFF
340
ADAC
340
ADFE
340
ADFD
340
ADAB
340
ADFC
340
ADAA
340
ADFB
340
ADFA
340
ADF9
340
AB61
340
AB60
340
ADA9
340
AB8E
  0
LAYOUT
  5
2C4
102
{ACAD_REACTORS
330
2C2
102
}
330
2C2
100
AcDbPlotSettings
  1

  2
Laser Wind 2080W
  4

  6

 40
0.0
 41
0.0
 42
0.0
 43
0.0
 44
0.0
 45
0.0
 46
0.0
 47
0.0
 48
0.0
 49
0.0
140
0.0
141
0.0
142
1.0
143
1.0
 70
  1712
 72
     0
 73
     0
 74
     0
  7

 75
     0
147
1.0
148
0.0
149
0.0
100
AcDbLayout
  1
Model
 70
     1
 71
     0
 10
0.0
 20
0.0
 11
12.0
 21
9.0
 12
0.0
 22
0.0
 32
0.0
 14
0.0
 24
0.0
 34
0.0
 15
0.0
 25
0.0
 35
0.0
146
0.0
 13
0.0
 23
0.0
 33
0.0
 16
1.0
 26
0.0
 36
0.0
 17
0.0
 27
1.0
 37
0.0
 76
     0
330
1A
  0
LAYOUT
  5
90F2
102
{ACAD_REACTORS
330
2C2
102
}
330
2C2
100
AcDbPlotSettings
  1
A3formNX710
  2
RICOH IPSiO NX710
  4
A3
  6

 40
5.831416606903076
 41
4.307413101196289
 42
8.244415283203125
 43
5.789093017578125
 44
296.9683227539062
 45
419.9889831542968
 46
0.0
 47
0.0
 48
0.0
 49
0.0
140
0.0
141
0.0
142
1.0
143
0.999993956865126
 70
   688
 72
     1
 73
     1
 74
     2
  7
monochrome.ctb
 75
     0
147
1.000006043171393
148
0.0
149
0.0
100
AcDbLayout
  1
ﾚｲｱｳﾄ1
 70
     1
 71
     1
 10
0.0
 20
0.0
 11
409.8899999999999
 21
282.8899999999999
 12
0.0
 22
0.0
 32
0.0
 14
20.0
 24
11.99999999999994
 34
0.0
 15
404.9999999999998
 25
276.9999999999999
 35
0.0
146
0.0
 13
0.0
 23
0.0
 33
0.0
 16
1.0
 26
0.0
 36
0.0
 17
0.0
 27
1.0
 37
0.0
 76
     0
330
90F3
331
90F4
  0
MLINESTYLE
  5
13
102
{ACAD_REACTORS
330
E
102
}
330
E
100
AcDbMlineStyle
  2
STANDARD
 70
     0
  3

 62
     0
 51
90.0
 52
90.0
 71
     2
 49
0.5
 62
   256
  6
BYLAYER
 49
-0.5
 62
   256
  6
BYLAYER
  0
PLOTSETTINGS
  5
2FA
102
{ACAD_REACTORS
330
2C3
102
}
330
2C3
100
AcDbPlotSettings
  1
A3formNX710
  2
RICOH IPSiO NX710
  4
A3
  6

 40
5.831416606903076
 41
4.307413101196289
 42
8.244415283203125
 43
5.789093017578125
 44
296.9683227539062
 45
419.9889831542968
 46
0.0
 47
0.0
 48
0.0
 49
0.0
140
0.0
141
0.0
142
1.0
143
0.999993956865126
 70
   688
 72
     1
 73
     1
 74
     2
  7
monochrome.ctb
 75
     0
147
1.000006043171393
148
0.0
149
0.0
  0
ACDBPLACEHOLDER
  5
2C1
102
{ACAD_REACTORS
330
2C0
102
}
330
2C0
  0
DICTIONARYVAR
  5
97D
102
{ACAD_REACTORS
330
97C
102
}
330
97C
100
DictionaryVariables
280
     0
  1
96
  0
XRECORD
  5
646A
102
{ACAD_REACTORS
330
6469
102
}
330
6469
100
AcDbXrecord
280
     1
  1
-100
  1
*-100
  1
*
  1
*
 70
     0
  1
*
  1
*
  0
XRECORD
  5
646B
102
{ACAD_REACTORS
330
6469
102
}
330
6469
100
AcDbXrecord
280
     1
  1
-50
  1
*-50
  1
*
  1
*
 70
     0
  1
*
  1
*
  0
XRECORD
  5
646C
102
{ACAD_REACTORS
330
6469
102
}
330
6469
100
AcDbXrecord
280
     1
  1
-H
  1
00*,01*,02*,05*,1*,2*,3*,4*,5*,6*,8*
  1
*
  1
*
 70
     0
  1
*
  1
*
  0
XRECORD
  5
646D
102
{ACAD_REACTORS
330
6469
102
}
330
6469
100
AcDbXrecord
280
     1
  1
-T
  1
00*,01*,03*,05*,1*,20*,21*,22*,23*,24*,25*,26*,27*,29*,2a*,3*,4*,7*,9*
  1
*
  1
*
 70
     0
  1
*
  1
*
  0
XRECORD
  5
646E
102
{ACAD_REACTORS
330
6469
102
}
330
6469
100
AcDbXrecord
280
     1
  1
$
  1
*$0$*
  1
*
  1
*
 70
     0
  1
*
  1
*
  0
XRECORD
  5
646F
102
{ACAD_REACTORS
330
6469
102
}
330
6469
100
AcDbXrecord
280
     1
  1
(02)幹線
  1
電-幹線*
  1
*
  1
*
 70
     0
  1
*
  1
*
  0
XRECORD
  5
6470
102
{ACAD_REACTORS
330
6469
102
}
330
6469
100
AcDbXrecord
280
     1
  1
（02）幹線
  1
電-幹線*
  1
*
  1
*
 70
     0
  1
*
  1
*
  0
XRECORD
  5
6471
102
{ACAD_REACTORS
330
6469
102
}
330
6469
100
AcDbXrecord
280
     1
  1
(03)接地
  1
電-接地*
  1
*
  1
*
 70
     0
  1
*
  1
*
  0
XRECORD
  5
6472
102
{ACAD_REACTORS
330
6469
102
}
330
6469
100
AcDbXrecord
280
     1
  1
（03）接地
  1
電-接地*
  1
*
  1
*
 70
     0
  1
*
  1
*
  0
XRECORD
  5
6473
102
{ACAD_REACTORS
330
6469
102
}
330
6469
100
AcDbXrecord
280
     1
  1
（04）避雷
  1
電-避雷*
  1
*
  1
*
 70
     0
  1
*
  1
*
  0
XRECORD
  5
6474
102
{ACAD_REACTORS
330
6469
102
}
330
6469
100
AcDbXrecord
280
     1
  1
(05)中央監視
  1
電-中央監視*
  1
*
  1
*
 70
     0
  1
*
  1
*
  0
XRECORD
  5
6475
102
{ACAD_REACTORS
330
6469
102
}
330
6469
100
AcDbXrecord
280
     1
  1
（05）中央監視
  1
電-中央監視*
  1
*
  1
*
 70
     0
  1
*
  1
*
  0
XRECORD
  5
6476
102
{ACAD_REACTORS
330
6469
102
}
330
6469
100
AcDbXrecord
280
     1
  1
(06)非常用ｺﾝｾﾝﾄ
  1
電-非常用ｺﾝ*
  1
*
  1
*
 70
     0
  1
*
  1
*
  0
XRECORD
  5
6477
102
{ACAD_REACTORS
330
6469
102
}
330
6469
100
AcDbXrecord
280
     1
  1
（06）非常用ｺﾝｾﾝﾄ
  1
電-非常用ｺﾝｾﾝﾄ*
  1
*
  1
*
 70
     0
  1
*
  1
*
  0
XRECORD
  5
6478
102
{ACAD_REACTORS
330
6469
102
}
330
6469
100
AcDbXrecord
280
     1
  1
（07）ﾊﾞｽﾀﾞｸﾄ
  1
電-ﾊﾞｽﾀﾞｸﾄ*
  1
*
  1
*
 70
     0
  1
*
  1
*
  0
XRECORD
  5
6479
102
{ACAD_REACTORS
330
6469
102
}
330
6469
100
AcDbXrecord
280
     1
  1
（08）ｹｰﾌﾞﾙﾗｯｸ
  1
電-ｹｰﾌﾞﾙﾗｯｸ*
  1
*
  1
*
 70
     0
  1
*
  1
*
  0
XRECORD
  5
647A
102
{ACAD_REACTORS
330
6469
102
}
330
6469
100
AcDbXrecord
280
     1
  1
(09)動力
  1
電-動力*
  1
*
  1
*
 70
     0
  1
*
  1
*
  0
XRECORD
  5
647B
102
{ACAD_REACTORS
330
6469
102
}
330
6469
100
AcDbXrecord
280
     1
  1
（09）動力
  1
電-動力*
  1
*
  1
*
 70
     0
  1
*
  1
*
  0
XRECORD
  5
647C
102
{ACAD_REACTORS
330
6469
102
}
330
6469
100
AcDbXrecord
280
     1
  1
(10)ｺﾝｾﾝﾄ
  1
電-ｺﾝｾﾝﾄ*
  1
*
  1
*
 70
     0
  1
*
  1
*
  0
XRECORD
  5
647D
102
{ACAD_REACTORS
330
6469
102
}
330
6469
100
AcDbXrecord
280
     1
  1
（10）ｺﾝｾﾝﾄ
  1
電-ｺﾝｾﾝﾄ*
  1
*
  1
*
 70
     0
  1
*
  1
*
  0
XRECORD
  5
647E
102
{ACAD_REACTORS
330
6469
102
}
330
6469
100
AcDbXrecord
280
     1
  1
（11）医療接地
  1
電-医療*
  1
*
  1
*
 70
     0
  1
*
  1
*
  0
XRECORD
  5
647F
102
{ACAD_REACTORS
330
6469
102
}
330
6469
100
AcDbXrecord
280
     1
  1
(12)電灯
  1
電-電灯*
  1
*
  1
*
 70
     0
  1
*
  1
*
  0
XRECORD
  5
6480
102
{ACAD_REACTORS
330
6469
102
}
330
6469
100
AcDbXrecord
280
     1
  1
（12）電灯
  1
電-電灯*
  1
*
  1
*
 70
     0
  1
*
  1
*
  0
XRECORD
  5
6481
102
{ACAD_REACTORS
330
6469
102
}
330
6469
100
AcDbXrecord
280
     1
  1
(13)空調
  1
電-空調*
  1
*
  1
*
 70
     0
  1
*
  1
*
  0
XRECORD
  5
6482
102
{ACAD_REACTORS
330
6469
102
}
330
6469
100
AcDbXrecord
280
     1
  1
（13）空調
  1
電-空調*
  1
*
  1
*
 70
     0
  1
*
  1
*
  0
XRECORD
  5
6483
102
{ACAD_REACTORS
330
6469
102
}
330
6469
100
AcDbXrecord
280
     1
  1
（14）航空障害灯
  1
電-航空*
  1
*
  1
*
 70
     0
  1
*
  1
*
  0
XRECORD
  5
6484
102
{ACAD_REACTORS
330
6469
102
}
330
6469
100
AcDbXrecord
280
     1
  1
(15)非常照明
  1
電-非常照明*
  1
*
  1
*
 70
     0
  1
*
  1
*
  0
XRECORD
  5
6485
102
{ACAD_REACTORS
330
6469
102
}
330
6469
100
AcDbXrecord
280
     1
  1
（15）非常照明
  1
電-非常照明*
  1
*
  1
*
 70
     0
  1
*
  1
*
  0
XRECORD
  5
6486
102
{ACAD_REACTORS
330
6469
102
}
330
6469
100
AcDbXrecord
280
     1
  1
（16）誘導灯
  1
電-誘導灯*
  1
*
  1
*
 70
     0
  1
*
  1
*
  0
XRECORD
  5
6487
102
{ACAD_REACTORS
330
6469
102
}
330
6469
100
AcDbXrecord
280
     1
  1
(17)電話
  1
電-電話*
  1
*
  1
*
 70
     0
  1
*
  1
*
  0
XRECORD
  5
6488
102
{ACAD_REACTORS
330
6469
102
}
330
6469
100
AcDbXrecord
280
     1
  1
（17）電話
  1
電-電話*
  1
*
  1
*
 70
     0
  1
*
  1
*
  0
XRECORD
  5
6489
102
{ACAD_REACTORS
330
6469
102
}
330
6469
100
AcDbXrecord
280
     1
  1
(18)情報
  1
電-情報*
  1
*
  1
*
 70
     0
  1
*
  1
*
  0
XRECORD
  5
648A
102
{ACAD_REACTORS
330
6469
102
}
330
6469
100
AcDbXrecord
280
     1
  1
（18）情報
  1
電-情報*
  1
*
  1
*
 70
     0
  1
*
  1
*
  0
XRECORD
  5
648B
102
{ACAD_REACTORS
330
6469
102
}
330
6469
100
AcDbXrecord
280
     1
  1
(19)ﾃﾚﾋﾞ
  1
電-ﾃﾚﾋﾞ*
  1
*
  1
*
 70
     0
  1
*
  1
*
  0
XRECORD
  5
648C
102
{ACAD_REACTORS
330
6469
102
}
330
6469
100
AcDbXrecord
280
     1
  1
（19）ﾃﾚﾋﾞ
  1
電-ﾃﾚﾋﾞ*
  1
*
  1
*
 70
     0
  1
*
  1
*
  0
XRECORD
  5
648D
102
{ACAD_REACTORS
330
6469
102
}
330
6469
100
AcDbXrecord
280
     1
  1
(20)防犯
  1
電-防*
  1
*
  1
*
 70
     0
  1
*
  1
*
  0
XRECORD
  5
648E
102
{ACAD_REACTORS
330
6469
102
}
330
6469
100
AcDbXrecord
280
     1
  1
（20）防犯
  1
電-防犯*
  1
*
  1
*
 70
     0
  1
*
  1
*
  0
XRECORD
  5
648F
102
{ACAD_REACTORS
330
6469
102
}
330
6469
100
AcDbXrecord
280
     1
  1
（21）ITV
  1
電-ITV*
  1
*
  1
*
 70
     0
  1
*
  1
*
  0
XRECORD
  5
6490
102
{ACAD_REACTORS
330
6469
102
}
330
6469
100
AcDbXrecord
280
     1
  1
(22)ﾅｰｽｺｰﾙ
  1
電-ﾅｰｽｺｰﾙ*
  1
*
  1
*
 70
     0
  1
*
  1
*
  0
XRECORD
  5
6491
102
{ACAD_REACTORS
330
6469
102
}
330
6469
100
AcDbXrecord
280
     1
  1
（22）ﾅｰｽｺｰﾙ
  1
電-ﾅｰｽｺｰﾙ*
  1
*
  1
*
 70
     0
  1
*
  1
*
  0
XRECORD
  5
6492
102
{ACAD_REACTORS
330
6469
102
}
330
6469
100
AcDbXrecord
280
     1
  1
（23）外来診察
  1
電-外来診察*
  1
*
  1
*
 70
     0
  1
*
  1
*
  0
XRECORD
  5
6493
102
{ACAD_REACTORS
330
6469
102
}
330
6469
100
AcDbXrecord
280
     1
  1
（24）ﾍﾞｯﾄｻｲﾄﾞ
  1
電-ﾍﾞｯﾄｻｲﾄﾞ*
  1
*
  1
*
 70
     0
  1
*
  1
*
  0
XRECORD
  5
6494
102
{ACAD_REACTORS
330
6469
102
}
330
6469
100
AcDbXrecord
280
     1
  1
（25）採尿蓄量
  1
電-採尿蓄量*
  1
*
  1
*
 70
     0
  1
*
  1
*
  0
XRECORD
  5
6495
102
{ACAD_REACTORS
330
6469
102
}
330
6469
100
AcDbXrecord
280
     1
  1
(26)非常放送
  1
電-非常放送*
  1
*
  1
*
 70
     0
  1
*
  1
*
  0
XRECORD
  5
6496
102
{ACAD_REACTORS
330
6469
102
}
330
6469
100
AcDbXrecord
280
     1
  1
（26）非常放送
  1
電-非常放送*
  1
*
  1
*
 70
     0
  1
*
  1
*
  0
XRECORD
  5
6497
102
{ACAD_REACTORS
330
6469
102
}
330
6469
100
AcDbXrecord
280
     1
  1
（27）業務放送
  1
電-業務放送*
  1
*
  1
*
 70
     0
  1
*
  1
*
  0
XRECORD
  5
6498
102
{ACAD_REACTORS
330
6469
102
}
330
6469
100
AcDbXrecord
280
     1
  1
(28)火報
  1
電-火報*
  1
*
  1
*
 70
     0
  1
*
  1
*
  0
XRECORD
  5
6499
102
{ACAD_REACTORS
330
6469
102
}
330
6469
100
AcDbXrecord
280
     1
  1
（28）火報
  1
電-火報*
  1
*
  1
*
 70
     0
  1
*
  1
*
  0
XRECORD
  5
649A
102
{ACAD_REACTORS
330
6469
102
}
330
6469
100
AcDbXrecord
280
     1
  1
(29)厨房
  1
電-厨房*
  1
*
  1
*
 70
     0
  1
*
  1
*
  0
XRECORD
  5
649B
102
{ACAD_REACTORS
330
6469
102
}
330
6469
100
AcDbXrecord
280
     1
  1
（29）厨房
  1
電-厨房*
  1
*
  1
*
 70
     0
  1
*
  1
*
  0
XRECORD
  5
649C
102
{ACAD_REACTORS
330
6469
102
}
330
6469
100
AcDbXrecord
280
     1
  1
､@ｯ・U+56F3
  1
hatch
  1
*
  1
*
 70
     7
  1
*
  1
*
  0
XRECORD
  5
649D
102
{ACAD_REACTORS
330
6469
102
}
330
6469
100
AcDbXrecord
280
     1
  1
･画ｼhｪ愠ﾜ
  1
*
  1
*
  1
*
 70
     1
  1
*
  1
*
  0
XRECORD
  5
649E
102
{ACAD_REACTORS
330
6469
102
}
330
6469
100
AcDbXrecord
280
     1
  1
0
  1
*0*
  1
*
  1
*
 70
     0
  1
*
  1
*
  0
XRECORD
  5
649F
102
{ACAD_REACTORS
330
6469
102
}
330
6469
100
AcDbXrecord
280
     1
  1
0 画層
  1
0*,*.
  1
*
  1
*
 70
     0
  1
*
  1
*
  0
XRECORD
  5
64A0
102
{ACAD_REACTORS
330
6469
102
}
330
6469
100
AcDbXrecord
280
     1
  1
00
  1
*-100
  1
*
  1
*
 70
     0
  1
*
  1
*
  0
XRECORD
  5
64A1
102
{ACAD_REACTORS
330
6469
102
}
330
6469
100
AcDbXrecord
280
     1
  1
001
  1
*
  1
*
  1
*
 70
     3
  1
*
  1
*
  0
XRECORD
  5
64A2
102
{ACAD_REACTORS
330
6469
102
}
330
6469
100
AcDbXrecord
280
     1
  1
01
  1
*
  1
*
  1
*
 70
     0
  1
*
  1
*
  0
XRECORD
  5
64A3
102
{ACAD_REACTORS
330
6469
102
}
330
6469
100
AcDbXrecord
280
     1
  1
05
  1
*05*
  1
*
  1
*
 70
     0
  1
*
  1
*
  0
XRECORD
  5
64A4
102
{ACAD_REACTORS
330
6469
102
}
330
6469
100
AcDbXrecord
280
     1
  1
0系
  1
0*
  1
*
  1
*
 70
     0
  1
*
  1
*
  0
XRECORD
  5
64A5
102
{ACAD_REACTORS
330
6469
102
}
330
6469
100
AcDbXrecord
280
     1
  1
0系+CONTINUOUS
  1
0?*
  1
*
  1
CONTINUOUS
 70
     0
  1
*
  1
*
  0
XRECORD
  5
64A6
102
{ACAD_REACTORS
330
6469
102
}
330
6469
100
AcDbXrecord
280
     1
  1
0床内
  1
FI-*
  1
*
  1
*
 70
     0
  1
*
  1
*
  0
XRECORD
  5
64A7
102
{ACAD_REACTORS
330
6469
102
}
330
6469
100
AcDbXrecord
280
     1
  1
0床壁
  1
FW*
  1
*
  1
*
 70
     0
  1
*
  1
*
  0
XRECORD
  5
64A8
102
{ACAD_REACTORS
330
6469
102
}
330
6469
100
AcDbXrecord
280
     1
  1
0詳細図
  1
*-d
  1
*
  1
*
 70
     0
  1
*
  1
*
  0
XRECORD
  5
64A9
102
{ACAD_REACTORS
330
6469
102
}
330
6469
100
AcDbXrecord
280
     1
  1
0総合図off
  1
*-s
  1
*
  1
*
 70
     0
  1
*
  1
*
  0
XRECORD
  5
64AA
102
{ACAD_REACTORS
330
6469
102
}
330
6469
100
AcDbXrecord
280
     1
  1
0総合図枠
  1
*-2
  1
*
  1
*
 70
     0
  1
*
  1
*
  0
XRECORD
  5
64AB
102
{ACAD_REACTORS
330
6469
102
}
330
6469
100
AcDbXrecord
280
     1
  1
0平詳枠
  1
*-1
  1
*
  1
*
 70
     0
  1
*
  1
*
  0
XRECORD
  5
64AC
102
{ACAD_REACTORS
330
6469
102
}
330
6469
100
AcDbXrecord
280
     1
  1
1
  1
*
  1
9
  1
*
 70
     0
  1
*
  1
*
  0
XRECORD
  5
64AD
102
{ACAD_REACTORS
330
6469
102
}
330
6469
100
AcDbXrecord
280
     1
  1
1-30
  1
30*
  1
*
  1
*
 70
     0
  1
*
  1
*
  0
XRECORD
  5
64AE
102
{ACAD_REACTORS
330
6469
102
}
330
6469
100
AcDbXrecord
280
     1
  1
1-交差点処理図（最新1案）
  1
*交差点処理図（最新1案）*
  1
*
  1
*
 70
     0
  1
*
  1
*
  0
XRECORD
  5
64AF
102
{ACAD_REACTORS
330
6469
102
}
330
6469
100
AcDbXrecord
280
     1
  1
1／100
  1
*1／100*
  1
*
  1
*
 70
     0
  1
*
  1
*
  0
XRECORD
  5
64B0
102
{ACAD_REACTORS
330
6469
102
}
330
6469
100
AcDbXrecord
280
     1
  1
100
  1
*100*
  1
*
  1
*
 70
     0
  1
*
  1
*
  0
XRECORD
  5
64B1
102
{ACAD_REACTORS
330
6469
102
}
330
6469
100
AcDbXrecord
280
     1
  1
10画層
  1
*-10
  1
*
  1
*
 70
     0
  1
*
  1
*
  0
XRECORD
  5
64B2
102
{ACAD_REACTORS
330
6469
102
}
330
6469
100
AcDbXrecord
280
     1
  1
1111
  1
*-50
  1
*
  1
*
 70
     0
  1
*
  1
*
  0
XRECORD
  5
64B3
102
{ACAD_REACTORS
330
6469
102
}
330
6469
100
AcDbXrecord
280
     1
  1
12
  1
*
  1
*12
  1
*
 70
     0
  1
*
  1
*
  0
XRECORD
  5
64B4
102
{ACAD_REACTORS
330
6469
102
}
330
6469
100
AcDbXrecord
280
     1
  1
19
  1
*19*
  1
*
  1
*
 70
     0
  1
*
  1
*
  0
XRECORD
  5
64B5
102
{ACAD_REACTORS
330
6469
102
}
330
6469
100
AcDbXrecord
280
     1
  1
1床
  1
F-*
  1
*
  1
*
 70
     0
  1
*
  1
*
  0
XRECORD
  5
64B6
102
{ACAD_REACTORS
330
6469
102
}
330
6469
100
AcDbXrecord
280
     1
  1
1芯
  1
1*
  1
*
  1
*
 70
     0
  1
*
  1
*
  0
XRECORD
  5
64B7
102
{ACAD_REACTORS
330
6469
102
}
330
6469
100
AcDbXrecord
280
     1
  1
1芯線
  1
1*
  1
*
  1
*
 70
     0
  1
*
  1
*
  0
XRECORD
  5
64B8
102
{ACAD_REACTORS
330
6469
102
}
330
6469
100
AcDbXrecord
280
     1
  1
2
  1
*2
  1
*
  1
*
 70
     0
  1
*
  1
*
  0
XRECORD
  5
64B9
102
{ACAD_REACTORS
330
6469
102
}
330
6469
100
AcDbXrecord
280
     1
  1
2-線形図1
  1
*線形図1*
  1
*
  1
*
 70
     0
  1
*
  1
*
  0
XRECORD
  5
64BA
102
{ACAD_REACTORS
330
6469
102
}
330
6469
100
AcDbXrecord
280
     1
  1
200
  1
*
  1
*
  1
*
 70
     0
  1
*
  1
*
  0
XRECORD
  5
64BB
102
{ACAD_REACTORS
330
6469
102
}
330
6469
100
AcDbXrecord
280
     1
  1
21
  1
*
  1
21
  1
*
 70
     0
  1
*
  1
*
  0
XRECORD
  5
64BC
102
{ACAD_REACTORS
330
6469
102
}
330
6469
100
AcDbXrecord
280
     1
  1
2100
  1
*2100*
  1
*
  1
*
 70
     0
  1
*
  1
*
  0
XRECORD
  5
64BD
102
{ACAD_REACTORS
330
6469
102
}
330
6469
100
AcDbXrecord
280
     1
  1
250
  1
*250*
  1
*
  1
*
 70
     0
  1
*
  1
*
  0
XRECORD
  5
64BE
102
{ACAD_REACTORS
330
6469
102
}
330
6469
100
AcDbXrecord
280
     1
  1
2600
  1
*2600*
  1
*
  1
*
 70
     0
  1
*
  1
*
  0
XRECORD
  5
64BF
102
{ACAD_REACTORS
330
6469
102
}
330
6469
100
AcDbXrecord
280
     1
  1
2f
  1
a*
  1
*
  1
*
 70
     0
  1
*
  1
*
  0
XRECORD
  5
64C0
102
{ACAD_REACTORS
330
6469
102
}
330
6469
100
AcDbXrecord
280
     1
  1
2躯体
  1
2*
  1
*
  1
*
 70
     0
  1
*
  1
*
  0
XRECORD
  5
64C1
102
{ACAD_REACTORS
330
6469
102
}
330
6469
100
AcDbXrecord
280
     1
  1
2断面
  1
2*
  1
*
  1
*
 70
     0
  1
*
  1
*
  0
XRECORD
  5
64C2
102
{ACAD_REACTORS
330
6469
102
}
330
6469
100
AcDbXrecord
280
     1
  1
2壁
  1
W-*
  1
*
  1
*
 70
     0
  1
*
  1
*
  0
XRECORD
  5
64C3
102
{ACAD_REACTORS
330
6469
102
}
330
6469
100
AcDbXrecord
280
     1
  1
3
  1
*
  1
3
  1
*
 70
     0
  1
*
  1
*
  0
XRECORD
  5
64C4
102
{ACAD_REACTORS
330
6469
102
}
330
6469
100
AcDbXrecord
280
     1
  1
3-線形図2
  1
*線形図2*
  1
*
  1
*
 70
     0
  1
*
  1
*
  0
XRECORD
  5
64C5
102
{ACAD_REACTORS
330
6469
102
}
330
6469
100
AcDbXrecord
280
     1
  1
300
  1
*-3
  1
*
  1
*
 70
     0
  1
*
  1
*
  0
XRECORD
  5
64C6
102
{ACAD_REACTORS
330
6469
102
}
330
6469
100
AcDbXrecord
280
     1
  1
32
  1
*
  1
32
  1
*
 70
     0
  1
*
  1
*
  0
XRECORD
  5
64C7
102
{ACAD_REACTORS
330
6469
102
}
330
6469
100
AcDbXrecord
280
     1
  1
333
  1
*
  1
*
  1
*
 70
    12
  1
*
  1
*
  0
XRECORD
  5
64C8
102
{ACAD_REACTORS
330
6469
102
}
330
6469
100
AcDbXrecord
280
     1
  1
3A
  1
*-3A
  1
*
  1
*
 70
     0
  1
*
  1
*
  0
XRECORD
  5
64C9
102
{ACAD_REACTORS
330
6469
102
}
330
6469
100
AcDbXrecord
280
     1
  1
3開口
  1
3*
  1
*
  1
*
 70
     0
  1
*
  1
*
  0
XRECORD
  5
64CA
102
{ACAD_REACTORS
330
6469
102
}
330
6469
100
AcDbXrecord
280
     1
  1
3見掛り
  1
3*
  1
*
  1
*
 70
     0
  1
*
  1
*
  0
XRECORD
  5
64CB
102
{ACAD_REACTORS
330
6469
102
}
330
6469
100
AcDbXrecord
280
     1
  1
3天井内
  1
CI-*
  1
*
  1
*
 70
     0
  1
*
  1
*
  0
XRECORD
  5
64CC
102
{ACAD_REACTORS
330
6469
102
}
330
6469
100
AcDbXrecord
280
     1
  1
4
  1
*
  1
4
  1
*
 70
     0
  1
*
  1
*
  0
XRECORD
  5
64CD
102
{ACAD_REACTORS
330
6469
102
}
330
6469
100
AcDbXrecord
280
     1
  1
41
  1
41
  1
*
  1
*
 70
     1
  1
*
  1
*
  0
XRECORD
  5
64CE
102
{ACAD_REACTORS
330
6469
102
}
330
6469
100
AcDbXrecord
280
     1
  1
4仕上げ
  1
4*
  1
*
  1
*
 70
     0
  1
*
  1
*
  0
XRECORD
  5
64CF
102
{ACAD_REACTORS
330
6469
102
}
330
6469
100
AcDbXrecord
280
     1
  1
4天井
  1
C-*
  1
*
  1
*
 70
     0
  1
*
  1
*
  0
XRECORD
  5
64D0
102
{ACAD_REACTORS
330
6469
102
}
330
6469
100
AcDbXrecord
280
     1
  1
5
  1
*5
  1
*
  1
*
 70
     1
  1
*
  1
*
  0
XRECORD
  5
64D1
102
{ACAD_REACTORS
330
6469
102
}
330
6469
100
AcDbXrecord
280
     1
  1
50
  1
*-50
  1
*
  1
*
 70
     0
  1
*
  1
*
  0
XRECORD
  5
64D2
102
{ACAD_REACTORS
330
6469
102
}
330
6469
100
AcDbXrecord
280
     1
  1
50off
  1
50*
  1
*
  1
*
 70
     0
  1
*
  1
*
  0
XRECORD
  5
64D3
102
{ACAD_REACTORS
330
6469
102
}
330
6469
100
AcDbXrecord
280
     1
  1
50詳細図
  1
*
  1
*
  1
*
 70
     0
  1
*
  1
*
  0
XRECORD
  5
64D4
102
{ACAD_REACTORS
330
6469
102
}
330
6469
100
AcDbXrecord
280
     1
  1
51-52
  1
5*
  1
*
  1
*
 70
     0
  1
*
  1
*
  0
XRECORD
  5
64D5
102
{ACAD_REACTORS
330
6469
102
}
330
6469
100
AcDbXrecord
280
     1
  1
555
  1
*
  1
*
  1
*
 70
     1
  1
*
  1
*
  0
XRECORD
  5
64D6
102
{ACAD_REACTORS
330
6469
102
}
330
6469
100
AcDbXrecord
280
     1
  1
5画層
  1
*-5
  1
*
  1
*
 70
     0
  1
*
  1
*
  0
XRECORD
  5
64D7
102
{ACAD_REACTORS
330
6469
102
}
330
6469
100
AcDbXrecord
280
     1
  1
5寸法
  1
5*
  1
*
  1
*
 70
     0
  1
*
  1
*
  0
XRECORD
  5
64D8
102
{ACAD_REACTORS
330
6469
102
}
330
6469
100
AcDbXrecord
280
     1
  1
5文字
  1
*TXT*
  1
*
  1
*
 70
     0
  1
*
  1
*
  0
XRECORD
  5
64D9
102
{ACAD_REACTORS
330
6469
102
}
330
6469
100
AcDbXrecord
280
     1
  1
6
  1
*
  1
6
  1
*
 70
     0
  1
*
  1
*
  0
XRECORD
  5
64DA
102
{ACAD_REACTORS
330
6469
102
}
330
6469
100
AcDbXrecord
280
     1
  1
66-躯体図
  1
0,Defpoints,HOJO,雲マーク,000*,010*,020*,1*,400*,470*,520*,570*,08*
  1
*
  1
*
 70
     0
  1
*
  1
*
  0
XRECORD
  5
64DB
102
{ACAD_REACTORS
330
6469
102
}
330
6469
100
AcDbXrecord
280
     1
  1
66躯体図
  1
0,Defpoints,HOJO,雲マーク,000*,010*,020*,1*,400*,470*,520*,570*,08*,6*
  1
*
  1
*
 70
     0
  1
*
  1
*
  0
XRECORD
  5
64DC
102
{ACAD_REACTORS
330
6469
102
}
330
6469
100
AcDbXrecord
280
     1
  1
6画層
  1
*-6
  1
*
  1
*
 70
     0
  1
*
  1
*
  0
XRECORD
  5
64DD
102
{ACAD_REACTORS
330
6469
102
}
330
6469
100
AcDbXrecord
280
     1
  1
6記号
  1
6*
  1
*
  1
*
 70
     0
  1
*
  1
*
  0
XRECORD
  5
64DE
102
{ACAD_REACTORS
330
6469
102
}
330
6469
100
AcDbXrecord
280
     1
  1
6文字
  1
6*
  1
*
  1
*
 70
     0
  1
*
  1
*
  0
XRECORD
  5
64DF
102
{ACAD_REACTORS
330
6469
102
}
330
6469
100
AcDbXrecord
280
     1
  1
6保留
  1
*_a
  1
*
  1
*
 70
     0
  1
*
  1
*
  0
XRECORD
  5
64E0
102
{ACAD_REACTORS
330
6469
102
}
330
6469
100
AcDbXrecord
280
     1
  1
7
  1
*
  1
7
  1
*
 70
     0
  1
*
  1
*
  0
XRECORD
  5
64E1
102
{ACAD_REACTORS
330
6469
102
}
330
6469
100
AcDbXrecord
280
     1
  1
7-専用部北行
  1
80*,90*,A0*,B0*,
  1
*
  1
*
 70
     0
  1
*
  1
*
  0
XRECORD
  5
64E2
102
{ACAD_REACTORS
330
6469
102
}
330
6469
100
AcDbXrecord
280
     1
  1
7a画層
  1
*-7a
  1
*
  1
*
 70
     0
  1
*
  1
*
  0
XRECORD
  5
64E3
102
{ACAD_REACTORS
330
6469
102
}
330
6469
100
AcDbXrecord
280
     1
  1
7記号
  1
7*
  1
*
  1
*
 70
     0
  1
*
  1
*
  0
XRECORD
  5
64E4
102
{ACAD_REACTORS
330
6469
102
}
330
6469
100
AcDbXrecord
280
     1
  1
8
  1
*
  1
8
  1
*
 70
     0
  1
*
  1
*
  0
XRECORD
  5
64E5
102
{ACAD_REACTORS
330
6469
102
}
330
6469
100
AcDbXrecord
280
     1
  1
8-ONﾗﾝﾌﾟ
  1
70*,90*,A0*,B0*,
  1
*
  1
*
 70
     0
  1
*
  1
*
  0
XRECORD
  5
64E6
102
{ACAD_REACTORS
330
6469
102
}
330
6469
100
AcDbXrecord
280
     1
  1
8寸法
  1
8*
  1
*
  1
*
 70
     0
  1
*
  1
*
  0
XRECORD
  5
64E7
102
{ACAD_REACTORS
330
6469
102
}
330
6469
100
AcDbXrecord
280
     1
  1
8設備
  1
8*
  1
*
  1
*
 70
     0
  1
*
  1
*
  0
XRECORD
  5
64E8
102
{ACAD_REACTORS
330
6469
102
}
330
6469
100
AcDbXrecord
280
     1
  1
9
  1
*
  1
9
  1
*
 70
     0
  1
*
  1
*
  0
XRECORD
  5
64E9
102
{ACAD_REACTORS
330
6469
102
}
330
6469
100
AcDbXrecord
280
     1
  1
9-OFFﾗﾝﾌﾟ
  1
70*,80*,A0*B0*,
  1
*
  1
*
 70
     0
  1
*
  1
*
  0
XRECORD
  5
64EA
102
{ACAD_REACTORS
330
6469
102
}
330
6469
100
AcDbXrecord
280
     1
  1
901101
  1
*
  1
*
  1
*
 70
     0
  1
*
  1
*
  0
XRECORD
  5
64EB
102
{ACAD_REACTORS
330
6469
102
}
330
6469
100
AcDbXrecord
280
     1
  1
9文字
  1
9*
  1
*
  1
*
 70
     0
  1
*
  1
*
  0
XRECORD
  5
64EC
102
{ACAD_REACTORS
330
6469
102
}
330
6469
100
AcDbXrecord
280
     1
  1
9目地
  1
9*
  1
*
  1
*
 70
     0
  1
*
  1
*
  0
XRECORD
  5
64ED
102
{ACAD_REACTORS
330
6469
102
}
330
6469
100
AcDbXrecord
280
     1
  1
a
  1
*81,*82,*80,7212*,7213*,7211*
  1
*
  1
*
 70
     0
  1
*
  1
*
  0
XRECORD
  5
64EE
102
{ACAD_REACTORS
330
6469
102
}
330
6469
100
AcDbXrecord
280
     1
  1
A-
  1
A-*
  1
*
  1
*
 70
     0
  1
*
  1
*
  0
XRECORD
  5
64EF
102
{ACAD_REACTORS
330
6469
102
}
330
6469
100
AcDbXrecord
280
     1
  1
a-roof
  1
a-roof*
  1
*
  1
*
 70
     0
  1
*
  1
*
  0
XRECORD
  5
64F0
102
{ACAD_REACTORS
330
6469
102
}
330
6469
100
AcDbXrecord
280
     1
  1
A 画層
  1
A*,*.
  1
*
  1
*
 70
     0
  1
*
  1
*
  0
XRECORD
  5
910B
102
{ACAD_REACTORS
330
6469
102
}
330
6469
100
AcDbXrecord
280
     1
  1
A111-only
  1
A111*
  1
*
  1
*
 70
     0
  1
*
  1
*
  0
XRECORD
  5
64F1
102
{ACAD_REACTORS
330
6469
102
}
330
6469
100
AcDbXrecord
280
     1
  1
A3
  1
*A3
  1
*
  1
*
 70
     0
  1
*
  1
*
  0
XRECORD
  5
64F2
102
{ACAD_REACTORS
330
6469
102
}
330
6469
100
AcDbXrecord
280
     1
  1
aa
  1
4262*
  1
*
  1
*
 70
     0
  1
*
  1
*
  0
XRECORD
  5
64F3
102
{ACAD_REACTORS
330
6469
102
}
330
6469
100
AcDbXrecord
280
     1
  1
aaa
  1
*
  1
?
  1
*
 70
     0
  1
*
  1
*
  0
XRECORD
  5
64F4
102
{ACAD_REACTORS
330
6469
102
}
330
6469
100
AcDbXrecord
280
     1
  1
AAAA
  1
*KEL,*FIN,HASIRA
  1
*
  1
*
 70
     0
  1
*
  1
*
  0
XRECORD
  5
64F5
102
{ACAD_REACTORS
330
6469
102
}
330
6469
100
AcDbXrecord
280
     1
  1
AB棟
  1
ＡＢ棟*
  1
*
  1
*
 70
     0
  1
*
  1
*
  0
XRECORD
  5
64F6
102
{ACAD_REACTORS
330
6469
102
}
330
6469
100
AcDbXrecord
280
     1
  1
ＡＢ棟
  1
ＡＢ棟*
  1
*
  1
*
 70
     0
  1
*
  1
*
  0
XRECORD
  5
64F7
102
{ACAD_REACTORS
330
6469
102
}
330
6469
100
AcDbXrecord
280
     1
  1
all選択
  1
*
  1
*
  1
*
 70
     0
  1
*
  1
*
  0
XRECORD
  5
64F8
102
{ACAD_REACTORS
330
6469
102
}
330
6469
100
AcDbXrecord
280
     1
  1
AREA
  1
*AREA*
  1
*
  1
*
 70
     0
  1
*
  1
*
  0
XRECORD
  5
64F9
102
{ACAD_REACTORS
330
6469
102
}
330
6469
100
AcDbXrecord
280
     1
  1
AREA-SG
  1
*6AREA-SG
  1
6
  1
*
 70
     0
  1
*
  1
*
  0
XRECORD
  5
64FA
102
{ACAD_REACTORS
330
6469
102
}
330
6469
100
AcDbXrecord
280
     1
  1
ASDFCA
  1
846304*
  1
*
  1
*
 70
     0
  1
*
  1
*
  0
XRECORD
  5
64FB
102
{ACAD_REACTORS
330
6469
102
}
330
6469
100
AcDbXrecord
280
     1
  1
aハッチング
  1
a*
  1
*
  1
*
 70
     0
  1
*
  1
*
  0
XRECORD
  5
64FC
102
{ACAD_REACTORS
330
6469
102
}
330
6469
100
AcDbXrecord
280
     1
  1
A空調
  1
*
  1
*
  1
*
 70
     0
  1
*
  1
KUCYOU
  0
XRECORD
  5
64FD
102
{ACAD_REACTORS
330
6469
102
}
330
6469
100
AcDbXrecord
280
     1
  1
Ａ断面
  1
DSTD_SECT-A*
  1
*
  1
*
 70
     0
  1
*
  1
*
  0
XRECORD
  5
64FE
102
{ACAD_REACTORS
330
6469
102
}
330
6469
100
AcDbXrecord
280
     1
  1
b
  1
15法規
  1
120
  1
*
 70
     3
  1
*
  1
*
  0
XRECORD
  5
64FF
102
{ACAD_REACTORS
330
6469
102
}
330
6469
100
AcDbXrecord
280
     1
  1
B 画層
  1
B*,*.
  1
*
  1
*
 70
     0
  1
*
  1
*
  0
XRECORD
  5
6500
102
{ACAD_REACTORS
330
6469
102
}
330
6469
100
AcDbXrecord
280
     1
  1
BAL
  1
*BAL
  1
*
  1
*
 70
     0
  1
*
  1
*
  0
XRECORD
  5
6501
102
{ACAD_REACTORS
330
6469
102
}
330
6469
100
AcDbXrecord
280
     1
  1
BASE
  1
*I4BASE
  1
*
  1
*
 70
     0
  1
*
  1
*
  0
XRECORD
  5
6502
102
{ACAD_REACTORS
330
6469
102
}
330
6469
100
AcDbXrecord
280
     1
  1
BBB
  1
*HUTA
  1
*
  1
*
 70
     0
  1
*
  1
*
  0
XRECORD
  5
6503
102
{ACAD_REACTORS
330
6469
102
}
330
6469
100
AcDbXrecord
280
     1
  1
blue
  1
*
  1
blue
  1
*
 70
     0
  1
*
  1
*
  0
XRECORD
  5
6504
102
{ACAD_REACTORS
330
6469
102
}
330
6469
100
AcDbXrecord
280
     1
  1
BOR
  1
*
  1
*
  1
*
 70
     0
  1
*
  1
*
  0
XRECORD
  5
6505
102
{ACAD_REACTORS
330
6469
102
}
330
6469
100
AcDbXrecord
280
     1
  1
b階段
  1
b*
  1
*
  1
*
 70
     0
  1
*
  1
*
  0
XRECORD
  5
6506
102
{ACAD_REACTORS
330
6469
102
}
330
6469
100
AcDbXrecord
280
     1
  1
Ｂ断面
  1
DSTD_SECT-B*
  1
*
  1
*
 70
     0
  1
*
  1
*
  0
XRECORD
  5
6507
102
{ACAD_REACTORS
330
6469
102
}
330
6469
100
AcDbXrecord
280
     1
  1
B電気
  1
*
  1
*
  1
*
 70
     0
  1
*
  1
DENKI
  0
XRECORD
  5
6508
102
{ACAD_REACTORS
330
6469
102
}
330
6469
100
AcDbXrecord
280
     1
  1
B北
  1
*B北*
  1
*
  1
*
 70
     0
  1
*
  1
*
  0
XRECORD
  5
6509
102
{ACAD_REACTORS
330
6469
102
}
330
6469
100
AcDbXrecord
280
     1
  1
c
  1
c*
  1
*
  1
*
 70
    61
  1
*
  1
*
  0
XRECORD
  5
650A
102
{ACAD_REACTORS
330
6469
102
}
330
6469
100
AcDbXrecord
280
     1
  1
c-block
  1
c-*
  1
*
  1
*
 70
     0
  1
*
  1
*
  0
XRECORD
  5
650B
102
{ACAD_REACTORS
330
6469
102
}
330
6469
100
AcDbXrecord
280
     1
  1
c-block-2
  1
c-*
  1
*
  1
*
 70
  1024
  1
*
  1
*
  0
XRECORD
  5
650C
102
{ACAD_REACTORS
330
6469
102
}
330
6469
100
AcDbXrecord
280
     1
  1
caa001
  1
*
  1
*
  1
*
 70
     0
  1
*
  1
*
  0
XRECORD
  5
650D
102
{ACAD_REACTORS
330
6469
102
}
330
6469
100
AcDbXrecord
280
     1
  1
CABINETRY
  1
*CAB*
  1
*
  1
*
 70
     0
  1
*
  1
*
  0
XRECORD
  5
650E
102
{ACAD_REACTORS
330
6469
102
}
330
6469
100
AcDbXrecord
280
     1
  1
cap-0
  1
*
  1
*
  1
*
 70
     0
  1
*
  1
*
  0
XRECORD
  5
650F
102
{ACAD_REACTORS
330
6469
102
}
330
6469
100
AcDbXrecord
280
     1
  1
CASTellano
  1
A-*
  1
*
  1
*
 70
     0
  1
*
  1
*
  0
XRECORD
  5
6510
102
{ACAD_REACTORS
330
6469
102
}
330
6469
100
AcDbXrecord
280
     1
  1
cc
  1
*
  1
*
  1
*
 70
     0
  1
*
  1
*
  0
XRECORD
  5
6511
102
{ACAD_REACTORS
330
6469
102
}
330
6469
100
AcDbXrecord
280
     1
  1
CCC
  1
*45
  1
*
  1
*
 70
     0
  1
*
  1
*
  0
XRECORD
  5
6512
102
{ACAD_REACTORS
330
6469
102
}
330
6469
100
AcDbXrecord
280
     1
  1
ＣＤ棟
  1
T15-*
  1
*
  1
*
 70
     0
  1
*
  1
*
  0
XRECORD
  5
6513
102
{ACAD_REACTORS
330
6469
102
}
330
6469
100
AcDbXrecord
280
     1
  1
ceiling
  1
*-c
  1
*
  1
*
 70
     0
  1
*
  1
*
  0
XRECORD
  5
6514
102
{ACAD_REACTORS
330
6469
102
}
330
6469
100
AcDbXrecord
280
     1
  1
CENTER
  1
*
  1
*
  1
*
 70
     0
  1
*
  1
*
  0
XRECORD
  5
6515
102
{ACAD_REACTORS
330
6469
102
}
330
6469
100
AcDbXrecord
280
     1
  1
che
  1
che*
  1
*
  1
*
 70
     0
  1
*
  1
*
  0
XRECORD
  5
6516
102
{ACAD_REACTORS
330
6469
102
}
330
6469
100
AcDbXrecord
280
     1
  1
com
  1
com*
  1
*
  1
*
 70
     0
  1
*
  1
*
  0
XRECORD
  5
6517
102
{ACAD_REACTORS
330
6469
102
}
330
6469
100
AcDbXrecord
280
     1
  1
conotur
  1
*_*
  1
*
  1
*
 70
     0
  1
*
  1
*
  0
XRECORD
  5
6518
102
{ACAD_REACTORS
330
6469
102
}
330
6469
100
AcDbXrecord
280
     1
  1
CONTI系
  1
*
  1
*
  1
CONTINUOUS
 70
     0
  1
*
  1
*
  0
XRECORD
  5
6519
102
{ACAD_REACTORS
330
6469
102
}
330
6469
100
AcDbXrecord
280
     1
  1
contour
  1
*_*
  1
*
  1
*
 70
     0
  1
*
  1
*
  0
XRECORD
  5
651A
102
{ACAD_REACTORS
330
6469
102
}
330
6469
100
AcDbXrecord
280
     1
  1
conveyors
  1
*conv*
  1
*
  1
*
 70
     0
  1
*
  1
*
  0
XRECORD
  5
651B
102
{ACAD_REACTORS
330
6469
102
}
330
6469
100
AcDbXrecord
280
     1
  1
cyan
  1
*
  1
cyan
  1
*
 70
     0
  1
*
  1
*
  0
XRECORD
  5
651C
102
{ACAD_REACTORS
330
6469
102
}
330
6469
100
AcDbXrecord
280
     1
  1
C衛生
  1
*
  1
*
  1
*
 70
     0
  1
*
  1
EISEI
  0
XRECORD
  5
651D
102
{ACAD_REACTORS
330
6469
102
}
330
6469
100
AcDbXrecord
280
     1
  1
C街区関連
  1
*
  1
*
  1
*
 70
  1024
  1
*
  1
*
  0
XRECORD
  5
651E
102
{ACAD_REACTORS
330
6469
102
}
330
6469
100
AcDbXrecord
280
     1
  1
c雑金物
  1
c*
  1
*
  1
*
 70
     0
  1
*
  1
*
  0
XRECORD
  5
651F
102
{ACAD_REACTORS
330
6469
102
}
330
6469
100
AcDbXrecord
280
     1
  1
C打計画図
  1
001*,002*,003*,004*,005*,007*,012*,015*,016*,017*,018*,019*,020*,021*,049*,050*,051*,052*,053*,054*,055*,056*,057*,058*,059*,060*,061*,062*,063*,064*,065*,066*,067*,068*,069*,070*,071*,072*,073*,074*,075*
  1
*
  1
*
 70
     0
  1
*
  1
*
  0
XRECORD
  5
6520
102
{ACAD_REACTORS
330
6469
102
}
330
6469
100
AcDbXrecord
280
     1
  1
Ｃ断面
  1
DSTD_SECT-C*
  1
*
  1
*
 70
     0
  1
*
  1
*
  0
XRECORD
  5
6521
102
{ACAD_REACTORS
330
6469
102
}
330
6469
100
AcDbXrecord
280
     1
  1
C棟R部
  1
cr*
  1
*
  1
*
 70
     0
  1
*
  1
*
  0
XRECORD
  5
6522
102
{ACAD_REACTORS
330
6469
102
}
330
6469
100
AcDbXrecord
280
     1
  1
DASHED
  1
*
  1
*
  1
DASHED
 70
     0
  1
*
  1
*
  0
XRECORD
  5
6523
102
{ACAD_REACTORS
330
6469
102
}
330
6469
100
AcDbXrecord
280
     1
  1
DASHED2
  1
*
  1
*
  1
DASHED
 70
     0
  1
*
  1
*
  0
XRECORD
  5
6524
102
{ACAD_REACTORS
330
6469
102
}
330
6469
100
AcDbXrecord
280
     1
  1
DDD
  1
*LIN-M
  1
*
  1
*
 70
     0
  1
*
  1
*
  0
XRECORD
  5
6525
102
{ACAD_REACTORS
330
6469
102
}
330
6469
100
AcDbXrecord
280
     1
  1
DEF
  1
DE*
  1
*
  1
*
 70
     0
  1
*
  1
*
  0
XRECORD
  5
6526
102
{ACAD_REACTORS
330
6469
102
}
330
6469
100
AcDbXrecord
280
     1
  1
DENKI
  1
*
  1
*
  1
*
 70
     0
  1
*
  1
*
  0
XRECORD
  5
6527
102
{ACAD_REACTORS
330
6469
102
}
330
6469
100
AcDbXrecord
280
     1
  1
DIM
  1
*DIM*
  1
*
  1
*
 70
     0
  1
*
  1
*
  0
XRECORD
  5
6528
102
{ACAD_REACTORS
330
6469
102
}
330
6469
100
AcDbXrecord
280
     1
  1
DOORS
  1
*ADO*
  1
*
  1
*
 70
     0
  1
*
  1
*
  0
XRECORD
  5
6529
102
{ACAD_REACTORS
330
6469
102
}
330
6469
100
AcDbXrecord
280
     1
  1
drain
  1
ar-dr*
  1
*
  1
*
 70
     0
  1
*
  1
*
  0
XRECORD
  5
652A
102
{ACAD_REACTORS
330
6469
102
}
330
6469
100
AcDbXrecord
280
     1
  1
Drow1
  1
*
  1
*
  1
*
 70
     0
  1
*
  1
*
  0
XRECORD
  5
652B
102
{ACAD_REACTORS
330
6469
102
}
330
6469
100
AcDbXrecord
280
     1
  1
d外構
  1
d*
  1
*
  1
*
 70
     0
  1
*
  1
*
  0
XRECORD
  5
652C
102
{ACAD_REACTORS
330
6469
102
}
330
6469
100
AcDbXrecord
280
     1
  1
E
  1
*
  1
*
  1
*
 70
     0
  1
*
  1
*
  0
XRECORD
  5
652D
102
{ACAD_REACTORS
330
6469
102
}
330
6469
100
AcDbXrecord
280
     1
  1
E 画層
  1
E*,*.
  1
*
  1
*
 70
     0
  1
*
  1
*
  0
XRECORD
  5
910C
102
{ACAD_REACTORS
330
6469
102
}
330
6469
100
AcDbXrecord
280
     1
  1
E511-only
  1
E511*
  1
*
  1
*
 70
     0
  1
*
  1
*
  0
XRECORD
  5
652E
102
{ACAD_REACTORS
330
6469
102
}
330
6469
100
AcDbXrecord
280
     1
  1
EEEE
  1
*
  1
*
  1
*
 70
  1804
  1
*
  1
*
  0
XRECORD
  5
652F
102
{ACAD_REACTORS
330
6469
102
}
330
6469
100
AcDbXrecord
280
     1
  1
EISEI
  1
*4EISEI
  1
4
  1
*
 70
     0
  1
*
  1
*
  0
XRECORD
  5
6530
102
{ACAD_REACTORS
330
6469
102
}
330
6469
100
AcDbXrecord
280
     1
  1
EL
  1
ＥＬ??8m
  1
*
  1
*
 70
     0
  1
*
  1
*
  0
XRECORD
  5
6531
102
{ACAD_REACTORS
330
6469
102
}
330
6469
100
AcDbXrecord
280
     1
  1
ＥＬ３ｍ
  1
ＥＬ*3m
  1
*
  1
*
 70
     0
  1
*
  1
*
  0
XRECORD
  5
6532
102
{ACAD_REACTORS
330
6469
102
}
330
6469
100
AcDbXrecord
280
     1
  1
ＥＬ8ｍ
  1
ＥＬ*8m
  1
*
  1
*
 70
     0
  1
*
  1
*
  0
XRECORD
  5
6533
102
{ACAD_REACTORS
330
6469
102
}
330
6469
100
AcDbXrecord
280
     1
  1
ele
  1
ele*
  1
*
  1
*
 70
     0
  1
*
  1
*
  0
XRECORD
  5
6534
102
{ACAD_REACTORS
330
6469
102
}
330
6469
100
AcDbXrecord
280
     1
  1
ELECTRICAL
  1
E*
  1
*
  1
*
 70
     0
  1
*
  1
*
  0
XRECORD
  5
6535
102
{ACAD_REACTORS
330
6469
102
}
330
6469
100
AcDbXrecord
280
     1
  1
ERAS1F
  1
*2ERAS1F
  1
*
  1
*
 70
     0
  1
*
  1
*
  0
XRECORD
  5
6536
102
{ACAD_REACTORS
330
6469
102
}
330
6469
100
AcDbXrecord
280
     1
  1
exterior
  1
*-x
  1
*
  1
*
 70
     0
  1
*
  1
*
  0
XRECORD
  5
6537
102
{ACAD_REACTORS
330
6469
102
}
330
6469
100
AcDbXrecord
280
     1
  1
E南
  1
*E*南*
  1
*
  1
*
 70
     0
  1
*
  1
*
  0
XRECORD
  5
6538
102
{ACAD_REACTORS
330
6469
102
}
330
6469
100
AcDbXrecord
280
     1
  1
F
  1
*
  1
*
  1
*
 70
     4
  1
*
  1
*
  0
XRECORD
  5
6539
102
{ACAD_REACTORS
330
6469
102
}
330
6469
100
AcDbXrecord
280
     1
  1
feaze
  1
*
  1
*
  1
*
 70
     5
  1
*
  1
*
  0
XRECORD
  5
653A
102
{ACAD_REACTORS
330
6469
102
}
330
6469
100
AcDbXrecord
280
     1
  1
FF
  1
*
  1
*
  1
*
 70
     4
  1
*
  1
*
  0
XRECORD
  5
653B
102
{ACAD_REACTORS
330
6469
102
}
330
6469
100
AcDbXrecord
280
     1
  1
FLOW
  1
FLOW*
  1
*
  1
*
 70
     0
  1
*
  1
*
  0
XRECORD
  5
653C
102
{ACAD_REACTORS
330
6469
102
}
330
6469
100
AcDbXrecord
280
     1
  1
Frame
  1
F*
  1
*
  1
*
 70
     0
  1
*
  1
*
  0
XRECORD
  5
653D
102
{ACAD_REACTORS
330
6469
102
}
330
6469
100
AcDbXrecord
280
     1
  1
freaze
  1
*
  1
*
  1
*
 70
     4
  1
*
  1
*
  0
XRECORD
  5
653E
102
{ACAD_REACTORS
330
6469
102
}
330
6469
100
AcDbXrecord
280
     1
  1
freeze
  1
*
  1
*
  1
*
 70
    12
  1
*
  1
*
  0
XRECORD
  5
653F
102
{ACAD_REACTORS
330
6469
102
}
330
6469
100
AcDbXrecord
280
     1
  1
Frozen
  1
*
  1
*
  1
*
 70
     4
  1
*
  1
*
  0
XRECORD
  5
6540
102
{ACAD_REACTORS
330
6469
102
}
330
6469
100
AcDbXrecord
280
     1
  1
Fugou
  1
*-Fugou*
  1
*
  1
*
 70
     0
  1
*
  1
*
  0
XRECORD
  5
6541
102
{ACAD_REACTORS
330
6469
102
}
330
6469
100
AcDbXrecord
280
     1
  1
FUKI
  1
*FUKI
  1
*
  1
*
 70
     0
  1
*
  1
*
  0
XRECORD
  5
6542
102
{ACAD_REACTORS
330
6469
102
}
330
6469
100
AcDbXrecord
280
     1
  1
FUSE_00
  1
*
  1
*
  1
*
 70
     0
  1
*
  1
*
  0
XRECORD
  5
6543
102
{ACAD_REACTORS
330
6469
102
}
330
6469
100
AcDbXrecord
280
     1
  1
G
  1
*-G*
  1
*
  1
*
 70
     0
  1
*
  1
*
  0
XRECORD
  5
6544
102
{ACAD_REACTORS
330
6469
102
}
330
6469
100
AcDbXrecord
280
     1
  1
GAIKOU
  1
*-L
  1
*
  1
*
 70
     0
  1
*
  1
*
  0
XRECORD
  5
910D
102
{ACAD_REACTORS
330
6469
102
}
330
6469
100
AcDbXrecord
280
     1
  1
ganci
  1
anello
  1
*
  1
*
 70
     0
  1
*
  1
*
  0
XRECORD
  5
6545
102
{ACAD_REACTORS
330
6469
102
}
330
6469
100
AcDbXrecord
280
     1
  1
gasline
  1
*
  1
*
  1
*
 70
     0
  1
*
  1
*
  0
XRECORD
  5
6546
102
{ACAD_REACTORS
330
6469
102
}
330
6469
100
AcDbXrecord
280
     1
  1
GLAZING
  1
*GL*
  1
*
  1
*
 70
     0
  1
*
  1
*
  0
XRECORD
  5
6547
102
{ACAD_REACTORS
330
6469
102
}
330
6469
100
AcDbXrecord
280
     1
  1
green
  1
*
  1
green
  1
*
 70
     0
  1
*
  1
*
  0
XRECORD
  5
6548
102
{ACAD_REACTORS
330
6469
102
}
330
6469
100
AcDbXrecord
280
     1
  1
GRID
  1
G*
  1
*
  1
*
 70
     0
  1
*
  1
*
  0
XRECORD
  5
6549
102
{ACAD_REACTORS
330
6469
102
}
330
6469
100
AcDbXrecord
280
     1
  1
H
  1
00*,01*,02*,03*,05*,06*,1*,2*,3*,4*,5*,6*,8*,
  1
*
  1
*
 70
     0
  1
*
  1
*
  0
XRECORD
  5
654A
102
{ACAD_REACTORS
330
6469
102
}
330
6469
100
AcDbXrecord
280
     1
  1
H 画層
  1
H*,*.
  1
*
  1
*
 70
     0
  1
*
  1
*
  0
XRECORD
  5
654B
102
{ACAD_REACTORS
330
6469
102
}
330
6469
100
AcDbXrecord
280
     1
  1
HAISEN
  1
*1,HAISEN
  1
*
  1
*
 70
     0
  1
*
  1
*
  0
XRECORD
  5
654C
102
{ACAD_REACTORS
330
6469
102
}
330
6469
100
AcDbXrecord
280
     1
  1
HARI
  1
*HARI
  1
*
  1
*
 70
     0
  1
*
  1
*
  0
XRECORD
  5
654D
102
{ACAD_REACTORS
330
6469
102
}
330
6469
100
AcDbXrecord
280
     1
  1
HASIRA
  1
*HASIRA
  1
*
  1
*
 70
     0
  1
*
  1
*
  0
XRECORD
  5
654E
102
{ACAD_REACTORS
330
6469
102
}
330
6469
100
AcDbXrecord
280
     1
  1
HAT
  1
*HAT*
  1
*
  1
*
 70
     0
  1
*
  1
*
  0
XRECORD
  5
654F
102
{ACAD_REACTORS
330
6469
102
}
330
6469
100
AcDbXrecord
280
     1
  1
HIDDEN
  1
*
  1
*
  1
HIDDEN
 70
     0
  1
*
  1
*
  0
XRECORD
  5
6550
102
{ACAD_REACTORS
330
6469
102
}
330
6469
100
AcDbXrecord
280
     1
  1
HM
  1
-*
  1
*
  1
*
 70
     0
  1
*
  1
*
  0
XRECORD
  5
6551
102
{ACAD_REACTORS
330
6469
102
}
330
6469
100
AcDbXrecord
280
     1
  1
HOJO
  1
*HOJO
  1
*
  1
*
 70
     0
  1
*
  1
*
  0
XRECORD
  5
6552
102
{ACAD_REACTORS
330
6469
102
}
330
6469
100
AcDbXrecord
280
     1
  1
houki
  1
h*
  1
*
  1
*
 70
     0
  1
*
  1
*
  0
XRECORD
  5
6553
102
{ACAD_REACTORS
330
6469
102
}
330
6469
100
AcDbXrecord
280
     1
  1
i
  1
*
  1
*
  1
*
 70
     0
  1
*
  1
*
  0
XRECORD
  5
6554
102
{ACAD_REACTORS
330
6469
102
}
330
6469
100
AcDbXrecord
280
     1
  1
I2
  1
*I2CL*
  1
*
  1
*
 70
     0
  1
*
  1
*
  0
XRECORD
  5
6555
102
{ACAD_REACTORS
330
6469
102
}
330
6469
100
AcDbXrecord
280
     1
  1
i2cl
  1
*i2c?*
  1
*
  1
*
 70
     0
  1
*
  1
*
  0
XRECORD
  5
6556
102
{ACAD_REACTORS
330
6469
102
}
330
6469
100
AcDbXrecord
280
     1
  1
i5
  1
*i5*
  1
*
  1
*
 70
     0
  1
*
  1
*
  0
XRECORD
  5
6557
102
{ACAD_REACTORS
330
6469
102
}
330
6469
100
AcDbXrecord
280
     1
  1
IEL
  1
IE*
  1
*
  1
*
 70
     0
  1
*
  1
*
  0
XRECORD
  5
6558
102
{ACAD_REACTORS
330
6469
102
}
330
6469
100
AcDbXrecord
280
     1
  1
INSERT図
  1
*
  1
*
  1
*
 70
    12
  1
*
  1
*
  0
XRECORD
  5
6559
102
{ACAD_REACTORS
330
6469
102
}
330
6469
100
AcDbXrecord
280
     1
  1
irc
  1
irc*
  1
*
  1
*
 70
     0
  1
*
  1
*
  0
XRECORD
  5
655A
102
{ACAD_REACTORS
330
6469
102
}
330
6469
100
AcDbXrecord
280
     1
  1
j
  1
j*
  1
*
  1
*
 70
     0
  1
*
  1
*
  0
XRECORD
  5
655B
102
{ACAD_REACTORS
330
6469
102
}
330
6469
100
AcDbXrecord
280
     1
  1
jiku-0
  1
*
  1
*
  1
*
 70
     0
  1
*
  1
*
  0
XRECORD
  5
655C
102
{ACAD_REACTORS
330
6469
102
}
330
6469
100
AcDbXrecord
280
     1
  1
jkhg8
  1
814706*
  1
*
  1
*
 70
     0
  1
*
  1
*
  0
XRECORD
  5
655D
102
{ACAD_REACTORS
330
6469
102
}
330
6469
100
AcDbXrecord
280
     1
  1
KABE
  1
W-*
  1
*
  1
*
 70
     0
  1
*
  1
*
  0
XRECORD
  5
655E
102
{ACAD_REACTORS
330
6469
102
}
330
6469
100
AcDbXrecord
280
     1
  1
KABESHIN
  1
*A12
  1
*
  1
*
 70
     0
  1
*
  1
*
  0
XRECORD
  5
655F
102
{ACAD_REACTORS
330
6469
102
}
330
6469
100
AcDbXrecord
280
     1
  1
KAGU
  1
*7KAGU
  1
9
  1
*
 70
     0
  1
*
  1
*
  0
XRECORD
  5
6560
102
{ACAD_REACTORS
330
6469
102
}
330
6469
100
AcDbXrecord
280
     1
  1
key
  1
keyplan
  1
*
  1
*
 70
     0
  1
*
  1
*
  0
XRECORD
  5
6561
102
{ACAD_REACTORS
330
6469
102
}
330
6469
100
AcDbXrecord
280
     1
  1
keyplan
  1
*-k
  1
*
  1
*
 70
     0
  1
*
  1
*
  0
XRECORD
  5
6562
102
{ACAD_REACTORS
330
6469
102
}
330
6469
100
AcDbXrecord
280
     1
  1
KIJUN
  1
*KIJUN
  1
*
  1
*
 70
     0
  1
*
  1
*
  0
XRECORD
  5
6563
102
{ACAD_REACTORS
330
6469
102
}
330
6469
100
AcDbXrecord
280
     1
  1
KSIN
  1
*2KSIN
  1
21
  1
*
 70
     0
  1
*
  1
*
  0
XRECORD
  5
6564
102
{ACAD_REACTORS
330
6469
102
}
330
6469
100
AcDbXrecord
280
     1
  1
kui
  1
*
  1
*
  1
*
 70
     4
  1
*
  1
*
  0
XRECORD
  5
6565
102
{ACAD_REACTORS
330
6469
102
}
330
6469
100
AcDbXrecord
280
     1
  1
L 画層
  1
L*,*.
  1
*
  1
*
 70
     0
  1
*
  1
*
  0
XRECORD
  5
6566
102
{ACAD_REACTORS
330
6469
102
}
330
6469
100
AcDbXrecord
280
     1
  1
L1
  1
*
  1
*
  1
*
 70
     0
  1
*
  1
*
  0
XRECORD
  5
6567
102
{ACAD_REACTORS
330
6469
102
}
330
6469
100
AcDbXrecord
280
     1
  1
L2
  1
*
  1
*
  1
*
 70
     0
  1
*
  1
*
  0
XRECORD
  5
6568
102
{ACAD_REACTORS
330
6469
102
}
330
6469
100
AcDbXrecord
280
     1
  1
layout
  1
*
  1
*
  1
*
 70
     0
  1
*
  1
*
  0
XRECORD
  5
6569
102
{ACAD_REACTORS
330
6469
102
}
330
6469
100
AcDbXrecord
280
     1
  1
length
  1
*length*
  1
*
  1
*
 70
     0
  1
*
  1
*
  0
XRECORD
  5
656A
102
{ACAD_REACTORS
330
6469
102
}
330
6469
100
AcDbXrecord
280
     1
  1
LOCK
  1
*
  1
*
  1
*
 70
   256
  1
*
  1
*
  0
XRECORD
  5
656B
102
{ACAD_REACTORS
330
6469
102
}
330
6469
100
AcDbXrecord
280
     1
  1
M
  1
*M-*
  1
*
  1
*
 70
     0
  1
*
  1
*
  0
XRECORD
  5
656C
102
{ACAD_REACTORS
330
6469
102
}
330
6469
100
AcDbXrecord
280
     1
  1
magenta
  1
*
  1
magenta
  1
*
 70
     0
  1
*
  1
*
  0
XRECORD
  5
656D
102
{ACAD_REACTORS
330
6469
102
}
330
6469
100
AcDbXrecord
280
     1
  1
MAJIKIRI
  1
*MAJIKIRI
  1
*
  1
*
 70
     0
  1
*
  1
*
  0
XRECORD
  5
656E
102
{ACAD_REACTORS
330
6469
102
}
330
6469
100
AcDbXrecord
280
     1
  1
mazenda
  1
*
  1
6
  1
*
 70
     0
  1
*
  1
*
  0
XRECORD
  5
656F
102
{ACAD_REACTORS
330
6469
102
}
330
6469
100
AcDbXrecord
280
     1
  1
MB
  1
*MB
  1
*
  1
*
 70
     0
  1
*
  1
*
  0
XRECORD
  5
6570
102
{ACAD_REACTORS
330
6469
102
}
330
6469
100
AcDbXrecord
280
     1
  1
MECHANICAL
  1
M*
  1
*
  1
*
 70
     0
  1
*
  1
*
  0
XRECORD
  5
6571
102
{ACAD_REACTORS
330
6469
102
}
330
6469
100
AcDbXrecord
280
     1
  1
MEJI
  1
*7MEJI
  1
243
  1
*
 70
     0
  1
*
  1
*
  0
XRECORD
  5
6572
102
{ACAD_REACTORS
330
6469
102
}
330
6469
100
AcDbXrecord
280
     1
  1
men
  1
*tm*
  1
*
  1
*
 70
     0
  1
*
  1
*
  0
XRECORD
  5
6573
102
{ACAD_REACTORS
330
6469
102
}
330
6469
100
AcDbXrecord
280
     1
  1
MIE01
  1
MIE01
  1
*
  1
*
 70
     0
  1
*
  1
*
  0
XRECORD
  5
6574
102
{ACAD_REACTORS
330
6469
102
}
330
6469
100
AcDbXrecord
280
     1
  1
MOJI
  1
*MOJI
  1
*
  1
*
 70
     0
  1
*
  1
*
  0
XRECORD
  5
6575
102
{ACAD_REACTORS
330
6469
102
}
330
6469
100
AcDbXrecord
280
     1
  1
MOJI100
  1
*5MOJI100
  1
3
  1
*
 70
     0
  1
*
  1
*
  0
XRECORD
  5
6576
102
{ACAD_REACTORS
330
6469
102
}
330
6469
100
AcDbXrecord
280
     1
  1
MP
  1
MP_*
  1
*
  1
*
 70
     0
  1
*
  1
*
  0
XRECORD
  5
6577
102
{ACAD_REACTORS
330
6469
102
}
330
6469
100
AcDbXrecord
280
     1
  1
N
  1
*N
  1
*
  1
*
 70
     0
  1
*
  1
*
  0
XRECORD
  5
6578
102
{ACAD_REACTORS
330
6469
102
}
330
6469
100
AcDbXrecord
280
     1
  1
new
  1
new*
  1
*
  1
*
 70
     0
  1
*
  1
*
  0
XRECORD
  5
6579
102
{ACAD_REACTORS
330
6469
102
}
330
6469
100
AcDbXrecord
280
     1
  1
New Doors
  1
*ADO*
  1
*
  1
*
 70
     0
  1
*
  1
*
  0
XRECORD
  5
657A
102
{ACAD_REACTORS
330
6469
102
}
330
6469
100
AcDbXrecord
280
     1
  1
New Walls
  1
A*,2
  1
*
  1
*
 70
     0
  1
*
  1
*
  0
XRECORD
  5
657B
102
{ACAD_REACTORS
330
6469
102
}
330
6469
100
AcDbXrecord
280
     1
  1
nic
  1
*
  1
*
  1
*
 70
     0
  1
253
  1
*
  0
XRECORD
  5
657C
102
{ACAD_REACTORS
330
6469
102
}
330
6469
100
AcDbXrecord
280
     1
  1
NS CTS set
  1
*
  1
*
  1
*
 70
     0
  1
*
  1
*
  0
XRECORD
  5
657D
102
{ACAD_REACTORS
330
6469
102
}
330
6469
100
AcDbXrecord
280
     1
  1
o
  1
*
  1
*
  1
*
 70
     3
  1
*
  1
*
  0
XRECORD
  5
657E
102
{ACAD_REACTORS
330
6469
102
}
330
6469
100
AcDbXrecord
280
     1
  1
OF
  1
*
  1
*
  1
*
 70
     3
  1
*
  1
*
  0
XRECORD
  5
657F
102
{ACAD_REACTORS
330
6469
102
}
330
6469
100
AcDbXrecord
280
     1
  1
Off
  1
*
  1
*
  1
*
 70
     3
  1
*
  1
*
  0
XRECORD
  5
6580
102
{ACAD_REACTORS
330
6469
102
}
330
6469
100
AcDbXrecord
280
     1
  1
off文字
  1
*TXT*
  1
*
  1
*
 70
     0
  1
*
  1
*
  0
XRECORD
  5
6581
102
{ACAD_REACTORS
330
6469
102
}
330
6469
100
AcDbXrecord
280
     1
  1
on
  1
*
  1
*
  1
*
 70
    13
  1
*
  1
*
  0
XRECORD
  5
6582
102
{ACAD_REACTORS
330
6469
102
}
330
6469
100
AcDbXrecord
280
     1
  1
p
  1
*
  1
*
  1
*
 70
     0
  1
*
  1
*
  0
XRECORD
  5
6583
102
{ACAD_REACTORS
330
6469
102
}
330
6469
100
AcDbXrecord
280
     1
  1
PARKING
  1
P-*
  1
*
  1
*
 70
     0
  1
*
  1
*
  0
XRECORD
  5
6584
102
{ACAD_REACTORS
330
6469
102
}
330
6469
100
AcDbXrecord
280
     1
  1
PC
  1
0,11*,12*,13*,14*,15*,18*,23*,25*,30*,31*,32*,51*,52*,54*,59*,60*,66*,67*,69*,76*
  1
*
  1
*
 70
     0
  1
*
  1
*
  0
XRECORD
  5
6585
102
{ACAD_REACTORS
330
6469
102
}
330
6469
100
AcDbXrecord
280
     1
  1
plot
  1
*
  1
*
  1
*
 70
     1
  1
*
  1
*
  0
XRECORD
  5
6586
102
{ACAD_REACTORS
330
6469
102
}
330
6469
100
AcDbXrecord
280
     1
  1
PLUMBING
  1
P*
  1
*
  1
*
 70
     0
  1
*
  1
*
  0
XRECORD
  5
6587
102
{ACAD_REACTORS
330
6469
102
}
330
6469
100
AcDbXrecord
280
     1
  1
Q
  1
*
  1
*
  1
PHANTOM
 70
     0
  1
*
  1
*
  0
XRECORD
  5
6588
102
{ACAD_REACTORS
330
6469
102
}
330
6469
100
AcDbXrecord
280
     1
  1
R
  1
*-R
  1
*
  1
*
 70
     0
  1
*
  1
*
  0
XRECORD
  5
6589
102
{ACAD_REACTORS
330
6469
102
}
330
6469
100
AcDbXrecord
280
     1
  1
raku
  1
000落書き
  1
*
  1
*
 70
     0
  1
*
  1
*
  0
XRECORD
  5
658A
102
{ACAD_REACTORS
330
6469
102
}
330
6469
100
AcDbXrecord
280
     1
  1
red
  1
*
  1
10
  1
*
 70
     0
  1
*
  1
*
  0
XRECORD
  5
658B
102
{ACAD_REACTORS
330
6469
102
}
330
6469
100
AcDbXrecord
280
     1
  1
RJRUDDH
  1
*
  1
*
  1
*
 70
     0
  1
*
  1
*
  0
XRECORD
  5
658C
102
{ACAD_REACTORS
330
6469
102
}
330
6469
100
AcDbXrecord
280
     1
  1
rock
  1
*
  1
*
  1
*
 70
   768
  1
*
  1
*
  0
XRECORD
  5
658D
102
{ACAD_REACTORS
330
6469
102
}
330
6469
100
AcDbXrecord
280
     1
  1
ROOF
  1
*-R
  1
*
  1
*
 70
     0
  1
*
  1
*
  0
XRECORD
  5
658E
102
{ACAD_REACTORS
330
6469
102
}
330
6469
100
AcDbXrecord
280
     1
  1
s
  1
s*
  1
*
  1
*
 70
     0
  1
*
  1
*
  0
XRECORD
  5
658F
102
{ACAD_REACTORS
330
6469
102
}
330
6469
100
AcDbXrecord
280
     1
  1
saciencewold
  1
*
  1
*
  1
*
 70
     0
  1
*
  1
*
  0
XRECORD
  5
6590
102
{ACAD_REACTORS
330
6469
102
}
330
6469
100
AcDbXrecord
280
     1
  1
SC
  1
SC
  1
*
  1
*
 70
     0
  1
*
  1
*
  0
XRECORD
  5
6591
102
{ACAD_REACTORS
330
6469
102
}
330
6469
100
AcDbXrecord
280
     1
  1
sdfdf
  1
8141*****
  1
*
  1
*
 70
     0
  1
*
  1
*
  0
XRECORD
  5
6592
102
{ACAD_REACTORS
330
6469
102
}
330
6469
100
AcDbXrecord
280
     1
  1
SETUBI
  1
*SETUBI
  1
*
  1
*
 70
     0
  1
*
  1
*
  0
XRECORD
  5
6593
102
{ACAD_REACTORS
330
6469
102
}
330
6469
100
AcDbXrecord
280
     1
  1
SHITU
  1
*SHITUMEI*
  1
*
  1
*
 70
     0
  1
*
  1
*
  0
XRECORD
  5
6594
102
{ACAD_REACTORS
330
6469
102
}
330
6469
100
AcDbXrecord
280
     1
  1
SHITUMEI
  1
*SHITUMEI2
  1
*
  1
*
 70
     0
  1
*
  1
*
  0
XRECORD
  5
6595
102
{ACAD_REACTORS
330
6469
102
}
330
6469
100
AcDbXrecord
280
     1
  1
SIAG
  1
*3SIAG
  1
*
  1
*
 70
     0
  1
*
  1
*
  0
XRECORD
  5
6596
102
{ACAD_REACTORS
330
6469
102
}
330
6469
100
AcDbXrecord
280
     1
  1
SIAG-N
  1
*3SIAG-N
  1
7
  1
*
 70
     0
  1
*
  1
*
  0
XRECORD
  5
6597
102
{ACAD_REACTORS
330
6469
102
}
330
6469
100
AcDbXrecord
280
     1
  1
SIAG3
  1
*3SIAG3
  1
3
  1
*
 70
     0
  1
*
  1
*
  0
XRECORD
  5
6598
102
{ACAD_REACTORS
330
6469
102
}
330
6469
100
AcDbXrecord
280
     1
  1
Sinm
  1
*-Sinm*
  1
*
  1
*
 70
     0
  1
*
  1
*
  0
XRECORD
  5
6599
102
{ACAD_REACTORS
330
6469
102
}
330
6469
100
AcDbXrecord
280
     1
  1
SITA
  1
*3SITA
  1
*
  1
*
 70
     0
  1
*
  1
*
  0
XRECORD
  5
659A
102
{ACAD_REACTORS
330
6469
102
}
330
6469
100
AcDbXrecord
280
     1
  1
site
  1
site*
  1
*
  1
*
 70
     0
  1
*
  1
*
  0
XRECORD
  5
659B
102
{ACAD_REACTORS
330
6469
102
}
330
6469
100
AcDbXrecord
280
     1
  1
SON
  1
1*,9*,*KEL,HASIRA,*N-M,*RID,*DIM,*UBL,00*
  1
*
  1
*
 70
     0
  1
*
  1
*
  0
XRECORD
  5
659C
102
{ACAD_REACTORS
330
6469
102
}
330
6469
100
AcDbXrecord
280
     1
  1
SS
  1
*SS*
  1
*
  1
*
 70
     0
  1
*
  1
*
  0
XRECORD
  5
659D
102
{ACAD_REACTORS
330
6469
102
}
330
6469
100
AcDbXrecord
280
     1
  1
STAIRS
  1
*ST*
  1
*
  1
*
 70
     0
  1
*
  1
*
  0
XRECORD
  5
659E
102
{ACAD_REACTORS
330
6469
102
}
330
6469
100
AcDbXrecord
280
     1
  1
standard
  1
*
  1
*
  1
*
 70
     0
  1
*
  1
*
  0
XRECORD
  5
659F
102
{ACAD_REACTORS
330
6469
102
}
330
6469
100
AcDbXrecord
280
     1
  1
SUGA5
  1
*4SUGA5
  1
5
  1
*
 70
     0
  1
*
  1
*
  0
XRECORD
  5
65A0
102
{ACAD_REACTORS
330
6469
102
}
330
6469
100
AcDbXrecord
280
     1
  1
SUNP
  1
*5SUNP100
  1
1
  1
*
 70
     0
  1
*
  1
*
  0
XRECORD
  5
65A1
102
{ACAD_REACTORS
330
6469
102
}
330
6469
100
AcDbXrecord
280
     1
  1
SUNP100
  1
*5SUNP100
  1
*
  1
*
 70
     0
  1
*
  1
*
  0
XRECORD
  5
65A2
102
{ACAD_REACTORS
330
6469
102
}
330
6469
100
AcDbXrecord
280
     1
  1
SYOU
  1
*
  1
*
  1
*
 70
     0
  1
*
  1
SYOU
  0
XRECORD
  5
65A3
102
{ACAD_REACTORS
330
6469
102
}
330
6469
100
AcDbXrecord
280
     1
  1
S画層
  1
S*
  1
*
  1
*
 70
     0
  1
*
  1
*
  0
XRECORD
  5
65A4
102
{ACAD_REACTORS
330
6469
102
}
330
6469
100
AcDbXrecord
280
     1
  1
T
  1
00*,01*,02*,04*,05*,06*,1*,2*,3*,4*,7*,9*,
  1
*
  1
*
 70
     0
  1
*
  1
*
  0
XRECORD
  5
65A5
102
{ACAD_REACTORS
330
6469
102
}
330
6469
100
AcDbXrecord
280
     1
  1
TAKASA
  1
*
  1
2
  1
*
 70
     0
  1
*
  1
*
  0
XRECORD
  5
65A6
102
{ACAD_REACTORS
330
6469
102
}
330
6469
100
AcDbXrecord
280
     1
  1
TATE161
  1
*4TATE161
  1
161
  1
*
 70
     0
  1
*
  1
*
  0
XRECORD
  5
65A7
102
{ACAD_REACTORS
330
6469
102
}
330
6469
100
AcDbXrecord
280
     1
  1
TATEGU
  1
*TATEGU
  1
*
  1
*
 70
     0
  1
*
  1
*
  0
XRECORD
  5
65A8
102
{ACAD_REACTORS
330
6469
102
}
330
6469
100
AcDbXrecord
280
     1
  1
TC
  1
TC_*,0N
  1
*
  1
*
 70
     0
  1
*
  1
*
  0
XRECORD
  5
65A9
102
{ACAD_REACTORS
330
6469
102
}
330
6469
100
AcDbXrecord
280
     1
  1
TEN
  1
*
  1
*
  1
*
 70
     1
  1
*
  1
*
  0
XRECORD
  5
65AA
102
{ACAD_REACTORS
330
6469
102
}
330
6469
100
AcDbXrecord
280
     1
  1
TENJYOU
  1
C-*
  1
*
  1
*
 70
     0
  1
*
  1
*
  0
XRECORD
  5
65AB
102
{ACAD_REACTORS
330
6469
102
}
330
6469
100
AcDbXrecord
280
     1
  1
TENJYOUNAI
  1
CI-*
  1
*
  1
*
 70
     0
  1
*
  1
*
  0
XRECORD
  5
65AC
102
{ACAD_REACTORS
330
6469
102
}
330
6469
100
AcDbXrecord
280
     1
  1
test
  1
keyplan
  1
*
  1
*
 70
     0
  1
*
  1
*
  0
XRECORD
  5
65AD
102
{ACAD_REACTORS
330
6469
102
}
330
6469
100
AcDbXrecord
280
     1
  1
test1024
  1
*
  1
*
  1
*
 70
   769
  1
*
  1
*
  0
XRECORD
  5
65AE
102
{ACAD_REACTORS
330
6469
102
}
330
6469
100
AcDbXrecord
280
     1
  1
test1115
  1
2* 0
  1
*
  1
*
 70
     0
  1
*
  1
*
  0
XRECORD
  5
65AF
102
{ACAD_REACTORS
330
6469
102
}
330
6469
100
AcDbXrecord
280
     1
  1
test2
  1
*
  1
*
  1
*
 70
    12
  1
*
  1
*
  0
XRECORD
  5
65B0
102
{ACAD_REACTORS
330
6469
102
}
330
6469
100
AcDbXrecord
280
     1
  1
TEXT
  1
*TEXT*
  1
*
  1
*
 70
     0
  1
*
  1
*
  0
XRECORD
  5
65B1
102
{ACAD_REACTORS
330
6469
102
}
330
6469
100
AcDbXrecord
280
     1
  1
Thawed
  1
*
  1
*
  1
*
 70
    12
  1
*
  1
*
  0
XRECORD
  5
65B2
102
{ACAD_REACTORS
330
6469
102
}
330
6469
100
AcDbXrecord
280
     1
  1
TITL
  1
*8TITL
  1
4
  1
*
 70
     0
  1
*
  1
*
  0
XRECORD
  5
65B3
102
{ACAD_REACTORS
330
6469
102
}
330
6469
100
AcDbXrecord
280
     1
  1
tnjyou
  1
c-*
  1
*
  1
*
 70
     0
  1
*
  1
*
  0
XRECORD
  5
65B4
102
{ACAD_REACTORS
330
6469
102
}
330
6469
100
AcDbXrecord
280
     1
  1
TORISHIN
  1
*A11
  1
*
  1
*
 70
     0
  1
*
  1
*
  0
XRECORD
  5
65B5
102
{ACAD_REACTORS
330
6469
102
}
330
6469
100
AcDbXrecord
280
     1
  1
TSIN
  1
*2TSIN
  1
*
  1
*
 70
     0
  1
*
  1
*
  0
XRECORD
  5
910E
102
{ACAD_REACTORS
330
6469
102
}
330
6469
100
AcDbXrecord
280
     1
  1
TTB-only
  1
T*
  1
*
  1
*
 70
     0
  1
*
  1
*
  0
XRECORD
  5
65B6
102
{ACAD_REACTORS
330
6469
102
}
330
6469
100
AcDbXrecord
280
     1
  1
TU
  1
*TU*
  1
*
  1
*
 70
     0
  1
*
  1
*
  0
XRECORD
  5
65B7
102
{ACAD_REACTORS
330
6469
102
}
330
6469
100
AcDbXrecord
280
     1
  1
unlocked
  1
*
  1
*
  1
*
 70
   768
  1
*
  1
*
  0
XRECORD
  5
65B8
102
{ACAD_REACTORS
330
6469
102
}
330
6469
100
AcDbXrecord
280
     1
  1
UNROCK
  1
*
  1
*
  1
*
 70
   768
  1
*
  1
*
  0
XRECORD
  5
65B9
102
{ACAD_REACTORS
330
6469
102
}
330
6469
100
AcDbXrecord
280
     1
  1
VMB
  1
*
  1
*
  1
*
 70
     0
  1
*
  1
*
  0
XRECORD
  5
65BA
102
{ACAD_REACTORS
330
6469
102
}
330
6469
100
AcDbXrecord
280
     1
  1
VOID
  1
*void*
  1
*
  1
*
 70
     0
  1
*
  1
*
  0
XRECORD
  5
65BB
102
{ACAD_REACTORS
330
6469
102
}
330
6469
100
AcDbXrecord
280
     1
  1
waku
  1
waku
  1
*
  1
*
 70
     0
  1
*
  1
*
  0
XRECORD
  5
65BC
102
{ACAD_REACTORS
330
6469
102
}
330
6469
100
AcDbXrecord
280
     1
  1
WALLS
  1
*AWA*
  1
*
  1
*
 70
     0
  1
*
  1
*
  0
XRECORD
  5
65BD
102
{ACAD_REACTORS
330
6469
102
}
330
6469
100
AcDbXrecord
280
     1
  1
ward
  1
*
  1
*
  1
*
 70
     0
  1
*
  1
*
  0
XRECORD
  5
65BE
102
{ACAD_REACTORS
330
6469
102
}
330
6469
100
AcDbXrecord
280
     1
  1
X
  1
*$*$*
  1
*
  1
*
 70
     0
  1
*
  1
*
  0
XRECORD
  5
65BF
102
{ACAD_REACTORS
330
6469
102
}
330
6469
100
AcDbXrecord
280
     1
  1
yaji
  1
*
  1
*
  1
*
 70
     0
  1
*
  1
*
  0
XRECORD
  5
65C0
102
{ACAD_REACTORS
330
6469
102
}
330
6469
100
AcDbXrecord
280
     1
  1
yellow
  1
*
  1
yellow
  1
*
 70
     0
  1
*
  1
*
  0
XRECORD
  5
65C1
102
{ACAD_REACTORS
330
6469
102
}
330
6469
100
AcDbXrecord
280
     1
  1
YUKA
  1
F-*
  1
*
  1
*
 70
     0
  1
*
  1
*
  0
XRECORD
  5
65C2
102
{ACAD_REACTORS
330
6469
102
}
330
6469
100
AcDbXrecord
280
     1
  1
yその他
  1
y*
  1
*
  1
*
 70
     0
  1
*
  1
*
  0
XRECORD
  5
65C3
102
{ACAD_REACTORS
330
6469
102
}
330
6469
100
AcDbXrecord
280
     1
  1
Z
  1
*Z*
  1
*
  1
*
 70
     0
  1
*
  1
*
  0
XRECORD
  5
65C4
102
{ACAD_REACTORS
330
6469
102
}
330
6469
100
AcDbXrecord
280
     1
  1
z-CABINETRY
  1
*CAB*
  1
*
  1
*
 70
     0
  1
*
  1
*
  0
XRECORD
  5
65C5
102
{ACAD_REACTORS
330
6469
102
}
330
6469
100
AcDbXrecord
280
     1
  1
z-WALLS
  1
*AWA*
  1
*
  1
*
 70
     0
  1
*
  1
*
  0
XRECORD
  5
65C6
102
{ACAD_REACTORS
330
6469
102
}
330
6469
100
AcDbXrecord
280
     1
  1
ZATU
  1
*ZATU
  1
*
  1
*
 70
     0
  1
*
  1
*
  0
XRECORD
  5
65C7
102
{ACAD_REACTORS
330
6469
102
}
330
6469
100
AcDbXrecord
280
     1
  1
z図枠
  1
z*
  1
*
  1
*
 70
     0
  1
*
  1
*
  0
XRECORD
  5
65C8
102
{ACAD_REACTORS
330
6469
102
}
330
6469
100
AcDbXrecord
280
     1
  1
ｨｾｨa
  1
B*
  1
*
  1
*
 70
   768
  1
*
  1
*
  0
XRECORD
  5
65C9
102
{ACAD_REACTORS
330
6469
102
}
330
6469
100
AcDbXrecord
280
     1
  1
ｨﾏ･ﾎ､､
  1
ｨﾏ･ﾎ､､
  1
*
  1
*
 70
     1
  1
*
  1
*
  0
XRECORD
  5
65CA
102
{ACAD_REACTORS
330
6469
102
}
330
6469
100
AcDbXrecord
280
     1
  1
ガラス
  1
*HMOJI
  1
*
  1
*
 70
     0
  1
*
  1
*
  0
XRECORD
  5
65CB
102
{ACAD_REACTORS
330
6469
102
}
330
6469
100
AcDbXrecord
280
     1
  1
キ-プラン
  1
*HMOJI,*HOJO2,*HOJO4,*SINSEI
  1
*
  1
*
 70
     0
  1
*
  1
*
  0
XRECORD
  5
65CC
102
{ACAD_REACTORS
330
6469
102
}
330
6469
100
AcDbXrecord
280
     1
  1
キープラン
  1
キープラン*
  1
*
  1
*
 70
     0
  1
*
  1
*
  0
XRECORD
  5
65CD
102
{ACAD_REACTORS
330
6469
102
}
330
6469
100
AcDbXrecord
280
     1
  1
きんでん
  1
き-*
  1
*
  1
*
 70
     0
  1
*
  1
*
  0
XRECORD
  5
65CE
102
{ACAD_REACTORS
330
6469
102
}
330
6469
100
AcDbXrecord
280
     1
  1
ｺﾝ
  1
D*
  1
*
  1
*
 70
     0
  1
*
  1
*
  0
XRECORD
  5
65CF
102
{ACAD_REACTORS
330
6469
102
}
330
6469
100
AcDbXrecord
280
     1
  1
シェルター
  1
シェルター*
  1
*
  1
*
 70
     0
  1
*
  1
*
  0
XRECORD
  5
65D0
102
{ACAD_REACTORS
330
6469
102
}
330
6469
100
AcDbXrecord
280
     1
  1
すべての画層を非表示
  1
*
  1
*
  1
*
 70
     3
  1
*
  1
*
  0
XRECORD
  5
65D1
102
{ACAD_REACTORS
330
6469
102
}
330
6469
100
AcDbXrecord
280
     1
  1
すべて非表示
  1
*
  1
*
  1
*
 70
     3
  1
*
  1
*
  0
XRECORD
  5
65D2
102
{ACAD_REACTORS
330
6469
102
}
330
6469
100
AcDbXrecord
280
     1
  1
デッキ
  1
SS*
  1
*
  1
*
 70
     0
  1
*
  1
*
  0
XRECORD
  5
65D3
102
{ACAD_REACTORS
330
6469
102
}
330
6469
100
AcDbXrecord
280
     1
  1
ハッチング
  1
*HAT*
  1
*
  1
*
 70
     0
  1
*
  1
*
  0
XRECORD
  5
65D4
102
{ACAD_REACTORS
330
6469
102
}
330
6469
100
AcDbXrecord
280
     1
  1
ﾌﾘｰｽﾞ
  1
*
  1
*
  1
*
 70
    12
  1
*
  1
*
  0
XRECORD
  5
65D5
102
{ACAD_REACTORS
330
6469
102
}
330
6469
100
AcDbXrecord
280
     1
  1
フリーズ
  1
*
  1
*
  1
*
 70
    12
  1
*
  1
*
  0
XRECORD
  5
65D6
102
{ACAD_REACTORS
330
6469
102
}
330
6469
100
AcDbXrecord
280
     1
  1
フリーズof
  1
*
  1
*
  1
*
 70
    12
  1
*
  1
*
  0
XRECORD
  5
65D7
102
{ACAD_REACTORS
330
6469
102
}
330
6469
100
AcDbXrecord
280
     1
  1
フリーズ画層
  1
*
  1
*
  1
*
 70
     4
  1
*
  1
*
  0
XRECORD
  5
65D8
102
{ACAD_REACTORS
330
6469
102
}
330
6469
100
AcDbXrecord
280
     1
  1
ﾌﾘｰｽﾞ画層非表示
  1
*
  1
*
  1
*
 70
    12
  1
*
  1
*
  0
XRECORD
  5
65D9
102
{ACAD_REACTORS
330
6469
102
}
330
6469
100
AcDbXrecord
280
     1
  1
ﾌﾘｰｽﾞ画面非表示
  1
*
  1
*
  1
*
 70
    12
  1
*
  1
*
  0
XRECORD
  5
65DA
102
{ACAD_REACTORS
330
6469
102
}
330
6469
100
AcDbXrecord
280
     1
  1
ﾌﾘｰｽﾞ解除
  1
*
  1
*
  1
*
 70
    12
  1
*
  1
*
  0
XRECORD
  5
65DB
102
{ACAD_REACTORS
330
6469
102
}
330
6469
100
AcDbXrecord
280
     1
  1
フリーズ解除
  1
*
  1
*
  1
*
 70
    12
  1
*
  1
*
  0
XRECORD
  5
65DC
102
{ACAD_REACTORS
330
6469
102
}
330
6469
100
AcDbXrecord
280
     1
  1
ペーパー空間
  1
DSTD_FRAME*
  1
*
  1
*
 70
     0
  1
*
  1
*
  0
XRECORD
  5
65DD
102
{ACAD_REACTORS
330
6469
102
}
330
6469
100
AcDbXrecord
280
     1
  1
マーク
  1
*マーク
  1
*
  1
*
 70
     0
  1
*
  1
*
  0
XRECORD
  5
65DE
102
{ACAD_REACTORS
330
6469
102
}
330
6469
100
AcDbXrecord
280
     1
  1
ｭｱｿn
  1
*
  1
*
  1
*
 70
     3
  1
*
  1
*
  0
XRECORD
  5
65DF
102
{ACAD_REACTORS
330
6469
102
}
330
6469
100
AcDbXrecord
280
     1
  1
ｭｫｭnｼh
  1
8154*010
  1
*
  1
*
 70
     0
  1
*
  1
*
  0
XRECORD
  5
65E0
102
{ACAD_REACTORS
330
6469
102
}
330
6469
100
AcDbXrecord
280
     1
  1
ランプ
  1
*ランプ*
  1
*
  1
*
 70
     0
  1
*
  1
*
  0
XRECORD
  5
65E1
102
{ACAD_REACTORS
330
6469
102
}
330
6469
100
AcDbXrecord
280
     1
  1
ロック以外
  1
*
  1
*
  1
*
 70
   768
  1
*
  1
*
  0
XRECORD
  5
65E2
102
{ACAD_REACTORS
330
6469
102
}
330
6469
100
AcDbXrecord
280
     1
  1
ロック画層
  1
*
  1
*
  1
*
 70
   256
  1
*
  1
*
  0
XRECORD
  5
65E3
102
{ACAD_REACTORS
330
6469
102
}
330
6469
100
AcDbXrecord
280
     1
  1
ロック解除
  1
*
  1
*
  1
*
 70
   768
  1
*
  1
*
  0
XRECORD
  5
65E4
102
{ACAD_REACTORS
330
6469
102
}
330
6469
100
AcDbXrecord
280
     1
  1
ｦLｨ
  1
*
  1
*
  1
*
 70
    13
  1
*
  1
*
  0
XRECORD
  5
65E5
102
{ACAD_REACTORS
330
6469
102
}
330
6469
100
AcDbXrecord
280
     1
  1
一括非表示
  1
*
  1
*
  1
*
 70
     3
  1
*
  1
*
  0
XRECORD
  5
65E6
102
{ACAD_REACTORS
330
6469
102
}
330
6469
100
AcDbXrecord
280
     1
  1
一般
  1
*般*
  1
*
  1
*
 70
     0
  1
*
  1
*
  0
XRECORD
  5
65E7
102
{ACAD_REACTORS
330
6469
102
}
330
6469
100
AcDbXrecord
280
     1
  1
一般画層
  1
.*
  1
*
  1
*
 70
     0
  1
*
  1
*
  0
XRECORD
  5
65E8
102
{ACAD_REACTORS
330
6469
102
}
330
6469
100
AcDbXrecord
280
     1
  1
印刷不可を表示
  1
*
  1
*
  1
*
 70
  3072
  1
*
  1
*
  0
XRECORD
  5
65E9
102
{ACAD_REACTORS
330
6469
102
}
330
6469
100
AcDbXrecord
280
     1
  1
荏原 機器
  1
kiki*
  1
*
  1
*
 70
     0
  1
*
  1
*
  0
XRECORD
  5
65EA
102
{ACAD_REACTORS
330
6469
102
}
330
6469
100
AcDbXrecord
280
     1
  1
荏原　機器基礎
  1
a3*,KIKI*,text*,stage,矢視記号,WAKU*
  1
*
  1
*
 70
     0
  1
*
  1
*
  0
XRECORD
  5
65EB
102
{ACAD_REACTORS
330
6469
102
}
330
6469
100
AcDbXrecord
280
     1
  1
荏原機器
  1
KIKI*
  1
*
  1
*
 70
     0
  1
*
  1
*
  0
XRECORD
  5
65EC
102
{ACAD_REACTORS
330
6469
102
}
330
6469
100
AcDbXrecord
280
     1
  1
荏原機器基礎
  1
a3*,KIKI*,text*,stage,矢視記号
  1
*
  1
*
 70
     0
  1
*
  1
*
  0
XRECORD
  5
65ED
102
{ACAD_REACTORS
330
6469
102
}
330
6469
100
AcDbXrecord
280
     1
  1
衛生設備図
  1
001*,002*,004*,005*,007*,010*,039*,040*,041*,042*,043*
  1
*
  1
*
 70
     0
  1
*
  1
*
  0
XRECORD
  5
65EE
102
{ACAD_REACTORS
330
6469
102
}
330
6469
100
AcDbXrecord
280
     1
  1
黄色
  1
*
  1
YELLOW
  1
*
 70
     0
  1
*
  1
*
  0
XRECORD
  5
65EF
102
{ACAD_REACTORS
330
6469
102
}
330
6469
100
AcDbXrecord
280
     1
  1
下地
  1
*下地*
  1
*
  1
*
 70
     0
  1
*
  1
*
  0
XRECORD
  5
65F0
102
{ACAD_REACTORS
330
6469
102
}
330
6469
100
AcDbXrecord
280
     1
  1
仮設
  1
仮設*
  1
*
  1
*
 70
     0
  1
*
  1
*
  0
XRECORD
  5
65F1
102
{ACAD_REACTORS
330
6469
102
}
330
6469
100
AcDbXrecord
280
     1
  1
家具
  1
*FUN*
  1
*
  1
*
 70
     0
  1
*
  1
*
  0
XRECORD
  5
65F2
102
{ACAD_REACTORS
330
6469
102
}
330
6469
100
AcDbXrecord
280
     1
  1
開発画層
  1
L*,B*
  1
*
  1
*
 70
     0
  1
*
  1
*
  0
XRECORD
  5
65F3
102
{ACAD_REACTORS
330
6469
102
}
330
6469
100
AcDbXrecord
280
     1
  1
外構
  1
外構*
  1
*
  1
*
 70
     0
  1
*
  1
*
  0
XRECORD
  5
65F4
102
{ACAD_REACTORS
330
6469
102
}
330
6469
100
AcDbXrecord
280
     1
  1
外構一般画層
  1
L*,B*
  1
*
  1
*
 70
     0
  1
*
  1
*
  0
XRECORD
  5
65F5
102
{ACAD_REACTORS
330
6469
102
}
330
6469
100
AcDbXrecord
280
     1
  1
外構図
  1
*
  1
*
  1
*
 70
     7
  1
*
  1
*
  0
XRECORD
  5
65F6
102
{ACAD_REACTORS
330
6469
102
}
330
6469
100
AcDbXrecord
280
     1
  1
外部-フリーズ解除
  1
*|*
  1
*
  1
*
 70
    12
  1
*
  1
*
  0
XRECORD
  5
65F7
102
{ACAD_REACTORS
330
6469
102
}
330
6469
100
AcDbXrecord
280
     1
  1
外部参照－建築
  1
A*
  1
9
  1
*
 70
     0
  1
*
  1
*
  0
XRECORD
  5
65F8
102
{ACAD_REACTORS
330
6469
102
}
330
6469
100
AcDbXrecord
280
     1
  1
外部参照の非表示画層
  1
*
  1
*
  1
*
 70
     0
  1
*
  1
*
  0
XRECORD
  5
65F9
102
{ACAD_REACTORS
330
6469
102
}
330
6469
100
AcDbXrecord
280
     1
  1
岩級
  1
*岩級
  1
*
  1
*
 70
     0
  1
*
  1
*
  0
XRECORD
  5
65FA
102
{ACAD_REACTORS
330
6469
102
}
330
6469
100
AcDbXrecord
280
     1
  1
基
  1
*_基
  1
*
  1
*
 70
     0
  1
*
  1
*
  0
XRECORD
  5
65FB
102
{ACAD_REACTORS
330
6469
102
}
330
6469
100
AcDbXrecord
280
     1
  1
基準
  1
基*
  1
*
  1
*
 70
     0
  1
*
  1
*
  0
XRECORD
  5
65FC
102
{ACAD_REACTORS
330
6469
102
}
330
6469
100
AcDbXrecord
280
     1
  1
基礎伏図
  1
SIZE,HOJO,ZATU,HATCH,GL-HARI,GL-HASIRA,KISO,KUI,MOJI-K1,GL-FUGO,SUNPO-K1,SUNPO,SUNPO2,SUNPO1,KIJUN3,KIJUN,SIZE
  1
*
  1
*
 70
     0
  1
*
  1
*
  0
XRECORD
  5
65FD
102
{ACAD_REACTORS
330
6469
102
}
330
6469
100
AcDbXrecord
280
     1
  1
既存杭
  1
既存杭*
  1
*
  1
*
 70
     0
  1
*
  1
*
  0
XRECORD
  5
65FE
102
{ACAD_REACTORS
330
6469
102
}
330
6469
100
AcDbXrecord
280
     1
  1
機器
  1
KIKI*
  1
*
  1
*
 70
     0
  1
*
  1
*
  0
XRECORD
  5
65FF
102
{ACAD_REACTORS
330
6469
102
}
330
6469
100
AcDbXrecord
280
     1
  1
機器基礎
  1
a3*,KIKI*,text*,stage,矢視記号
  1
*
  1
*
 70
     0
  1
*
  1
*
  0
XRECORD
  5
6600
102
{ACAD_REACTORS
330
6469
102
}
330
6469
100
AcDbXrecord
280
     1
  1
記号
  1
*記号
  1
*
  1
*
 70
     0
  1
*
  1
*
  0
XRECORD
  5
6601
102
{ACAD_REACTORS
330
6469
102
}
330
6469
100
AcDbXrecord
280
     1
  1
旧
  1
*旧*
  1
*
  1
*
 70
     0
  1
*
  1
*
  0
XRECORD
  5
6602
102
{ACAD_REACTORS
330
6469
102
}
330
6469
100
AcDbXrecord
280
     1
  1
共通
  1
*共*
  1
*
  1
*
 70
     0
  1
*
  1
*
  0
XRECORD
  5
6603
102
{ACAD_REACTORS
330
6469
102
}
330
6469
100
AcDbXrecord
280
     1
  1
区画
  1
区画*
  1
*
  1
*
 70
     0
  1
*
  1
*
  0
XRECORD
  5
6604
102
{ACAD_REACTORS
330
6469
102
}
330
6469
100
AcDbXrecord
280
     1
  1
躯体
  1
*躯*
  1
*
  1
*
 70
     0
  1
*
  1
*
  0
XRECORD
  5
6605
102
{ACAD_REACTORS
330
6469
102
}
330
6469
100
AcDbXrecord
280
     1
  1
躯体図
  1
001*,002*,003*,004*,005*,006*,007*,008*,009*,010*,011*,012*,027*
  1
*
  1
*
 70
     0
  1
*
  1
*
  0
XRECORD
  5
6606
102
{ACAD_REACTORS
330
6469
102
}
330
6469
100
AcDbXrecord
280
     1
  1
駆体
  1
*A09*
  1
*
  1
*
 70
     0
  1
*
  1
*
  0
XRECORD
  5
6607
102
{ACAD_REACTORS
330
6469
102
}
330
6469
100
AcDbXrecord
280
     1
  1
空調設備図
  1
001*,002*,004*,005*,007*,010*,033*,034*,035*,036*,037*,038*
  1
*
  1
*
 70
     0
  1
*
  1
*
  0
XRECORD
  5
6608
102
{ACAD_REACTORS
330
6469
102
}
330
6469
100
AcDbXrecord
280
     1
  1
郡川
  1
kijun,kabe,sunpo
  1
*
  1
*
 70
     3
  1
*
  1
*
  0
XRECORD
  5
6609
102
{ACAD_REACTORS
330
6469
102
}
330
6469
100
AcDbXrecord
280
     1
  1
型枠計画図
  1
001*,002*,003*,004*,005*,006*,007*,010*,012*,050*,051*,055*,056*,057*,058*,059*,060*,061*,062*,063*,064*,065*,066*,067*,068*,069*,070*,071*,072*,073*,074*,075*
  1
*
  1
*
 70
     0
  1
*
  1
*
  0
XRECORD
  5
660A
102
{ACAD_REACTORS
330
6469
102
}
330
6469
100
AcDbXrecord
280
     1
  1
形状
  1
pen1,pen3,pen4,up,dia,low
  1
*
  1
*
 70
     0
  1
*
  1
*
  0
XRECORD
  5
660B
102
{ACAD_REACTORS
330
6469
102
}
330
6469
100
AcDbXrecord
280
     1
  1
形状以外
  1
dim,cen,text,sakuzu1,sakuzu2,siten,defpoints,0
  1
*
  1
*
 70
     0
  1
*
  1
*
  0
XRECORD
  5
660C
102
{ACAD_REACTORS
330
6469
102
}
330
6469
100
AcDbXrecord
280
     1
  1
建具
  1
*TAT*
  1
*
  1
*
 70
     0
  1
*
  1
*
  0
XRECORD
  5
660D
102
{ACAD_REACTORS
330
6469
102
}
330
6469
100
AcDbXrecord
280
     1
  1
建築
  1
*
  1
*
  1
*
 70
     0
  1
*
  1
*
  0
XRECORD
  5
660E
102
{ACAD_REACTORS
330
6469
102
}
330
6469
100
AcDbXrecord
280
     1
  1
建築1
  1
K*
  1
*
  1
*
 70
     3
  1
*
  1
*
  0
XRECORD
  5
660F
102
{ACAD_REACTORS
330
6469
102
}
330
6469
100
AcDbXrecord
280
     1
  1
建築一般画層
  1
B*,A*
  1
*
  1
*
 70
     0
  1
*
  1
*
  0
XRECORD
  5
6610
102
{ACAD_REACTORS
330
6469
102
}
330
6469
100
AcDbXrecord
280
     1
  1
建築図
  1
*
  1
9
  1
*
 70
     0
  1
*
  1
*
  0
XRECORD
  5
6611
102
{ACAD_REACTORS
330
6469
102
}
330
6469
100
AcDbXrecord
280
     1
  1
建築接地図
  1
A01*
  1
*
  1
*
 70
     0
  1
*
  1
*
  0
XRECORD
  5
6612
102
{ACAD_REACTORS
330
6469
102
}
330
6469
100
AcDbXrecord
280
     1
  1
建物
  1
T-*
  1
*
  1
*
 70
     0
  1
*
  1
*
  0
XRECORD
  5
6613
102
{ACAD_REACTORS
330
6469
102
}
330
6469
100
AcDbXrecord
280
     1
  1
見え
  1
*KEN*
  1
*
  1
*
 70
     0
  1
*
  1
*
  0
XRECORD
  5
6614
102
{ACAD_REACTORS
330
6469
102
}
330
6469
100
AcDbXrecord
280
     1
  1
見上
  1
*上*
  1
*
  1
*
 70
     0
  1
*
  1
*
  0
XRECORD
  5
6615
102
{ACAD_REACTORS
330
6469
102
}
330
6469
100
AcDbXrecord
280
     1
  1
現況
  1
00wrk*
  1
*
  1
*
 70
     0
  1
*
  1
*
  0
XRECORD
  5
6616
102
{ACAD_REACTORS
330
6469
102
}
330
6469
100
AcDbXrecord
280
     1
  1
現況＆境界
  1
*wrk*
  1
*
  1
*
 70
     0
  1
*
  1
*
  0
XRECORD
  5
6617
102
{ACAD_REACTORS
330
6469
102
}
330
6469
100
AcDbXrecord
280
     1
  1
現在以外のすべてを選択
  1
*
  1
*
  1
*
 70
     0
  1
*
  1
*
  0
XRECORD
  5
6618
102
{ACAD_REACTORS
330
6469
102
}
330
6469
100
AcDbXrecord
280
     1
  1
後付
  1
*後付*
  1
*
  1
*
 70
     0
  1
*
  1
*
  0
XRECORD
  5
6619
102
{ACAD_REACTORS
330
6469
102
}
330
6469
100
AcDbXrecord
280
     1
  1
公園
  1
K*
  1
*
  1
*
 70
     0
  1
*
  1
*
  0
XRECORD
  5
661A
102
{ACAD_REACTORS
330
6469
102
}
330
6469
100
AcDbXrecord
280
     1
  1
杭頭詳細図
  1
DSTD_PILE*
  1
*
  1
*
 70
     0
  1
*
  1
*
  0
XRECORD
  5
661B
102
{ACAD_REACTORS
330
6469
102
}
330
6469
100
AcDbXrecord
280
     1
  1
杭伏図
  1
SIZE,HOJO,KUI,SUNPO,KIJUN,KUI-SUNPO,KUI-MOJI
  1
*
  1
*
 70
     0
  1
*
  1
*
  0
XRECORD
  5
661C
102
{ACAD_REACTORS
330
6469
102
}
330
6469
100
AcDbXrecord
280
     1
  1
高さ
  1
204-TEXT,東西道路*
  1
*
  1
*
 70
     0
  1
*
  1
*
  0
XRECORD
  5
661D
102
{ACAD_REACTORS
330
6469
102
}
330
6469
100
AcDbXrecord
280
     1
  1
高圧電気
  1
高*
  1
*
  1
*
 70
     0
  1
*
  1
*
  0
XRECORD
  5
661E
102
{ACAD_REACTORS
330
6469
102
}
330
6469
100
AcDbXrecord
280
     1
  1
座席のみ
  1
*
  1
*
  1
*
 70
     0
  1
*
  1
*
  0
XRECORD
  5
661F
102
{ACAD_REACTORS
330
6469
102
}
330
6469
100
AcDbXrecord
280
     1
  1
作業
  1
100-*,地区*,
  1
*
  1
*
 70
     1
  1
*
  1
*
  0
XRECORD
  5
6620
102
{ACAD_REACTORS
330
6469
102
}
330
6469
100
AcDbXrecord
280
     1
  1
山止根切計画図
  1
001*,002*,003*,004*,005*,007*,012*,049*,050*,051*,052*,053*,054*,055*,056*,057*,058*,059*,060*,061*,062*,064*,065*,066*,067*,068*,069*,070*,071*,072*,073*,074*,075*
  1
*
  1
*
 70
     0
  1
*
  1
*
  0
XRECORD
  5
6621
102
{ACAD_REACTORS
330
6469
102
}
330
6469
100
AcDbXrecord
280
     1
  1
仕
  1
*_仕
  1
*
  1
*
 70
     0
  1
*
  1
*
  0
XRECORD
  5
6622
102
{ACAD_REACTORS
330
6469
102
}
330
6469
100
AcDbXrecord
280
     1
  1
仕上
  1
D*
  1
*
  1
*
 70
     0
  1
*
  1
*
  0
XRECORD
  5
6623
102
{ACAD_REACTORS
330
6469
102
}
330
6469
100
AcDbXrecord
280
     1
  1
仕上げ
  1
*FIN*
  1
*
  1
*
 70
     0
  1
*
  1
*
  0
XRECORD
  5
6624
102
{ACAD_REACTORS
330
6469
102
}
330
6469
100
AcDbXrecord
280
     1
  1
仕上図
  1
C*
  1
*
  1
*
 70
     0
  1
*
  1
*
  0
XRECORD
  5
6625
102
{ACAD_REACTORS
330
6469
102
}
330
6469
100
AcDbXrecord
280
     1
  1
支柱取付部
  1
DSTD_COLMN-DET*
  1
*
  1
*
 70
     0
  1
*
  1
*
  0
XRECORD
  5
6626
102
{ACAD_REACTORS
330
6469
102
}
330
6469
100
AcDbXrecord
280
     1
  1
施工図
  1
*
  1
*
  1
*
 70
     0
  1
*
  1
*
  0
XRECORD
  5
6627
102
{ACAD_REACTORS
330
6469
102
}
330
6469
100
AcDbXrecord
280
     1
  1
紫
  1
*
  1
Magenta
  1
*
 70
     0
  1
*
  1
*
  0
XRECORD
  5
6628
102
{ACAD_REACTORS
330
6469
102
}
330
6469
100
AcDbXrecord
280
     1
  1
従属
  1
*|*
  1
*
  1
*
 70
     0
  1
*
  1
*
  0
XRECORD
  5
6629
102
{ACAD_REACTORS
330
6469
102
}
330
6469
100
AcDbXrecord
280
     1
  1
出図
  1
*
  1
*
  1
*
 70
     1
  1
*
  1
*
  0
XRECORD
  5
662A
102
{ACAD_REACTORS
330
6469
102
}
330
6469
100
AcDbXrecord
280
     1
  1
床伏
  1
*床*
  1
*
  1
*
 70
     0
  1
*
  1
*
  0
XRECORD
  5
662B
102
{ACAD_REACTORS
330
6469
102
}
330
6469
100
AcDbXrecord
280
     1
  1
床伏図
  1
*U*,20,Z20,Z22,Z23
  1
*
  1
*
 70
     0
  1
*
  1
*
  0
XRECORD
  5
662C
102
{ACAD_REACTORS
330
6469
102
}
330
6469
100
AcDbXrecord
280
     1
  1
昇降機
  1
T*
  1
*
  1
*
 70
     0
  1
*
  1
*
  0
XRECORD
  5
662D
102
{ACAD_REACTORS
330
6469
102
}
330
6469
100
AcDbXrecord
280
     1
  1
詳細
  1
詳細*
  1
*
  1
*
 70
     0
  1
*
  1
*
  0
XRECORD
  5
662E
102
{ACAD_REACTORS
330
6469
102
}
330
6469
100
AcDbXrecord
280
     1
  1
詳細一般画層
  1
B*,A*,D*
  1
*
  1
*
 70
     0
  1
*
  1
*
  0
XRECORD
  5
662F
102
{ACAD_REACTORS
330
6469
102
}
330
6469
100
AcDbXrecord
280
     1
  1
詳細図
  1
9*
  1
*
  1
*
 70
    12
  1
*
  1
*
  0
XRECORD
  5
6630
102
{ACAD_REACTORS
330
6469
102
}
330
6469
100
AcDbXrecord
280
     1
  1
上階躯体図
  1
KUTAI-Z,SIZE,HOJO,ZATU,HATCH,BR-S,KABE2,KABE,MAJIKIRI,KOBARI-S,KOBARI-R,HARI-S,HARI-R,HASIRA-S,HASIRA-R,MOJI-K2,FL-FUGO,FUGO-W,SUNPO-K2,SUNPO,SUNPO2,SUNPO1,KIJUN2,KIJUN1,KIJUN,
  1
*
  1
*
 70
     0
  1
*
  1
*
  0
XRECORD
  5
6631
102
{ACAD_REACTORS
330
6469
102
}
330
6469
100
AcDbXrecord
280
     1
  1
植栽
  1
T*
  1
*
  1
*
 70
     0
  1
*
  1
*
  0
XRECORD
  5
6632
102
{ACAD_REACTORS
330
6469
102
}
330
6469
100
AcDbXrecord
280
     1
  1
色番号8
  1
*
  1
8
  1
*
 70
     0
  1
*
  1
*
  0
XRECORD
  5
6633
102
{ACAD_REACTORS
330
6469
102
}
330
6469
100
AcDbXrecord
280
     1
  1
新
  1
*新*
  1
*
  1
*
 70
     0
  1
*
  1
*
  0
XRECORD
  5
6634
102
{ACAD_REACTORS
330
6469
102
}
330
6469
100
AcDbXrecord
280
     1
  1
新菱
  1
新菱*
  1
*
  1
*
 70
     0
  1
*
  1
*
  0
XRECORD
  5
6635
102
{ACAD_REACTORS
330
6469
102
}
330
6469
100
AcDbXrecord
280
     1
  1
申請用
  1
*あ*,*き*,*グ*,*み*,*オ*,*ピ*,*92*
  1
*
  1
*
 70
     0
  1
*
  1
*
  0
XRECORD
  5
6636
102
{ACAD_REACTORS
330
6469
102
}
330
6469
100
AcDbXrecord
280
     1
  1
芯
  1
*芯*
  1
*
  1
*
 70
     0
  1
*
  1
*
  0
XRECORD
  5
6637
102
{ACAD_REACTORS
330
6469
102
}
330
6469
100
AcDbXrecord
280
     1
  1
芯関係
  1
001*,002*,032*
  1
*
  1
*
 70
     0
  1
*
  1
*
  0
XRECORD
  5
6638
102
{ACAD_REACTORS
330
6469
102
}
330
6469
100
AcDbXrecord
280
     1
  1
水
  1
*
  1
cyan
  1
*
 70
     0
  1
*
  1
*
  0
XRECORD
  5
6639
102
{ACAD_REACTORS
330
6469
102
}
330
6469
100
AcDbXrecord
280
     1
  1
水色
  1
*
  1
Cyan
  1
*
 70
     0
  1
*
  1
*
  0
XRECORD
  5
663A
102
{ACAD_REACTORS
330
6469
102
}
330
6469
100
AcDbXrecord
280
     1
  1
寸法
  1
*寸法
  1
*
  1
*
 70
     0
  1
*
  1
*
  0
XRECORD
  5
663B
102
{ACAD_REACTORS
330
6469
102
}
330
6469
100
AcDbXrecord
280
     1
  1
正面図
  1
DSTD_FRONT*
  1
*
  1
*
 70
     0
  1
*
  1
*
  0
XRECORD
  5
663C
102
{ACAD_REACTORS
330
6469
102
}
330
6469
100
AcDbXrecord
280
     1
  1
製作
  1
B*
  1
*
  1
*
 70
     0
  1
*
  1
*
  0
XRECORD
  5
663D
102
{ACAD_REACTORS
330
6469
102
}
330
6469
100
AcDbXrecord
280
     1
  1
製作-躯体
  1
BS*
  1
*
  1
*
 70
     0
  1
*
  1
*
  0
XRECORD
  5
663E
102
{ACAD_REACTORS
330
6469
102
}
330
6469
100
AcDbXrecord
280
     1
  1
製作-建築
  1
BD*
  1
*
  1
*
 70
     0
  1
*
  1
*
  0
XRECORD
  5
663F
102
{ACAD_REACTORS
330
6469
102
}
330
6469
100
AcDbXrecord
280
     1
  1
製作-昇降機
  1
BT*
  1
*
  1
*
 70
     0
  1
*
  1
*
  0
XRECORD
  5
6640
102
{ACAD_REACTORS
330
6469
102
}
330
6469
100
AcDbXrecord
280
     1
  1
青
  1
*
  1
blue
  1
*
 70
     0
  1
*
  1
*
  0
XRECORD
  5
6641
102
{ACAD_REACTORS
330
6469
102
}
330
6469
100
AcDbXrecord
280
     1
  1
設備
  1
*SET*
  1
*
  1
*
 70
     0
  1
*
  1
*
  0
XRECORD
  5
6642
102
{ACAD_REACTORS
330
6469
102
}
330
6469
100
AcDbXrecord
280
     1
  1
設備１
  1
*
  1
*
  1
*
 70
     0
  1
*
  1
*
  0
XRECORD
  5
6643
102
{ACAD_REACTORS
330
6469
102
}
330
6469
100
AcDbXrecord
280
     1
  1
専北
  1
*専北*
  1
*
  1
*
 70
     0
  1
*
  1
*
  0
XRECORD
  5
6644
102
{ACAD_REACTORS
330
6469
102
}
330
6469
100
AcDbXrecord
280
     1
  1
専用
  1
*専*
  1
*
  1
*
 70
     0
  1
*
  1
*
  0
XRECORD
  5
6645
102
{ACAD_REACTORS
330
6469
102
}
330
6469
100
AcDbXrecord
280
     1
  1
川畑
  1
*川畑
  1
*
  1
*
 70
     0
  1
*
  1
*
  0
XRECORD
  5
6646
102
{ACAD_REACTORS
330
6469
102
}
330
6469
100
AcDbXrecord
280
     1
  1
線形
  1
*線形*
  1
*
  1
*
 70
     0
  1
*
  1
*
  0
XRECORD
  5
6647
102
{ACAD_REACTORS
330
6469
102
}
330
6469
100
AcDbXrecord
280
     1
  1
全階平面図
  1
*
  1
*
  1
*
 70
     0
  1
*
  1
*
  0
XRECORD
  5
6648
102
{ACAD_REACTORS
330
6469
102
}
330
6469
100
AcDbXrecord
280
     1
  1
全帯
  1
*帯*
  1
*
  1
*
 70
     0
  1
*
  1
*
  0
XRECORD
  5
6649
102
{ACAD_REACTORS
330
6469
102
}
330
6469
100
AcDbXrecord
280
     1
  1
総合仮設図
  1
001*,002*,003*,004*,005*,007*,012*,015*,016*,017*,018*,019*,020*,021*,049*,050*,051*,052*,053*,054*,055*,056*,057*,058*,059*,060*,061*,062*,063*,064*,065*,066*,067*,068*,069*,070*,071*,072*,073*,074*,075*
  1
*
  1
*
 70
     0
  1
*
  1
*
  0
XRECORD
  5
664A
102
{ACAD_REACTORS
330
6469
102
}
330
6469
100
AcDbXrecord
280
     1
  1
総合図
  1
*
  1
*
  1
*
 70
     0
  1
*
  1
*
  0
XRECORD
  5
664B
102
{ACAD_REACTORS
330
6469
102
}
330
6469
100
AcDbXrecord
280
     1
  1
総合図1
  1
*
  1
*
  1
*
 70
    13
  1
*
  1
*
  0
XRECORD
  5
664C
102
{ACAD_REACTORS
330
6469
102
}
330
6469
100
AcDbXrecord
280
     1
  1
足場計画図
  1
001*,002*,003*,004*,005*,007*,012*,015*,049*,050*,051*,055*,056*,057*,058*,059*,060*,061*,062*,064*,065*,066*,067*,068*,069*,070*,071*,072*,073*,074*,075*
  1
*
  1
*
 70
     0
  1
*
  1
*
  0
XRECORD
  5
664D
102
{ACAD_REACTORS
330
6469
102
}
330
6469
100
AcDbXrecord
280
     1
  1
耐火
  1
耐火*
  1
*
  1
*
 70
     0
  1
*
  1
*
  0
XRECORD
  5
664E
102
{ACAD_REACTORS
330
6469
102
}
330
6469
100
AcDbXrecord
280
     1
  1
断面
  1
*断面*
  1
*
  1
*
 70
     0
  1
*
  1
*
  0
XRECORD
  5
664F
102
{ACAD_REACTORS
330
6469
102
}
330
6469
100
AcDbXrecord
280
     1
  1
断面図
  1
DSTD_SECT*
  1
*
  1
*
 70
     0
  1
*
  1
*
  0
XRECORD
  5
6650
102
{ACAD_REACTORS
330
6469
102
}
330
6469
100
AcDbXrecord
280
     1
  1
中
  1
*中*
  1
*
  1
*
 70
     0
  1
*
  1
*
  0
XRECORD
  5
6651
102
{ACAD_REACTORS
330
6469
102
}
330
6469
100
AcDbXrecord
280
     1
  1
中野
  1
中野*
  1
*
  1
*
 70
     0
  1
*
  1
*
  0
XRECORD
  5
6652
102
{ACAD_REACTORS
330
6469
102
}
330
6469
100
AcDbXrecord
280
     1
  1
通り芯
  1
sin*
  1
*
  1
*
 70
     0
  1
*
  1
*
  0
XRECORD
  5
6653
102
{ACAD_REACTORS
330
6469
102
}
330
6469
100
AcDbXrecord
280
     1
  1
低圧
  1
低*
  1
*
  1
*
 70
     0
  1
*
  1
*
  0
XRECORD
  5
6654
102
{ACAD_REACTORS
330
6469
102
}
330
6469
100
AcDbXrecord
280
     1
  1
鉄筋
  1
TEA*,TEB*,TEC*
  1
*
  1
*
 70
     0
  1
*
  1
*
  0
XRECORD
  5
6655
102
{ACAD_REACTORS
330
6469
102
}
330
6469
100
AcDbXrecord
280
     1
  1
鉄骨
  1
*鉄骨*
  1
*
  1
*
 70
     0
  1
*
  1
*
  0
XRECORD
  5
6656
102
{ACAD_REACTORS
330
6469
102
}
330
6469
100
AcDbXrecord
280
     1
  1
鉄骨建方計画図
  1
001*,002*,003*,004*,005*,007*,012*,013*,049*,050*,051*,052*,053*,054*,055*,056*,057*,058*,059*,060*,061*,062*,063*,064*,065*,066*,067*,068*,069*,070*,071*,072*,073*,074*,075*
  1
*
  1
*
 70
     0
  1
*
  1
*
  0
XRECORD
  5
6657
102
{ACAD_REACTORS
330
6469
102
}
330
6469
100
AcDbXrecord
280
     1
  1
鉄骨梁見下げ
  1
000*,110*,141*
  1
*
  1
*
 70
     0
  1
*
  1
*
  0
XRECORD
  5
6658
102
{ACAD_REACTORS
330
6469
102
}
330
6469
100
AcDbXrecord
280
     1
  1
鉄骨梁見下げ3
  1
20*
  1
*
  1
*
 70
     0
  1
*
  1
*
  0
XRECORD
  5
6659
102
{ACAD_REACTORS
330
6469
102
}
330
6469
100
AcDbXrecord
280
     1
  1
天井
  1
C*
  1
*
  1
*
 70
     0
  1
*
  1
*
  0
XRECORD
  5
665A
102
{ACAD_REACTORS
330
6469
102
}
330
6469
100
AcDbXrecord
280
     1
  1
天井インサート図
  1
001*,002*,004*,010*,022*,023*,024*,025*,026*,027*,028*,029*,037*,042*
  1
*
  1
*
 70
     0
  1
*
  1
*
  0
XRECORD
  5
665B
102
{ACAD_REACTORS
330
6469
102
}
330
6469
100
AcDbXrecord
280
     1
  1
天井総合図
  1
001*,002*,004*,005*,007*,010*,022*,023*,024*,025*,026*,027*,028*,029*,030*,031*,033*,035*,036*,037*,039*,041*,042*,044*,046*,047*
  1
*
  1
*
 70
     0
  1
*
  1
*
  0
XRECORD
  5
665C
102
{ACAD_REACTORS
330
6469
102
}
330
6469
100
AcDbXrecord
280
     1
  1
天井伏
  1
0,03*,1a*,160*,17*,28*,29*,2a*,41*,42*,43*,5*,6*,SUNPO
  1
*
  1
*
 70
     0
  1
*
  1
*
  0
XRECORD
  5
665D
102
{ACAD_REACTORS
330
6469
102
}
330
6469
100
AcDbXrecord
280
     1
  1
天井伏図
  1
001*,002*,004*,010*,022*,023*,024*,025*,026*,027*,028*,029*,033*,039*,044*
  1
*
  1
*
 70
     0
  1
*
  1
*
  0
XRECORD
  5
665E
102
{ACAD_REACTORS
330
6469
102
}
330
6469
100
AcDbXrecord
280
     1
  1
天伏
  1
****-H
  1
*
  1
*
 70
     0
  1
*
  1
*
  0
XRECORD
  5
665F
102
{ACAD_REACTORS
330
6469
102
}
330
6469
100
AcDbXrecord
280
     1
  1
展開図
  1
4*,9*,0*
  1
*
  1
*
 70
     0
  1
*
  1
*
  0
XRECORD
  5
6660
102
{ACAD_REACTORS
330
6469
102
}
330
6469
100
AcDbXrecord
280
     1
  1
電ｺﾝｾﾝﾄ
  1
電-ｺﾝｾﾝﾄ*
  1
*
  1
*
 70
     0
  1
*
  1
*
  0
XRECORD
  5
6661
102
{ACAD_REACTORS
330
6469
102
}
330
6469
100
AcDbXrecord
280
     1
  1
電ﾃﾚﾋﾞ
  1
電-ﾃﾚﾋﾞ*
  1
*
  1
*
 70
     0
  1
*
  1
*
  0
XRECORD
  5
6662
102
{ACAD_REACTORS
330
6469
102
}
330
6469
100
AcDbXrecord
280
     1
  1
電の画層
  1
電-*
  1
*
  1
*
 70
     0
  1
*
  1
*
  0
XRECORD
  5
6663
102
{ACAD_REACTORS
330
6469
102
}
330
6469
100
AcDbXrecord
280
     1
  1
電の総画層
  1
電-*
  1
*
  1
*
 70
     0
  1
*
  1
*
  0
XRECORD
  5
6664
102
{ACAD_REACTORS
330
6469
102
}
330
6469
100
AcDbXrecord
280
     1
  1
電医療接地
  1
電-医療*
  1
*
  1
*
 70
     0
  1
*
  1
*
  0
XRECORD
  5
6665
102
{ACAD_REACTORS
330
6469
102
}
330
6469
100
AcDbXrecord
280
     1
  1
電気
  1
電*
  1
*
  1
*
 70
     0
  1
*
  1
*
  0
XRECORD
  5
6666
102
{ACAD_REACTORS
330
6469
102
}
330
6469
100
AcDbXrecord
280
     1
  1
電気画層
  1
電-*
  1
*
  1
*
 70
     0
  1
*
  1
*
  0
XRECORD
  5
6667
102
{ACAD_REACTORS
330
6469
102
}
330
6469
100
AcDbXrecord
280
     1
  1
電気設計図
  1
電-S*
  1
*
  1
*
 70
     0
  1
*
  1
*
  0
XRECORD
  5
6668
102
{ACAD_REACTORS
330
6469
102
}
330
6469
100
AcDbXrecord
280
     1
  1
電気設備図
  1
001*,002*,004*,005*,007*,010*,030*,031*,044*,045*,046*,047*,048*
  1
*
  1
*
 70
     0
  1
*
  1
*
  0
XRECORD
  5
6669
102
{ACAD_REACTORS
330
6469
102
}
330
6469
100
AcDbXrecord
280
     1
  1
電電話
  1
電-電話*
  1
*
  1
*
 70
     0
  1
*
  1
*
  0
XRECORD
  5
666A
102
{ACAD_REACTORS
330
6469
102
}
330
6469
100
AcDbXrecord
280
     1
  1
土留板
  1
*_CONC
  1
*
  1
*
 70
     0
  1
*
  1
*
  0
XRECORD
  5
666B
102
{ACAD_REACTORS
330
6469
102
}
330
6469
100
AcDbXrecord
280
     1
  1
土留板取付詳細図
  1
DSTD_CONC*
  1
*
  1
*
 70
     0
  1
*
  1
*
  0
XRECORD
  5
666C
102
{ACAD_REACTORS
330
6469
102
}
330
6469
100
AcDbXrecord
280
     1
  1
動力
  1
D*
  1
*
  1
*
 70
    12
  1
*
  1
*
  0
XRECORD
  5
666D
102
{ACAD_REACTORS
330
6469
102
}
330
6469
100
AcDbXrecord
280
     1
  1
道路
  1
D-*
  1
*
  1
*
 70
     0
  1
*
  1
*
  0
XRECORD
  5
666E
102
{ACAD_REACTORS
330
6469
102
}
330
6469
100
AcDbXrecord
280
     1
  1
道路関係図
  1
001*,002*,003*,004*,007*,012*,015*,016*,017*,018*,019*,020*,021*,049*,050*,051*,052*,053*,054*,055*,056*,057*,058*,059*,060*,061*,062*,063*,064*,065*,066*,067*,068*,069*,070*,071*,072*,073*,074*,075*
  1
*
  1
*
 70
     0
  1
*
  1
*
  0
XRECORD
  5
666F
102
{ACAD_REACTORS
330
6469
102
}
330
6469
100
AcDbXrecord
280
     1
  1
読み込み時表示層
  1
*
  1
*
  1
*
 70
     0
  1
*
  1
*
  0
XRECORD
  5
6670
102
{ACAD_REACTORS
330
6469
102
}
330
6469
100
AcDbXrecord
280
     1
  1
日比谷
  1
日比谷*
  1
*
  1
*
 70
     0
  1
*
  1
*
  0
XRECORD
  5
6671
102
{ACAD_REACTORS
330
6469
102
}
330
6469
100
AcDbXrecord
280
     1
  1
日比谷1
  1
日*管
  1
*
  1
*
 70
     0
  1
*
  1
*
  0
XRECORD
  5
6672
102
{ACAD_REACTORS
330
6469
102
}
330
6469
100
AcDbXrecord
280
     1
  1
背面図
  1
DSTD_BACK*
  1
*
  1
*
 70
     0
  1
*
  1
*
  0
XRECORD
  5
6673
102
{ACAD_REACTORS
330
6469
102
}
330
6469
100
AcDbXrecord
280
     1
  1
配管
  1
PIPE*
  1
*
  1
*
 70
     0
  1
*
  1
*
  0
XRECORD
  5
6674
102
{ACAD_REACTORS
330
6469
102
}
330
6469
100
AcDbXrecord
280
     1
  1
配筋図
  1
DSTD_STEEL*
  1
*
  1
*
 70
     0
  1
*
  1
*
  0
XRECORD
  5
6675
102
{ACAD_REACTORS
330
6469
102
}
330
6469
100
AcDbXrecord
280
     1
  1
配置樹木
  1
*
  1
*
  1
*
 70
     0
  1
*
  1
*
  0
XRECORD
  5
6676
102
{ACAD_REACTORS
330
6469
102
}
330
6469
100
AcDbXrecord
280
     1
  1
配置図
  1
*
  1
*
  1
*
 70
  1024
  1
*
  1
*
  0
XRECORD
  5
6677
102
{ACAD_REACTORS
330
6469
102
}
330
6469
100
AcDbXrecord
280
     1
  1
盤
  1
盤*
  1
*
  1
*
 70
     0
  1
*
  1
*
  0
XRECORD
  5
6678
102
{ACAD_REACTORS
330
6469
102
}
330
6469
100
AcDbXrecord
280
     1
  1
非表示
  1
z*
  1
*
  1
*
 70
     0
  1
*
  1
*
  0
XRECORD
  5
6679
102
{ACAD_REACTORS
330
6469
102
}
330
6469
100
AcDbXrecord
280
     1
  1
非表示層のみ表示
  1
*
  1
*
  1
*
 70
     7
  1
*
  1
*
  0
XRECORD
  5
667A
102
{ACAD_REACTORS
330
6469
102
}
330
6469
100
AcDbXrecord
280
     1
  1
表示
  1
*
  1
*
  1
*
 70
     1
  1
*
  1
*
  0
XRECORD
  5
667B
102
{ACAD_REACTORS
330
6469
102
}
330
6469
100
AcDbXrecord
280
     1
  1
表示-ﾊﾟｼｺﾝ作成画層のみ
  1
ﾊﾟｼｺﾝ*
  1
*
  1
*
 70
     0
  1
*
  1
*
  0
XRECORD
  5
667C
102
{ACAD_REACTORS
330
6469
102
}
330
6469
100
AcDbXrecord
280
     1
  1
表示-近代作成画層のみ
  1
近*
  1
*
  1
*
 70
     0
  1
*
  1
*
  0
XRECORD
  5
667D
102
{ACAD_REACTORS
330
6469
102
}
330
6469
100
AcDbXrecord
280
     1
  1
表示-東電作成画層のみ
  1
東*
  1
*
  1
*
 70
     0
  1
*
  1
*
  0
XRECORD
  5
667E
102
{ACAD_REACTORS
330
6469
102
}
330
6469
100
AcDbXrecord
280
     1
  1
表示-日技作成画層のみ
  1
日*
  1
*
  1
*
 70
     0
  1
*
  1
*
  0
XRECORD
  5
667F
102
{ACAD_REACTORS
330
6469
102
}
330
6469
100
AcDbXrecord
280
     1
  1
表示-福山作成画層のみ
  1
福*
  1
*
  1
*
 70
     0
  1
*
  1
*
  0
XRECORD
  5
6680
102
{ACAD_REACTORS
330
6469
102
}
330
6469
100
AcDbXrecord
280
     1
  1
表示・非表示
  1
*
  1
*
  1
*
 70
     1
  1
*
  1
*
  0
XRECORD
  5
6681
102
{ACAD_REACTORS
330
6469
102
}
330
6469
100
AcDbXrecord
280
     1
  1
表示2
  1
*
  1
*
  1
*
 70
   257
  1
*
  1
*
  0
XRECORD
  5
6682
102
{ACAD_REACTORS
330
6469
102
}
330
6469
100
AcDbXrecord
280
     1
  1
表示層のみ表示
  1
*
  1
*
  1
*
 70
    13
  1
*
  1
*
  0
XRECORD
  5
6683
102
{ACAD_REACTORS
330
6469
102
}
330
6469
100
AcDbXrecord
280
     1
  1
副道
  1
*副*
  1
*
  1
*
 70
     0
  1
*
  1
*
  0
XRECORD
  5
6684
102
{ACAD_REACTORS
330
6469
102
}
330
6469
100
AcDbXrecord
280
     1
  1
分割枠
  1
枠*
  1
*
  1
*
 70
     0
  1
*
  1
*
  0
XRECORD
  5
6685
102
{ACAD_REACTORS
330
6469
102
}
330
6469
100
AcDbXrecord
280
     1
  1
文字
  1
*NAM*
  1
*
  1
*
 70
     0
  1
*
  1
*
  0
XRECORD
  5
6686
102
{ACAD_REACTORS
330
6469
102
}
330
6469
100
AcDbXrecord
280
     1
  1
平詳
  1
****-T
  1
*
  1
*
 70
     0
  1
*
  1
*
  0
XRECORD
  5
6687
102
{ACAD_REACTORS
330
6469
102
}
330
6469
100
AcDbXrecord
280
     1
  1
平詳仕上表1
  1
1_h*3,1_t*2,2_s*2
  1
*
  1
*
 70
     0
  1
*
  1
*
  0
XRECORD
  5
6688
102
{ACAD_REACTORS
330
6469
102
}
330
6469
100
AcDbXrecord
280
     1
  1
平面
  1
*-T
  1
*
  1
*
 70
     0
  1
*
  1
*
  0
XRECORD
  5
6689
102
{ACAD_REACTORS
330
6469
102
}
330
6469
100
AcDbXrecord
280
     1
  1
平面詳細
  1
04*,7*,9*,hojo
  1
*
  1
*
 70
     0
  1
*
  1
*
  0
XRECORD
  5
668A
102
{ACAD_REACTORS
330
6469
102
}
330
6469
100
AcDbXrecord
280
     1
  1
平面詳細図
  1
SUNPO-S,SIZE,HOJO,ZATU,HATCH,HWAKU,HMOJI,WARITUKE-T,WARITUKE-Y,WARITUKE-K,TATEGU1,TATEGU,BR-S,MAJIKIRI,KABE2,SIAGE,KABE1,KABE,KOBARI-S,KOBARI-R,HARI-S,HARI-R,HASIRA-S,HASIRA-R,MOJI,SHITUMEI,LABEL,FL-FUGO,FUGO-W,SUNPO,SUNPO2,SUNPO1,KIJUN2,KIJUN1,KIJUN
  1
*
  1
*
 70
     0
  1
*
  1
*
  0
XRECORD
  5
668B
102
{ACAD_REACTORS
330
6469
102
}
330
6469
100
AcDbXrecord
280
     1
  1
平面図
  1
DSTD_PLN*
  1
*
  1
*
 70
     0
  1
*
  1
*
  0
XRECORD
  5
668C
102
{ACAD_REACTORS
330
6469
102
}
330
6469
100
AcDbXrecord
280
     1
  1
平面図のみ＠1
  1
*
  1
*
  1
*
 70
     1
  1
*
  1
*
  0
XRECORD
  5
668D
102
{ACAD_REACTORS
330
6469
102
}
330
6469
100
AcDbXrecord
280
     1
  1
平面図のみ＠２
  1
*
  1
*
  1
*
 70
     1
  1
*
  1
*
  0
XRECORD
  5
668E
102
{ACAD_REACTORS
330
6469
102
}
330
6469
100
AcDbXrecord
280
     1
  1
平面総合図
  1
001*,002*,004*,010*,013*,014*,015*,016*,017*,018*,019*,020*,021*,030*,031*,034*,040*,045*
  1
*
  1
*
 70
     0
  1
*
  1
*
  0
XRECORD
  5
668F
102
{ACAD_REACTORS
330
6469
102
}
330
6469
100
AcDbXrecord
280
     1
  1
保留
  1
保留*
  1
*
  1
*
 70
     0
  1
*
  1
*
  0
XRECORD
  5
6690
102
{ACAD_REACTORS
330
6469
102
}
330
6469
100
AcDbXrecord
280
     1
  1
補助線
  1
*0
  1
*
  1
*
 70
     0
  1
*
  1
*
  0
XRECORD
  5
6691
102
{ACAD_REACTORS
330
6469
102
}
330
6469
100
AcDbXrecord
280
     1
  1
法規チェック－区画
  1
*92
  1
*
  1
*
 70
     0
  1
*
  1
*
  0
XRECORD
  5
6692
102
{ACAD_REACTORS
330
6469
102
}
330
6469
100
AcDbXrecord
280
     1
  1
法規チェック－範囲
  1
*0
  1
*
  1
*
 70
     0
  1
*
  1
*
  0
XRECORD
  5
6693
102
{ACAD_REACTORS
330
6469
102
}
330
6469
100
AcDbXrecord
280
     1
  1
鳳文字入力
  1
*
  1
*
  1
*
 70
     0
  1
*
  1
*
  0
XRECORD
  5
6694
102
{ACAD_REACTORS
330
6469
102
}
330
6469
100
AcDbXrecord
280
     1
  1
防災
  1
B*
  1
*
  1
*
 70
   768
  1
*
  1
*
  0
XRECORD
  5
6695
102
{ACAD_REACTORS
330
6469
102
}
330
6469
100
AcDbXrecord
280
     1
  1
名称
  1
*名称
  1
*
  1
*
 70
     0
  1
*
  1
*
  0
XRECORD
  5
6696
102
{ACAD_REACTORS
330
6469
102
}
330
6469
100
AcDbXrecord
280
     1
  1
面積
  1
*面積
  1
*
  1
*
 70
     0
  1
*
  1
*
  0
XRECORD
  5
6697
102
{ACAD_REACTORS
330
6469
102
}
330
6469
100
AcDbXrecord
280
     1
  1
立面図
  1
*HOJO2
  1
*
  1
*
 70
     0
  1
*
  1
*
  0
XRECORD
  5
6698
102
{ACAD_REACTORS
330
6469
102
}
330
6469
100
AcDbXrecord
280
     1
  1
梁
  1
0,08*,17*,梁*
  1
*
  1
*
 70
     0
  1
*
  1
*
  0
XRECORD
  5
6699
102
{ACAD_REACTORS
330
6469
102
}
330
6469
100
AcDbXrecord
280
     1
  1
緑
  1
*
  1
Green
  1
*
 70
     0
  1
*
  1
*
  0
ENDSEC
  0
EOF
