  0
SECTION
  2
HEADER
  9
$ACADVER
  1
AC1009
  9
$INSBASE
 10
0.0
 20
0.0
 30
0.0
  9
$EXTMIN
 10
42.521117977196802
 20
41.824819456654552
 30
0.0
  9
$EXTMAX
 10
209.53218980203081
 20
148.393586176827
 30
0.0
  9
$LIMMIN
 10
0.0
 20
0.0
  9
$LIMMAX
 10
10000.0
 20
10000.0
  9
$ORTHOMODE
 70
     1
  9
$REGENMODE
 70
     1
  9
$FILLMODE
 70
     1
  9
$QTEXTMODE
 70
     0
  9
$MIRRTEXT
 70
     1
  9
$DRAGMODE
 70
     2
  9
$LTSCALE
 40
1.0
  9
$OSMODE
 70
    32
  9
$ATTMODE
 70
     1
  9
$TEXTSIZE
 40
2.0
  9
$TRACEWID
 40
1.0
  9
$TEXTSTYLE
  7
AD-STANDARD
  9
$CLAYER
  8
0
  9
$CELTYPE
  6
BYLAYER
  9
$CECOLOR
 62
   256
  9
$DIMSCALE
 40
1.0
  9
$DIMASZ
 40
2.5
  9
$DIMEXO
 40
1.0
  9
$DIMDLI
 40
0.38
  9
$DIMRND
 40
0.0
  9
$DIMDLE
 40
0.0
  9
$DIMEXE
 40
2.0
  9
$DIMTP
 40
0.0
  9
$DIMTM
 40
0.0
  9
$DIMTXT
 40
3.5
  9
$DIMCEN
 40
-2.0
  9
$DIMTSZ
 40
0.0
  9
$DIMTOL
 70
     0
  9
$DIMLIM
 70
     0
  9
$DIMTIH
 70
     0
  9
$DIMTOH
 70
     0
  9
$DIMSE1
 70
     0
  9
$DIMSE2
 70
     0
  9
$DIMTAD
 70
     1
  9
$DIMZIN
 70
     8
  9
$DIMBLK
  1

  9
$DIMASO
 70
     1
  9
$DIMSHO
 70
     1
  9
$DIMPOST
  1

  9
$DIMAPOST
  1

  9
$DIMALT
 70
     0
  9
$DIMALTD
 70
     2
  9
$DIMALTF
 40
25.399999999999999
  9
$DIMLFAC
 40
1.0
  9
$DIMTOFL
 70
     1
  9
$DIMTVP
 40
0.0
  9
$DIMTIX
 70
     0
  9
$DIMSOXD
 70
     0
  9
$DIMSAH
 70
     0
  9
$DIMBLK1
  1

  9
$DIMBLK2
  1

  9
$DIMSTYLE
  2
AD-STANDARD
  9
$DIMCLRD
 70
     9
  9
$DIMCLRE
 70
     9
  9
$DIMCLRT
 70
     2
  9
$DIMTFAC
 40
1.0
  9
$DIMGAP
 40
0.5
  9
$LUNITS
 70
     2
  9
$LUPREC
 70
     4
  9
$SKETCHINC
 40
1.0
  9
$FILLETRAD
 40
0.5
  9
$AUNITS
 70
     0
  9
$AUPREC
 70
     0
  9
$MENU
  1
.
  9
$ELEVATION
 40
0.0
  9
$PELEVATION
 40
0.0
  9
$THICKNESS
 40
0.0
  9
$LIMCHECK
 70
     0
  9
$BLIPMODE
 70
     0
  9
$CHAMFERA
 40
0.0
  9
$CHAMFERB
 40
0.0
  9
$SKPOLY
 70
     0
  9
$TDCREATE
 40
2451428.3861848381
  9
$TDUPDATE
 40
2453973.8255004738
  9
$TDINDWG
 40
2.3206998957999998
  9
$TDUSRTIMER
 40
2.3206998957999998
  9
$USRTIMER
 70
     1
  9
$ANGBASE
 50
0.0
  9
$ANGDIR
 70
     0
  9
$PDMODE
 70
     0
  9
$PDSIZE
 40
0.0
  9
$PLINEWID
 40
0.0
  9
$COORDS
 70
     1
  9
$SPLFRAME
 70
     0
  9
$SPLINETYPE
 70
     6
  9
$SPLINESEGS
 70
     8
  9
$ATTDIA
 70
     0
  9
$ATTREQ
 70
     1
  9
$HANDLING
 70
 10241
  9
$HANDSEED
  5
6E62
  9
$SURFTAB1
 70
     6
  9
$SURFTAB2
 70
     6
  9
$SURFTYPE
 70
     6
  9
$SURFU
 70
     6
  9
$SURFV
 70
     6
  9
$UCSNAME
  2

  9
$UCSORG
 10
0.0
 20
0.0
 30
0.0
  9
$UCSXDIR
 10
1.0
 20
0.0
 30
0.0
  9
$UCSYDIR
 10
0.0
 20
1.0
 30
0.0
  9
$PUCSNAME
  2

  9
$PUCSORG
 10
0.0
 20
0.0
 30
0.0
  9
$PUCSXDIR
 10
1.0
 20
0.0
 30
0.0
  9
$PUCSYDIR
 10
0.0
 20
1.0
 30
0.0
  9
$USERI1
 70
     0
  9
$USERI2
 70
     0
  9
$USERI3
 70
     0
  9
$USERI4
 70
     0
  9
$USERI5
 70
     0
  9
$USERR1
 40
0.0
  9
$USERR2
 40
0.0
  9
$USERR3
 40
0.0
  9
$USERR4
 40
0.0
  9
$USERR5
 40
0.0
  9
$WORLDVIEW
 70
     1
  9
$SHADEDGE
 70
     3
  9
$SHADEDIF
 70
    70
  9
$TILEMODE
 70
     1
  9
$MAXACTVP
 70
    16
  9
$PLIMCHECK
 70
     0
  9
$PEXTMIN
 10
20.000000000000028
 20
16.99999999999994
 30
0.0
  9
$PEXTMAX
 10
404.99999999999977
 20
281.99999999999989
 30
0.0
  9
$PLIMMIN
 10
-5.789093017578125
 20
-5.8314166069030762
  9
$PLIMMAX
 10
414.19989013671869
 20
291.13690614700312
  9
$UNITMODE
 70
     0
  9
$VISRETAIN
 70
     0
  9
$PLINEGEN
 70
     0
  9
$PSLTSCALE
 70
     0
  0
ENDSEC
  0
SECTION
  2
TABLES
  0
TABLE
  2
VPORT
 70
     8
  0
VPORT
  2
*ACTIVE
 70
     0
 10
0.0
 20
0.0
 11
1.0
 21
1.0
 12
144.8498287903638
 22
107.1391835052877
 13
0.0
 23
0.0
 14
168.0
 24
168.0
 15
0.0
 25
0.0
 16
0.0
 26
0.0
 36
1.0
 17
0.0
 27
0.0
 37
0.0
 40
276.10893801862341
 41
1.6020806241872561
 42
50.0
 43
0.0
 44
0.0
 50
0.0
 51
0.0
 71
     0
 72
   100
 73
     1
 74
     0
 75
     0
 76
     0
 77
     0
 78
     1
  0
ENDTAB
  0
TABLE
  2
LTYPE
 70
     3
  0
LTYPE
  2
CONTINUOUS
 70
     0
  3
Solid line
 72
    65
 73
     0
 40
0.0
  0
LTYPE
  2
HIDDEN
 70
     0
  3
__ __ __ __ __ __ __ __ __ __ __ __ __ __ __ __
 72
    65
 73
     2
 40
0.375
 49
0.25
 49
-0.125
  0
ENDTAB
  0
TABLE
  2
LAYER
 70
     6
  0
LAYER
  2
0
 70
     0
 62
     7
  6
CONTINUOUS
  0
LAYER
  2
DEFPOINTS
 70
     0
 62
     7
  6
CONTINUOUS
  0
LAYER
  2
1
 70
     0
 62
     7
  6
CONTINUOUS
  0
ENDTAB
  0
TABLE
  2
STYLE
 70
     5
  0
STYLE
  2
STANDARD
 70
     0
 40
0.0
 41
0.8
 50
0.0
 71
     0
 42
84.175084175084166
  3
TXT
  4
bigfont.shx
  0
STYLE
  2
AD-STANDARD
 70
     0
 40
0.0
 41
0.8
 50
0.0
 71
     0
 42
2.0
  3
C:\Program Files\AutoCAD LT\romans.shx
  4
bigfont.shx
  0
ENDTAB
  0
TABLE
  2
VIEW
 70
     0
  0
ENDTAB
  0
TABLE
  2
UCS
 70
     0
  0
ENDTAB
  0
TABLE
  2
APPID
 70
     5
  0
APPID
  2
ACAD
 70
     0
  0
APPID
  2
CONTENTTABDATA
 70
     0
  0
APPID
  2
CONTENTCURRENTTAB
 70
     0
  0
APPID
  2
CONTENTBLOCKDESCRIPTION
 70
     0
  0
APPID
  2
CONTENTBLOCKICON
 70
     0
  0
ENDTAB
  0
TABLE
  2
DIMSTYLE
 70
     2
  0
DIMSTYLE
  2
STANDARD
 70
     0
  3

  4

  5

  6

  7

 40
1.0
 41
0.18
 42
0.0625
 43
0.38
 44
0.18
 45
0.0
 46
0.0
 47
0.0
 48
0.0
140
0.18
141
0.09
142
0.0
143
25.399999999999999
144
1.0
145
0.0
146
1.0
147
0.09
 71
     0
 72
     0
 73
     1
 74
     1
 75
     0
 76
     0
 77
     0
 78
     0
170
     0
171
     2
172
     0
173
     0
174
     0
175
     0
176
     0
177
     0
178
     0
  0
DIMSTYLE
  2
AD-STANDARD
 70
     0
  3

  4

  5

  6

  7

 40
1.0
 41
2.5
 42
1.0
 43
0.38
 44
2.0
 45
0.0
 46
0.0
 47
0.0
 48
0.0
140
3.5
141
-2.0
142
0.0
143
25.399999999999999
144
1.0
145
0.0
146
1.0
147
0.5
 71
     0
 72
     0
 73
     0
 74
     0
 75
     0
 76
     0
 77
     1
 78
     8
170
     0
171
     2
172
     1
173
     0
174
     0
175
     0
176
     9
177
     9
178
     2
  0
ENDTAB
  0
ENDSEC
  0
SECTION
  2
BLOCKS
  0
BLOCK
  8
0
  2
$MODEL_SPACE
 70
     0
 10
0.0
 20
0.0
 30
0.0
  3
$MODEL_SPACE
  1

  0
ENDBLK
  5
1C
  8
0
  0
BLOCK
 67
     1
  8
0
  2
$PAPER_SPACE
 70
     0
 10
0.0
 20
0.0
 30
0.0
  3
$PAPER_SPACE
  1

  0
ENDBLK
  5
19
 67
     1
  8
0
  0
BLOCK
  8
0
  2
*U14
 70
     1
 10
0.0
 20
0.0
 30
0.0
  3
*U14
  1

  0
LINE
  5
6E29
  8
0
 10
72.5
 20
17.0
 30
0.0
 11
105.7
 21
17.0
 31
0.0
  0
TEXT
  5
6E2A
  8
0
 10
72.5
 20
17.5
 30
0.0
 40
2.5
  1
 次の寸法は適用範囲外とする｡
 41
0.8
  7
AD-STANDARD
  0
LINE
  5
6E2B
  8
0
 10
72.5
 20
12.83333333333333
 30
0.0
 11
92.157142857142858
 21
12.83333333333333
 31
0.0
  0
TEXT
  5
6E2C
  8
0
 10
72.5
 20
13.33333333333333
 30
0.0
 40
2.5
  1
  1.突起部の寸法
 41
0.8
  7
AD-STANDARD
  0
LINE
  5
6E2D
  8
0
 10
72.5
 20
8.6666666666666679
 30
0.0
 11
106.55714285714279
 21
8.6666666666666679
 31
0.0
  0
TEXT
  5
6E2E
  8
0
 10
72.5
 20
9.1666666666666679
 30
0.0
 40
2.5
  1
  2.塗装等の表面処理面の寸法
 41
0.8
  7
AD-STANDARD
  0
LINE
  5
6E2F
  8
0
 10
72.5
 20
4.5
 30
0.0
 11
99.357142857142861
 21
4.5
 31
0.0
  0
TEXT
  5
6E30
  8
0
 10
72.5
 20
5.0
 30
0.0
 40
2.5
  1
  3.組立て部の合計寸法
 41
0.8
  7
AD-STANDARD
  0
LINE
  5
6E31
  8
0
 10
72.5
 20
0.3333333333333357
 30
0.0
 11
96.957142857142856
 21
0.3333333333333357
 31
0.0
  0
TEXT
  5
6E32
  8
0
 10
72.5
 20
0.8333333333333357
 30
0.0
 40
2.5
  1
  4.面取り部分の寸法
 41
0.8
  7
AD-STANDARD
  0
ENDBLK
  5
6E34
  8
0
  0
BLOCK
  8
0
  2
*U15
 70
     1
 10
0.0
 20
0.0
 30
0.0
  3
*U15
  1

  0
TEXT
  5
6E5E
  8
0
 10
158.6398652644728
 20
160.0542895045275
 30
0.0
 40
3.5
  1
Direction of Load
 41
0.8
  7
AD-STANDARD
  0
TEXT
  5
6E5F
  8
0
 10
158.6398652644728
 20
153.5542895045275
 30
0.0
 40
3.5
  1
(Positive output)
 41
0.8
  7
AD-STANDARD
  0
ENDBLK
  5
6E61
  8
0
  0
ENDSEC
  0
SECTION
  2
ENTITIES
  0
CIRCLE
  5
5EA0
  8
1
 10
164.5321898020299
 20
58.824819456654552
 30
0.0
 40
13.5
  0
LINE
  5
5EA7
  8
1
 10
79.532189802029052
 20
148.393586176827
 30
0.0
 11
209.5321898020299
 21
148.393586176827
 31
0.0
  0
LINE
  5
5EA8
  8
1
 10
79.532189802029052
 20
116.393586176827
 30
0.0
 11
209.5321898020299
 21
116.393586176827
 31
0.0
  0
LINE
  5
5EA9
  8
1
 10
139.532189802029
 20
43.824819456654552
 30
0.0
 11
209.5321898020299
 21
43.824819456654552
 31
0.0
  0
LINE
  5
5EAA
  8
1
 10
79.532189802029052
 20
73.824819456654552
 30
0.0
 11
209.5321898020299
 21
73.824819456655462
 31
0.0
  0
LINE
  5
5EB3
  8
1
 10
79.532189802029052
 20
116.39358617682601
 30
0.0
 11
79.532189802029052
 21
148.393586176827
 31
0.0
  0
CIRCLE
  5
5EB4
  8
1
 10
108.0321898020308
 20
58.824819456655462
 30
0.0
 40
13.5
  0
LINE
  5
5EB9
  8
1
 10
79.532189802029052
 20
41.824819456654552
 30
0.0
 11
137.532189802029
 21
41.824819456654552
 31
0.0
  0
LINE
  5
5EC8
  8
1
 10
79.532189802029052
 20
41.824819456654552
 30
0.0
 11
79.532189802029052
 21
73.824819456654552
 31
0.0
  0
LINE
  5
5EC9
  8
1
 10
137.532189802029
 20
41.824819456655447
 30
0.0
 11
139.5321898020299
 21
43.824819456654552
 31
0.0
  0
CIRCLE
  5
5EE1
  8
1
 10
95.532189802029038
 20
132.39358617682689
 30
0.0
 40
7.0
  0
CIRCLE
  5
5EE7
  8
1
 10
120.532189802029
 20
132.39358617682689
 30
0.0
 40
7.0
  0
CIRCLE
  5
5EEC
  8
1
 10
196.532189802029
 20
132.39358617682689
 30
0.0
 40
10.5
  0
LINE
  5
5EF3
  8
1
 10
209.532189802029
 20
116.393586176827
 30
0.0
 11
209.5321898020299
 21
148.393586176827
 31
0.0
  0
LINE
  5
5EF6
  8
1
  6
HIDDEN
 10
186.03218980202811
 20
58.824819456654552
 30
0.0
 11
207.03218980202811
 21
58.824819456654552
 31
0.0
  0
LINE
  5
5EF7
  8
1
  6
HIDDEN
 10
186.03218980202811
 20
58.824819456654552
 30
0.0
 11
186.03218980202811
 21
73.824819456655462
 31
0.0
  0
LINE
  5
5EF8
  8
1
  6
HIDDEN
 10
207.0321898020272
 20
58.824819456654552
 30
0.0
 11
207.03218980202811
 21
73.824819456656371
 31
0.0
  0
LINE
  5
5F05
  8
1
  6
HIDDEN
 10
190.532189802029
 20
43.824819456653643
 30
0.0
 11
191.5321898020272
 21
44.824819456650907
 31
0.0
  0
LINE
  5
5F06
  8
1
  6
HIDDEN
 10
202.532189802029
 20
43.824819456653643
 30
0.0
 11
201.53218980203081
 21
44.824819456650907
 31
0.0
  0
LINE
  5
5F07
  8
1
  6
HIDDEN
 10
191.53218980202811
 20
44.824819456651817
 30
0.0
 11
201.532189802029
 21
44.824819456652733
 31
0.0
  0
LINE
  5
5F08
  8
1
  6
HIDDEN
 10
191.53218980202811
 20
57.824819456657281
 30
0.0
 11
201.532189802029
 21
57.824819456656371
 31
0.0
  0
LINE
  5
5F09
  8
1
  6
HIDDEN
 10
202.532189802029
 20
58.824819456655462
 30
0.0
 11
201.53218980203081
 21
57.82481945665819
 31
0.0
  0
LINE
  5
5F0A
  8
1
  6
HIDDEN
 10
190.532189802029
 20
58.824819456655462
 30
0.0
 11
191.5321898020272
 21
57.82481945665819
 31
0.0
  0
LINE
  5
5F0B
  8
1
  6
HIDDEN
 62
     9
 10
202.532189802029
 20
58.824819456655462
 30
0.0
 11
202.5321898020299
 21
43.824819456654552
 31
0.0
  0
LINE
  5
5F0C
  8
1
  6
HIDDEN
 10
201.532189802029
 20
57.824819456656371
 30
0.0
 11
201.532189802029
 21
44.824819456652733
 31
0.0
  0
LINE
  5
5F0D
  8
1
  6
HIDDEN
 10
191.53218980202811
 20
57.824819456657281
 30
0.0
 11
191.5321898020299
 21
44.824819456651817
 31
0.0
  0
LINE
  5
5F0E
  8
1
  6
HIDDEN
 62
     9
 10
190.532189802029
 20
58.824819456655462
 30
0.0
 11
190.532189802029
 21
43.824819456654552
 31
0.0
  0
LINE
  5
5F10
  8
1
 10
209.53218980203081
 20
43.824819456654552
 30
0.0
 11
209.5321898020299
 21
73.824819456655462
 31
0.0
  0
CIRCLE
  5
5F14
  8
1
 10
196.532189802029
 20
132.39358617682689
 30
0.0
 40
5.0
  0
CIRCLE
  5
5F15
  8
1
 62
     9
 10
196.532189802029
 20
132.39358617682689
 30
0.0
 40
6.0
  0
LINE
  5
60BB
  8
1
 10
71.532189802028824
 20
126.5897385995335
 30
0.0
 11
71.532189802028824
 21
116.1974337541202
 31
0.0
  0
LINE
  5
60BC
  8
1
 10
77.532189802029052
 20
128.3217894071025
 30
0.0
 11
77.532189802029052
 21
114.4653829465514
 31
0.0
  0
LINE
  5
60BD
  8
1
 10
72.532189802029052
 20
128.32178940710281
 30
0.0
 11
77.532189802028824
 21
128.3217894071025
 31
0.0
  0
LINE
  5
60BE
  8
1
 10
72.532189802029052
 20
124.85768779196459
 30
0.0
 11
77.532189802028824
 21
124.85768779196459
 31
0.0
  0
LINE
  5
60BF
  8
1
 10
72.532189802028583
 20
117.92948456168931
 30
0.0
 11
77.532189802029052
 21
117.92948456168919
 31
0.0
  0
LINE
  5
60C0
  8
1
 10
72.532189802029052
 20
114.4653829465514
 30
0.0
 11
77.532189802029052
 21
114.4653829465514
 31
0.0
  0
LINE
  5
60C1
  8
1
 10
79.532189802029052
 20
125.393586176827
 30
0.0
 11
77.532189802029052
 21
125.393586176827
 31
0.0
  0
LINE
  5
60C2
  8
1
 10
79.532189802029052
 20
117.393586176827
 30
0.0
 11
77.532189802029052
 21
117.393586176827
 31
0.0
  0
LINE
  5
60C4
  8
1
 10
71.532189802028824
 20
126.5897385995335
 30
0.0
 11
72.532189802029052
 21
128.32178940710281
 31
0.0
  0
ARC
  5
60C6
  8
1
 10
78.03218980202746
 20
121.393586176827
 30
0.0
 40
6.4999999999985816
 50
147.7957724960215
 51
212.2042275039789
  0
ARC
  5
60C7
  8
1
 10
73.532189802029279
 20
126.5897385995335
 30
0.0
 40
2.000000000000425
 50
180.00000000000159
 51
239.9999999999979
  0
LINE
  5
60C8
  8
1
 10
71.532189802028824
 20
116.1974337541204
 30
0.0
 11
72.532189802029052
 21
114.4653829465511
 31
0.0
  0
ARC
  5
60C9
  8
1
 10
73.532189802029279
 20
116.1974337541204
 30
0.0
 40
2.000000000000425
 50
120.0000000000021
 51
179.99999999999829
  0
LINE
  5
60CF
  8
1
 10
71.532189802028597
 20
64.824819456654552
 30
0.0
 11
71.532189802028824
 21
52.824819456654552
 31
0.0
  0
LINE
  5
60D7
  8
1
 10
79.532189802029052
 20
54.824819456654552
 30
0.0
 11
77.532189802029052
 21
54.824819456654552
 31
0.0
  0
LINE
  5
60D8
  8
1
 10
79.532189802029052
 20
62.824819456654552
 30
0.0
 11
77.532189802029052
 21
62.824819456654552
 31
0.0
  0
LINE
  5
60D9
  8
1
 10
77.532189802029052
 20
64.824819456654552
 30
0.0
 11
77.532189802029052
 21
52.824819456654552
 31
0.0
  0
LINE
  5
60DA
  8
1
 10
71.532189802028597
 20
64.824819456654552
 30
0.0
 11
77.532189802029052
 21
64.824819456654552
 31
0.0
  0
LINE
  5
60DC
  8
1
 10
72.532189802028824
 20
58.824819456654517
 30
0.0
 11
77.532189802029052
 21
58.824819456654552
 31
0.0
  0
ARC
  5
60DE
  8
1
 10
76.532189802027688
 20
61.824819456654502
 30
0.0
 40
4.9999999999991243
 50
143.1301023541476
 51
216.8698976458513
  0
LINE
  5
60DF
  8
1
 10
71.532189802028597
 20
52.824819456654552
 30
0.0
 11
77.532189802029052
 21
52.824819456654552
 31
0.0
  0
ARC
  5
60E0
  8
1
 10
76.532189802027688
 20
55.824819456654609
 30
0.0
 40
4.9999999999991243
 50
143.13010235414859
 51
216.86989764585229
  0
LINE
  5
60E3
  8
1
 10
71.532189802028824
 20
119.393586176827
 30
0.0
 11
42.521117977197029
 21
119.393586176827
 31
0.0
  0
LINE
  5
60E4
  8
1
 10
71.532189802028824
 20
123.393586176827
 30
0.0
 11
42.521117977197029
 21
123.393586176827
 31
0.0
  0
LINE
  5
60E5
  8
1
 10
71.532189802028597
 20
60.824819456654552
 30
0.0
 11
42.521117977196802
 21
60.824819456654552
 31
0.0
  0
LINE
  5
60E6
  8
1
 10
71.532189802028597
 20
56.824819456654552
 30
0.0
 11
42.521117977196802
 21
56.824819456654552
 31
0.0
  0
VIEWPORT
  5
22
 67
     1
  8
0
 10
203.0819797028991
 20
141.413349395609
 30
0.0
 40
494.11349552137239
 41
308.4198685518956
 68
     1
 69
     1
1001
ACAD
1000
MVIEW
1002
{
1070
    16
1010
0.0
1020
0.0
1030
0.0
1010
0.0
1020
0.0
1030
1.0
1040
0.0
1040
308.4198685518956
1040
203.0819797028991
1040
141.413349395609
1040
50.0
1040
0.0
1040
0.0
1070
     0
1070
   100
1070
     1
1070
     0
1070
     0
1070
     0
1070
     0
1070
     0
1040
0.0
1040
0.0
1040
0.0
1040
1.0
1040
1.0
1040
10.0
1040
10.0
1070
     0
1002
{
1002
}
1002
}
  0
VIEWPORT
  5
2CF
 67
     1
  8
DEFPOINTS
 10
212.49999999999989
 20
149.49999999999989
 30
0.0
 40
384.99999999999977
 41
265.0
 68
     2
 69
     2
1001
ACAD
1000
MVIEW
1002
{
1070
    16
1010
0.0
1020
0.0
1030
0.0
1010
0.0
1020
0.0
1030
1.0
1040
0.0
1040
264.99999991284642
1040
147.6202350888334
1040
93.859543972854894
1040
50.0
1040
0.0
1040
0.0
1070
     0
1070
   100
1070
     1
1070
     0
1070
     0
1070
     0
1070
     0
1070
     1
1040
0.0
1040
0.0
1040
0.0
1040
168.0
1040
168.0
1040
0.0
1040
0.0
1070
     0
1002
{
1002
}
1002
}
  0
ENDSEC
  0
EOF
