  0
SECTION
  2
HEADER
  9
$ACADVER
  1
AC1015
  9
$ACADMAINTVER
 70
     6
  9
$DWGCODEPAGE
  3
ANSI_932
  9
$INSBASE
 10
0.0
 20
0.0
 30
0.0
  9
$EXTMIN
 10
52.17201587959607
 20
34.54912129565286
 30
0.0
  9
$EXTMAX
 10
452.6158738476302
 20
440.1200057448765
 30
0.0
  9
$LIMMIN
 10
0.0
 20
0.0
  9
$LIMMAX
 10
10000.0
 20
10000.0
  9
$ORTHOMODE
 70
     1
  9
$REGENMODE
 70
     1
  9
$FILLMODE
 70
     1
  9
$QTEXTMODE
 70
     0
  9
$MIRRTEXT
 70
     1
  9
$LTSCALE
 40
1.0
  9
$ATTMODE
 70
     1
  9
$TEXTSIZE
 40
2.0
  9
$TRACEWID
 40
1.0
  9
$TEXTSTYLE
  7
AD-STANDARD
  9
$CLAYER
  8
0
  9
$CELTYPE
  6
BYLAYER
  9
$CECOLOR
 62
   256
  9
$CELTSCALE
 40
1.0
  9
$DISPSILH
 70
     0
  9
$DIMSCALE
 40
2.0
  9
$DIMASZ
 40
2.5
  9
$DIMEXO
 40
1.0
  9
$DIMDLI
 40
0.38
  9
$DIMRND
 40
0.0
  9
$DIMDLE
 40
0.0
  9
$DIMEXE
 40
2.0
  9
$DIMTP
 40
0.0
  9
$DIMTM
 40
0.0
  9
$DIMTXT
 40
3.5
  9
$DIMCEN
 40
-2.0
  9
$DIMTSZ
 40
0.0
  9
$DIMTOL
 70
     0
  9
$DIMLIM
 70
     0
  9
$DIMTIH
 70
     0
  9
$DIMTOH
 70
     0
  9
$DIMSE1
 70
     0
  9
$DIMSE2
 70
     0
  9
$DIMTAD
 70
     1
  9
$DIMZIN
 70
     8
  9
$DIMBLK
  1

  9
$DIMASO
 70
     1
  9
$DIMSHO
 70
     1
  9
$DIMPOST
  1

  9
$DIMAPOST
  1

  9
$DIMALT
 70
     0
  9
$DIMALTD
 70
     2
  9
$DIMALTF
 40
25.4
  9
$DIMLFAC
 40
1.0
  9
$DIMTOFL
 70
     1
  9
$DIMTVP
 40
0.0
  9
$DIMTIX
 70
     0
  9
$DIMSOXD
 70
     0
  9
$DIMSAH
 70
     0
  9
$DIMBLK1
  1

  9
$DIMBLK2
  1

  9
$DIMSTYLE
  2
AD-STANDARD
  9
$DIMCLRD
 70
     9
  9
$DIMCLRE
 70
     9
  9
$DIMCLRT
 70
     2
  9
$DIMTFAC
 40
1.0
  9
$DIMGAP
 40
0.5
  9
$DIMJUST
 70
     0
  9
$DIMSD1
 70
     0
  9
$DIMSD2
 70
     0
  9
$DIMTOLJ
 70
     1
  9
$DIMTZIN
 70
     8
  9
$DIMALTZ
 70
     0
  9
$DIMALTTZ
 70
     0
  9
$DIMUPT
 70
     0
  9
$DIMDEC
 70
     4
  9
$DIMTDEC
 70
     4
  9
$DIMALTU
 70
     2
  9
$DIMALTTD
 70
     2
  9
$DIMTXSTY
  7
AD-STANDARD
  9
$DIMAUNIT
 70
     0
  9
$DIMADEC
 70
     0
  9
$DIMALTRND
 40
0.0
  9
$DIMAZIN
 70
     0
  9
$DIMDSEP
 70
    46
  9
$DIMATFIT
 70
     3
  9
$DIMFRAC
 70
     0
  9
$DIMLDRBLK
  1

  9
$DIMLUNIT
 70
     2
  9
$DIMLWD
 70
    -2
  9
$DIMLWE
 70
    -2
  9
$DIMTMOVE
 70
     0
  9
$LUNITS
 70
     2
  9
$LUPREC
 70
     4
  9
$SKETCHINC
 40
1.0
  9
$FILLETRAD
 40
0.5
  9
$AUNITS
 70
     0
  9
$AUPREC
 70
     0
  9
$MENU
  1
.
  9
$ELEVATION
 40
0.0
  9
$PELEVATION
 40
0.0
  9
$THICKNESS
 40
0.0
  9
$LIMCHECK
 70
     0
  9
$CHAMFERA
 40
0.0
  9
$CHAMFERB
 40
0.0
  9
$CHAMFERC
 40
673.4006734006733
  9
$CHAMFERD
 40
0.0
  9
$SKPOLY
 70
     0
  9
$TDCREATE
 40
2451428.386184838
  9
$TDUCREATE
 40
2451428.011184838
  9
$TDUPDATE
 40
2454917.758197349
  9
$TDUUPDATE
 40
2454917.383197349
  9
$TDINDWG
 40
2.1114588079
  9
$TDUSRTIMER
 40
2.1114588079
  9
$USRTIMER
 70
     1
  9
$ANGBASE
 50
0.0
  9
$ANGDIR
 70
     0
  9
$PDMODE
 70
     0
  9
$PDSIZE
 40
0.0
  9
$PLINEWID
 40
0.0
  9
$SPLFRAME
 70
     0
  9
$SPLINETYPE
 70
     6
  9
$SPLINESEGS
 70
     8
  9
$HANDSEED
  5
71DE
  9
$SURFTAB1
 70
     6
  9
$SURFTAB2
 70
     6
  9
$SURFTYPE
 70
     6
  9
$SURFU
 70
     6
  9
$SURFV
 70
     6
  9
$UCSBASE
  2

  9
$UCSNAME
  2

  9
$UCSORG
 10
0.0
 20
0.0
 30
0.0
  9
$UCSXDIR
 10
1.0
 20
0.0
 30
0.0
  9
$UCSYDIR
 10
0.0
 20
1.0
 30
0.0
  9
$UCSORTHOREF
  2

  9
$UCSORTHOVIEW
 70
     0
  9
$UCSORGTOP
 10
0.0
 20
0.0
 30
0.0
  9
$UCSORGBOTTOM
 10
0.0
 20
0.0
 30
0.0
  9
$UCSORGLEFT
 10
0.0
 20
0.0
 30
0.0
  9
$UCSORGRIGHT
 10
0.0
 20
0.0
 30
0.0
  9
$UCSORGFRONT
 10
0.0
 20
0.0
 30
0.0
  9
$UCSORGBACK
 10
0.0
 20
0.0
 30
0.0
  9
$PUCSBASE
  2

  9
$PUCSNAME
  2

  9
$PUCSORG
 10
0.0
 20
0.0
 30
0.0
  9
$PUCSXDIR
 10
1.0
 20
0.0
 30
0.0
  9
$PUCSYDIR
 10
0.0
 20
1.0
 30
0.0
  9
$PUCSORTHOREF
  2

  9
$PUCSORTHOVIEW
 70
     0
  9
$PUCSORGTOP
 10
0.0
 20
0.0
 30
0.0
  9
$PUCSORGBOTTOM
 10
0.0
 20
0.0
 30
0.0
  9
$PUCSORGLEFT
 10
0.0
 20
0.0
 30
0.0
  9
$PUCSORGRIGHT
 10
0.0
 20
0.0
 30
0.0
  9
$PUCSORGFRONT
 10
0.0
 20
0.0
 30
0.0
  9
$PUCSORGBACK
 10
0.0
 20
0.0
 30
0.0
  9
$USERI1
 70
     0
  9
$USERI2
 70
     0
  9
$USERI3
 70
     0
  9
$USERI4
 70
     0
  9
$USERI5
 70
     0
  9
$USERR1
 40
0.0
  9
$USERR2
 40
0.0
  9
$USERR3
 40
0.0
  9
$USERR4
 40
0.0
  9
$USERR5
 40
0.0
  9
$WORLDVIEW
 70
     1
  9
$SHADEDGE
 70
     3
  9
$SHADEDIF
 70
    70
  9
$TILEMODE
 70
     1
  9
$MAXACTVP
 70
    16
  9
$PINSBASE
 10
0.0
 20
0.0
 30
0.0
  9
$PLIMCHECK
 70
     0
  9
$PEXTMIN
 10
20.00000000000003
 20
16.99999999999994
 30
0.0
  9
$PEXTMAX
 10
404.9999999999998
 20
281.9999999999999
 30
0.0
  9
$PLIMMIN
 10
-5.873748779296875
 20
-5.873749732971191
  9
$PLIMMAX
 10
414.0729064941406
 20
291.0522451400757
  9
$UNITMODE
 70
     0
  9
$VISRETAIN
 70
     0
  9
$PLINEGEN
 70
     0
  9
$PSLTSCALE
 70
     0
  9
$TREEDEPTH
 70
  3020
  9
$CMLSTYLE
  2
STANDARD
  9
$CMLJUST
 70
     0
  9
$CMLSCALE
 40
1.0
  9
$PROXYGRAPHICS
 70
     1
  9
$MEASUREMENT
 70
     1
  9
$CELWEIGHT
370
    -1
  9
$ENDCAPS
280
     0
  9
$JOINSTYLE
280
     0
  9
$LWDISPLAY
290
     0
  9
$INSUNITS
 70
     0
  9
$HYPERLINKBASE
  1

  9
$STYLESHEET
  1

  9
$XEDIT
290
     1
  9
$CEPSNTYPE
380
     0
  9
$PSTYLEMODE
290
     1
  9
$FINGERPRINTGUID
  2
{792B2680-90AD-11D4-9803-00E029225608}
  9
$VERSIONGUID
  2
{E28ED04A-5146-4B1F-87C4-40E1B4C65B85}
  9
$EXTNAMES
290
     1
  9
$PSVPSCALE
 40
0.0
  9
$OLESTARTUP
290
     0
  0
ENDSEC
  0
SECTION
  2
CLASSES
  0
CLASS
  1
LWPOLYLINE
  2
AcDbPolyline
  3
AutoCAD 2000
 90
    32768
280
     0
281
     1
  0
CLASS
  1
OLE2FRAME
  2
AcDbOle2Frame
  3
AutoCAD 2000
 90
    32768
280
     0
281
     1
  0
CLASS
  1
ACDBDICTIONARYWDFLT
  2
AcDbDictionaryWithDefault
  3
AutoCAD 2000
 90
        0
280
     0
281
     0
  0
CLASS
  1
ACDBPLACEHOLDER
  2
AcDbPlaceHolder
  3
AutoCAD 2000
 90
        0
280
     0
281
     0
  0
CLASS
  1
LAYOUT
  2
AcDbLayout
  3
AutoCAD 2000
 90
        0
280
     0
281
     0
  0
CLASS
  1
LONG_TRANSACTION
  2
AcDbLongTransaction
  3
AutoCAD 2000
 90
    32768
280
     0
281
     0
  0
CLASS
  1
LWPOLYLINE
  2
AcDbPolyline
  3
AutoCAD 2000
 90
    32768
280
     0
281
     1
  0
CLASS
  1
HATCH
  2
AcDbHatch
  3
AutoCAD 2000
 90
    32768
280
     0
281
     1
  0
CLASS
  1
XRECORD
  2
AcDbXrecord
  3
AutoCAD 2000
 90
    32768
280
     0
281
     0
  0
CLASS
  1
LONG_TRANSACTION
  2
AcDbLongTransaction
  3
AutoCAD 2000
 90
    32768
280
     0
281
     0
  0
CLASS
  1
LWPOLYLINE
  2
AcDbPolyline
  3
AutoCAD 2000
 90
    32768
280
     0
281
     1
  0
CLASS
  1
HATCH
  2
AcDbHatch
  3
AutoCAD 2000
 90
    32768
280
     0
281
     1
  0
CLASS
  1
XRECORD
  2
AcDbXrecord
  3
AutoCAD 2000
 90
    32768
280
     0
281
     0
  0
CLASS
  1
LONG_TRANSACTION
  2
AcDbLongTransaction
  3
AutoCAD 2000
 90
    32768
280
     0
281
     0
  0
CLASS
  1
LWPOLYLINE
  2
AcDbPolyline
  3
AutoCAD 2000
 90
    32768
280
     0
281
     1
  0
CLASS
  1
HATCH
  2
AcDbHatch
  3
AutoCAD 2000
 90
    32768
280
     0
281
     1
  0
CLASS
  1
XRECORD
  2
AcDbXrecord
  3
AutoCAD 2000
 90
    32768
280
     0
281
     0
  0
CLASS
  1
LONG_TRANSACTION
  2
AcDbLongTransaction
  3
AutoCAD 2000
 90
    32768
280
     0
281
     0
  0
CLASS
  1
LWPOLYLINE
  2
AcDbPolyline
  3
AutoCAD 2000
 90
    32768
280
     0
281
     1
  0
CLASS
  1
HATCH
  2
AcDbHatch
  3
AutoCAD 2000
 90
    32768
280
     0
281
     1
  0
CLASS
  1
XRECORD
  2
AcDbXrecord
  3
AutoCAD 2000
 90
    32768
280
     0
281
     0
  0
CLASS
  1
LONG_TRANSACTION
  2
AcDbLongTransaction
  3
AutoCAD 2000
 90
    32768
280
     0
281
     0
  0
CLASS
  1
LWPOLYLINE
  2
AcDbPolyline
  3
AutoCAD 2000
 90
    32768
280
     0
281
     1
  0
CLASS
  1
HATCH
  2
AcDbHatch
  3
AutoCAD 2000
 90
    32768
280
     0
281
     1
  0
CLASS
  1
XRECORD
  2
AcDbXrecord
  3
AutoCAD 2000
 90
    32768
280
     0
281
     0
  0
CLASS
  1
LONG_TRANSACTION
  2
AcDbLongTransaction
  3
AutoCAD 2000
 90
    32768
280
     0
281
     0
  0
CLASS
  1
LWPOLYLINE
  2
AcDbPolyline
  3
AutoCAD 2000
 90
    32768
280
     0
281
     1
  0
CLASS
  1
HATCH
  2
AcDbHatch
  3
AutoCAD 2000
 90
    32768
280
     0
281
     1
  0
CLASS
  1
XRECORD
  2
AcDbXrecord
  3
AutoCAD 2000
 90
    32768
280
     0
281
     0
  0
CLASS
  1
LONG_TRANSACTION
  2
AcDbLongTransaction
  3
AutoCAD 2000
 90
    32768
280
     0
281
     0
  0
CLASS
  1
LWPOLYLINE
  2
AcDbPolyline
  3
AutoCAD 2000
 90
    32768
280
     0
281
     1
  0
CLASS
  1
HATCH
  2
AcDbHatch
  3
AutoCAD 2000
 90
    32768
280
     0
281
     1
  0
CLASS
  1
XRECORD
  2
AcDbXrecord
  3
AutoCAD 2000
 90
    32768
280
     0
281
     0
  0
CLASS
  1
LONG_TRANSACTION
  2
AcDbLongTransaction
  3
AutoCAD 2000
 90
    32768
280
     0
281
     0
  0
CLASS
  1
LWPOLYLINE
  2
AcDbPolyline
  3
AutoCAD 2000
 90
    32768
280
     0
281
     1
  0
CLASS
  1
HATCH
  2
AcDbHatch
  3
AutoCAD 2000
 90
    32768
280
     0
281
     1
  0
CLASS
  1
XRECORD
  2
AcDbXrecord
  3
AutoCAD 2000
 90
    32768
280
     0
281
     0
  0
CLASS
  1
LONG_TRANSACTION
  2
AcDbLongTransaction
  3
AutoCAD 2000
 90
    32768
280
     0
281
     0
  0
CLASS
  1
LWPOLYLINE
  2
AcDbPolyline
  3
AutoCAD 2000
 90
    32768
280
     0
281
     1
  0
CLASS
  1
HATCH
  2
AcDbHatch
  3
AutoCAD 2000
 90
    32768
280
     0
281
     1
  0
CLASS
  1
XRECORD
  2
AcDbXrecord
  3
AutoCAD 2000
 90
    32768
280
     0
281
     0
  0
CLASS
  1
LONG_TRANSACTION
  2
AcDbLongTransaction
  3
AutoCAD 2000
 90
    32768
280
     0
281
     0
  0
CLASS
  1
LWPOLYLINE
  2
AcDbPolyline
  3
AutoCAD 2000
 90
    32768
280
     0
281
     1
  0
CLASS
  1
HATCH
  2
AcDbHatch
  3
AutoCAD 2000
 90
    32768
280
     0
281
     1
  0
CLASS
  1
XRECORD
  2
AcDbXrecord
  3
AutoCAD 2000
 90
    32768
280
     0
281
     0
  0
CLASS
  1
LONG_TRANSACTION
  2
AcDbLongTransaction
  3
AutoCAD 2000
 90
    32768
280
     0
281
     0
  0
CLASS
  1
LWPOLYLINE
  2
AcDbPolyline
  3
AutoCAD 2000
 90
    32768
280
     0
281
     1
  0
CLASS
  1
HATCH
  2
AcDbHatch
  3
AutoCAD 2000
 90
    32768
280
     0
281
     1
  0
CLASS
  1
XRECORD
  2
AcDbXrecord
  3
AutoCAD 2000
 90
    32768
280
     0
281
     0
  0
CLASS
  1
LONG_TRANSACTION
  2
AcDbLongTransaction
  3
AutoCAD 2000
 90
    32768
280
     0
281
     0
  0
CLASS
  1
LWPOLYLINE
  2
AcDbPolyline
  3
AutoCAD 2000
 90
    32768
280
     0
281
     1
  0
CLASS
  1
HATCH
  2
AcDbHatch
  3
AutoCAD 2000
 90
    32768
280
     0
281
     1
  0
CLASS
  1
XRECORD
  2
AcDbXrecord
  3
AutoCAD 2000
 90
    32768
280
     0
281
     0
  0
CLASS
  1
LONG_TRANSACTION
  2
AcDbLongTransaction
  3
AutoCAD 2000
 90
    32768
280
     0
281
     0
  0
CLASS
  1
LWPOLYLINE
  2
AcDbPolyline
  3
AutoCAD 2000
 90
    32768
280
     0
281
     1
  0
CLASS
  1
HATCH
  2
AcDbHatch
  3
AutoCAD 2000
 90
    32768
280
     0
281
     1
  0
CLASS
  1
XRECORD
  2
AcDbXrecord
  3
AutoCAD 2000
 90
    32768
280
     0
281
     0
  0
CLASS
  1
LONG_TRANSACTION
  2
AcDbLongTransaction
  3
AutoCAD 2000
 90
    32768
280
     0
281
     0
  0
CLASS
  1
LWPOLYLINE
  2
AcDbPolyline
  3
AutoCAD 2000
 90
    32768
280
     0
281
     1
  0
CLASS
  1
HATCH
  2
AcDbHatch
  3
AutoCAD 2000
 90
    32768
280
     0
281
     1
  0
CLASS
  1
XRECORD
  2
AcDbXrecord
  3
AutoCAD 2000
 90
    32768
280
     0
281
     0
  0
CLASS
  1
LONG_TRANSACTION
  2
AcDbLongTransaction
  3
AutoCAD 2000
 90
    32768
280
     0
281
     0
  0
CLASS
  1
LWPOLYLINE
  2
AcDbPolyline
  3
AutoCAD 2000
 90
    32768
280
     0
281
     1
  0
CLASS
  1
HATCH
  2
AcDbHatch
  3
AutoCAD 2000
 90
    32768
280
     0
281
     1
  0
CLASS
  1
XRECORD
  2
AcDbXrecord
  3
AutoCAD 2000
 90
    32768
280
     0
281
     0
  0
CLASS
  1
LONG_TRANSACTION
  2
AcDbLongTransaction
  3
AutoCAD 2000
 90
    32768
280
     0
281
     0
  0
CLASS
  1
LWPOLYLINE
  2
AcDbPolyline
  3
AutoCAD 2000
 90
    32768
280
     0
281
     1
  0
CLASS
  1
HATCH
  2
AcDbHatch
  3
AutoCAD 2000
 90
    32768
280
     0
281
     1
  0
CLASS
  1
XRECORD
  2
AcDbXrecord
  3
AutoCAD 2000
 90
    32768
280
     0
281
     0
  0
CLASS
  1
LONG_TRANSACTION
  2
AcDbLongTransaction
  3
AutoCAD 2000
 90
    32768
280
     0
281
     0
  0
CLASS
  1
LWPOLYLINE
  2
AcDbPolyline
  3
AutoCAD 2000
 90
    32768
280
     0
281
     1
  0
CLASS
  1
HATCH
  2
AcDbHatch
  3
AutoCAD 2000
 90
    32768
280
     0
281
     1
  0
CLASS
  1
XRECORD
  2
AcDbXrecord
  3
AutoCAD 2000
 90
    32768
280
     0
281
     0
  0
CLASS
  1
LONG_TRANSACTION
  2
AcDbLongTransaction
  3
AutoCAD 2000
 90
    32768
280
     0
281
     0
  0
CLASS
  1
LWPOLYLINE
  2
AcDbPolyline
  3
AutoCAD 2000
 90
    32768
280
     0
281
     1
  0
CLASS
  1
HATCH
  2
AcDbHatch
  3
AutoCAD 2000
 90
    32768
280
     0
281
     1
  0
CLASS
  1
XRECORD
  2
AcDbXrecord
  3
AutoCAD 2000
 90
    32768
280
     0
281
     0
  0
CLASS
  1
LONG_TRANSACTION
  2
AcDbLongTransaction
  3
AutoCAD 2000
 90
    32768
280
     0
281
     0
  0
CLASS
  1
LWPOLYLINE
  2
AcDbPolyline
  3
AutoCAD 2000
 90
    32768
280
     0
281
     1
  0
CLASS
  1
HATCH
  2
AcDbHatch
  3
AutoCAD 2000
 90
    32768
280
     0
281
     1
  0
CLASS
  1
XRECORD
  2
AcDbXrecord
  3
AutoCAD 2000
 90
    32768
280
     0
281
     0
  0
CLASS
  1
LONG_TRANSACTION
  2
AcDbLongTransaction
  3
AutoCAD 2000
 90
    32768
280
     0
281
     0
  0
CLASS
  1
LWPOLYLINE
  2
AcDbPolyline
  3
AutoCAD 2000
 90
    32768
280
     0
281
     1
  0
CLASS
  1
HATCH
  2
AcDbHatch
  3
AutoCAD 2000
 90
    32768
280
     0
281
     1
  0
CLASS
  1
XRECORD
  2
AcDbXrecord
  3
AutoCAD 2000
 90
    32768
280
     0
281
     0
  0
CLASS
  1
LONG_TRANSACTION
  2
AcDbLongTransaction
  3
AutoCAD 2000
 90
    32768
280
     0
281
     0
  0
CLASS
  1
LWPOLYLINE
  2
AcDbPolyline
  3
AutoCAD 2000
 90
    32768
280
     0
281
     1
  0
CLASS
  1
HATCH
  2
AcDbHatch
  3
AutoCAD 2000
 90
    32768
280
     0
281
     1
  0
CLASS
  1
XRECORD
  2
AcDbXrecord
  3
AutoCAD 2000
 90
    32768
280
     0
281
     0
  0
CLASS
  1
LONG_TRANSACTION
  2
AcDbLongTransaction
  3
AutoCAD 2000
 90
    32768
280
     0
281
     0
  0
CLASS
  1
LWPOLYLINE
  2
AcDbPolyline
  3
AutoCAD 2000
 90
    32768
280
     0
281
     1
  0
CLASS
  1
HATCH
  2
AcDbHatch
  3
AutoCAD 2000
 90
    32768
280
     0
281
     1
  0
CLASS
  1
XRECORD
  2
AcDbXrecord
  3
AutoCAD 2000
 90
    32768
280
     0
281
     0
  0
CLASS
  1
LONG_TRANSACTION
  2
AcDbLongTransaction
  3
AutoCAD 2000
 90
    32768
280
     0
281
     0
  0
CLASS
  1
LWPOLYLINE
  2
AcDbPolyline
  3
AutoCAD 2000
 90
    32768
280
     0
281
     1
  0
CLASS
  1
HATCH
  2
AcDbHatch
  3
AutoCAD 2000
 90
    32768
280
     0
281
     1
  0
CLASS
  1
XRECORD
  2
AcDbXrecord
  3
AutoCAD 2000
 90
    32768
280
     0
281
     0
  0
CLASS
  1
LONG_TRANSACTION
  2
AcDbLongTransaction
  3
AutoCAD 2000
 90
    32768
280
     0
281
     0
  0
CLASS
  1
LWPOLYLINE
  2
AcDbPolyline
  3
AutoCAD 2000
 90
    32768
280
     0
281
     1
  0
CLASS
  1
HATCH
  2
AcDbHatch
  3
AutoCAD 2000
 90
    32768
280
     0
281
     1
  0
CLASS
  1
XRECORD
  2
AcDbXrecord
  3
AutoCAD 2000
 90
    32768
280
     0
281
     0
  0
CLASS
  1
LONG_TRANSACTION
  2
AcDbLongTransaction
  3
AutoCAD 2000
 90
    32768
280
     0
281
     0
  0
CLASS
  1
LWPOLYLINE
  2
AcDbPolyline
  3
AutoCAD 2000
 90
    32768
280
     0
281
     1
  0
CLASS
  1
HATCH
  2
AcDbHatch
  3
AutoCAD 2000
 90
    32768
280
     0
281
     1
  0
CLASS
  1
XRECORD
  2
AcDbXrecord
  3
AutoCAD 2000
 90
    32768
280
     0
281
     0
  0
CLASS
  1
LONG_TRANSACTION
  2
AcDbLongTransaction
  3
AutoCAD 2000
 90
    32768
280
     0
281
     0
  0
CLASS
  1
LWPOLYLINE
  2
AcDbPolyline
  3
AutoCAD 2000
 90
    32768
280
     0
281
     1
  0
CLASS
  1
HATCH
  2
AcDbHatch
  3
AutoCAD 2000
 90
    32768
280
     0
281
     1
  0
CLASS
  1
XRECORD
  2
AcDbXrecord
  3
AutoCAD 2000
 90
    32768
280
     0
281
     0
  0
CLASS
  1
LONG_TRANSACTION
  2
AcDbLongTransaction
  3
AutoCAD 2000
 90
    32768
280
     0
281
     0
  0
CLASS
  1
LWPOLYLINE
  2
AcDbPolyline
  3
AutoCAD 2000
 90
    32768
280
     0
281
     1
  0
CLASS
  1
HATCH
  2
AcDbHatch
  3
AutoCAD 2000
 90
    32768
280
     0
281
     1
  0
CLASS
  1
XRECORD
  2
AcDbXrecord
  3
AutoCAD 2000
 90
    32768
280
     0
281
     0
  0
CLASS
  1
LONG_TRANSACTION
  2
AcDbLongTransaction
  3
AutoCAD 2000
 90
    32768
280
     0
281
     0
  0
CLASS
  1
LWPOLYLINE
  2
AcDbPolyline
  3
AutoCAD 2000
 90
    32768
280
     0
281
     1
  0
CLASS
  1
HATCH
  2
AcDbHatch
  3
AutoCAD 2000
 90
    32768
280
     0
281
     1
  0
CLASS
  1
XRECORD
  2
AcDbXrecord
  3
AutoCAD 2000
 90
    32768
280
     0
281
     0
  0
CLASS
  1
LONG_TRANSACTION
  2
AcDbLongTransaction
  3
AutoCAD 2000
 90
    32768
280
     0
281
     0
  0
CLASS
  1
LWPOLYLINE
  2
AcDbPolyline
  3
AutoCAD 2000
 90
    32768
280
     0
281
     1
  0
CLASS
  1
HATCH
  2
AcDbHatch
  3
AutoCAD 2000
 90
    32768
280
     0
281
     1
  0
CLASS
  1
XRECORD
  2
AcDbXrecord
  3
AutoCAD 2000
 90
    32768
280
     0
281
     0
  0
CLASS
  1
LONG_TRANSACTION
  2
AcDbLongTransaction
  3
AutoCAD 2000
 90
    32768
280
     0
281
     0
  0
CLASS
  1
LWPOLYLINE
  2
AcDbPolyline
  3
AutoCAD 2000
 90
    32768
280
     0
281
     1
  0
CLASS
  1
HATCH
  2
AcDbHatch
  3
AutoCAD 2000
 90
    32768
280
     0
281
     1
  0
CLASS
  1
XRECORD
  2
AcDbXrecord
  3
AutoCAD 2000
 90
    32768
280
     0
281
     0
  0
CLASS
  1
LONG_TRANSACTION
  2
AcDbLongTransaction
  3
AutoCAD 2000
 90
    32768
280
     0
281
     0
  0
CLASS
  1
LWPOLYLINE
  2
AcDbPolyline
  3
AutoCAD 2000
 90
    32768
280
     0
281
     1
  0
CLASS
  1
HATCH
  2
AcDbHatch
  3
AutoCAD 2000
 90
    32768
280
     0
281
     1
  0
CLASS
  1
XRECORD
  2
AcDbXrecord
  3
AutoCAD 2000
 90
    32768
280
     0
281
     0
  0
CLASS
  1
LONG_TRANSACTION
  2
AcDbLongTransaction
  3
AutoCAD 2000
 90
    32768
280
     0
281
     0
  0
CLASS
  1
LWPOLYLINE
  2
AcDbPolyline
  3
AutoCAD 2000
 90
    32768
280
     0
281
     1
  0
CLASS
  1
HATCH
  2
AcDbHatch
  3
AutoCAD 2000
 90
    32768
280
     0
281
     1
  0
CLASS
  1
XRECORD
  2
AcDbXrecord
  3
AutoCAD 2000
 90
    32768
280
     0
281
     0
  0
CLASS
  1
LONG_TRANSACTION
  2
AcDbLongTransaction
  3
AutoCAD 2000
 90
    32768
280
     0
281
     0
  0
CLASS
  1
LWPOLYLINE
  2
AcDbPolyline
  3
AutoCAD 2000
 90
    32768
280
     0
281
     1
  0
CLASS
  1
HATCH
  2
AcDbHatch
  3
AutoCAD 2000
 90
    32768
280
     0
281
     1
  0
CLASS
  1
XRECORD
  2
AcDbXrecord
  3
AutoCAD 2000
 90
    32768
280
     0
281
     0
  0
ENDSEC
  0
SECTION
  2
TABLES
  0
TABLE
  2
VPORT
  5
8
330
0
100
AcDbSymbolTable
 70
     3
  0
VPORT
  5
71DD
330
8
100
AcDbSymbolTableRecord
100
AcDbViewportTableRecord
  2
*Active
 70
     0
 10
0.0
 20
0.0
 11
1.0
 21
1.0
 12
226.4972525559873
 22
236.4316983458479
 13
0.0
 23
0.0
 14
168.0
 24
168.0
 15
0.0
 25
0.0
 16
0.0
 26
0.0
 36
1.0
 17
0.0
 27
0.0
 37
0.0
 40
483.3698658944269
 41
1.621870882740448
 42
50.0
 43
0.0
 44
0.0
 50
0.0
 51
0.0
 71
     0
 72
   100
 73
     1
 74
     0
 75
     0
 76
     0
 77
     0
 78
     1
281
     0
 65
     1
110
0.0
120
0.0
130
0.0
111
1.0
121
0.0
131
0.0
112
0.0
122
1.0
132
0.0
 79
     0
146
0.0
  0
ENDTAB
  0
TABLE
  2
LTYPE
  5
5
330
0
100
AcDbSymbolTable
 70
     3
  0
LTYPE
  5
14
330
5
100
AcDbSymbolTableRecord
100
AcDbLinetypeTableRecord
  2
BYBLOCK
 70
     0
  3

 72
    65
 73
     0
 40
0.0
  0
LTYPE
  5
15
330
5
100
AcDbSymbolTableRecord
100
AcDbLinetypeTableRecord
  2
BYLAYER
 70
     0
  3

 72
    65
 73
     0
 40
0.0
  0
LTYPE
  5
16
330
5
100
AcDbSymbolTableRecord
100
AcDbLinetypeTableRecord
  2
CONTINUOUS
 70
     0
  3
Solid line
 72
    65
 73
     0
 40
0.0
  0
LTYPE
  5
6E
330
5
100
AcDbSymbolTableRecord
100
AcDbLinetypeTableRecord
  2
CENTER
 70
     0
  3
____ _ ____ _ ____ _ ____ _ ____ _ ____ _ ____ 
 72
    65
 73
     4
 40
2.0
 49
1.25
 74
     0
 49
-0.25
 74
     0
 49
0.25
 74
     0
 49
-0.25
 74
     0
  0
LTYPE
  5
6F
330
5
100
AcDbSymbolTableRecord
100
AcDbLinetypeTableRecord
  2
HIDDEN
 70
     0
  3
__ __ __ __ __ __ __ __ __ __ __ __ __ __ __ __
 72
    65
 73
     2
 40
0.375
 49
0.25
 74
     0
 49
-0.125
 74
     0
  0
ENDTAB
  0
TABLE
  2
LAYER
  5
2
330
0
100
AcDbSymbolTable
 70
     7
  0
LAYER
  5
F
330
2
100
AcDbSymbolTableRecord
100
AcDbLayerTableRecord
  2
0
 70
     0
 62
     7
  6
CONTINUOUS
370
    -3
390
F3C
  0
LAYER
  5
72
330
2
100
AcDbSymbolTableRecord
100
AcDbLayerTableRecord
  2
DEFPOINTS
 70
     0
 62
     7
  6
CONTINUOUS
290
     0
370
    -3
390
F3C
  0
LAYER
  5
74
330
2
100
AcDbSymbolTableRecord
100
AcDbLayerTableRecord
  2
CENTER
 70
     0
 62
     9
  6
CENTER
370
    -3
390
F3C
  0
LAYER
  5
71DB
330
2
100
AcDbSymbolTableRecord
100
AcDbLayerTableRecord
  2
1
 70
     0
 62
     7
  6
CONTINUOUS
370
    -3
390
F3C
  0
ENDTAB
  0
TABLE
  2
STYLE
  5
3
330
0
100
AcDbSymbolTable
 70
     5
  0
STYLE
  5
10
330
3
100
AcDbSymbolTableRecord
100
AcDbTextStyleTableRecord
  2
STANDARD
 70
     0
 40
0.0
 41
0.8
 50
0.0
 71
     0
 42
84.17508417508416
  3
TXT
  4
bigfont.shx
  0
STYLE
  5
63
330
3
100
AcDbSymbolTableRecord
100
AcDbTextStyleTableRecord
  2
AD-STANDARD
 70
     0
 40
0.0
 41
0.8
 50
0.0
 71
     0
 42
2.0
  3
C:\Program Files\AutoCAD LT\romans.shx
  4
bigfont.shx
  0
ENDTAB
  0
TABLE
  2
VIEW
  5
6
330
0
100
AcDbSymbolTable
 70
     0
  0
ENDTAB
  0
TABLE
  2
UCS
  5
7
330
0
100
AcDbSymbolTable
 70
     0
  0
ENDTAB
  0
TABLE
  2
APPID
  5
9
330
0
100
AcDbSymbolTable
 70
     5
  0
APPID
  5
11
330
9
100
AcDbSymbolTableRecord
100
AcDbRegAppTableRecord
  2
ACAD
 70
     0
  0
APPID
  5
22A
330
9
100
AcDbSymbolTableRecord
100
AcDbRegAppTableRecord
  2
CONTENTTABDATA
 70
     0
  0
APPID
  5
22B
330
9
100
AcDbSymbolTableRecord
100
AcDbRegAppTableRecord
  2
CONTENTCURRENTTAB
 70
     0
  0
APPID
  5
232
330
9
100
AcDbSymbolTableRecord
100
AcDbRegAppTableRecord
  2
CONTENTBLOCKDESCRIPTION
 70
     0
  0
APPID
  5
233
330
9
100
AcDbSymbolTableRecord
100
AcDbRegAppTableRecord
  2
CONTENTBLOCKICON
 70
     0
  0
ENDTAB
  0
TABLE
  2
DIMSTYLE
  5
A
330
0
100
AcDbSymbolTable
 70
     2
100
AcDbDimStyleTable
 71
     1
340
11BB
  0
DIMSTYLE
105
1D
330
A
100
AcDbSymbolTableRecord
100
AcDbDimStyleTableRecord
  2
STANDARD
 70
     0
340
10
  0
DIMSTYLE
105
11BB
102
{ACAD_REACTORS
330
6BD1
330
6BD2
330
6B19
330
6B1D
330
6B18
330
6C9E
330
6CA0
330
6C3B
330
6C3A
330
6B75
330
6B29
330
6CC2
330
6B3B
330
6B69
330
6B1A
330
6B1B
330
6B1C
330
709F
330
6C16
330
6B7C
330
6B17
102
}
330
A
100
AcDbSymbolTableRecord
100
AcDbDimStyleTableRecord
  2
AD-STANDARD
 70
     0
 40
2.0
 41
2.5
 42
1.0
 44
2.0
 73
     0
 74
     0
 77
     1
 78
     8
140
3.5
141
-2.0
147
0.5
172
     1
176
     9
177
     9
178
     2
284
     8
340
63
  0
ENDTAB
  0
TABLE
  2
BLOCK_RECORD
  5
1
330
0
100
AcDbSymbolTable
 70
    23
  0
BLOCK_RECORD
  5
1A
102
{ACAD_XDICTIONARY
360
F6B
102
}
330
1
100
AcDbSymbolTableRecord
100
AcDbBlockTableRecord
  2
*MODEL_SPACE
340
F3F
  0
BLOCK_RECORD
  5
17
102
{ACAD_XDICTIONARY
360
F69
102
}
330
1
100
AcDbSymbolTableRecord
100
AcDbBlockTableRecord
  2
*PAPER_SPACE
340
F40
  0
ENDTAB
  0
ENDSEC
  0
SECTION
  2
BLOCKS
  0
BLOCK
  5
1B
330
1A
100
AcDbEntity
  8
0
100
AcDbBlockBegin
  2
*MODEL_SPACE
 70
     0
 10
0.0
 20
0.0
 30
0.0
  3
*MODEL_SPACE
  1

  0
ENDBLK
  5
1C
330
1A
100
AcDbEntity
  8
0
100
AcDbBlockEnd
  0
BLOCK
  5
18
330
17
100
AcDbEntity
 67
     1
  8
0
100
AcDbBlockBegin
  2
*PAPER_SPACE
 70
     0
 10
0.0
 20
0.0
 30
0.0
  3
*PAPER_SPACE
  1

  0
ENDBLK
  5
19
330
17
100
AcDbEntity
 67
     1
  8
0
100
AcDbBlockEnd
  0
ENDSEC
  0
SECTION
  2
ENTITIES
  0
LINE
  5
6B20
330
1A
100
AcDbEntity
  8
CENTER
 48
10.0
100
AcDbLine
 10
386.7099723888609
 20
290.8676756438501
 30
0.0
 11
386.7099723888609
 21
304.8209186548349
 31
0.0
  0
LINE
  5
6B21
330
1A
100
AcDbEntity
  8
CENTER
 48
10.0
100
AcDbLine
 10
304.7099723888591
 20
290.8676756438501
 30
0.0
 11
304.7099723888591
 21
304.8209186548349
 31
0.0
  0
CIRCLE
  5
6B22
330
1A
100
AcDbEntity
  8
1
  6
HIDDEN
 48
0.5
100
AcDbCircle
 10
386.7099723888609
 20
297.8442971493425
 30
0.0
 40
5.0
  0
CIRCLE
  5
6B23
330
1A
100
AcDbEntity
  8
1
 62
     9
100
AcDbCircle
 10
386.7099723888609
 20
297.8442971493425
 30
0.0
 40
4.0
  0
CIRCLE
  5
6B24
330
1A
100
AcDbEntity
  8
1
100
AcDbCircle
 10
386.7099723888609
 20
297.8442971493425
 30
0.0
 40
3.299999999999999
  0
CIRCLE
  5
6B25
330
1A
100
AcDbEntity
  8
1
100
AcDbCircle
 10
415.7099723888591
 20
305.8442971493416
 30
0.0
 40
10.0
  0
LINE
  5
6B26
330
1A
100
AcDbEntity
  8
CENTER
 62
     9
100
AcDbLine
 10
415.7099723888591
 20
301.8442971493416
 30
0.0
 11
415.7099723888591
 21
293.8442971493416
 31
0.0
  0
LINE
  5
6B27
330
1A
100
AcDbEntity
  8
CENTER
 48
10.0
100
AcDbLine
 10
345.7099723888591
 20
440.1200057448765
 30
0.0
 11
345.7099723888593
 21
258.8170708636589
 31
0.0
  0
LINE
  5
6B28
330
1A
100
AcDbEntity
  8
1
100
AcDbLine
 10
445.70997238886
 20
430.8442971493424
 30
0.0
 11
445.7099723888582
 21
280.8442971493416
 31
0.0
  0
CIRCLE
  5
6B2A
330
1A
100
AcDbEntity
  8
1
100
AcDbCircle
 10
275.7099723888591
 20
305.8442971493425
 30
0.0
 40
10.0
  0
LINE
  5
6B2B
330
1A
100
AcDbEntity
  8
CENTER
 62
     9
100
AcDbLine
 10
275.7099723888591
 20
301.8442971493425
 30
0.0
 11
275.7099723888591
 21
293.8442971493425
 31
0.0
  0
CIRCLE
  5
6B2C
330
1A
100
AcDbEntity
  8
1
  6
HIDDEN
 48
0.5
100
AcDbCircle
 10
304.7099723888591
 20
297.8442971493425
 30
0.0
 40
5.0
  0
CIRCLE
  5
6B2D
330
1A
100
AcDbEntity
  8
1
 62
     9
100
AcDbCircle
 10
304.7099723888591
 20
297.8442971493425
 30
0.0
 40
4.0
  0
CIRCLE
  5
6B2E
330
1A
100
AcDbEntity
  8
1
100
AcDbCircle
 10
304.7099723888591
 20
297.8442971493425
 30
0.0
 40
3.299999999999999
  0
LINE
  5
6B2F
330
1A
100
AcDbEntity
  8
1
100
AcDbLine
 10
245.7099723888588
 20
430.8442971493416
 30
0.0
 11
245.7099723888588
 21
280.8442971493425
 31
0.0
  0
LINE
  5
6B32
330
1A
100
AcDbEntity
  8
1
100
AcDbLine
 10
245.7099723888591
 20
280.8442971493425
 30
0.0
 11
445.7099723888584
 21
280.8442971493416
 31
0.0
  0
LINE
  5
6B33
330
1A
100
AcDbEntity
  8
1
100
AcDbLine
 10
445.7099723888573
 20
42.32704180408359
 30
0.0
 11
245.7099723888573
 21
42.32704180408449
 31
0.0
  0
LINE
  5
6B34
330
1A
100
AcDbEntity
  8
1
100
AcDbLine
 10
445.7099723888573
 20
54.32704180408359
 30
0.0
 11
245.7099723888573
 21
54.32704180408359
 31
0.0
  0
LINE
  5
6B35
330
1A
100
AcDbEntity
  8
1
100
AcDbLine
 10
245.7099723888609
 20
241.3270418040849
 30
0.0
 11
445.7099723888609
 21
241.327041804084
 31
0.0
  0
LINE
  5
6B36
330
1A
100
AcDbEntity
  8
1
100
AcDbLine
 10
245.7099723888609
 20
229.3270418040849
 30
0.0
 11
445.7099723888609
 21
229.3270418040849
 31
0.0
  0
LINE
  5
6B37
330
1A
100
AcDbEntity
  8
CENTER
 62
     9
 48
10.0
100
AcDbLine
 10
417.9455371608569
 20
150.5270418040961
 30
0.0
 11
282.5299907107969
 21
150.5270418040961
 31
0.0
  0
LINE
  5
6B39
330
1A
100
AcDbEntity
  8
CENTER
 48
10.0
100
AcDbLine
 10
127.1720158795978
 20
36.20112430463018
 30
0.0
 11
127.1720158795978
 21
250.6906890637417
 31
0.0
  0
LINE
  5
6B3C
330
1A
100
AcDbEntity
  8
1
100
AcDbLine
 10
202.172015879596
 20
42.32704180408359
 30
0.0
 11
52.17201587959607
 21
42.32704180408449
 31
0.0
  0
LINE
  5
6B3D
330
1A
100
AcDbEntity
  8
1
100
AcDbLine
 10
202.172015879596
 20
54.32704180408359
 30
0.0
 11
52.17201587959607
 21
54.32704180408359
 31
0.0
  0
LINE
  5
6B3E
330
1A
100
AcDbEntity
  8
1
100
AcDbLine
 10
163.1720158795974
 20
63.32704180408359
 30
0.0
 11
163.1720158795969
 21
54.32704180408359
 31
0.0
  0
LINE
  5
6B3F
330
1A
100
AcDbEntity
  8
1
  6
HIDDEN
 48
5.0
100
AcDbLine
 10
163.1720158795978
 20
89.32704180408995
 30
0.0
 11
162.1720158795978
 21
90.32704180408996
 31
0.0
  0
LINE
  5
6B4A
330
1A
100
AcDbEntity
  8
1
  6
HIDDEN
 48
10.0
100
AcDbLine
 10
163.1720158795978
 20
89.32704180408995
 30
0.0
 11
163.1720158795978
 21
63.32704180408359
 31
0.0
  0
LINE
  5
6B4B
330
1A
100
AcDbEntity
  8
1
  6
HIDDEN
 48
10.0
100
AcDbLine
 10
115.3649353306591
 20
89.32704180408995
 30
0.0
 11
91.17201587959788
 21
89.32704180408995
 31
0.0
  0
LINE
  5
6B4C
330
1A
100
AcDbEntity
  8
1
  6
HIDDEN
 48
10.0
100
AcDbLine
 10
115.3649353306591
 20
89.32704180408995
 30
0.0
 11
118.8904710339529
 21
90.32704180408996
 31
0.0
  0
LINE
  5
6B4D
330
1A
100
AcDbEntity
  8
1
100
AcDbLine
 10
115.3649353306591
 20
63.32704180408359
 30
0.0
 11
115.3649353306591
 21
54.32704180408359
 31
0.0
  0
LINE
  5
6B4E
330
1A
100
AcDbEntity
  8
1
  6
HIDDEN
 48
10.0
100
AcDbLine
 10
91.17201587959788
 20
89.32704180408995
 30
0.0
 11
92.1720158795979
 21
90.32704180408996
 31
0.0
  0
LINE
  5
6B4F
330
1A
100
AcDbEntity
  8
1
100
AcDbLine
 10
91.17201587959835
 20
63.32704180408359
 30
0.0
 11
91.17201587959881
 21
54.32704180408359
 31
0.0
  0
LINE
  5
6B50
330
1A
100
AcDbEntity
  8
1
100
AcDbLine
 10
52.17201587959607
 20
54.32704180408359
 30
0.0
 11
52.17201587959607
 21
48.32704180408359
 31
0.0
  0
LINE
  5
6B51
330
1A
100
AcDbEntity
  8
1
100
AcDbLine
 10
52.17201587959607
 20
48.32704180408359
 30
0.0
 11
52.17201587959607
 21
42.32704180408359
 31
0.0
  0
LINE
  5
6B52
330
1A
100
AcDbEntity
  8
1
  6
HIDDEN
 48
10.0
100
AcDbLine
 10
135.503718759789
 20
90.32704180408996
 30
0.0
 11
139.0292544630701
 21
89.32704180408995
 31
0.0
  0
LINE
  5
6B53
330
1A
100
AcDbEntity
  8
1
100
AcDbLine
 10
139.0292544630699
 20
63.32704180408359
 30
0.0
 11
139.0292544630701
 21
54.32704180408359
 31
0.0
  0
LINE
  5
6B54
330
1A
100
AcDbEntity
  8
1
 62
     9
100
AcDbLine
 10
132.9441438290225
 20
63.32704180408359
 30
0.0
 11
139.0292544630701
 21
54.32704180408359
 31
0.0
  0
LINE
  5
6B55
330
1A
100
AcDbEntity
  8
1
 62
     9
100
AcDbLine
 10
121.4500459647065
 20
63.32704180408359
 30
0.0
 11
115.3649353306591
 21
54.32704180408359
 31
0.0
  0
LINE
  5
6B62
330
1A
100
AcDbEntity
  8
1
  6
HIDDEN
 48
10.0
100
AcDbLine
 10
91.17201587959788
 20
89.32704180408995
 30
0.0
 11
91.17201587959925
 21
63.32704180408359
 31
0.0
  0
LINE
  5
6B63
330
1A
100
AcDbEntity
  8
1
  6
HIDDEN
 62
     9
 48
10.0
100
AcDbLine
 10
121.4500459647069
 20
63.32704180408348
 30
0.0
 11
139.0292544630701
 21
89.32704180408995
 31
0.0
  0
LINE
  5
6B64
330
1A
100
AcDbEntity
  8
1
  6
HIDDEN
 62
     9
 48
10.0
100
AcDbLine
 10
132.9441438290223
 20
63.32704180408348
 30
0.0
 11
115.3649353306591
 21
89.32704180408995
 31
0.0
  0
LINE
  5
6B65
330
1A
100
AcDbEntity
  8
1
  6
HIDDEN
 48
10.0
100
AcDbLine
 10
115.3649353306591
 20
63.32704180408359
 30
0.0
 11
115.3649353306591
 21
89.32704180408995
 31
0.0
  0
LINE
  5
6B66
330
1A
100
AcDbEntity
  8
1
  6
HIDDEN
 48
10.0
100
AcDbLine
 10
139.0292544630699
 20
63.32704180408359
 30
0.0
 11
139.0292544630701
 21
89.32704180408995
 31
0.0
  0
LINE
  5
6B67
330
1A
100
AcDbEntity
  8
1
  6
HIDDEN
 48
10.0
100
AcDbLine
 10
161.1720158795979
 20
90.32704180408996
 30
0.0
 11
92.1720158795979
 21
90.32704180408996
 31
0.0
  0
LINE
  5
6B68
330
1A
100
AcDbEntity
  8
1
  6
HIDDEN
 48
10.0
100
AcDbLine
 10
163.1720158795978
 20
89.32704180408995
 30
0.0
 11
139.0292544630701
 21
89.32704180408995
 31
0.0
  0
LINE
  5
6B6E
330
1A
100
AcDbEntity
  8
1
100
AcDbLine
 10
202.172015879596
 20
54.32704180408359
 30
0.0
 11
202.172015879596
 21
48.32704180408359
 31
0.0
  0
LINE
  5
6B6F
330
1A
100
AcDbEntity
  8
1
100
AcDbLine
 10
202.172015879596
 20
48.32704180408359
 30
0.0
 11
202.1720158795969
 21
42.32704180408268
 31
0.0
  0
LINE
  5
6B70
330
1A
100
AcDbEntity
  8
1
100
AcDbLine
 10
245.7099723888573
 20
54.32704180408359
 30
0.0
 11
245.7099723888573
 21
48.32704180408359
 31
0.0
  0
LINE
  5
6B71
330
1A
100
AcDbEntity
  8
1
100
AcDbLine
 10
245.7099723888573
 20
48.32704180408359
 30
0.0
 11
245.7099723888573
 21
42.32704180408359
 31
0.0
  0
LINE
  5
6B72
330
1A
100
AcDbEntity
  8
1
100
AcDbLine
 10
169.5418888606818
 20
129.3022722758639
 30
0.0
 11
172.202142898539
 21
124.6945771212583
 31
0.0
  0
ARC
  5
6B73
330
1A
100
AcDbEntity
  8
1
100
AcDbCircle
 10
170.8720158796022
 20
137.5270418039979
 30
0.0
 40
2.0
100
AcDbArc
 50
89.99999999989578
 51
180.0000000000521
  0
ARC
  5
6B74
330
1A
100
AcDbEntity
  8
1
100
AcDbCircle
 10
170.8720158795804
 20
163.5270418039915
 30
0.0
 40
2.0
100
AcDbArc
 50
180.0000000000521
 51
270.0
  0
LINE
  5
6B76
330
1A
100
AcDbEntity
  8
1
  6
HIDDEN
 48
10.0
100
AcDbLine
 10
80.47201587958261
 20
109.3270418038671
 30
0.0
 11
173.8720158796095
 21
109.3270418040162
 31
0.0
  0
LINE
  5
6B77
330
1A
100
AcDbEntity
  8
1
  6
HIDDEN
 48
10.0
100
AcDbLine
 10
173.8720158796259
 20
111.0270418040934
 30
0.0
 11
80.4720158796008
 21
111.0270418040934
 31
0.0
  0
LINE
  5
6B78
330
1A
100
AcDbEntity
  8
1
100
AcDbLine
 10
153.0815500544704
 20
106.8270418040108
 30
0.0
 11
170.8720158796131
 21
106.8270418040108
 31
0.0
  0
LINE
  5
6B79
330
1A
100
AcDbEntity
  8
CENTER
 62
     9
 48
10.0
100
AcDbLine
 10
249.542086899678
 20
150.5270418040961
 30
0.0
 11
100.0805188064323
 21
150.5270418040961
 31
0.0
  0
LINE
  5
6B7A
330
1A
100
AcDbEntity
  8
1
100
AcDbLine
 10
52.17201587960153
 20
229.3270418040849
 30
0.0
 11
202.1720158796015
 21
229.3270418040849
 31
0.0
  0
LINE
  5
6B7B
330
1A
100
AcDbEntity
  8
1
100
AcDbLine
 10
52.17201587960153
 20
241.3270418040849
 30
0.0
 11
202.1720158796015
 21
241.327041804084
 31
0.0
  0
LINE
  5
6B7D
330
1A
100
AcDbEntity
  8
1
100
AcDbLine
 10
71.67201587963337
 20
146.0270418040946
 30
0.0
 11
72.67201587963336
 21
146.0270418040946
 31
0.0
  0
LINE
  5
6B7E
330
1A
100
AcDbEntity
  8
1
100
AcDbLine
 10
71.67201587963337
 20
139.0270418040946
 30
0.0
 11
71.67201587963337
 21
146.0270418040946
 31
0.0
  0
LINE
  5
6B7F
330
1A
100
AcDbEntity
  8
1
100
AcDbLine
 10
72.67201587963336
 20
139.0270418040946
 30
0.0
 11
71.67201587963337
 21
139.0270418040946
 31
0.0
  0
LINE
  5
6B80
330
1A
100
AcDbEntity
  8
1
100
AcDbLine
 10
72.67201587963336
 20
146.0270418040946
 30
0.0
 11
72.67201587963336
 21
139.0270418040946
 31
0.0
  0
LINE
  5
6B81
330
1A
100
AcDbEntity
  8
1
100
AcDbLine
 10
72.67201587963336
 20
147.0270418040946
 30
0.0
 11
73.47201587963354
 21
147.0270418040946
 31
0.0
  0
LINE
  5
6B82
330
1A
100
AcDbEntity
  8
1
100
AcDbLine
 10
72.67201587963336
 20
138.0270418040946
 30
0.0
 11
72.67201587963336
 21
147.0270418040946
 31
0.0
  0
LINE
  5
6B83
330
1A
100
AcDbEntity
  8
1
100
AcDbLine
 10
73.47201587963354
 20
138.0270418040946
 30
0.0
 11
72.67201587963336
 21
138.0270418040946
 31
0.0
  0
LINE
  5
6B84
330
1A
100
AcDbEntity
  8
1
100
AcDbLine
 10
73.47201587963354
 20
147.0270418040946
 30
0.0
 11
73.47201587963354
 21
138.0270418040946
 31
0.0
  0
LINE
  5
6B85
330
1A
100
AcDbEntity
  8
1
100
AcDbLine
 10
70.60909189667018
 20
145.9713363186002
 30
0.0
 11
71.67201587963337
 21
146.0270418040946
 31
0.0
  0
ARC
  5
6B86
330
1A
100
AcDbEntity
  8
1
100
AcDbCircle
 10
70.67712863978613
 20
144.6731179234194
 30
0.0
 40
1.3
100
AcDbArc
 50
93.00000000000578
 51
163.8167007802223
  0
LINE
  5
6B87
330
1A
100
AcDbEntity
  8
1
100
AcDbLine
 10
71.67201587963337
 20
139.0270418040946
 30
0.0
 11
70.60909189667018
 21
139.0827472895881
 31
0.0
  0
ARC
  5
6B88
330
1A
100
AcDbEntity
  8
1
100
AcDbCircle
 10
70.67712863978613
 20
140.3809656847689
 30
0.0
 40
1.3
100
AcDbArc
 50
196.1832992197776
 51
266.9999999999942
  0
ARC
  5
6B89
330
1A
100
AcDbEntity
  8
1
100
AcDbCircle
 10
78.0720158796339
 20
142.5270418040946
 30
0.0
 40
8.999999999999831
100
AcDbArc
 50
163.8167007802223
 51
196.1832992197776
  0
LINE
  5
6B8A
330
1A
100
AcDbEntity
  8
1
100
AcDbLine
 10
71.67201587963337
 20
146.0270418040946
 30
0.0
 11
71.67201587963337
 21
139.0270418040946
 31
0.0
  0
LINE
  5
6B8B
330
1A
100
AcDbEntity
  8
CENTER
 48
5.0
100
AcDbLine
 10
75.32789124849933
 20
142.5270418040942
 30
0.0
 11
69.3906736527424
 21
142.5270418040951
 31
0.0
  0
LINE
  5
6B8C
330
1A
100
AcDbEntity
  8
1
100
AcDbLine
 10
85.47201587963355
 20
148.5270418040942
 30
0.0
 11
85.47201587963355
 21
136.5270418040951
 31
0.0
  0
LINE
  5
6B8D
330
1A
100
AcDbEntity
  8
1
 48
5.0
100
AcDbLine
 10
73.47201587963354
 20
136.5270418040951
 30
0.0
 11
85.47201587963263
 21
136.5270418040932
 31
0.0
  0
LINE
  5
6B8E
330
1A
100
AcDbEntity
  8
1
 48
5.0
100
AcDbLine
 10
73.47201587963354
 20
148.5270418040951
 30
0.0
 11
85.47201587963355
 21
148.5270418040951
 31
0.0
  0
LINE
  5
6B8F
330
1A
100
AcDbEntity
  8
1
100
AcDbLine
 10
73.47201587963354
 20
148.5270418040942
 30
0.0
 11
73.47201587963354
 21
136.5270418040951
 31
0.0
  0
LINE
  5
6B90
330
1A
100
AcDbEntity
  8
CENTER
 48
5.0
100
AcDbLine
 10
65.09424652059078
 20
142.5270418040947
 30
0.0
 11
89.888457799776
 21
142.5270418040942
 31
0.0
  0
ARC
  5
6B91
330
1A
100
AcDbEntity
  8
1
100
AcDbCircle
 10
169.1720158796069
 20
105.3270418040108
 30
0.0
 40
1.5
100
AcDbArc
 50
90.0
 51
113.8649254161182
  0
LINE
  5
6B92
330
1A
100
AcDbEntity
  8
1
  6
HIDDEN
 48
10.0
100
AcDbLine
 10
166.9811795492496
 20
105.9980382075889
 30
0.0
 11
168.565143127369
 21
106.6987945013267
 31
0.0
  0
ARC
  5
6B93
330
1A
100
AcDbEntity
  8
1
100
AcDbCircle
 10
166.1720158796015
 20
107.8270418040108
 30
0.0
 40
2.0
100
AcDbArc
 50
270.0
 51
293.8649254161182
  0
ARC
  5
6B94
330
1A
100
AcDbEntity
  8
1
100
AcDbCircle
 10
163.8720158795404
 20
168.8270418041445
 30
0.0
 40
5.0
100
AcDbArc
 50
0.0000000000521102
 51
44.99999999999539
  0
ARC
  5
6B95
330
1A
100
AcDbEntity
  8
1
100
AcDbCircle
 10
173.872015879604
 20
131.802272275863
 30
0.0
 40
5.0
100
AcDbArc
 50
180.0000000000521
 51
210.0000000000029
  0
LINE
  5
6B96
330
1A
100
AcDbEntity
  8
1
100
AcDbLine
 10
168.8720158796095
 20
137.5270418039961
 30
0.0
 11
168.8720158795767
 21
168.827041804149
 31
0.0
  0
LINE
  5
6B97
330
1A
100
AcDbEntity
  8
1
100
AcDbLine
 10
168.8720158796058
 20
131.8022722758612
 30
0.0
 11
168.8720158796022
 21
137.527041803997
 31
0.0
  0
LINE
  5
6B98
330
1A
100
AcDbEntity
  8
1
100
AcDbLine
 10
163.1720158795997
 20
194.3270418040917
 30
0.0
 11
162.1720158795997
 21
193.3270418040917
 31
0.0
  0
LINE
  5
6B99
330
1A
100
AcDbEntity
  8
1
100
AcDbLine
 10
163.1720158795997
 20
229.3270418040849
 30
0.0
 11
163.1720158795997
 21
194.3270418040917
 31
0.0
  0
ARC
  5
6B9B
330
1A
100
AcDbEntity
  8
1
100
AcDbCircle
 10
127.1720158796124
 20
143.6190465150909
 30
0.0
 40
21.42446939383002
100
AcDbArc
 50
218.2952448704121
 51
251.2877181025644
  0
ARC
  5
6B9C
330
1A
100
AcDbEntity
  8
1
100
AcDbCircle
 10
86.47201587961172
 20
122.1945771212565
 30
0.0
 40
5.0
100
AcDbArc
 50
149.999999999997
 51
179.9999999999479
  0
LINE
  5
6B9D
330
1A
100
AcDbEntity
  8
1
100
AcDbLine
 10
85.17201587960153
 20
106.8270418040108
 30
0.0
 11
153.0815500544776
 21
106.8270418040108
 31
0.0
  0
LINE
  5
6B9E
330
1A
100
AcDbEntity
  8
1
  6
HIDDEN
 48
10.0
100
AcDbLine
 10
81.47201587960443
 20
111.5270418040924
 30
0.0
 11
81.47201587961172
 21
122.194577121261
 31
0.0
  0
ARC
  5
6B9F
330
1A
100
AcDbEntity
  8
1
  6
HIDDEN
 48
10.0
100
AcDbCircle
 10
80.97201587960444
 20
111.5270418040924
 30
0.0
 40
0.5
100
AcDbArc
 50
270.0
 51
359.9999999999478
  0
LINE
  5
6BA0
330
1A
100
AcDbEntity
  8
1
  6
HIDDEN
 48
10.0
100
AcDbLine
 10
80.47201587958261
 20
109.3270418040217
 30
0.0
 11
80.47201587958261
 21
109.8270418040217
 31
0.0
  0
LINE
  5
6BA1
330
1A
100
AcDbEntity
  8
1
  6
HIDDEN
 48
10.0
100
AcDbLine
 10
80.97201587957533
 20
109.3270418040217
 30
0.0
 11
80.47201587958261
 21
109.3270418040217
 31
0.0
  0
ARC
  5
6BA2
330
1A
100
AcDbEntity
  8
1
  6
HIDDEN
 48
10.0
100
AcDbCircle
 10
80.97201587957533
 20
108.8270418040217
 30
0.0
 40
0.5
100
AcDbArc
 50
0.0
 51
90.0
  0
LINE
  5
6BA3
330
1A
100
AcDbEntity
  8
1
  6
HIDDEN
 48
10.0
100
AcDbLine
 10
80.4720158796008
 20
111.0270418040934
 30
0.0
 11
80.47201587959898
 21
109.8270418040945
 31
0.0
  0
LINE
  5
6BA5
330
1A
100
AcDbEntity
  8
1
100
AcDbLine
 10
85.17201587959789
 20
106.8270418039981
 30
0.0
 11
83.4720158795808
 21
106.8270418039972
 31
0.0
  0
ARC
  5
6BA6
330
1A
100
AcDbEntity
  8
1
100
AcDbCircle
 10
85.17201587960153
 20
105.3270418039962
 30
0.0
 40
1.5
100
AcDbArc
 50
66.13507458388172
 51
90.0
  0
LINE
  5
6BA7
330
1A
100
AcDbEntity
  8
1
100
AcDbLine
 10
87.36285220994977
 20
105.9980382075762
 30
0.0
 11
85.77888863183762
 21
106.6987945013122
 31
0.0
  0
ARC
  5
6BA8
330
1A
100
AcDbEntity
  8
1
  6
HIDDEN
 48
10.0
100
AcDbCircle
 10
88.17201587960154
 20
107.827041803998
 30
0.0
 40
2.0
100
AcDbArc
 50
246.1350745838817
 51
270.0
  0
ARC
  5
6BA9
330
1A
100
AcDbEntity
  8
1
  6
HIDDEN
 48
10.0
100
AcDbCircle
 10
83.47201587957897
 20
108.8270418039971
 30
0.0
 40
2.0
100
AcDbArc
 50
180.0
 51
270.0
  0
ARC
  5
6BAA
330
1A
100
AcDbEntity
  8
1
100
AcDbCircle
 10
114.3506803516211
 20
133.3510719306266
 30
0.0
 40
5.0
100
AcDbArc
 50
180.0
 51
216.9998817881172
  0
ARC
  5
6BAB
330
1A
100
AcDbEntity
  8
1
  6
HIDDEN
 48
10.0
100
AcDbCircle
 10
109.7720158795964
 20
188.7270418040941
 30
0.0
 40
0.4
100
AcDbArc
 50
270.0
 51
0.0
  0
LINE
  5
6BAC
330
1A
100
AcDbEntity
  8
1
  6
HIDDEN
 48
10.0
100
AcDbLine
 10
108.1720158795979
 20
188.3270418040917
 30
0.0
 11
146.1720158795978
 21
188.3270418040936
 31
0.0
  0
ARC
  5
6BAD
330
1A
100
AcDbEntity
  8
1
100
AcDbCircle
 10
114.3506803516393
 20
133.3510719306257
 30
0.0
 40
5.0
100
AcDbArc
 50
180.0
 51
216.9998817880703
  0
ARC
  5
6BAE
330
1A
100
AcDbEntity
  8
1
100
AcDbCircle
 10
114.3506803516211
 20
163.8270418041481
 30
0.0
 40
5.0
100
AcDbArc
 50
90.0
 51
180.0
  0
LINE
  5
6BAF
330
1A
100
AcDbEntity
  8
1
100
AcDbLine
 10
150.1720158795942
 20
187.5270418040943
 30
0.0
 11
104.1720158795979
 21
187.5270418040879
 31
0.0
  0
ARC
  5
6BB0
330
1A
100
AcDbEntity
  8
1
100
AcDbCircle
 10
90.47201587965536
 20
168.8270418041445
 30
0.0
 40
5.0
100
AcDbArc
 50
135.0000000000046
 51
179.9999999999479
  0
ARC
  5
6BB1
330
1A
100
AcDbEntity
  8
1
100
AcDbCircle
 10
104.1720158795979
 20
182.527041804087
 30
0.0
 40
5.0
100
AcDbArc
 50
90.0
 51
135.0000000000046
  0
LINE
  5
6BB2
330
1A
100
AcDbEntity
  8
1
100
AcDbLine
 10
100.6364819736645
 20
186.0625757100203
 30
0.0
 11
86.93648197372203
 21
172.3625757100769
 31
0.0
  0
LINE
  5
6BB3
330
1A
100
AcDbEntity
  8
1
  6
HIDDEN
 48
10.0
100
AcDbLine
 10
108.1720158795979
 20
188.3270418040936
 30
0.0
 11
108.1720158795979
 21
187.5270418040888
 31
0.0
  0
LINE
  5
6BB4
330
1A
100
AcDbEntity
  8
1
100
AcDbLine
 10
84.80214289854666
 20
129.3022722758639
 30
0.0
 11
82.14188886068951
 21
124.6945771212583
 31
0.0
  0
ARC
  5
6BB5
330
1A
100
AcDbEntity
  8
1
100
AcDbCircle
 10
80.47201587962446
 20
131.802272275863
 30
0.0
 40
5.0
100
AcDbArc
 50
329.999999999997
 51
359.9999999999478
  0
LINE
  5
6BB6
330
1A
100
AcDbEntity
  8
1
100
AcDbLine
 10
109.3506803516411
 20
133.3510719306257
 30
0.0
 11
109.3506803516411
 21
163.7559739922833
 31
0.0
  0
LINE
  5
6BB7
330
1A
100
AcDbEntity
  8
1
100
AcDbLine
 10
85.47201587965536
 20
168.8270418041481
 30
0.0
 11
85.47201587963355
 21
142.5270418040943
 31
0.0
  0
LINE
  5
6BB8
330
1A
100
AcDbEntity
  8
1
100
AcDbLine
 10
85.47201587962446
 20
131.8022722758585
 30
0.0
 11
85.47201587963355
 21
142.5270418040943
 31
0.0
  0
ARC
  5
6BB9
330
1A
100
AcDbEntity
  8
1
100
AcDbCircle
 10
150.172015879596
 20
182.527041804087
 30
0.0
 40
5.0
100
AcDbArc
 50
44.99999999999539
 51
90.0
  0
ARC
  5
6BBA
330
1A
100
AcDbEntity
  8
1
100
AcDbCircle
 10
139.9933514075673
 20
133.3510719306284
 30
0.0
 40
5.0
100
AcDbArc
 50
323.0001182120233
 51
0.0
  0
LINE
  5
6BBB
330
1A
100
AcDbEntity
  8
1
100
AcDbLine
 10
114.3506803516211
 20
168.8270418041481
 30
0.0
 11
139.9933514075692
 21
168.827041804149
 31
0.0
  0
ARC
  5
6BBC
330
1A
100
AcDbEntity
  8
1
  6
HIDDEN
100
AcDbCircle
 10
144.5720158795957
 20
188.7270418040941
 30
0.0
 40
0.4
100
AcDbArc
 50
180.0
 51
270.0
  0
LINE
  5
6BBD
330
1A
100
AcDbEntity
  8
1
  6
HIDDEN
 48
10.0
100
AcDbLine
 10
146.1720158795978
 20
188.3270418040936
 30
0.0
 11
146.1720158795978
 21
187.5270418040943
 31
0.0
  0
LINE
  5
6BBE
330
1A
100
AcDbEntity
  8
1
  6
HIDDEN
 48
10.0
100
AcDbLine
 10
110.1720158795979
 20
193.3270418040917
 30
0.0
 11
110.1720158795979
 21
188.7270418040932
 31
0.0
  0
LINE
  5
6BBF
330
1A
100
AcDbEntity
  8
1
  6
HIDDEN
 48
10.0
100
AcDbLine
 10
144.1720158795978
 20
193.3270418040917
 30
0.0
 11
144.1720158795978
 21
188.7270418040932
 31
0.0
  0
LINE
  5
6BC0
330
1A
100
AcDbEntity
  8
1
100
AcDbLine
 10
116.3954062758057
 20
131.8022722758603
 30
0.0
 11
138.3125951363254
 21
131.8022722758603
 31
0.0
  0
ARC
  5
6BC1
330
1A
100
AcDbEntity
  8
1
100
AcDbCircle
 10
139.9933514075855
 20
133.3510719306284
 30
0.0
 40
5.0
100
AcDbArc
 50
323.0001182119295
 51
0.0
  0
ARC
  5
6BC2
330
1A
100
AcDbEntity
  8
1
100
AcDbCircle
 10
139.9933514075692
 20
163.8270418041481
 30
0.0
 40
5.0
100
AcDbArc
 50
0.0
 51
90.0
  0
LINE
  5
6BC3
330
1A
100
AcDbEntity
  8
1
100
AcDbLine
 10
144.9933514075855
 20
133.3510719306284
 30
0.0
 11
144.9933514075855
 21
163.7559739922833
 31
0.0
  0
LINE
  5
6BC4
330
1A
100
AcDbEntity
  8
1
100
AcDbLine
 10
52.17201587960153
 20
235.3270418040849
 30
0.0
 11
52.17201587960062
 21
241.3270418040858
 31
0.0
  0
LINE
  5
6BC5
330
1A
100
AcDbEntity
  8
1
100
AcDbLine
 10
52.17201587960153
 20
229.3270418040849
 30
0.0
 11
52.17201587960153
 21
235.3270418040849
 31
0.0
  0
LINE
  5
6BC6
330
1A
100
AcDbEntity
  8
1
100
AcDbLine
 10
91.17201587959971
 20
194.3270418040917
 30
0.0
 11
92.17201587959971
 21
193.3270418040917
 31
0.0
  0
LINE
  5
6BC7
330
1A
100
AcDbEntity
  8
1
100
AcDbLine
 10
91.17201587959971
 20
229.3270418040849
 30
0.0
 11
91.17201587959971
 21
194.3270418040917
 31
0.0
  0
CIRCLE
  5
6BC8
330
1A
100
AcDbEntity
  8
1
100
AcDbCircle
 10
127.1720158795978
 20
150.5270418040961
 30
0.0
 40
14.45
  0
CIRCLE
  5
6BC9
330
1A
100
AcDbEntity
  8
1
100
AcDbCircle
 10
127.1720158795978
 20
150.5270418041152
 30
0.0
 40
12.25
  0
LINE
  5
6BCC
330
1A
100
AcDbEntity
  8
1
  6
HIDDEN
 48
10.0
100
AcDbLine
 10
88.17201587960154
 20
105.8270418040904
 30
0.0
 11
166.1720158796015
 21
105.8270418040904
 31
0.0
  0
LINE
  5
6BCE
330
1A
100
AcDbEntity
  8
1
100
AcDbLine
 10
153.7075497855294
 20
186.0625757100203
 30
0.0
 11
167.4075497854719
 21
172.3625757100769
 31
0.0
  0
LINE
  5
6BCF
330
1A
100
AcDbEntity
  8
1
100
AcDbLine
 10
92.17201587959971
 20
193.3270418040917
 30
0.0
 11
162.1720158795997
 21
193.3270418040917
 31
0.0
  0
LINE
  5
6BD0
330
1A
100
AcDbEntity
  8
1
100
AcDbLine
 10
163.1720158795997
 20
194.3270418040917
 30
0.0
 11
91.17201587959971
 21
194.3270418040917
 31
0.0
  0
LINE
  5
6BD4
330
1A
100
AcDbEntity
  8
1
100
AcDbLine
 10
206.8720158796022
 20
155.0270418033885
 30
0.0
 11
206.8720158796022
 21
146.0270418033885
 31
0.0
  0
LINE
  5
6BD5
330
1A
100
AcDbEntity
  8
1
 48
10.0
100
AcDbLine
 10
241.8210808258845
 20
146.5270418041152
 30
0.0
 11
206.8720158796022
 21
146.5270418041152
 31
0.0
  0
LINE
  5
6BD6
330
1A
100
AcDbEntity
  8
1
 48
10.0
100
AcDbLine
 10
241.8210808258845
 20
154.5270418041152
 30
0.0
 11
206.8720158796022
 21
154.5270418041152
 31
0.0
  0
ARC
  5
6BD7
330
1A
100
AcDbEntity
  8
1
100
AcDbCircle
 10
167.8720158796168
 20
122.1945771212565
 30
0.0
 40
5.0
100
AcDbArc
 50
0.0000000000521102
 51
30.00000000000293
  0
LINE
  5
6BD8
330
1A
100
AcDbEntity
  8
1
  6
HIDDEN
 48
10.0
100
AcDbLine
 10
173.8720158796095
 20
109.3270418040162
 30
0.0
 11
173.8720158796095
 21
109.8270418040163
 31
0.0
  0
ARC
  5
6BD9
330
1A
100
AcDbEntity
  8
1
  6
HIDDEN
 48
10.0
100
AcDbCircle
 10
173.3720158796168
 20
108.8270418040144
 30
0.0
 40
0.5
100
AcDbArc
 50
90.0
 51
180.0
  0
LINE
  5
6BDA
330
1A
100
AcDbEntity
  8
1
  6
HIDDEN
 48
10.0
100
AcDbLine
 10
172.872015879624
 20
111.527041804087
 30
0.0
 11
172.8720158796168
 21
122.194577121261
 31
0.0
  0
LINE
  5
6BDB
330
1A
100
AcDbEntity
  8
1
  6
HIDDEN
 48
10.0
100
AcDbLine
 10
173.8720158796259
 20
111.0270418040879
 30
0.0
 11
173.8720158796277
 21
109.827041804089
 31
0.0
  0
ARC
  5
6BDC
330
1A
100
AcDbEntity
  8
1
  6
HIDDEN
 48
10.0
100
AcDbCircle
 10
173.372015879624
 20
111.527041804087
 30
0.0
 40
0.5
100
AcDbArc
 50
180.0000000000521
 51
270.0
  0
ARC
  5
6BDD
330
1A
100
AcDbEntity
  8
1
  6
HIDDEN
 48
10.0
100
AcDbCircle
 10
170.8720158796131
 20
108.8270418040108
 30
0.0
 40
2.0
100
AcDbArc
 50
270.0
 51
0.0
  0
LINE
  5
6BDE
330
1A
100
AcDbEntity
  8
1
 48
5.0
100
AcDbLine
 10
172.8720158796186
 20
139.5270418039942
 30
0.0
 11
170.872015879624
 21
139.5270418039961
 31
0.0
  0
LINE
  5
6BDF
330
1A
100
AcDbEntity
  8
1
100
AcDbLine
 10
176.8720158797186
 20
160.5270418039933
 30
0.0
 11
173.8720158797186
 21
160.5270418040261
 31
0.0
  0
LINE
  5
6BE0
330
1A
100
AcDbEntity
  8
1
100
AcDbLine
 10
176.8720158796095
 20
140.5270418039924
 30
0.0
 11
173.8720158796095
 21
140.5270418039924
 31
0.0
  0
LINE
  5
6BE1
330
1A
100
AcDbEntity
  8
1
100
AcDbLine
 10
176.8720158796095
 20
161.5270418039924
 30
0.0
 11
180.8720158796095
 21
161.5270418039924
 31
0.0
  0
LINE
  5
6BE2
330
1A
100
AcDbEntity
  8
1
100
AcDbLine
 10
176.8720158796095
 20
139.5270418039924
 30
0.0
 11
180.8720158796095
 21
139.5270418039924
 31
0.0
  0
LINE
  5
6BE3
330
1A
100
AcDbEntity
  8
1
100
AcDbLine
 10
176.8720158796095
 20
139.5270418039924
 30
0.0
 11
176.8720158796095
 21
161.5270418039924
 31
0.0
  0
LINE
  5
6BE4
330
1A
100
AcDbEntity
  8
1
100
AcDbLine
 10
173.8720158796095
 20
139.5270418039924
 30
0.0
 11
173.8720158796095
 21
161.5270418039924
 31
0.0
  0
LINE
  5
6BE5
330
1A
100
AcDbEntity
  8
1
 62
     9
100
AcDbLine
 10
180.8720158796095
 20
160.3627744847961
 30
0.0
 11
179.7077485603804
 21
161.5270418040251
 31
0.0
  0
LINE
  5
6BE6
330
1A
100
AcDbEntity
  8
1
 62
     9
100
AcDbLine
 10
180.8720158796095
 20
140.6913091232215
 30
0.0
 11
179.7077485603804
 21
139.5270418039924
 31
0.0
  0
LINE
  5
6BE7
330
1A
100
AcDbEntity
  8
1
100
AcDbLine
 10
196.8720158793148
 20
159.5250905826585
 30
0.0
 11
195.8720158792821
 21
160.5895418039933
 31
0.0
  0
LINE
  5
6BE8
330
1A
100
AcDbEntity
  8
1
100
AcDbLine
 10
196.8720158796095
 20
141.52899302536
 30
0.0
 11
195.8720158796095
 21
140.4645418039924
 31
0.0
  0
LINE
  5
6BE9
330
1A
100
AcDbEntity
  8
1
 62
     9
100
AcDbLine
 10
180.8720158796095
 20
160.3627744847633
 30
0.0
 11
196.8720158796095
 21
159.3627744847633
 31
0.0
  0
LINE
  5
6BEA
330
1A
100
AcDbEntity
  8
1
 62
     9
100
AcDbLine
 10
180.8720158796095
 20
140.6913091232215
 30
0.0
 11
196.8720158796095
 21
141.6913091232215
 31
0.0
  0
LINE
  5
6BEB
330
1A
100
AcDbEntity
  8
1
100
AcDbLine
 10
195.8720158796095
 20
140.4645418039924
 30
0.0
 11
195.8720158796095
 21
160.5895418039924
 31
0.0
  0
LINE
  5
6BEC
330
1A
100
AcDbEntity
  8
1
100
AcDbLine
 10
180.8720158796095
 20
139.5270418039924
 30
0.0
 11
195.8720158796095
 21
140.4645418039915
 31
0.0
  0
LINE
  5
6BED
330
1A
100
AcDbEntity
  8
1
100
AcDbLine
 10
180.8720158796095
 20
161.5270418039924
 30
0.0
 11
195.8720158792639
 21
160.5895418040143
 31
0.0
  0
LINE
  5
6BEE
330
1A
100
AcDbEntity
  8
1
100
AcDbLine
 10
196.8720158796095
 20
141.52899302536
 30
0.0
 11
196.8720158796095
 21
159.5250905823457
 31
0.0
  0
LINE
  5
6BEF
330
1A
100
AcDbEntity
  8
1
100
AcDbLine
 10
180.8720158796095
 20
139.5270418039924
 30
0.0
 11
180.8720158796095
 21
161.5270418039924
 31
0.0
  0
LINE
  5
6BF0
330
1A
100
AcDbEntity
  8
1
100
AcDbLine
 10
172.8720158796095
 20
139.5270418039924
 30
0.0
 11
173.8720158796095
 21
139.5270418039924
 31
0.0
  0
LINE
  5
6BF1
330
1A
100
AcDbEntity
  8
1
100
AcDbLine
 10
172.8720158796095
 20
161.5270418039924
 30
0.0
 11
173.8720158796095
 21
161.5270418039924
 31
0.0
  0
LINE
  5
6BF2
330
1A
100
AcDbEntity
  8
1
 48
5.0
100
AcDbLine
 10
172.8720158795986
 20
139.5270418039951
 30
0.0
 11
170.8720158796022
 21
139.527041803997
 31
0.0
  0
LINE
  5
6BF3
330
1A
100
AcDbEntity
  8
1
 48
5.0
100
AcDbLine
 10
172.8720158795877
 20
161.5270418039942
 30
0.0
 11
170.8720158795804
 21
161.5270418039942
 31
0.0
  0
LINE
  5
6BF4
330
1A
100
AcDbEntity
  8
1
100
AcDbLine
 10
203.3720158796031
 20
143.0270418038528
 30
0.0
 11
203.3720158796031
 21
158.0270418038528
 31
0.0
  0
LINE
  5
6BF5
330
1A
100
AcDbEntity
  8
1
100
AcDbLine
 10
197.3720158796022
 20
142.5270418038528
 30
0.0
 11
197.3720158796031
 21
158.5270418038528
 31
0.0
  0
LINE
  5
6BF6
330
1A
100
AcDbEntity
  8
1
100
AcDbLine
 10
200.3720158796022
 20
142.5270418038528
 30
0.0
 11
200.3720158796031
 21
158.5270418038528
 31
0.0
  0
LINE
  5
6BF7
330
1A
100
AcDbEntity
  8
1
100
AcDbLine
 10
202.8720158796031
 20
146.6540584576444
 30
0.0
 11
200.3720158796022
 21
146.6540584576444
 31
0.0
  0
LINE
  5
6BF8
330
1A
100
AcDbEntity
  8
1
100
AcDbLine
 10
202.8720158796031
 20
154.4000251500612
 30
0.0
 11
200.3720158796031
 21
154.4000251500612
 31
0.0
  0
LINE
  5
6BF9
330
1A
100
AcDbEntity
  8
1
100
AcDbLine
 10
200.3720158796031
 20
158.5270418038528
 30
0.0
 11
202.8720158796031
 21
158.5270418038528
 31
0.0
  0
LINE
  5
6BFA
330
1A
100
AcDbEntity
  8
1
100
AcDbLine
 10
200.3720158796031
 20
142.5270418038528
 30
0.0
 11
202.8720158796031
 21
142.5270418038528
 31
0.0
  0
LINE
  5
6BFB
330
1A
100
AcDbEntity
  8
1
100
AcDbLine
 10
200.3720158796022
 20
143.5270418038528
 30
0.0
 11
197.3720158796022
 21
143.5270418038528
 31
0.0
  0
LINE
  5
6BFC
330
1A
100
AcDbEntity
  8
1
100
AcDbLine
 10
200.3720158796022
 20
157.5270418038528
 30
0.0
 11
197.3720158796022
 21
157.5270418038528
 31
0.0
  0
LINE
  5
6BFD
330
1A
100
AcDbEntity
  8
1
100
AcDbLine
 10
202.8720158796022
 20
142.5270418038528
 30
0.0
 11
202.8720158796031
 21
146.6540584576444
 31
0.0
  0
LINE
  5
6BFE
330
1A
100
AcDbEntity
  8
1
100
AcDbLine
 10
202.8720158796031
 20
154.4000251500612
 30
0.0
 11
202.8720158796031
 21
158.5270418038528
 31
0.0
  0
LINE
  5
6BFF
330
1A
100
AcDbEntity
  8
1
100
AcDbLine
 10
202.8720158796031
 20
146.6540584576444
 30
0.0
 11
203.3720158796022
 21
147.8344594002849
 31
0.0
  0
LINE
  5
6C00
330
1A
100
AcDbEntity
  8
1
100
AcDbLine
 10
202.8720158796031
 20
154.4000251500612
 30
0.0
 11
203.3720158796022
 21
153.2196242074207
 31
0.0
  0
LINE
  5
6C01
330
1A
100
AcDbEntity
  8
1
100
AcDbLine
 10
202.8720158796031
 20
142.5270418038528
 30
0.0
 11
203.3720158796031
 21
143.0270418038528
 31
0.0
  0
LINE
  5
6C02
330
1A
100
AcDbEntity
  8
1
100
AcDbLine
 10
203.3720158796031
 20
158.0270418038528
 30
0.0
 11
202.8720158796031
 21
158.5270418038528
 31
0.0
  0
LINE
  5
6C03
330
1A
100
AcDbEntity
  8
1
100
AcDbLine
 10
200.3720158796022
 20
146.6540584576444
 30
0.0
 11
202.8720158796031
 21
154.4000251500612
 31
0.0
  0
LINE
  5
6C04
330
1A
100
AcDbEntity
  8
1
100
AcDbLine
 10
202.8720158796031
 20
146.6540584576444
 30
0.0
 11
200.3720158796031
 21
154.4000251500612
 31
0.0
  0
ARC
  5
6C05
330
1A
100
AcDbEntity
  8
1
100
AcDbCircle
 10
205.8720158796022
 20
155.0270418038519
 30
0.0
 40
1.0
100
AcDbArc
 50
0.0
 51
90.0
  0
ARC
  5
6C06
330
1A
100
AcDbEntity
  8
1
100
AcDbCircle
 10
205.8720158796022
 20
146.0270418038519
 30
0.0
 40
1.0
100
AcDbArc
 50
270.0
 51
0.0
  0
LINE
  5
6C07
330
1A
100
AcDbEntity
  8
1
100
AcDbLine
 10
203.3720158796031
 20
145.0270418038519
 30
0.0
 11
205.8720158796022
 21
145.0270418038519
 31
0.0
  0
LINE
  5
6C08
330
1A
100
AcDbEntity
  8
1
100
AcDbLine
 10
203.3720158796031
 20
156.0270418038519
 30
0.0
 11
205.8720158796022
 21
156.0270418038519
 31
0.0
  0
LINE
  5
6C09
330
1A
100
AcDbEntity
  8
1
100
AcDbLine
 10
196.8720158796095
 20
158.5270418038528
 30
0.0
 11
197.3720158796031
 21
158.5270418038528
 31
0.0
  0
LINE
  5
6C0A
330
1A
100
AcDbEntity
  8
1
100
AcDbLine
 10
196.8720158796095
 20
142.5270418038528
 30
0.0
 11
197.3720158796031
 21
142.5270418038528
 31
0.0
  0
LINE
  5
6C0B
330
1A
100
AcDbEntity
  8
1
100
AcDbLine
 10
202.1720158796015
 20
235.3270418040849
 30
0.0
 11
202.1720158796015
 21
241.3270418040849
 31
0.0
  0
LINE
  5
6C0C
330
1A
100
AcDbEntity
  8
1
100
AcDbLine
 10
202.1720158796015
 20
229.3270418040849
 30
0.0
 11
202.1720158796015
 21
235.3270418040849
 31
0.0
  0
LINE
  5
6C11
330
1A
100
AcDbEntity
  8
1
100
AcDbLine
 10
245.7099723888609
 20
229.3270418040849
 30
0.0
 11
245.7099723888609
 21
235.3270418040849
 31
0.0
  0
LINE
  5
6C12
330
1A
100
AcDbEntity
  8
1
100
AcDbLine
 10
245.7099723888609
 20
235.3270418040849
 30
0.0
 11
245.70997238886
 21
241.3270418040858
 31
0.0
  0
LINE
  5
6C17
330
1A
100
AcDbEntity
  8
CENTER
 48
10.0
100
AcDbLine
 10
345.7099723888591
 20
34.54912129565286
 30
0.0
 11
345.7099723888593
 21
246.8455194912287
 31
0.0
  0
LINE
  5
6C30
330
1A
100
AcDbEntity
  8
1
100
AcDbLine
 10
311.7099723888568
 20
63.32704180408359
 30
0.0
 11
311.7099723888559
 21
54.32704180408712
 31
0.0
  0
LINE
  5
6C31
330
1A
100
AcDbEntity
  8
1
100
AcDbLine
 10
381.7099723888559
 20
63.32704180408359
 30
0.0
 11
381.709972388855
 21
54.32704180407995
 31
0.0
  0
LINE
  5
6C33
330
1A
100
AcDbEntity
  8
1
100
AcDbLine
 10
445.7099723888573
 20
54.32704180408359
 30
0.0
 11
445.7099723888573
 21
48.32704180408359
 31
0.0
  0
LINE
  5
6C34
330
1A
100
AcDbEntity
  8
1
100
AcDbLine
 10
445.7099723888573
 20
48.32704180408359
 30
0.0
 11
445.7099723888582
 21
42.32704180408268
 31
0.0
  0
LINE
  5
6C3C
330
1A
100
AcDbEntity
  8
1
100
AcDbLine
 10
299.0099723888729
 20
136.2770418041056
 30
0.0
 11
300.0099723888747
 21
136.2770418041056
 31
0.0
  0
LINE
  5
6C3D
330
1A
100
AcDbEntity
  8
1
100
AcDbLine
 10
299.0099723888765
 20
164.7770418041057
 30
0.0
 11
300.0099723888765
 21
164.7770418041057
 31
0.0
  0
LINE
  5
6C3E
330
1A
100
AcDbEntity
  8
1
100
AcDbLine
 10
299.0099723888729
 20
136.2770418041056
 30
0.0
 11
300.0099723888747
 21
136.2770418041056
 31
0.0
  0
LINE
  5
6C3F
330
1A
100
AcDbEntity
  8
1
100
AcDbLine
 10
299.0099723888729
 20
136.2770418041056
 30
0.0
 11
299.0099723888765
 21
164.7770418041057
 31
0.0
  0
ARC
  5
6C41
330
1A
100
AcDbEntity
  8
1
100
AcDbCircle
 10
302.0099723888565
 20
134.0770418041049
 30
0.0
 40
2.0
100
AcDbArc
 50
359.9999999998958
 51
90.0
  0
ARC
  5
6C42
330
1A
100
AcDbEntity
  8
1
100
AcDbCircle
 10
302.0099723888856
 20
166.9770418041045
 30
0.0
 40
2.0
100
AcDbArc
 50
270.0
 51
359.9999999998958
  0
LINE
  5
6C43
330
1A
100
AcDbEntity
  8
1
100
AcDbLine
 10
302.0099723888583
 20
136.0770418041049
 30
0.0
 11
300.0099723888674
 21
136.0770418041049
 31
0.0
  0
LINE
  5
6C44
330
1A
100
AcDbEntity
  8
1
100
AcDbLine
 10
302.0099723888838
 20
164.9770418041045
 30
0.0
 11
300.0099723888838
 21
164.9770418041064
 31
0.0
  0
LINE
  5
6C45
330
1A
100
AcDbEntity
  8
1
100
AcDbLine
 10
331.2801024638706
 20
270.6363894130331
 30
0.0
 11
359.8797578880319
 21
263.036469703006
 31
0.0
  0
LINE
  5
6C46
330
1A
100
AcDbEntity
  8
1
100
AcDbLine
 10
331.7937456788033
 20
272.5693070646038
 30
0.0
 11
360.3934011029646
 21
264.9693873545768
 31
0.0
  0
LINE
  5
6C47
330
1A
100
AcDbEntity
  8
CENTER
 48
10.0
100
AcDbLine
 10
393.6865938943533
 20
297.8442971493425
 30
0.0
 11
379.7333508833685
 21
297.8442971493425
 31
0.0
  0
LINE
  5
6C48
330
1A
100
AcDbEntity
  8
CENTER
 48
10.0
100
AcDbLine
 10
311.6865938943515
 20
297.8442971493425
 30
0.0
 11
297.7333508833666
 21
297.8442971493425
 31
0.0
  0
LINE
  5
6C49
330
1A
100
AcDbEntity
  8
1
100
AcDbLine
 10
338.7099723888595
 20
280.1442971493278
 30
0.0
 11
352.7099723888595
 21
280.1442971493278
 31
0.0
  0
LINE
  5
6C4A
330
1A
100
AcDbEntity
  8
1
100
AcDbLine
 10
338.7099723888598
 20
280.844297149342
 30
0.0
 11
338.7099723888595
 21
279.6442971493278
 31
0.0
  0
LINE
  5
6C4B
330
1A
100
AcDbEntity
  8
1
100
AcDbLine
 10
352.7099723888598
 20
280.844297149342
 30
0.0
 11
352.7099723888595
 21
279.6442971493278
 31
0.0
  0
LINE
  5
6C4C
330
1A
100
AcDbEntity
  8
1
100
AcDbLine
 10
338.7099723888595
 20
279.6442971493278
 30
0.0
 11
352.7099723888595
 21
279.6442971493278
 31
0.0
  0
LINE
  5
6C4F
330
1A
100
AcDbEntity
  8
1
100
AcDbLine
 10
381.7099723888588
 20
194.3270418040917
 30
0.0
 11
309.7099723888591
 21
194.3270418040917
 31
0.0
  0
LINE
  5
6C50
330
1A
100
AcDbEntity
  8
1
100
AcDbLine
 10
310.7099723888591
 20
193.3270418040917
 30
0.0
 11
380.7099723888591
 21
193.3270418040917
 31
0.0
  0
LINE
  5
6C51
330
1A
100
AcDbEntity
  8
1
100
AcDbLine
 10
381.7099723888586
 20
229.3270418040849
 30
0.0
 11
381.7099723888591
 21
194.3270418040917
 31
0.0
  0
LINE
  5
6C52
330
1A
100
AcDbEntity
  8
1
100
AcDbLine
 10
381.7099723888591
 20
194.3270418040917
 30
0.0
 11
380.7099723888591
 21
193.3270418040917
 31
0.0
  0
LINE
  5
6C53
330
1A
100
AcDbEntity
  8
1
100
AcDbLine
 10
309.7099723888591
 20
229.3270418040849
 30
0.0
 11
309.7099723888591
 21
194.3270418040917
 31
0.0
  0
LINE
  5
6C54
330
1A
100
AcDbEntity
  8
1
100
AcDbLine
 10
309.7099723888591
 20
194.3270418040917
 30
0.0
 11
310.7099723888591
 21
193.3270418040917
 31
0.0
  0
LINE
  5
6C55
330
1A
100
AcDbEntity
  8
1
100
AcDbLine
 10
352.7099723888591
 20
146.6540584578885
 30
0.0
 11
352.7099723888591
 21
154.4000251503045
 31
0.0
  0
LINE
  5
6C56
330
1A
100
AcDbEntity
  8
1
100
AcDbLine
 10
338.7099723888591
 20
146.6540584578885
 30
0.0
 11
338.7099723888591
 21
154.4000251503045
 31
0.0
  0
CIRCLE
  5
6C57
330
1A
100
AcDbEntity
  8
1
100
AcDbCircle
 10
345.7099723888591
 20
150.5270418040961
 30
0.0
 40
8.0
  0
ARC
  5
6C58
330
1A
100
AcDbEntity
  8
1
100
AcDbCircle
 10
345.7099723888591
 20
150.5270418040961
 30
0.0
 40
7.5
100
AcDbArc
 50
201.0394697813014
 51
338.9605302186985
  0
ARC
  5
6C59
330
1A
100
AcDbEntity
  8
1
100
AcDbCircle
 10
345.7099723888591
 20
150.5270418040961
 30
0.0
 40
7.5
100
AcDbArc
 50
21.03946978130144
 51
158.9605302186985
  0
CIRCLE
  5
6C5A
330
1A
100
AcDbEntity
  8
1
100
AcDbCircle
 10
345.7099723888591
 20
150.5270418040961
 30
0.0
 40
4.0
  0
CIRCLE
  5
6C5B
330
1A
100
AcDbEntity
  8
1
100
AcDbCircle
 10
345.7099723888591
 20
150.5270418040961
 30
0.0
 40
5.5
  0
LINE
  5
6C5C
330
1A
100
AcDbEntity
  8
1
100
AcDbLine
 10
368.7099723888554
 20
187.5270418040943
 30
0.0
 11
322.7099723888591
 21
187.5270418040879
 31
0.0
  0
LINE
  5
6C5D
330
1A
100
AcDbEntity
  8
1
100
AcDbLine
 10
334.9333627850669
 20
131.8022722758603
 30
0.0
 11
356.8505516455866
 21
131.8022722758603
 31
0.0
  0
LINE
  5
6C5F
330
1A
100
AcDbEntity
  8
1
100
AcDbLine
 10
332.8886368608823
 20
168.8270418041481
 30
0.0
 11
358.5313079168304
 21
168.827041804149
 31
0.0
  0
CIRCLE
  5
6C60
330
1A
100
AcDbEntity
  8
1
100
AcDbCircle
 10
345.7099723888573
 20
150.5270418040961
 30
0.0
 40
11.0
  0
CIRCLE
  5
6C61
330
1A
100
AcDbEntity
  8
1
100
AcDbCircle
 10
345.7099723888573
 20
150.5270418040961
 30
0.0
 40
9.8
  0
CIRCLE
  5
6C62
330
1A
100
AcDbEntity
  8
1
100
AcDbCircle
 10
345.7099723888573
 20
150.5270418040961
 30
0.0
 40
8.8
  0
LINE
  5
6C63
330
1A
100
AcDbEntity
  8
1
100
AcDbLine
 10
327.8886368609023
 20
133.3510719306257
 30
0.0
 11
327.8886368609023
 21
163.7559739922833
 31
0.0
  0
ARC
  5
6C64
330
1A
100
AcDbEntity
  8
1
100
AcDbCircle
 10
332.8886368608823
 20
163.8270418041481
 30
0.0
 40
5.0
100
AcDbArc
 50
90.0
 51
180.0
  0
ARC
  5
6C65
330
1A
100
AcDbEntity
  8
1
100
AcDbCircle
 10
332.8886368609005
 20
133.3510719306257
 30
0.0
 40
5.0
100
AcDbArc
 50
180.0
 51
216.9998817880703
  0
ARC
  5
6C69
330
1A
100
AcDbEntity
  8
1
100
AcDbCircle
 10
322.7099723888591
 20
182.527041804087
 30
0.0
 40
5.0
100
AcDbArc
 50
90.0
 51
135.0000000000046
  0
ARC
  5
6C6A
330
1A
100
AcDbEntity
  8
1
100
AcDbCircle
 10
332.8886368608823
 20
133.3510719306266
 30
0.0
 40
5.0
100
AcDbArc
 50
180.0
 51
216.9998817881172
  0
LINE
  5
6C6B
330
1A
100
AcDbEntity
  8
1
100
AcDbLine
 10
387.4099723888671
 20
131.8022722758612
 30
0.0
 11
387.4099723888635
 21
137.527041803997
 31
0.0
  0
LINE
  5
6C6C
330
1A
100
AcDbEntity
  8
1
100
AcDbLine
 10
363.5313079168468
 20
133.3510719306284
 30
0.0
 11
363.5313079168468
 21
163.7559739922833
 31
0.0
  0
ARC
  5
6C6D
330
1A
100
AcDbEntity
  8
1
100
AcDbCircle
 10
358.5313079168304
 20
163.8270418041481
 30
0.0
 40
5.0
100
AcDbArc
 50
0.0
 51
90.0
  0
ARC
  5
6C6E
330
1A
100
AcDbEntity
  8
1
100
AcDbCircle
 10
358.5313079168467
 20
133.3510719306284
 30
0.0
 40
5.0
100
AcDbArc
 50
323.0001182119295
 51
0.0
  0
LINE
  5
6C6F
330
1A
100
AcDbEntity
  8
1
100
AcDbLine
 10
387.4099723888707
 20
137.5270418039961
 30
0.0
 11
387.4099723888379
 21
168.827041804149
 31
0.0
  0
ARC
  5
6C70
330
1A
100
AcDbEntity
  8
1
100
AcDbCircle
 10
392.4099723888653
 20
131.802272275863
 30
0.0
 40
5.0
100
AcDbArc
 50
180.0000000000521
 51
210.0000000000029
  0
LINE
  5
6C71
330
1A
100
AcDbEntity
  8
1
100
AcDbLine
 10
388.079845369943
 20
129.3022722758639
 30
0.0
 11
390.7400994078002
 21
124.6945771212583
 31
0.0
  0
ARC
  5
6C75
330
1A
100
AcDbEntity
  8
1
100
AcDbCircle
 10
358.5313079168286
 20
133.3510719306284
 30
0.0
 40
5.0
100
AcDbArc
 50
323.0001182120233
 51
0.0
  0
LINE
  5
6C76
330
1A
100
AcDbEntity
  8
1
100
AcDbLine
 10
372.2455062947906
 20
186.0625757100203
 30
0.0
 11
385.9455062947331
 21
172.3625757100769
 31
0.0
  0
ARC
  5
6C77
330
1A
100
AcDbEntity
  8
1
100
AcDbCircle
 10
368.7099723888572
 20
182.527041804087
 30
0.0
 40
5.0
100
AcDbArc
 50
44.99999999999539
 51
90.0
  0
ARC
  5
6C78
330
1A
100
AcDbEntity
  8
1
100
AcDbCircle
 10
382.4099723888016
 20
168.8270418041445
 30
0.0
 40
5.0
100
AcDbArc
 50
0.0000000000521102
 51
44.99999999999539
  0
ARC
  5
6C84
330
1A
100
AcDbEntity
  8
1
100
AcDbCircle
 10
345.7099723888736
 20
143.6190465150909
 30
0.0
 40
21.42446939383002
100
AcDbArc
 50
218.2952448704121
 51
251.2877181025644
  0
ARC
  5
6C85
330
1A
100
AcDbEntity
  8
1
100
AcDbCircle
 10
386.4099723888973
 20
122.1945771212639
 30
0.0
 40
4.999999999979499
100
AcDbArc
 50
13.09068374247392
 51
30.00000000004085
  0
LINE
  5
6C86
330
1A
100
AcDbEntity
  8
1
100
AcDbLine
 10
304.0099723888856
 20
131.8022722758585
 30
0.0
 11
304.0099723888947
 21
142.5270418040943
 31
0.0
  0
LINE
  5
6C87
330
1A
100
AcDbEntity
  8
1
100
AcDbLine
 10
304.0099723889166
 20
168.8270418041481
 30
0.0
 11
304.0099723888947
 21
142.5270418040943
 31
0.0
  0
ARC
  5
6C88
330
1A
100
AcDbEntity
  8
1
100
AcDbCircle
 10
299.0099723888856
 20
131.802272275863
 30
0.0
 40
5.0
100
AcDbArc
 50
329.999999999997
 51
359.9999999999478
  0
LINE
  5
6C89
330
1A
100
AcDbEntity
  8
1
100
AcDbLine
 10
303.3400994078078
 20
129.3022722758639
 30
0.0
 11
300.6798453699507
 21
124.6945771212583
 31
0.0
  0
ARC
  5
6C8A
330
1A
100
AcDbEntity
  8
1
100
AcDbCircle
 10
309.0099723889165
 20
168.8270418041445
 30
0.0
 40
5.0
100
AcDbArc
 50
135.0000000000046
 51
179.9999999999479
  0
ARC
  5
6C96
330
1A
100
AcDbEntity
  8
1
100
AcDbCircle
 10
305.0099723888545
 20
122.1945771212638
 30
0.0
 40
4.999999999980345
100
AcDbArc
 50
149.9999999999632
 51
166.9093162575271
  0
LINE
  5
6C9B
330
1A
100
AcDbEntity
  8
1
100
AcDbLine
 10
319.1744384829257
 20
186.0625757100203
 30
0.0
 11
305.4744384829832
 21
172.3625757100769
 31
0.0
  0
LINE
  5
6C9C
330
1A
100
AcDbEntity
  8
1
100
AcDbLine
 10
445.7099723888609
 20
229.3270418040849
 30
0.0
 11
445.7099723888609
 21
235.3270418040849
 31
0.0
  0
LINE
  5
6C9D
330
1A
100
AcDbEntity
  8
1
100
AcDbLine
 10
445.7099723888609
 20
235.3270418040849
 30
0.0
 11
445.7099723888609
 21
241.3270418040849
 31
0.0
  0
LINE
  5
6C9F
330
1A
100
AcDbEntity
  8
CENTER
 48
10.0
100
AcDbLine
 10
228.8915647905837
 20
355.8442971493434
 30
0.0
 11
452.6158738476302
 21
355.8442971493434
 31
0.0
  0
LINE
  5
6CA1
330
1A
100
AcDbEntity
  8
1
100
AcDbLine
 10
245.7099723888591
 20
430.8442971493416
 30
0.0
 11
445.7099723888598
 21
430.8442971493424
 31
0.0
  0
CIRCLE
  5
6CA5
330
1A
100
AcDbEntity
  8
1
100
AcDbCircle
 10
275.7099723888591
 20
405.8442971493425
 30
0.0
 40
10.0
  0
LINE
  5
6CA6
330
1A
100
AcDbEntity
  8
CENTER
 62
     9
100
AcDbLine
 10
279.7099723888591
 20
405.8442971493425
 30
0.0
 11
287.7099723888591
 21
405.8442971493425
 31
0.0
  0
LINE
  5
6CA7
330
1A
100
AcDbEntity
  8
CENTER
 62
     9
100
AcDbLine
 10
273.7099723888591
 20
405.8442971493425
 30
0.0
 11
277.7099723888591
 21
405.8442971493425
 31
0.0
  0
LINE
  5
6CA8
330
1A
100
AcDbEntity
  8
CENTER
 62
     9
100
AcDbLine
 10
271.7099723888591
 20
405.8442971493425
 30
0.0
 11
263.7099723888591
 21
405.8442971493425
 31
0.0
  0
LINE
  5
6CA9
330
1A
100
AcDbEntity
  8
CENTER
 62
     9
100
AcDbLine
 10
275.7099723888591
 20
409.8442971493425
 30
0.0
 11
275.7099723888591
 21
417.8442971493425
 31
0.0
  0
LINE
  5
6CAA
330
1A
100
AcDbEntity
  8
CENTER
 62
     9
100
AcDbLine
 10
275.7099723888591
 20
401.8442971493425
 30
0.0
 11
275.7099723888591
 21
393.8442971493425
 31
0.0
  0
LINE
  5
6CAB
330
1A
100
AcDbEntity
  8
CENTER
 62
     9
100
AcDbLine
 10
275.7099723888591
 20
403.8442971493425
 30
0.0
 11
275.7099723888591
 21
407.8442971493425
 31
0.0
  0
LINE
  5
6CAC
330
1A
100
AcDbEntity
  8
CENTER
 62
     9
100
AcDbLine
 10
279.7099723888591
 20
305.8442971493425
 30
0.0
 11
287.7099723888591
 21
305.8442971493425
 31
0.0
  0
LINE
  5
6CAD
330
1A
100
AcDbEntity
  8
CENTER
 62
     9
100
AcDbLine
 10
273.7099723888591
 20
305.8442971493425
 30
0.0
 11
277.7099723888591
 21
305.8442971493425
 31
0.0
  0
LINE
  5
6CAE
330
1A
100
AcDbEntity
  8
CENTER
 62
     9
100
AcDbLine
 10
271.7099723888591
 20
305.8442971493425
 30
0.0
 11
263.7099723888591
 21
305.8442971493425
 31
0.0
  0
LINE
  5
6CAF
330
1A
100
AcDbEntity
  8
CENTER
 62
     9
100
AcDbLine
 10
275.7099723888591
 20
309.8442971493425
 30
0.0
 11
275.7099723888591
 21
317.8442971493425
 31
0.0
  0
LINE
  5
6CB0
330
1A
100
AcDbEntity
  8
CENTER
 62
     9
100
AcDbLine
 10
275.7099723888591
 20
303.8442971493425
 30
0.0
 11
275.7099723888591
 21
307.8442971493425
 31
0.0
  0
LINE
  5
6CB1
330
1A
100
AcDbEntity
  8
CENTER
 62
     9
100
AcDbLine
 10
413.709972388859
 20
405.8442971493425
 30
0.0
 11
417.709972388859
 21
405.8442971493425
 31
0.0
  0
CIRCLE
  5
6CB2
330
1A
100
AcDbEntity
  8
1
100
AcDbCircle
 10
415.7099723888591
 20
405.8442971493425
 30
0.0
 40
10.0
  0
LINE
  5
6CB3
330
1A
100
AcDbEntity
  8
CENTER
 62
     9
100
AcDbLine
 10
413.709972388859
 20
305.8442971493416
 30
0.0
 11
417.709972388859
 21
305.8442971493416
 31
0.0
  0
LINE
  5
6CB4
330
1A
100
AcDbEntity
  8
CENTER
 48
10.0
100
AcDbLine
 10
386.7099723888609
 20
406.8676756438501
 30
0.0
 11
386.7099723888609
 21
420.8209186548349
 31
0.0
  0
LINE
  5
6CB5
330
1A
100
AcDbEntity
  8
CENTER
 48
10.0
100
AcDbLine
 10
393.6865938943533
 20
413.8442971493425
 30
0.0
 11
379.7333508833685
 21
413.8442971493425
 31
0.0
  0
LINE
  5
6CB6
330
1A
100
AcDbEntity
  8
CENTER
 48
10.0
100
AcDbLine
 10
311.6865938943515
 20
413.8442971493425
 30
0.0
 11
297.7333508833666
 21
413.8442971493425
 31
0.0
  0
LINE
  5
6CB7
330
1A
100
AcDbEntity
  8
CENTER
 48
10.0
100
AcDbLine
 10
304.7099723888591
 20
406.8676756438501
 30
0.0
 11
304.7099723888591
 21
420.8209186548349
 31
0.0
  0
CIRCLE
  5
6CB8
330
1A
100
AcDbEntity
  8
1
100
AcDbCircle
 10
345.7099723888559
 20
355.8442971493434
 30
0.0
 40
39.0
  0
CIRCLE
  5
6CB9
330
1A
100
AcDbEntity
  8
1
  6
HIDDEN
 48
0.5
100
AcDbCircle
 10
386.7099723888609
 20
413.8442971493425
 30
0.0
 40
5.0
  0
CIRCLE
  5
6CBA
330
1A
100
AcDbEntity
  8
1
 62
     9
100
AcDbCircle
 10
386.7099723888609
 20
413.8442971493425
 30
0.0
 40
4.0
  0
CIRCLE
  5
6CBB
330
1A
100
AcDbEntity
  8
1
100
AcDbCircle
 10
386.7099723888609
 20
413.8442971493425
 30
0.0
 40
3.299999999999999
  0
LINE
  5
6CBC
330
1A
100
AcDbEntity
  8
CENTER
 62
     9
100
AcDbLine
 10
411.7099723888591
 20
405.8442971493425
 30
0.0
 11
403.7099723888591
 21
405.8442971493425
 31
0.0
  0
LINE
  5
6CBD
330
1A
100
AcDbEntity
  8
CENTER
 62
     9
100
AcDbLine
 10
411.7099723888591
 20
305.8442971493416
 30
0.0
 11
403.7099723888591
 21
305.8442971493416
 31
0.0
  0
CIRCLE
  5
6CBE
330
1A
100
AcDbEntity
  8
1
  6
HIDDEN
 48
0.5
100
AcDbCircle
 10
304.7099723888591
 20
413.8442971493425
 30
0.0
 40
5.0
  0
CIRCLE
  5
6CBF
330
1A
100
AcDbEntity
  8
1
100
AcDbCircle
 10
304.7099723888591
 20
413.8442971493425
 30
0.0
 40
3.299999999999999
  0
CIRCLE
  5
6CC0
330
1A
100
AcDbEntity
  8
1
 62
     9
100
AcDbCircle
 10
304.7099723888591
 20
413.8442971493425
 30
0.0
 40
4.0
  0
CIRCLE
  5
6CC1
330
1A
100
AcDbEntity
  8
1
  6
HIDDEN
100
AcDbCircle
 10
345.7099723888591
 20
355.8442971493434
 30
0.0
 40
39.5
  0
LINE
  5
6CC3
330
1A
100
AcDbEntity
  8
CENTER
 62
     9
100
AcDbLine
 10
415.7099723888591
 20
409.8442971493425
 30
0.0
 11
415.7099723888591
 21
417.8442971493425
 31
0.0
  0
LINE
  5
6CC4
330
1A
100
AcDbEntity
  8
CENTER
 62
     9
100
AcDbLine
 10
415.7099723888591
 20
401.8442971493425
 30
0.0
 11
415.7099723888591
 21
393.8442971493425
 31
0.0
  0
LINE
  5
6CC5
330
1A
100
AcDbEntity
  8
CENTER
 62
     9
100
AcDbLine
 10
419.7099723888591
 20
405.8442971493425
 30
0.0
 11
427.7099723888591
 21
405.8442971493425
 31
0.0
  0
LINE
  5
6CC6
330
1A
100
AcDbEntity
  8
CENTER
 62
     9
100
AcDbLine
 10
415.7099723888591
 20
403.8442971493425
 30
0.0
 11
415.7099723888591
 21
407.8442971493425
 31
0.0
  0
LINE
  5
6CC7
330
1A
100
AcDbEntity
  8
CENTER
 62
     9
100
AcDbLine
 10
415.7099723888591
 20
309.8442971493416
 30
0.0
 11
415.7099723888591
 21
317.8442971493416
 31
0.0
  0
LINE
  5
6CC8
330
1A
100
AcDbEntity
  8
CENTER
 62
     9
100
AcDbLine
 10
419.7099723888591
 20
305.8442971493416
 30
0.0
 11
427.7099723888591
 21
305.8442971493416
 31
0.0
  0
LINE
  5
6CC9
330
1A
100
AcDbEntity
  8
CENTER
 62
     9
100
AcDbLine
 10
415.7099723888591
 20
303.8442971493416
 30
0.0
 11
415.7099723888591
 21
307.8442971493416
 31
0.0
  0
LINE
  5
700A
330
1A
100
AcDbEntity
  8
1
100
AcDbLine
 10
79.47201587960399
 20
106.9547604808146
 30
0.0
 11
174.8720158795918
 21
106.9547604808146
 31
0.0
  0
LINE
  5
700B
330
1A
100
AcDbEntity
  8
1
100
AcDbLine
 10
79.47201587960399
 20
112.6993231273525
 30
0.0
 11
174.8720158795918
 21
112.6993231273525
 31
0.0
  0
ARC
  5
700C
330
1A
100
AcDbEntity
  8
1
100
AcDbCircle
 10
83.47201587960444
 20
105.3270418040835
 30
0.0
 40
4.0
100
AcDbArc
 50
180.0
 51
270.0
  0
LINE
  5
700D
330
1A
100
AcDbEntity
  8
1
100
AcDbLine
 10
79.47201587960444
 20
123.3270418040836
 30
0.0
 11
174.8720158795918
 21
123.3270418040836
 31
0.0
  0
LINE
  5
700E
330
1A
100
AcDbEntity
  8
1
100
AcDbLine
 10
79.47201587960399
 20
106.9547604808146
 30
0.0
 11
79.47201587960399
 21
105.3270418040835
 31
0.0
  0
ARC
  5
700F
330
1A
100
AcDbEntity
  8
1
100
AcDbCircle
 10
81.47201587960399
 20
109.8270418040836
 30
0.0
 40
3.5
100
AcDbArc
 50
124.8499045790525
 51
235.1500954209473
  0
LINE
  5
7010
330
1A
100
AcDbEntity
  8
1
100
AcDbLine
 10
79.47201587960444
 20
123.3270418040836
 30
0.0
 11
79.47201587960399
 21
112.6993231273525
 31
0.0
  0
LINE
  5
7011
330
1A
100
AcDbEntity
  8
1
100
AcDbLine
 10
89.17201587959789
 20
91.32704180408358
 30
0.0
 11
89.17201587959789
 21
63.32704180408359
 31
0.0
  0
ARC
  5
7012
330
1A
100
AcDbEntity
  8
1
100
AcDbCircle
 10
93.1720158795979
 20
91.32704180408358
 30
0.0
 40
4.0
100
AcDbArc
 50
90.0
 51
180.0
  0
ARC
  5
7013
330
1A
100
AcDbEntity
  8
1
100
AcDbCircle
 10
94.17201587959789
 20
98.32704180408359
 30
0.0
 40
3.0
100
AcDbArc
 50
270.0
 51
90.0
  0
LINE
  5
7014
330
1A
100
AcDbEntity
  8
1
100
AcDbLine
 10
165.1720158795981
 20
63.32704180408359
 30
0.0
 11
89.17201587959789
 21
63.32704180408359
 31
0.0
  0
LINE
  5
7015
330
1A
100
AcDbEntity
  8
1
100
AcDbLine
 10
165.1720158795981
 20
91.32704180408358
 30
0.0
 11
165.1720158795981
 21
63.32704180408359
 31
0.0
  0
LINE
  5
7016
330
1A
100
AcDbEntity
  8
1
100
AcDbLine
 10
161.1720158795981
 20
95.32704180408359
 30
0.0
 11
93.1720158795979
 21
95.32704180408359
 31
0.0
  0
ARC
  5
7017
330
1A
100
AcDbEntity
  8
1
100
AcDbCircle
 10
161.1720158795981
 20
91.32704180408358
 30
0.0
 40
4.0
100
AcDbArc
 50
0.0
 51
90.0
  0
ARC
  5
7018
330
1A
100
AcDbEntity
  8
1
100
AcDbCircle
 10
160.1720158795981
 20
98.32704180408359
 30
0.0
 40
3.0
100
AcDbArc
 50
90.0
 51
270.0
  0
LINE
  5
7019
330
1A
100
AcDbEntity
  8
1
100
AcDbLine
 10
83.47201587960444
 20
101.3270418040835
 30
0.0
 11
170.8720158795915
 21
101.3270418040835
 31
0.0
  0
ARC
  5
701A
330
1A
100
AcDbEntity
  8
1
100
AcDbCircle
 10
170.8720158795915
 20
105.3270418040835
 30
0.0
 40
4.0
100
AcDbArc
 50
270.0
 51
0.0
  0
LINE
  5
701B
330
1A
100
AcDbEntity
  8
1
100
AcDbLine
 10
174.8720158795918
 20
106.9547604808146
 30
0.0
 11
174.8720158795918
 21
105.3270418040835
 31
0.0
  0
ARC
  5
701C
330
1A
100
AcDbEntity
  8
1
100
AcDbCircle
 10
172.8720158795917
 20
109.8270418040836
 30
0.0
 40
3.5
100
AcDbArc
 50
304.8499045790525
 51
55.15009542094741
  0
LINE
  5
701D
330
1A
100
AcDbEntity
  8
1
100
AcDbLine
 10
174.8720158795915
 20
123.3270418040836
 30
0.0
 11
174.8720158795918
 21
112.6993231273525
 31
0.0
  0
LINE
  5
7042
330
1A
100
AcDbEntity
  8
1
100
AcDbLine
 10
146.6720158795981
 20
191.0448029224523
 30
0.0
 11
146.6720158795985
 21
189.8092806857373
 31
0.0
  0
LINE
  5
7043
330
1A
100
AcDbEntity
  8
1
100
AcDbLine
 10
107.6720158795974
 20
191.0448029224523
 30
0.0
 11
107.6720158795969
 21
189.8092806857373
 31
0.0
  0
LINE
  5
7044
330
1A
100
AcDbEntity
  8
1
100
AcDbLine
 10
103.5879003082632
 20
187.5270418040911
 30
0.0
 11
150.7561314509323
 21
187.5270418040911
 31
0.0
  0
LINE
  5
7046
330
1A
100
AcDbEntity
  8
1
100
AcDbLine
 10
147.3072472775277
 20
188.8781824809582
 30
0.0
 11
150.7561314509307
 21
187.527041804092
 31
0.0
  0
ARC
  5
7047
330
1A
100
AcDbEntity
  8
1
100
AcDbCircle
 10
147.6720158795981
 20
189.8092806857378
 30
0.0
 40
1.0
100
AcDbArc
 50
179.9999999999739
 51
248.6066572230368
  0
ARC
  5
7048
330
1A
100
AcDbEntity
  8
1
100
AcDbCircle
 10
106.6720158795976
 20
189.8092806857378
 30
0.0
 40
1.0
100
AcDbArc
 50
291.3933427769631
 51
0.0000000000260551
  0
LINE
  5
7049
330
1A
100
AcDbEntity
  8
1
100
AcDbLine
 10
107.036784481668
 20
188.8781824809582
 30
0.0
 11
103.587900308265
 21
187.527041804092
 31
0.0
  0
LINE
  5
704B
330
1A
100
AcDbEntity
  8
1
100
AcDbLine
 10
103.587900308265
 20
193.3270418040986
 30
0.0
 11
150.7561314509307
 21
193.3270418040986
 31
0.0
  0
ARC
  5
704C
330
1A
100
AcDbEntity
  8
1
100
AcDbCircle
 10
147.6720158795981
 20
191.0448029224528
 30
0.0
 40
1.0
100
AcDbArc
 50
111.3933427769631
 51
180.000000000026
  0
LINE
  5
704D
330
1A
100
AcDbEntity
  8
1
100
AcDbLine
 10
147.3072472775277
 20
191.9759011272324
 30
0.0
 11
150.7561314509307
 21
193.3270418040986
 31
0.0
  0
LINE
  5
7050
330
1A
100
AcDbEntity
  8
1
100
AcDbLine
 10
107.036784481668
 20
191.9759011272324
 30
0.0
 11
103.587900308265
 21
193.3270418040986
 31
0.0
  0
ARC
  5
7051
330
1A
100
AcDbEntity
  8
1
100
AcDbCircle
 10
106.6720158795976
 20
191.0448029224528
 30
0.0
 40
1.0
100
AcDbArc
 50
359.9999999999739
 51
68.60665722303682
  0
LINE
  5
7057
330
1A
100
AcDbEntity
  8
1
  6
HIDDEN
 48
10.0
100
AcDbLine
 10
105.6720158795978
 20
105.8270418040904
 30
0.0
 11
105.6720158795978
 21
90.32704180408996
 31
0.0
  0
LINE
  5
7058
330
1A
100
AcDbEntity
  8
1
  6
HIDDEN
 48
10.0
100
AcDbLine
 10
148.6720158795978
 20
105.8270418040904
 30
0.0
 11
148.6720158795978
 21
90.32704180408996
 31
0.0
  0
ARC
  5
707D
330
1A
100
AcDbEntity
  8
1
100
AcDbCircle
 10
127.1720158796124
 20
143.6190465150909
 30
0.0
 40
21.42446939383002
100
AcDbArc
 50
288.7122818974355
 51
321.7047551296295
  0
LINE
  5
707E
330
1A
100
AcDbEntity
  8
1
100
AcDbLine
 10
298.0099723888652
 20
106.9547604808146
 30
0.0
 11
393.409972388853
 21
106.9547604808146
 31
0.0
  0
LINE
  5
707F
330
1A
100
AcDbEntity
  8
1
100
AcDbLine
 10
298.0099723888652
 20
112.6993231273525
 30
0.0
 11
393.409972388853
 21
112.6993231273525
 31
0.0
  0
ARC
  5
7080
330
1A
100
AcDbEntity
  8
1
100
AcDbCircle
 10
302.0099723888654
 20
105.3270418040835
 30
0.0
 40
4.0
100
AcDbArc
 50
180.0
 51
270.0
  0
LINE
  5
7081
330
1A
100
AcDbEntity
  8
1
100
AcDbLine
 10
298.0099723888654
 20
123.3270418040836
 30
0.0
 11
393.409972388853
 21
123.3270418040836
 31
0.0
  0
LINE
  5
7082
330
1A
100
AcDbEntity
  8
1
100
AcDbLine
 10
298.0099723888652
 20
106.9547604808146
 30
0.0
 11
298.0099723888652
 21
105.3270418040835
 31
0.0
  0
ARC
  5
7083
330
1A
100
AcDbEntity
  8
1
100
AcDbCircle
 10
300.0099723888652
 20
109.8270418040836
 30
0.0
 40
3.5
100
AcDbArc
 50
124.8499045790525
 51
235.1500954209473
  0
LINE
  5
7084
330
1A
100
AcDbEntity
  8
1
100
AcDbLine
 10
298.0099723888654
 20
123.3270418040836
 30
0.0
 11
298.0099723888652
 21
112.6993231273525
 31
0.0
  0
LINE
  5
7085
330
1A
100
AcDbEntity
  8
1
100
AcDbLine
 10
379.7099723888593
 20
95.32704180408359
 30
0.0
 11
311.7099723888589
 21
95.32704180408359
 31
0.0
  0
LINE
  5
7086
330
1A
100
AcDbEntity
  8
1
100
AcDbLine
 10
307.7099723888589
 20
91.32704180408358
 30
0.0
 11
307.7099723888589
 21
63.32704180408359
 31
0.0
  0
ARC
  5
7087
330
1A
100
AcDbEntity
  8
1
100
AcDbCircle
 10
311.7099723888589
 20
91.32704180408358
 30
0.0
 40
4.0
100
AcDbArc
 50
90.0
 51
180.0
  0
ARC
  5
7088
330
1A
100
AcDbEntity
  8
1
100
AcDbCircle
 10
312.7099723888588
 20
98.32704180408359
 30
0.0
 40
3.0
100
AcDbArc
 50
270.0
 51
90.0
  0
LINE
  5
7089
330
1A
100
AcDbEntity
  8
1
100
AcDbLine
 10
383.7099723888593
 20
63.32704180408359
 30
0.0
 11
307.7099723888589
 21
63.32704180408359
 31
0.0
  0
LINE
  5
708A
330
1A
100
AcDbEntity
  8
1
100
AcDbLine
 10
383.7099723888593
 20
91.32704180408358
 30
0.0
 11
383.7099723888593
 21
63.32704180408359
 31
0.0
  0
ARC
  5
708B
330
1A
100
AcDbEntity
  8
1
100
AcDbCircle
 10
379.7099723888593
 20
91.32704180408358
 30
0.0
 40
4.0
100
AcDbArc
 50
0.0
 51
90.0
  0
ARC
  5
708C
330
1A
100
AcDbEntity
  8
1
100
AcDbCircle
 10
378.7099723888593
 20
98.32704180408359
 30
0.0
 40
3.0
100
AcDbArc
 50
90.0
 51
270.0
  0
LINE
  5
708D
330
1A
100
AcDbEntity
  8
1
100
AcDbLine
 10
302.0099723888654
 20
101.3270418040835
 30
0.0
 11
389.4099723888528
 21
101.3270418040835
 31
0.0
  0
ARC
  5
708E
330
1A
100
AcDbEntity
  8
1
100
AcDbCircle
 10
389.4099723888528
 20
105.3270418040835
 30
0.0
 40
4.0
100
AcDbArc
 50
270.0
 51
0.0
  0
LINE
  5
708F
330
1A
100
AcDbEntity
  8
1
100
AcDbLine
 10
393.409972388853
 20
106.9547604808146
 30
0.0
 11
393.409972388853
 21
105.3270418040835
 31
0.0
  0
ARC
  5
7090
330
1A
100
AcDbEntity
  8
1
100
AcDbCircle
 10
391.409972388853
 20
109.8270418040836
 30
0.0
 40
3.5
100
AcDbArc
 50
304.8499045790525
 51
55.15009542094741
  0
LINE
  5
7091
330
1A
100
AcDbEntity
  8
1
100
AcDbLine
 10
393.4099723888527
 20
123.3270418040836
 30
0.0
 11
393.409972388853
 21
112.6993231273525
 31
0.0
  0
ARC
  5
7092
330
1A
100
AcDbEntity
  8
1
100
AcDbCircle
 10
325.2099723888588
 20
191.0448029224373
 30
0.0
 40
1.0
100
AcDbArc
 50
359.9999999999739
 51
68.60665722303682
  0
LINE
  5
7093
330
1A
100
AcDbEntity
  8
1
100
AcDbLine
 10
325.5747409909293
 20
191.9759011272169
 30
0.0
 11
322.1258568175262
 21
193.3270418040831
 31
0.0
  0
LINE
  5
7094
330
1A
100
AcDbEntity
  8
1
100
AcDbLine
 10
365.8452037867889
 20
191.9759011272169
 30
0.0
 11
369.2940879601919
 21
193.3270418040831
 31
0.0
  0
ARC
  5
7095
330
1A
100
AcDbEntity
  8
1
100
AcDbCircle
 10
366.2099723888593
 20
191.0448029224373
 30
0.0
 40
1.0
100
AcDbArc
 50
111.3933427769631
 51
180.000000000026
  0
LINE
  5
7096
330
1A
100
AcDbEntity
  8
1
100
AcDbLine
 10
322.1258568175262
 20
193.3270418040831
 30
0.0
 11
369.2940879601919
 21
193.3270418040831
 31
0.0
  0
LINE
  5
7097
330
1A
100
AcDbEntity
  8
1
100
AcDbLine
 10
325.5747409909293
 20
188.8781824809427
 30
0.0
 11
322.1258568175262
 21
187.5270418040765
 31
0.0
  0
ARC
  5
7098
330
1A
100
AcDbEntity
  8
1
100
AcDbCircle
 10
325.2099723888588
 20
189.8092806857223
 30
0.0
 40
1.0
100
AcDbArc
 50
291.3933427769631
 51
0.0000000000260551
  0
ARC
  5
7099
330
1A
100
AcDbEntity
  8
1
100
AcDbCircle
 10
366.2099723888593
 20
189.8092806857223
 30
0.0
 40
1.0
100
AcDbArc
 50
179.9999999999739
 51
248.6066572230368
  0
LINE
  5
709A
330
1A
100
AcDbEntity
  8
1
100
AcDbLine
 10
365.8452037867889
 20
188.8781824809427
 30
0.0
 11
369.2940879601919
 21
187.5270418040765
 31
0.0
  0
LINE
  5
709B
330
1A
100
AcDbEntity
  8
1
100
AcDbLine
 10
322.1258568175244
 20
187.5270418040756
 30
0.0
 11
369.2940879601935
 21
187.5270418040756
 31
0.0
  0
LINE
  5
709C
330
1A
100
AcDbEntity
  8
1
100
AcDbLine
 10
326.2099723888586
 20
191.0448029224369
 30
0.0
 11
326.2099723888582
 21
189.8092806857219
 31
0.0
  0
LINE
  5
709D
330
1A
100
AcDbEntity
  8
1
100
AcDbLine
 10
365.2099723888593
 20
191.0448029224369
 30
0.0
 11
365.2099723888598
 21
189.8092806857219
 31
0.0
  0
ARC
  5
709E
330
1A
100
AcDbEntity
  8
1
100
AcDbCircle
 10
345.7099723888736
 20
143.6190465150909
 30
0.0
 40
21.42446939383002
100
AcDbArc
 50
288.7122818974355
 51
321.7047551296295
  0
LINE
  5
70CA
330
1A
100
AcDbEntity
  8
1
100
AcDbLine
 10
350.2099723881517
 20
276.1442971493288
 30
0.0
 11
341.2099723881517
 21
276.1442971493288
 31
0.0
  0
LINE
  5
70CB
330
1A
100
AcDbEntity
  8
1
 48
10.0
100
AcDbLine
 10
349.7099723888782
 20
267.808344651463
 30
0.0
 11
349.7099723888784
 21
276.1442971493288
 31
0.0
  0
ARC
  5
70CC
330
1A
100
AcDbEntity
  8
1
100
AcDbCircle
 10
350.2099723886153
 20
277.1442971493287
 30
0.0
 40
1.0
100
AcDbArc
 50
270.0
 51
0.0
  0
LINE
  5
70CD
330
1A
100
AcDbEntity
  8
1
100
AcDbLine
 10
351.2099723886151
 20
279.6442971493279
 30
0.0
 11
351.2099723886151
 21
277.1442971493288
 31
0.0
  0
LINE
  5
70CE
330
1A
100
AcDbEntity
  8
1
 48
10.0
100
AcDbLine
 10
341.7099723888784
 20
269.9342219313987
 30
0.0
 11
341.7099723888784
 21
276.1442971493288
 31
0.0
  0
ARC
  5
70CF
330
1A
100
AcDbEntity
  8
1
100
AcDbCircle
 10
341.2099723886153
 20
277.1442971493287
 30
0.0
 40
1.0
100
AcDbArc
 50
180.0
 51
270.0
  0
LINE
  5
70D0
330
1A
100
AcDbEntity
  8
1
100
AcDbLine
 10
340.2099723886151
 20
279.6442971493279
 30
0.0
 11
340.2099723886151
 21
277.1442971493288
 31
0.0
  0
VIEWPORT
  5
22
330
17
100
AcDbEntity
 67
     1
  8
0
100
AcDbViewport
 10
204.0995788574218
 20
142.5892477035522
 30
0.0
 40
509.5070116873076
 41
314.1477025756835
 68
     1
 69
     1
 12
204.0995788574218
 22
142.5892477035522
 13
0.0
 23
0.0
 14
1.0
 24
1.0
 15
10.0
 25
10.0
 16
0.0
 26
0.0
 36
1.0
 17
0.0
 27
0.0
 37
0.0
 42
50.0
 43
0.0
 44
0.0
 45
314.1477025756835
 50
0.0
 51
0.0
 72
   100
 90
    32768
  1

281
     0
 71
     1
 74
     0
110
0.0
120
0.0
130
0.0
111
1.0
121
0.0
131
0.0
112
0.0
122
1.0
132
0.0
 79
     0
146
0.0
  0
VIEWPORT
  5
2CF
330
17
100
AcDbEntity
 67
     1
  8
DEFPOINTS
100
AcDbViewport
 10
212.4999999999999
 20
149.4999999999999
 30
0.0
 40
384.9999999999998
 41
265.0
 68
     2
 69
     2
 12
252.2352837917878
 22
237.3008245817163
 13
0.0
 23
0.0
 14
168.0
 24
168.0
 15
0.0
 25
0.0
 16
0.0
 26
0.0
 36
1.0
 17
0.0
 27
0.0
 37
0.0
 42
50.0
 43
0.0
 44
0.0
 45
410.3543855646083
 50
0.0
 51
0.0
 72
   100
 90
    36864
  1

281
     0
 71
     1
 74
     0
110
0.0
120
0.0
130
0.0
111
1.0
121
0.0
131
0.0
112
0.0
122
1.0
132
0.0
 79
     0
146
0.0
  0
ENDSEC
  0
SECTION
  2
OBJECTS
  0
DICTIONARY
  5
C
330
0
100
AcDbDictionary
281
     1
  3
ACAD_GROUP
350
D
  3
ACAD_LAYOUT
350
F3D
  3
ACAD_MLINESTYLE
350
E
  3
ACAD_PLOTSETTINGS
350
F3E
  3
ACAD_PLOTSTYLENAME
350
F3B
  3
AcadDim
350
70C7
  3
CONTENTDICTIONARY
350
234
  0
DICTIONARY
  5
F6B
330
1A
100
AcDbDictionary
280
     1
281
     1
  3
ACAD_LAYOUTSELFREF
360
6FD0
  0
DICTIONARY
  5
F69
330
17
100
AcDbDictionary
280
     1
281
     1
  3
ACAD_LAYOUTSELFREF
360
6FCF
  0
DICTIONARY
  5
D
102
{ACAD_REACTORS
330
C
102
}
330
C
100
AcDbDictionary
281
     1
  3
*A1
350
36C
  3
*A2
350
682
  3
*A3
350
84A
  3
*A4
350
60B1
  3
*A5
350
60B2
  3
*A6
350
60B3
  3
*A7
350
60B4
  3
*A8
350
60B5
  3
*A9
350
60B6
  3
*A10
350
60B7
  3
*A11
350
60B8
  3
*A12
350
377
  3
*A13
350
419
  3
*A14
350
41A
  3
*A15
350
621
  3
*A16
350
630
  0
DICTIONARY
  5
F3D
102
{ACAD_REACTORS
330
C
102
}
330
C
100
AcDbDictionary
281
     1
  3
Model
350
F3F
  3
ﾚｲｱｳﾄ1
350
F40
  0
DICTIONARY
  5
E
102
{ACAD_REACTORS
330
C
102
}
330
C
100
AcDbDictionary
281
     1
  3
STANDARD
350
13
  0
DICTIONARY
  5
F3E
102
{ACAD_REACTORS
330
C
102
}
330
C
100
AcDbDictionary
281
     1
  0
ACDBDICTIONARYWDFLT
  5
F3B
102
{ACAD_REACTORS
330
C
102
}
330
C
100
AcDbDictionary
281
     1
  3
Normal
350
F3C
100
AcDbDictionaryWithDefault
340
F3C
  0
XRECORD
  5
70C7
102
{ACAD_REACTORS
330
C
102
}
330
C
100
AcDbXrecord
280
     1
 90
   990106
  3

 60
     0
 61
     0
 62
     4
 63
     4
 64
     1
 65
     0
 66
     0
 67
     3
 68
     1
 69
     0
 70
     0
 71
     0
 72
     0
 40
0.0
170
     2
340
70C9
  0
DICTIONARY
  5
234
102
{ACAD_REACTORS
330
C
102
}
330
C
100
AcDbDictionary
281
     1
  0
XRECORD
  5
6FD0
102
{ACAD_REACTORS
330
F6B
102
}
330
F6B
100
AcDbXrecord
280
     1
340
1A
  0
XRECORD
  5
6FCF
102
{ACAD_REACTORS
330
F69
102
}
330
F69
100
AcDbXrecord
280
     1
340
17
  0
GROUP
  5
36C
102
{ACAD_REACTORS
330
D
102
}
330
D
100
AcDbGroup
300

 70
     1
 71
     1
  0
GROUP
  5
682
102
{ACAD_REACTORS
330
D
102
}
330
D
100
AcDbGroup
300

 70
     1
 71
     1
  0
GROUP
  5
84A
102
{ACAD_REACTORS
330
D
102
}
330
D
100
AcDbGroup
300

 70
     1
 71
     1
  0
GROUP
  5
60B1
102
{ACAD_REACTORS
330
D
102
}
330
D
100
AcDbGroup
300

 70
     1
 71
     1
  0
GROUP
  5
60B2
102
{ACAD_REACTORS
330
D
102
}
330
D
100
AcDbGroup
300

 70
     1
 71
     1
  0
GROUP
  5
60B3
102
{ACAD_REACTORS
330
D
102
}
330
D
100
AcDbGroup
300

 70
     1
 71
     1
  0
GROUP
  5
60B4
102
{ACAD_REACTORS
330
D
102
}
330
D
100
AcDbGroup
300

 70
     1
 71
     1
  0
GROUP
  5
60B5
102
{ACAD_REACTORS
330
D
102
}
330
D
100
AcDbGroup
300

 70
     1
 71
     1
  0
GROUP
  5
60B6
102
{ACAD_REACTORS
330
D
102
}
330
D
100
AcDbGroup
300

 70
     1
 71
     1
  0
GROUP
  5
60B7
102
{ACAD_REACTORS
330
D
102
}
330
D
100
AcDbGroup
300

 70
     1
 71
     1
  0
GROUP
  5
60B8
102
{ACAD_REACTORS
330
D
102
}
330
D
100
AcDbGroup
300

 70
     1
 71
     1
  0
GROUP
  5
377
102
{ACAD_REACTORS
330
D
102
}
330
D
100
AcDbGroup
300

 70
     1
 71
     1
  0
GROUP
  5
419
102
{ACAD_REACTORS
330
D
102
}
330
D
100
AcDbGroup
300

 70
     1
 71
     1
  0
GROUP
  5
41A
102
{ACAD_REACTORS
330
D
102
}
330
D
100
AcDbGroup
300

 70
     1
 71
     1
  0
GROUP
  5
621
102
{ACAD_REACTORS
330
D
102
}
330
D
100
AcDbGroup
300

 70
     1
 71
     1
  0
GROUP
  5
630
102
{ACAD_REACTORS
330
D
102
}
330
D
100
AcDbGroup
300

 70
     1
 71
     1
  0
LAYOUT
  5
F3F
102
{ACAD_REACTORS
330
F3D
102
}
330
F3D
100
AcDbPlotSettings
  1

  2
Laser Wind 2080W
  4

  6

 40
0.0
 41
0.0
 42
0.0
 43
0.0
 44
0.0
 45
0.0
 46
0.0
 47
0.0
 48
0.0
 49
0.0
140
0.0
141
0.0
142
1.0
143
1.0
 70
  1712
 72
     0
 73
     0
 74
     0
  7

 75
     0
147
1.0
148
0.0
149
0.0
100
AcDbLayout
  1
Model
 70
     1
 71
     0
 10
0.0
 20
0.0
 11
12.0
 21
9.0
 12
0.0
 22
0.0
 32
0.0
 14
0.0
 24
0.0
 34
0.0
 15
0.0
 25
0.0
 35
0.0
146
0.0
 13
0.0
 23
0.0
 33
0.0
 16
1.0
 26
0.0
 36
0.0
 17
0.0
 27
1.0
 37
0.0
 76
     0
330
1A
  0
LAYOUT
  5
F40
102
{ACAD_REACTORS
330
F3D
102
}
330
F3D
100
AcDbPlotSettings
  1

  2
RICOH IPSiO CX8800 RPCS.pc3
  4
A3
  6

 40
5.873749732971191
 41
5.873747825622558
 42
5.873748779296875
 43
5.873748779296875
 44
296.9259948730469
 45
419.9466552734374
 46
0.0
 47
0.0
 48
0.0
 49
0.0
140
421.372240280903
141
296.3779245674444
142
1.0
143
1.0
 70
   688
 72
     1
 73
     1
 74
     5
  7
monochrome.ctb
 75
    16
147
1.0
148
0.0
149
0.0
100
AcDbLayout
  1
ﾚｲｱｳﾄ1
 70
     0
 71
     1
 10
-5.873748779296875
 20
-5.873749732971191
 11
414.0729064941406
 21
291.0522451400757
 12
0.0
 22
0.0
 32
0.0
 14
20.00000000000003
 24
16.99999999999994
 34
0.0
 15
404.9999999999998
 25
281.9999999999999
 35
0.0
146
0.0
 13
0.0
 23
0.0
 33
0.0
 16
1.0
 26
0.0
 36
0.0
 17
0.0
 27
1.0
 37
0.0
 76
     0
330
17
331
22
  0
MLINESTYLE
  5
13
102
{ACAD_REACTORS
330
E
102
}
330
E
100
AcDbMlineStyle
  2
STANDARD
 70
     0
  3

 62
     0
 51
90.0
 52
90.0
 71
     2
 49
0.5
 62
   256
  6
BYLAYER
 49
-0.5
 62
   256
  6
BYLAYER
  0
ACDBPLACEHOLDER
  5
F3C
102
{ACAD_REACTORS
330
F3B
102
}
330
F3B
  0
ENDSEC
  0
EOF
