  0
SECTION
  2
HEADER
  9
$ACADVER
  1
AC1014
  9
$ACADMAINTVER
 70
     9
  9
$DWGCODEPAGE
  3
ANSI_932
  9
$INSBASE
 10
0.0
 20
0.0
 30
0.0
  9
$EXTMIN
 10
56.72204878038701
 20
39.44353582768326
 30
0.0
  9
$EXTMAX
 10
189.5856985747123
 20
293.1794660513924
 30
0.0
  9
$LIMMIN
 10
0.0
 20
0.0
  9
$LIMMAX
 10
10000.0
 20
10000.0
  9
$ORTHOMODE
 70
     0
  9
$REGENMODE
 70
     1
  9
$FILLMODE
 70
     1
  9
$QTEXTMODE
 70
     0
  9
$MIRRTEXT
 70
     1
  9
$DRAGMODE
 70
     2
  9
$LTSCALE
 40
5.0
  9
$OSMODE
 70
    32
  9
$ATTMODE
 70
     1
  9
$TEXTSIZE
 40
3.5
  9
$TRACEWID
 40
1.0
  9
$TEXTSTYLE
  7
AD-STANDARD
  9
$CLAYER
  8
0
  9
$CELTYPE
  6
BYLAYER
  9
$CECOLOR
 62
   256
  9
$CELTSCALE
 40
1.0
  9
$DELOBJ
 70
     1
  9
$DISPSILH
 70
     0
  9
$DIMSCALE
 40
1.0
  9
$DIMASZ
 40
0.18
  9
$DIMEXO
 40
0.0625
  9
$DIMDLI
 40
0.38
  9
$DIMRND
 40
0.0
  9
$DIMDLE
 40
0.0
  9
$DIMEXE
 40
0.18
  9
$DIMTP
 40
0.0
  9
$DIMTM
 40
0.0
  9
$DIMTXT
 40
0.18
  9
$DIMCEN
 40
0.09
  9
$DIMTSZ
 40
0.0
  9
$DIMTOL
 70
     0
  9
$DIMLIM
 70
     0
  9
$DIMTIH
 70
     1
  9
$DIMTOH
 70
     1
  9
$DIMSE1
 70
     0
  9
$DIMSE2
 70
     0
  9
$DIMTAD
 70
     0
  9
$DIMZIN
 70
     0
  9
$DIMBLK
  1

  9
$DIMASO
 70
     1
  9
$DIMSHO
 70
     1
  9
$DIMPOST
  1

  9
$DIMAPOST
  1

  9
$DIMALT
 70
     0
  9
$DIMALTD
 70
     2
  9
$DIMALTF
 40
25.4
  9
$DIMLFAC
 40
1.0
  9
$DIMTOFL
 70
     0
  9
$DIMTVP
 40
0.0
  9
$DIMTIX
 70
     0
  9
$DIMSOXD
 70
     0
  9
$DIMSAH
 70
     0
  9
$DIMBLK1
  1

  9
$DIMBLK2
  1

  9
$DIMSTYLE
  2
STANDARD
  9
$DIMCLRD
 70
     0
  9
$DIMCLRE
 70
     0
  9
$DIMCLRT
 70
     0
  9
$DIMTFAC
 40
1.0
  9
$DIMGAP
 40
0.09
  9
$DIMJUST
 70
     0
  9
$DIMSD1
 70
     0
  9
$DIMSD2
 70
     0
  9
$DIMTOLJ
 70
     1
  9
$DIMTZIN
 70
     0
  9
$DIMALTZ
 70
     0
  9
$DIMALTTZ
 70
     0
  9
$DIMFIT
 70
     3
  9
$DIMUPT
 70
     0
  9
$DIMUNIT
 70
     2
  9
$DIMDEC
 70
     4
  9
$DIMTDEC
 70
     4
  9
$DIMALTU
 70
     2
  9
$DIMALTTD
 70
     2
  9
$DIMTXSTY
  7
STANDARD
  9
$DIMAUNIT
 70
     0
  9
$LUNITS
 70
     2
  9
$LUPREC
 70
     4
  9
$SKETCHINC
 40
1.0
  9
$FILLETRAD
 40
1.5
  9
$AUNITS
 70
     0
  9
$AUPREC
 70
     0
  9
$MENU
  1
.
  9
$ELEVATION
 40
0.0
  9
$PELEVATION
 40
0.0
  9
$THICKNESS
 40
0.0
  9
$LIMCHECK
 70
     0
  9
$BLIPMODE
 70
     0
  9
$CHAMFERA
 40
0.5
  9
$CHAMFERB
 40
0.5
  9
$CHAMFERC
 40
673.4006734006733
  9
$CHAMFERD
 40
0.0
  9
$SKPOLY
 70
     0
  9
$TDCREATE
 40
2451428.386184838
  9
$TDUPDATE
 40
2453991.776448507
  9
$TDINDWG
 40
1.8095473958
  9
$TDUSRTIMER
 40
1.8095473958
  9
$USRTIMER
 70
     1
  9
$ANGBASE
 50
0.0
  9
$ANGDIR
 70
     0
  9
$PDMODE
 70
     0
  9
$PDSIZE
 40
0.0
  9
$PLINEWID
 40
0.0
  9
$COORDS
 70
     1
  9
$SPLFRAME
 70
     0
  9
$SPLINETYPE
 70
     6
  9
$SPLINESEGS
 70
     8
  9
$ATTDIA
 70
     0
  9
$ATTREQ
 70
     1
  9
$HANDLING
 70
 10241
  9
$HANDSEED
  5
369C
  9
$SURFTAB1
 70
     6
  9
$SURFTAB2
 70
     6
  9
$SURFTYPE
 70
     6
  9
$SURFU
 70
     6
  9
$SURFV
 70
     6
  9
$UCSNAME
  2

  9
$UCSORG
 10
0.0
 20
0.0
 30
0.0
  9
$UCSXDIR
 10
1.0
 20
0.0
 30
0.0
  9
$UCSYDIR
 10
0.0
 20
1.0
 30
0.0
  9
$PUCSNAME
  2

  9
$PUCSORG
 10
0.0
 20
0.0
 30
0.0
  9
$PUCSXDIR
 10
1.0
 20
0.0
 30
0.0
  9
$PUCSYDIR
 10
0.0
 20
1.0
 30
0.0
  9
$USERI1
 70
     0
  9
$USERI2
 70
     0
  9
$USERI3
 70
     0
  9
$USERI4
 70
     0
  9
$USERI5
 70
     0
  9
$USERR1
 40
0.0
  9
$USERR2
 40
0.0
  9
$USERR3
 40
0.0
  9
$USERR4
 40
0.0
  9
$USERR5
 40
0.0
  9
$WORLDVIEW
 70
     1
  9
$SHADEDGE
 70
     3
  9
$SHADEDIF
 70
    70
  9
$TILEMODE
 70
     1
  9
$MAXACTVP
 70
    16
  9
$PINSBASE
 10
0.0
 20
0.0
 30
0.0
  9
$PLIMCHECK
 70
     0
  9
$PEXTMIN
 10
20.0
 20
16.99999999999994
 30
0.0
  9
$PEXTMAX
 10
404.9999999999998
 20
281.9999999999999
 30
0.0
  9
$PLIMMIN
 10
15.55969551882102
 20
4.656297548292683
  9
$PLIMMAX
 10
414.2933966180392
 20
286.4296302300153
  9
$UNITMODE
 70
     0
  9
$VISRETAIN
 70
     0
  9
$PLINEGEN
 70
     0
  9
$PSLTSCALE
 70
     0
  9
$TREEDEPTH
 70
  3020
  9
$PICKSTYLE
 70
     1
  9
$CMLSTYLE
  2
STANDARD
  9
$CMLJUST
 70
     0
  9
$CMLSCALE
 40
1.0
  9
$PROXYGRAPHICS
 70
     1
  9
$MEASUREMENT
 70
     1
  0
ENDSEC
  0
SECTION
  2
CLASSES
  0
CLASS
  1
LWPOLYLINE
  2
AcDbPolyline
  3
AutoCAD 2000
 90
        0
280
     0
281
     1
  0
CLASS
  1
OLE2FRAME
  2
AcDbOle2Frame
  3
AutoCAD 2000
 90
        0
280
     0
281
     1
  0
CLASS
  1
ACDBDICTIONARYWDFLT
  2
AcDbDictionaryWithDefault
  3
AutoCAD 2000
 90
        0
280
     0
281
     0
  0
CLASS
  1
ACDBPLACEHOLDER
  2
AcDbPlaceHolder
  3
AutoCAD 2000
 90
        0
280
     0
281
     0
  0
CLASS
  1
LAYOUT
  2
AcDbLayout
  3
AutoCAD 2000
 90
        0
280
     0
281
     0
  0
CLASS
  1
LONG_TRANSACTION
  2
AcDbLongTransaction
  3
AutoCAD 2000
 90
        0
280
     0
281
     0
  0
CLASS
  1
LWPOLYLINE
  2
AcDbPolyline
  3
AutoCAD 2000
 90
        0
280
     0
281
     1
  0
CLASS
  1
HATCH
  2
AcDbHatch
  3
AutoCAD 2000
 90
        0
280
     0
281
     1
  0
CLASS
  1
XRECORD
  2
AcDbXrecord
  3
AutoCAD 2000
 90
        0
280
     0
281
     0
  0
CLASS
  1
PLOTSETTINGS
  2
AcDbPlotSettings
  3
AutoCAD 2000
 90
        0
280
     0
281
     0
  0
CLASS
  1
LONG_TRANSACTION
  2
AcDbLongTransaction
  3
AutoCAD 2000
 90
        0
280
     0
281
     0
  0
CLASS
  1
LWPOLYLINE
  2
AcDbPolyline
  3
AutoCAD 2000
 90
        0
280
     0
281
     1
  0
CLASS
  1
HATCH
  2
AcDbHatch
  3
AutoCAD 2000
 90
        0
280
     0
281
     1
  0
CLASS
  1
XRECORD
  2
AcDbXrecord
  3
AutoCAD 2000
 90
        0
280
     0
281
     0
  0
CLASS
  1
LONG_TRANSACTION
  2
AcDbLongTransaction
  3
AutoCAD 2000
 90
        0
280
     0
281
     0
  0
CLASS
  1
LWPOLYLINE
  2
AcDbPolyline
  3
AutoCAD 2000
 90
        0
280
     0
281
     1
  0
CLASS
  1
HATCH
  2
AcDbHatch
  3
AutoCAD 2000
 90
        0
280
     0
281
     1
  0
CLASS
  1
XRECORD
  2
AcDbXrecord
  3
AutoCAD 2000
 90
        0
280
     0
281
     0
  0
CLASS
  1
LONG_TRANSACTION
  2
AcDbLongTransaction
  3
AutoCAD 2000
 90
        0
280
     0
281
     0
  0
CLASS
  1
LWPOLYLINE
  2
AcDbPolyline
  3
AutoCAD 2000
 90
        0
280
     0
281
     1
  0
CLASS
  1
HATCH
  2
AcDbHatch
  3
AutoCAD 2000
 90
        0
280
     0
281
     1
  0
CLASS
  1
XRECORD
  2
AcDbXrecord
  3
AutoCAD 2000
 90
        0
280
     0
281
     0
  0
CLASS
  1
LONG_TRANSACTION
  2
AcDbLongTransaction
  3
AutoCAD 2000
 90
        0
280
     0
281
     0
  0
CLASS
  1
LWPOLYLINE
  2
AcDbPolyline
  3
AutoCAD 2000
 90
        0
280
     0
281
     1
  0
CLASS
  1
HATCH
  2
AcDbHatch
  3
AutoCAD 2000
 90
        0
280
     0
281
     1
  0
CLASS
  1
XRECORD
  2
AcDbXrecord
  3
AutoCAD 2000
 90
        0
280
     0
281
     0
  0
CLASS
  1
DICTIONARYVAR
  2
AcDbDictionaryVar
  3
AutoCAD 2000
 90
        0
280
     0
281
     0
  0
CLASS
  1
LONG_TRANSACTION
  2
AcDbLongTransaction
  3
AutoCAD 2000
 90
        0
280
     0
281
     0
  0
CLASS
  1
LWPOLYLINE
  2
AcDbPolyline
  3
AutoCAD 2000
 90
        0
280
     0
281
     1
  0
CLASS
  1
HATCH
  2
AcDbHatch
  3
AutoCAD 2000
 90
        0
280
     0
281
     1
  0
CLASS
  1
XRECORD
  2
AcDbXrecord
  3
AutoCAD 2000
 90
        0
280
     0
281
     0
  0
CLASS
  1
LONG_TRANSACTION
  2
AcDbLongTransaction
  3
AutoCAD 2000
 90
        0
280
     0
281
     0
  0
CLASS
  1
LWPOLYLINE
  2
AcDbPolyline
  3
AutoCAD 2000
 90
        0
280
     0
281
     1
  0
CLASS
  1
HATCH
  2
AcDbHatch
  3
AutoCAD 2000
 90
        0
280
     0
281
     1
  0
CLASS
  1
XRECORD
  2
AcDbXrecord
  3
AutoCAD 2000
 90
        0
280
     0
281
     0
  0
CLASS
  1
LONG_TRANSACTION
  2
AcDbLongTransaction
  3
AutoCAD 2000
 90
        0
280
     0
281
     0
  0
CLASS
  1
LWPOLYLINE
  2
AcDbPolyline
  3
AutoCAD 2000
 90
        0
280
     0
281
     1
  0
CLASS
  1
HATCH
  2
AcDbHatch
  3
AutoCAD 2000
 90
        0
280
     0
281
     1
  0
CLASS
  1
XRECORD
  2
AcDbXrecord
  3
AutoCAD 2000
 90
        0
280
     0
281
     0
  0
CLASS
  1
LONG_TRANSACTION
  2
AcDbLongTransaction
  3
AutoCAD 2000
 90
        0
280
     0
281
     0
  0
CLASS
  1
LWPOLYLINE
  2
AcDbPolyline
  3
AutoCAD 2000
 90
        0
280
     0
281
     1
  0
CLASS
  1
HATCH
  2
AcDbHatch
  3
AutoCAD 2000
 90
        0
280
     0
281
     1
  0
CLASS
  1
XRECORD
  2
AcDbXrecord
  3
AutoCAD 2000
 90
        0
280
     0
281
     0
  0
CLASS
  1
LONG_TRANSACTION
  2
AcDbLongTransaction
  3
AutoCAD 2000
 90
        0
280
     0
281
     0
  0
CLASS
  1
LWPOLYLINE
  2
AcDbPolyline
  3
AutoCAD 2000
 90
        0
280
     0
281
     1
  0
CLASS
  1
HATCH
  2
AcDbHatch
  3
AutoCAD 2000
 90
        0
280
     0
281
     1
  0
CLASS
  1
XRECORD
  2
AcDbXrecord
  3
AutoCAD 2000
 90
        0
280
     0
281
     0
  0
CLASS
  1
LONG_TRANSACTION
  2
AcDbLongTransaction
  3
AutoCAD 2000
 90
        0
280
     0
281
     0
  0
CLASS
  1
LWPOLYLINE
  2
AcDbPolyline
  3
AutoCAD 2000
 90
        0
280
     0
281
     1
  0
CLASS
  1
HATCH
  2
AcDbHatch
  3
AutoCAD 2000
 90
        0
280
     0
281
     1
  0
CLASS
  1
XRECORD
  2
AcDbXrecord
  3
AutoCAD 2000
 90
        0
280
     0
281
     0
  0
CLASS
  1
LONG_TRANSACTION
  2
AcDbLongTransaction
  3
AutoCAD 2000
 90
        0
280
     0
281
     0
  0
CLASS
  1
LWPOLYLINE
  2
AcDbPolyline
  3
AutoCAD 2000
 90
        0
280
     0
281
     1
  0
CLASS
  1
HATCH
  2
AcDbHatch
  3
AutoCAD 2000
 90
        0
280
     0
281
     1
  0
CLASS
  1
XRECORD
  2
AcDbXrecord
  3
AutoCAD 2000
 90
        0
280
     0
281
     0
  0
CLASS
  1
LONG_TRANSACTION
  2
AcDbLongTransaction
  3
AutoCAD 2000
 90
        0
280
     0
281
     0
  0
CLASS
  1
LWPOLYLINE
  2
AcDbPolyline
  3
AutoCAD 2000
 90
        0
280
     0
281
     1
  0
CLASS
  1
HATCH
  2
AcDbHatch
  3
AutoCAD 2000
 90
        0
280
     0
281
     1
  0
CLASS
  1
XRECORD
  2
AcDbXrecord
  3
AutoCAD 2000
 90
        0
280
     0
281
     0
  0
CLASS
  1
LONG_TRANSACTION
  2
AcDbLongTransaction
  3
AutoCAD 2000
 90
        0
280
     0
281
     0
  0
CLASS
  1
LWPOLYLINE
  2
AcDbPolyline
  3
AutoCAD 2000
 90
        0
280
     0
281
     1
  0
CLASS
  1
HATCH
  2
AcDbHatch
  3
AutoCAD 2000
 90
        0
280
     0
281
     1
  0
CLASS
  1
XRECORD
  2
AcDbXrecord
  3
AutoCAD 2000
 90
        0
280
     0
281
     0
  0
CLASS
  1
LONG_TRANSACTION
  2
AcDbLongTransaction
  3
AutoCAD 2000
 90
        0
280
     0
281
     0
  0
CLASS
  1
LWPOLYLINE
  2
AcDbPolyline
  3
AutoCAD 2000
 90
        0
280
     0
281
     1
  0
CLASS
  1
HATCH
  2
AcDbHatch
  3
AutoCAD 2000
 90
        0
280
     0
281
     1
  0
CLASS
  1
XRECORD
  2
AcDbXrecord
  3
AutoCAD 2000
 90
        0
280
     0
281
     0
  0
CLASS
  1
LONG_TRANSACTION
  2
AcDbLongTransaction
  3
AutoCAD 2000
 90
        0
280
     0
281
     0
  0
CLASS
  1
LWPOLYLINE
  2
AcDbPolyline
  3
AutoCAD 2000
 90
        0
280
     0
281
     1
  0
CLASS
  1
HATCH
  2
AcDbHatch
  3
AutoCAD 2000
 90
        0
280
     0
281
     1
  0
CLASS
  1
XRECORD
  2
AcDbXrecord
  3
AutoCAD 2000
 90
        0
280
     0
281
     0
  0
CLASS
  1
LONG_TRANSACTION
  2
AcDbLongTransaction
  3
AutoCAD 2000
 90
        0
280
     0
281
     0
  0
CLASS
  1
LWPOLYLINE
  2
AcDbPolyline
  3
AutoCAD 2000
 90
        0
280
     0
281
     1
  0
CLASS
  1
HATCH
  2
AcDbHatch
  3
AutoCAD 2000
 90
        0
280
     0
281
     1
  0
CLASS
  1
XRECORD
  2
AcDbXrecord
  3
AutoCAD 2000
 90
        0
280
     0
281
     0
  0
CLASS
  1
LONG_TRANSACTION
  2
AcDbLongTransaction
  3
AutoCAD 2000
 90
        0
280
     0
281
     0
  0
CLASS
  1
LWPOLYLINE
  2
AcDbPolyline
  3
AutoCAD 2000
 90
        0
280
     0
281
     1
  0
CLASS
  1
HATCH
  2
AcDbHatch
  3
AutoCAD 2000
 90
        0
280
     0
281
     1
  0
CLASS
  1
XRECORD
  2
AcDbXrecord
  3
AutoCAD 2000
 90
        0
280
     0
281
     0
  0
CLASS
  1
LONG_TRANSACTION
  2
AcDbLongTransaction
  3
AutoCAD 2000
 90
        0
280
     0
281
     0
  0
CLASS
  1
LWPOLYLINE
  2
AcDbPolyline
  3
AutoCAD 2000
 90
        0
280
     0
281
     1
  0
CLASS
  1
HATCH
  2
AcDbHatch
  3
AutoCAD 2000
 90
        0
280
     0
281
     1
  0
CLASS
  1
XRECORD
  2
AcDbXrecord
  3
AutoCAD 2000
 90
        0
280
     0
281
     0
  0
CLASS
  1
LONG_TRANSACTION
  2
AcDbLongTransaction
  3
AutoCAD 2000
 90
        0
280
     0
281
     0
  0
CLASS
  1
LWPOLYLINE
  2
AcDbPolyline
  3
AutoCAD 2000
 90
        0
280
     0
281
     1
  0
CLASS
  1
HATCH
  2
AcDbHatch
  3
AutoCAD 2000
 90
        0
280
     0
281
     1
  0
CLASS
  1
XRECORD
  2
AcDbXrecord
  3
AutoCAD 2000
 90
        0
280
     0
281
     0
  0
CLASS
  1
LONG_TRANSACTION
  2
AcDbLongTransaction
  3
AutoCAD 2000
 90
        0
280
     0
281
     0
  0
CLASS
  1
LWPOLYLINE
  2
AcDbPolyline
  3
AutoCAD 2000
 90
        0
280
     0
281
     1
  0
CLASS
  1
HATCH
  2
AcDbHatch
  3
AutoCAD 2000
 90
        0
280
     0
281
     1
  0
CLASS
  1
XRECORD
  2
AcDbXrecord
  3
AutoCAD 2000
 90
        0
280
     0
281
     0
  0
CLASS
  1
LONG_TRANSACTION
  2
AcDbLongTransaction
  3
AutoCAD 2000
 90
        0
280
     0
281
     0
  0
CLASS
  1
LWPOLYLINE
  2
AcDbPolyline
  3
AutoCAD 2000
 90
        0
280
     0
281
     1
  0
CLASS
  1
HATCH
  2
AcDbHatch
  3
AutoCAD 2000
 90
        0
280
     0
281
     1
  0
CLASS
  1
XRECORD
  2
AcDbXrecord
  3
AutoCAD 2000
 90
        0
280
     0
281
     0
  0
CLASS
  1
LONG_TRANSACTION
  2
AcDbLongTransaction
  3
AutoCAD 2000
 90
        0
280
     0
281
     0
  0
CLASS
  1
LWPOLYLINE
  2
AcDbPolyline
  3
AutoCAD 2000
 90
        0
280
     0
281
     1
  0
CLASS
  1
HATCH
  2
AcDbHatch
  3
AutoCAD 2000
 90
        0
280
     0
281
     1
  0
CLASS
  1
XRECORD
  2
AcDbXrecord
  3
AutoCAD 2000
 90
        0
280
     0
281
     0
  0
CLASS
  1
LONG_TRANSACTION
  2
AcDbLongTransaction
  3
AutoCAD 2000
 90
        0
280
     0
281
     0
  0
CLASS
  1
LWPOLYLINE
  2
AcDbPolyline
  3
AutoCAD 2000
 90
        0
280
     0
281
     1
  0
CLASS
  1
HATCH
  2
AcDbHatch
  3
AutoCAD 2000
 90
        0
280
     0
281
     1
  0
CLASS
  1
XRECORD
  2
AcDbXrecord
  3
AutoCAD 2000
 90
        0
280
     0
281
     0
  0
CLASS
  1
LONG_TRANSACTION
  2
AcDbLongTransaction
  3
AutoCAD 2000
 90
        0
280
     0
281
     0
  0
CLASS
  1
LWPOLYLINE
  2
AcDbPolyline
  3
AutoCAD 2000
 90
        0
280
     0
281
     1
  0
CLASS
  1
HATCH
  2
AcDbHatch
  3
AutoCAD 2000
 90
        0
280
     0
281
     1
  0
CLASS
  1
XRECORD
  2
AcDbXrecord
  3
AutoCAD 2000
 90
        0
280
     0
281
     0
  0
CLASS
  1
LONG_TRANSACTION
  2
AcDbLongTransaction
  3
AutoCAD 2000
 90
        0
280
     0
281
     0
  0
CLASS
  1
LWPOLYLINE
  2
AcDbPolyline
  3
AutoCAD 2000
 90
        0
280
     0
281
     1
  0
CLASS
  1
HATCH
  2
AcDbHatch
  3
AutoCAD 2000
 90
        0
280
     0
281
     1
  0
CLASS
  1
XRECORD
  2
AcDbXrecord
  3
AutoCAD 2000
 90
        0
280
     0
281
     0
  0
CLASS
  1
LONG_TRANSACTION
  2
AcDbLongTransaction
  3
AutoCAD 2000
 90
        0
280
     0
281
     0
  0
CLASS
  1
LWPOLYLINE
  2
AcDbPolyline
  3
AutoCAD 2000
 90
        0
280
     0
281
     1
  0
CLASS
  1
HATCH
  2
AcDbHatch
  3
AutoCAD 2000
 90
        0
280
     0
281
     1
  0
CLASS
  1
XRECORD
  2
AcDbXrecord
  3
AutoCAD 2000
 90
        0
280
     0
281
     0
  0
CLASS
  1
LONG_TRANSACTION
  2
AcDbLongTransaction
  3
AutoCAD 2000
 90
        0
280
     0
281
     0
  0
CLASS
  1
LWPOLYLINE
  2
AcDbPolyline
  3
AutoCAD 2000
 90
        0
280
     0
281
     1
  0
CLASS
  1
HATCH
  2
AcDbHatch
  3
AutoCAD 2000
 90
        0
280
     0
281
     1
  0
CLASS
  1
XRECORD
  2
AcDbXrecord
  3
AutoCAD 2000
 90
        0
280
     0
281
     0
  0
CLASS
  1
LONG_TRANSACTION
  2
AcDbLongTransaction
  3
AutoCAD 2000
 90
        0
280
     0
281
     0
  0
CLASS
  1
LWPOLYLINE
  2
AcDbPolyline
  3
AutoCAD 2000
 90
        0
280
     0
281
     1
  0
CLASS
  1
HATCH
  2
AcDbHatch
  3
AutoCAD 2000
 90
        0
280
     0
281
     1
  0
CLASS
  1
XRECORD
  2
AcDbXrecord
  3
AutoCAD 2000
 90
        0
280
     0
281
     0
  0
ENDSEC
  0
SECTION
  2
TABLES
  0
TABLE
  2
VPORT
  5
8
330
0
100
AcDbSymbolTable
 70
     2
  0
VPORT
  5
3679
330
8
100
AcDbSymbolTableRecord
100
AcDbViewportTableRecord
  2
*ACTIVE
 70
     0
 10
0.0
 20
0.0
 11
1.0
 21
1.0
 12
73.52795955747024
 22
170.6931453863751
 13
0.0
 23
0.0
 14
168.0
 24
168.0
 15
0.0
 25
0.0
 16
0.0
 26
0.0
 36
1.0
 17
0.0
 27
0.0
 37
0.0
 40
470.593719973107
 41
1.602080624187256
 42
50.0
 43
0.0
 44
0.0
 50
0.0
 51
0.0
 71
     0
 72
   100
 73
     1
 74
     0
 75
     0
 76
     0
 77
     0
 78
     1
  0
ENDTAB
  0
TABLE
  2
LTYPE
  5
5
330
0
100
AcDbSymbolTable
 70
     3
  0
LTYPE
  5
14
330
5
100
AcDbSymbolTableRecord
100
AcDbLinetypeTableRecord
  2
BYBLOCK
 70
     0
  3

 72
    65
 73
     0
 40
0.0
  0
LTYPE
  5
15
330
5
100
AcDbSymbolTableRecord
100
AcDbLinetypeTableRecord
  2
BYLAYER
 70
     0
  3

 72
    65
 73
     0
 40
0.0
  0
LTYPE
  5
16
330
5
100
AcDbSymbolTableRecord
100
AcDbLinetypeTableRecord
  2
CONTINUOUS
 70
     0
  3
Solid line
 72
    65
 73
     0
 40
0.0
  0
LTYPE
  5
6E
330
5
100
AcDbSymbolTableRecord
100
AcDbLinetypeTableRecord
  2
CENTER
 70
     0
  3
____ _ ____ _ ____ _ ____ _ ____ _ ____ _ ____ 
 72
    65
 73
     4
 40
2.0
 49
1.25
 74
     0
 49
-0.25
 74
     0
 49
0.25
 74
     0
 49
-0.25
 74
     0
  0
LTYPE
  5
6F
330
5
100
AcDbSymbolTableRecord
100
AcDbLinetypeTableRecord
  2
HIDDEN
 70
     0
  3
__ __ __ __ __ __ __ __ __ __ __ __ __ __ __ __
 72
    65
 73
     2
 40
0.375
 49
0.25
 74
     0
 49
-0.125
 74
     0
  0
ENDTAB
  0
TABLE
  2
LAYER
  5
2
330
0
100
AcDbSymbolTable
 70
     5
  0
LAYER
  5
F
330
2
100
AcDbSymbolTableRecord
100
AcDbLayerTableRecord
  2
0
 70
     0
 62
     7
  6
CONTINUOUS
  0
LAYER
  5
72
330
2
100
AcDbSymbolTableRecord
100
AcDbLayerTableRecord
  2
DEFPOINTS
 70
     0
 62
     7
  6
CONTINUOUS
  0
LAYER
  5
74
330
2
100
AcDbSymbolTableRecord
100
AcDbLayerTableRecord
  2
CENTER
 70
     0
 62
     9
  6
CENTER
  0
LAYER
  5
244
330
2
100
AcDbSymbolTableRecord
100
AcDbLayerTableRecord
  2
NOTE
 70
     0
 62
     2
  6
CONTINUOUS
  0
LAYER
  5
1803
330
2
100
AcDbSymbolTableRecord
100
AcDbLayerTableRecord
  2
1
 70
     0
 62
     7
  6
CONTINUOUS
  0
ENDTAB
  0
TABLE
  2
STYLE
  5
3
330
0
100
AcDbSymbolTable
 70
     2
  0
STYLE
  5
10
330
3
100
AcDbSymbolTableRecord
100
AcDbTextStyleTableRecord
  2
STANDARD
 70
     0
 40
0.0
 41
0.8
 50
0.0
 71
     0
 42
84.17508417508416
  3
TXT
  4
bigfont.shx
  0
STYLE
  5
63
330
3
100
AcDbSymbolTableRecord
100
AcDbTextStyleTableRecord
  2
AD-STANDARD
 70
     0
 40
0.0
 41
0.8
 50
0.0
 71
     0
 42
3.5
  3
C:\Program Files\AutoCAD LT\romans.shx
  4
bigfont.shx
  0
ENDTAB
  0
TABLE
  2
VIEW
  5
6
330
0
100
AcDbSymbolTable
 70
     0
  0
ENDTAB
  0
TABLE
  2
UCS
  5
7
330
0
100
AcDbSymbolTable
 70
     0
  0
ENDTAB
  0
TABLE
  2
APPID
  5
9
330
0
100
AcDbSymbolTable
 70
     5
  0
APPID
  5
11
330
9
100
AcDbSymbolTableRecord
100
AcDbRegAppTableRecord
  2
ACAD
 70
     0
  0
APPID
  5
22A
330
9
100
AcDbSymbolTableRecord
100
AcDbRegAppTableRecord
  2
CONTENTTABDATA
 70
     0
  0
APPID
  5
22B
330
9
100
AcDbSymbolTableRecord
100
AcDbRegAppTableRecord
  2
CONTENTCURRENTTAB
 70
     0
  0
APPID
  5
232
330
9
100
AcDbSymbolTableRecord
100
AcDbRegAppTableRecord
  2
CONTENTBLOCKDESCRIPTION
 70
     0
  0
APPID
  5
233
330
9
100
AcDbSymbolTableRecord
100
AcDbRegAppTableRecord
  2
CONTENTBLOCKICON
 70
     0
  0
ENDTAB
  0
TABLE
  2
DIMSTYLE
  5
A
330
0
100
AcDbSymbolTable
 70
     2
  0
DIMSTYLE
105
1D
330
A
100
AcDbSymbolTableRecord
100
AcDbDimStyleTableRecord
  2
STANDARD
 70
     0
  3

  4

  5

  6

  7

 40
1.0
 41
0.18
 42
0.0625
 43
0.38
 44
0.18
 45
0.0
 46
0.0
 47
0.0
 48
0.0
140
0.18
141
0.09
142
0.0
143
25.4
144
1.0
145
0.0
146
1.0
147
0.09
 71
     0
 72
     0
 73
     1
 74
     1
 75
     0
 76
     0
 77
     0
 78
     0
170
     0
171
     2
172
     0
173
     0
174
     0
175
     0
176
     0
177
     0
178
     0
270
     2
271
     4
272
     4
273
     2
274
     2
340
10
275
     0
280
     0
281
     0
282
     0
283
     1
284
     0
285
     0
286
     0
287
     3
288
     0
  0
ENDTAB
  0
TABLE
  2
BLOCK_RECORD
  5
1
330
0
100
AcDbSymbolTable
 70
     0
  0
BLOCK_RECORD
  5
1A
102
{ACAD_XDICTIONARY
360
1E6D
102
}
330
1
100
AcDbSymbolTableRecord
100
AcDbBlockTableRecord
  2
*MODEL_SPACE
  0
BLOCK_RECORD
  5
17
102
{ACAD_XDICTIONARY
360
1E6B
102
}
330
1
100
AcDbSymbolTableRecord
100
AcDbBlockTableRecord
  2
*PAPER_SPACE
  0
ENDTAB
  0
ENDSEC
  0
SECTION
  2
BLOCKS
  0
BLOCK
  5
1B
330
1A
100
AcDbEntity
  8
0
100
AcDbBlockBegin
  2
*MODEL_SPACE
 70
     0
 10
0.0
 20
0.0
 30
0.0
  3
*MODEL_SPACE
  1

  0
ENDBLK
  5
1C
330
1A
100
AcDbEntity
  8
0
100
AcDbBlockEnd
  0
BLOCK
  5
18
330
17
100
AcDbEntity
 67
     1
  8
0
100
AcDbBlockBegin
  2
*PAPER_SPACE
 70
     0
 10
0.0
 20
0.0
 30
0.0
  3
*PAPER_SPACE
  1

  0
ENDBLK
  5
19
330
17
100
AcDbEntity
 67
     1
  8
0
100
AcDbBlockEnd
  0
ENDSEC
  0
SECTION
  2
ENTITIES
  0
LINE
  5
2B1D
330
1A
100
AcDbEntity
  8
1
100
AcDbLine
 10
112.7540794796723
 20
62.4541630582753
 30
0.0
 11
73.75407947967232
 21
62.4541630582753
 31
0.0
  0
LINE
  5
2B1E
330
1A
100
AcDbEntity
  8
1
100
AcDbLine
 10
73.75407947967232
 20
61.4541630582753
 30
0.0
 11
73.75407947967232
 21
76.9541630582753
 31
0.0
  0
LINE
  5
2B1F
330
1A
100
AcDbEntity
  8
1
100
AcDbLine
 10
73.75407947967232
 20
82.95416305827529
 30
0.0
 11
73.75407947967232
 21
101.9541630582752
 31
0.0
  0
LINE
  5
2B20
330
1A
100
AcDbEntity
  8
1
100
AcDbLine
 10
84.45407947967215
 20
82.4541630582753
 30
0.0
 11
74.25407947967233
 21
82.4541630582753
 31
0.0
  0
LINE
  5
2B21
330
1A
100
AcDbEntity
  8
1
100
AcDbLine
 10
74.25407947967233
 20
77.4541630582753
 30
0.0
 11
84.45407947967215
 21
77.4541630582753
 31
0.0
  0
LINE
  5
2B22
330
1A
100
AcDbEntity
  8
1
100
AcDbLine
 10
84.75407947967232
 20
77.75416305827548
 30
0.0
 11
84.75407947967232
 21
82.15416305827602
 31
0.0
  0
LINE
  5
2B23
330
1A
100
AcDbEntity
  8
1
100
AcDbLine
 10
74.25407947967233
 20
102.4541630582753
 30
0.0
 11
81.25407947967232
 21
102.4541630582753
 31
0.0
  0
LINE
  5
2B24
330
1A
100
AcDbEntity
  8
1
100
AcDbLine
 10
101.7540794796723
 20
102.4541630582753
 30
0.0
 11
81.25407947967232
 21
102.4541630582753
 31
0.0
  0
LINE
  5
2B25
330
1A
100
AcDbEntity
  8
CENTER
 48
2.0
100
AcDbLine
 10
112.7540794796723
 20
293.1794660513924
 30
0.0
 11
112.7540794796723
 21
186.578043843092
 31
0.0
  0
LINE
  5
2B26
330
1A
100
AcDbEntity
  8
1
100
AcDbLine
 10
112.7540794796723
 20
62.4541630582753
 30
0.0
 11
151.7540794796723
 21
62.4541630582753
 31
0.0
  0
LINE
  5
2B27
330
1A
100
AcDbEntity
  8
1
100
AcDbLine
 10
151.7540794796723
 20
61.4541630582753
 30
0.0
 11
151.7540794796723
 21
76.9541630582753
 31
0.0
  0
LINE
  5
2B28
330
1A
100
AcDbEntity
  8
1
100
AcDbLine
 10
151.7540794796723
 20
82.95416305827529
 30
0.0
 11
151.7540794796723
 21
101.9541630582752
 31
0.0
  0
LINE
  5
2B29
330
1A
100
AcDbEntity
  8
1
100
AcDbLine
 10
151.2540794796723
 20
102.4541630582753
 30
0.0
 11
144.7540794796723
 21
102.4541630582753
 31
0.0
  0
LINE
  5
2B2A
330
1A
100
AcDbEntity
  8
1
100
AcDbLine
 10
123.7540794796723
 20
102.4541630582753
 30
0.0
 11
144.7540794796723
 21
102.4541630582753
 31
0.0
  0
LINE
  5
2B2B
330
1A
100
AcDbEntity
  8
CENTER
 48
10.0
100
AcDbLine
 10
148.050919705367
 20
70.9541630582753
 30
0.0
 11
189.5856985747123
 21
70.9541630582753
 31
0.0
  0
LINE
  5
2B2C
330
1A
100
AcDbEntity
  8
1
100
AcDbLine
 10
73.75407947967232
 20
101.9541630582752
 30
0.0
 11
74.25407947967233
 21
102.4541630582753
 31
0.0
  0
LINE
  5
2B2D
330
1A
100
AcDbEntity
  8
1
100
AcDbLine
 10
151.2540794796723
 20
102.4541630582753
 30
0.0
 11
151.7540794796723
 21
101.9541630582752
 31
0.0
  0
LINE
  5
2B2E
330
1A
100
AcDbEntity
  8
1
100
AcDbLine
 10
73.75407947967232
 20
82.95416305827529
 30
0.0
 11
74.25407947967233
 21
82.4541630582753
 31
0.0
  0
LINE
  5
2B2F
330
1A
100
AcDbEntity
  8
1
100
AcDbLine
 10
73.75407947967232
 20
76.9541630582753
 30
0.0
 11
74.25407947967233
 21
77.4541630582753
 31
0.0
  0
LINE
  5
2B30
330
1A
100
AcDbEntity
  8
1
100
AcDbLine
 10
151.7540794796723
 20
76.9541630582753
 30
0.0
 11
151.2540794796723
 21
77.4541630582753
 31
0.0
  0
LINE
  5
2B31
330
1A
100
AcDbEntity
  8
1
100
AcDbLine
 10
151.2540794796723
 20
82.4541630582753
 30
0.0
 11
151.7540794796723
 21
82.95416305827529
 31
0.0
  0
LINE
  5
2B32
330
1A
100
AcDbEntity
  8
1
 48
10.0
100
AcDbLine
 10
151.7540794796723
 20
64.4541630582753
 30
0.0
 11
151.7540794796723
 21
74.4541630582753
 31
0.0
  0
LINE
  5
2B33
330
1A
100
AcDbEntity
  8
1
  6
HIDDEN
 48
2.0
100
AcDbLine
 10
102.2540794796714
 20
110.9541630582753
 30
0.0
 11
102.2540794796714
 21
105.4541630582753
 31
0.0
  0
LINE
  5
2B34
330
1A
100
AcDbEntity
  8
1
  6
HIDDEN
 48
2.0
100
AcDbLine
 10
102.7540794796714
 20
111.4541630582752
 30
0.0
 11
104.6300410750363
 21
111.4541630582752
 31
0.0
  0
LINE
  5
2B35
330
1A
100
AcDbEntity
  8
1
100
AcDbLine
 10
74.25407947967051
 20
102.4541630582743
 30
0.0
 11
101.7540794796723
 21
102.4541630582753
 31
0.0
  0
LINE
  5
2B36
330
1A
100
AcDbEntity
  8
1
100
AcDbLine
 10
123.7540794796723
 20
102.4541630582753
 30
0.0
 11
151.2540794796723
 21
102.4541630582753
 31
0.0
  0
ARC
  5
2B37
330
1A
100
AcDbEntity
  8
1
  6
HIDDEN
 48
2.0
100
AcDbCircle
 10
112.7540794796714
 20
125.4541630582753
 30
0.0
 40
17.0
100
AcDbArc
 50
235.4396782199912
 51
304.5603217800086
  0
LINE
  5
2B38
330
1A
100
AcDbEntity
  8
1
  6
HIDDEN
 48
2.0
100
AcDbLine
 10
120.8781178843082
 20
111.4541630582762
 30
0.0
 11
122.7540794796714
 21
111.4541630582762
 31
0.0
  0
LINE
  5
2B39
330
1A
100
AcDbEntity
  8
1
  6
HIDDEN
 48
2.0
100
AcDbLine
 10
102.2540794796714
 20
110.9541630582753
 30
0.0
 11
102.7540794796714
 21
111.4541630582752
 31
0.0
  0
LINE
  5
2B3A
330
1A
100
AcDbEntity
  8
1
  6
HIDDEN
 48
2.0
100
AcDbLine
 10
123.2540794796714
 20
110.9541630582762
 30
0.0
 11
122.7540794796714
 21
111.4541630582762
 31
0.0
  0
LINE
  5
2B3B
330
1A
100
AcDbEntity
  8
1
  6
HIDDEN
 48
2.0
100
AcDbLine
 10
123.2540794796732
 20
110.9541630582753
 30
0.0
 11
123.2540794796732
 21
105.4541630582753
 31
0.0
  0
ARC
  5
2B3C
330
1A
100
AcDbEntity
  8
1
100
AcDbCircle
 10
84.45407947967215
 20
77.75416305827548
 30
0.0
 40
0.3
100
AcDbArc
 50
270.0
 51
0.0
  0
ARC
  5
2B3D
330
1A
100
AcDbEntity
  8
1
100
AcDbCircle
 10
84.45407947967215
 20
82.15416305827602
 30
0.0
 40
0.3
100
AcDbArc
 50
0.0
 51
90.0
  0
LINE
  5
2B3E
330
1A
100
AcDbEntity
  8
1
100
AcDbLine
 10
141.0540794796725
 20
82.4541630582753
 30
0.0
 11
151.2540794796723
 21
82.4541630582753
 31
0.0
  0
LINE
  5
2B3F
330
1A
100
AcDbEntity
  8
1
100
AcDbLine
 10
151.2540794796723
 20
77.4541630582753
 30
0.0
 11
141.0540794796725
 21
77.4541630582753
 31
0.0
  0
LINE
  5
2B40
330
1A
100
AcDbEntity
  8
1
100
AcDbLine
 10
140.7540794796723
 20
77.75416305827548
 30
0.0
 11
140.7540794796723
 21
82.15416305827512
 31
0.0
  0
ARC
  5
2B41
330
1A
100
AcDbEntity
  8
1
100
AcDbCircle
 10
141.0540794796725
 20
77.75416305827548
 30
0.0
 40
0.3
100
AcDbArc
 50
180.0
 51
270.0
  0
ARC
  5
2B42
330
1A
100
AcDbEntity
  8
1
100
AcDbCircle
 10
141.0540794796725
 20
82.15416305827512
 30
0.0
 40
0.3
100
AcDbArc
 50
90.0
 51
180.0
  0
LINE
  5
2B43
330
1A
100
AcDbEntity
  8
1
100
AcDbLine
 10
84.45407947967215
 20
82.4541630582753
 30
0.0
 11
141.0540794796725
 21
82.4541630582753
 31
0.0
  0
LINE
  5
2B44
330
1A
100
AcDbEntity
  8
1
100
AcDbLine
 10
141.0540794796725
 20
82.4541630582753
 30
0.0
 11
117.6552865460744
 21
82.4541630582753
 31
0.0
  0
LINE
  5
2B45
330
1A
100
AcDbEntity
  8
1
100
AcDbLine
 10
84.45407947967215
 20
77.4541630582753
 30
0.0
 11
141.0540794796725
 21
77.4541630582753
 31
0.0
  0
LINE
  5
2B46
330
1A
100
AcDbEntity
  8
1
100
AcDbLine
 10
112.7540794796723
 20
102.4541630582753
 30
0.0
 11
79.25407947967051
 21
102.4541630582789
 31
0.0
  0
LINE
  5
2B47
330
1A
100
AcDbEntity
  8
1
100
AcDbLine
 10
112.7540794796723
 20
102.4541630582753
 30
0.0
 11
146.2540794796732
 21
102.4541630582753
 31
0.0
  0
CIRCLE
  5
2B48
330
1A
100
AcDbEntity
  8
1
  6
HIDDEN
 48
2.0
100
AcDbCircle
 10
112.7540794796723
 20
120.9541630582753
 30
0.0
 40
12.5
  0
LWPOLYLINE
  5
2B49
330
1A
100
AcDbEntity
  8
1
100
AcDbPolyline
 90
        4
 70
     1
 43
0.0
 10
62.75407947967233
 20
189.8787549472417
 10
162.7540794796723
 20
189.8787549472417
 10
162.7540794796723
 20
289.8787549472417
 10
62.75407947967233
 20
289.8787549472417
  0
CIRCLE
  5
2B4A
330
1A
100
AcDbEntity
  8
1
100
AcDbCircle
 10
74.25407947967233
 20
201.3787549472417
 30
0.0
 40
6.0
  0
CIRCLE
  5
2B4B
330
1A
100
AcDbEntity
  8
1
100
AcDbCircle
 10
74.25407947967233
 20
278.3787549472417
 30
0.0
 40
6.0
  0
CIRCLE
  5
2B4C
330
1A
100
AcDbEntity
  8
1
100
AcDbCircle
 10
151.2540794796723
 20
278.3787549472417
 30
0.0
 40
6.0
  0
CIRCLE
  5
2B4D
330
1A
100
AcDbEntity
  8
1
100
AcDbCircle
 10
151.2540794796723
 20
201.3787549472417
 30
0.0
 40
6.0
  0
ARC
  5
2B4E
330
1A
100
AcDbEntity
  8
1
  6
HIDDEN
 48
2.0
100
AcDbCircle
 10
112.7540794796714
 20
116.4541630582752
 30
0.0
 40
17.0
100
AcDbArc
 50
55.43967821999128
 51
124.5603217800087
  0
LWPOLYLINE
  5
2B4F
330
1A
100
AcDbEntity
  8
1
100
AcDbPolyline
 90
        4
 70
     1
 43
0.0
 10
62.75407947967233
 20
50.45416305827529
 10
162.7540794796723
 20
50.45416305827529
 10
162.7540794796723
 20
62.4541630582753
 10
62.75407947967233
 20
62.4541630582753
  0
LWPOLYLINE
  5
2B50
330
1A
100
AcDbEntity
  8
1
100
AcDbPolyline
 90
        4
 70
     0
 43
0.0
 10
73.75407947967232
 20
130.4541630582753
 10
73.75407947967232
 20
105.9541630582752
 10
74.25407947967233
 20
105.4541630582753
 10
112.7540794796723
 20
105.4541630582753
  0
LINE
  5
2B51
330
1A
100
AcDbEntity
  8
1
  6
HIDDEN
 48
2.0
100
AcDbLine
 10
100.2540794796723
 20
114.9541630582753
 30
0.0
 11
100.2540794796723
 21
108.4541630582753
 31
0.0
  0
LINE
  5
2B52
330
1A
100
AcDbEntity
  8
1
  6
HIDDEN
 48
2.0
100
AcDbLine
 10
125.2540794796723
 20
114.9541630582753
 30
0.0
 11
125.2540794796723
 21
108.4541630582743
 31
0.0
  0
LWPOLYLINE
  5
2B53
330
1A
100
AcDbEntity
  8
1
100
AcDbPolyline
 90
        4
 70
     0
 43
0.0
 10
112.7540794796723
 20
105.4541630582753
 10
151.2540794796723
 20
105.4541630582753
 10
151.7540794796723
 20
105.9541630582752
 10
151.7540794796723
 20
130.4541630582753
  0
LINE
  5
2B54
330
1A
100
AcDbEntity
  8
1
  6
HIDDEN
 48
2.0
100
AcDbLine
 10
123.4311577317039
 20
114.9541630582753
 30
0.0
 11
127.2540794796723
 21
114.9541630582753
 31
0.0
  0
LINE
  5
2B55
330
1A
100
AcDbEntity
  8
1
  6
HIDDEN
 48
2.0
100
AcDbLine
 10
127.2540794796723
 20
105.4541630582753
 30
0.0
 11
127.2540794796723
 21
108.4541630582734
 31
0.0
  0
LINE
  5
2B56
330
1A
100
AcDbEntity
  8
1
  6
HIDDEN
 48
2.0
100
AcDbLine
 10
98.25407947967233
 20
130.4541630582753
 30
0.0
 11
98.25407947967233
 21
114.9541630582753
 31
0.0
  0
LINE
  5
2B57
330
1A
100
AcDbEntity
  8
1
  6
HIDDEN
 48
2.0
100
AcDbLine
 10
98.25407947967233
 20
114.9541630582753
 30
0.0
 11
102.0770012276407
 21
114.9541630582753
 31
0.0
  0
LINE
  5
2B58
330
1A
100
AcDbEntity
  8
CENTER
 48
2.0
100
AcDbLine
 10
56.72204878038701
 20
239.8787549472417
 30
0.0
 11
168.7861101789567
 21
239.8787549472417
 31
0.0
  0
CIRCLE
  5
2B5F
330
1A
100
AcDbEntity
  8
1
  6
HIDDEN
 62
     9
 48
2.0
100
AcDbCircle
 10
112.7540794796723
 20
239.8787549472417
 30
0.0
 40
39.0
  0
ARC
  5
2B78
330
1A
100
AcDbEntity
  8
1
100
AcDbCircle
 10
186.5012080948499
 20
72.2041630582753
 30
0.0
 40
1.382365331420526
100
AcDbArc
 50
295.2779144486573
 51
64.72208555134269
  0
ARC
  5
2B79
330
1A
100
AcDbEntity
  8
1
100
AcDbCircle
 10
187.681773907524
 20
72.2041630582753
 30
0.0
 40
1.382365331420526
100
AcDbArc
 50
115.2779144486573
 51
244.7220855513426
  0
ARC
  5
2B7A
330
1A
100
AcDbEntity
  8
1
100
AcDbCircle
 10
186.5012080948499
 20
69.7041630582753
 30
0.0
 40
1.382365331420526
100
AcDbArc
 50
295.2779144486573
 51
64.72208555134269
  0
LINE
  5
2B7B
330
1A
100
AcDbEntity
  8
CENTER
 48
2.0
100
AcDbLine
 10
112.7540794796723
 20
148.6705597317322
 30
0.0
 11
112.7540794796723
 21
39.44353582768326
 31
0.0
  0
CIRCLE
  5
2B7C
102
{ACAD_REACTORS
330
2E80
102
}
330
1A
100
AcDbEntity
  8
1
 62
     8
100
AcDbCircle
 10
98.75407947967142
 20
264.127466253205
 30
0.0
 40
4.0
  0
CIRCLE
  5
2B7E
102
{ACAD_REACTORS
330
2E80
102
}
330
1A
100
AcDbEntity
  8
1
100
AcDbCircle
 10
98.75407947967142
 20
264.127466253205
 30
0.0
 40
3.2
  0
LINE
  5
2B81
330
1A
100
AcDbEntity
  8
1
100
AcDbLine
 10
151.7540794781052
 20
78.1088635928636
 30
0.0
 11
152.2899778627625
 21
79.03706682325537
 31
0.0
  0
ARC
  5
2B82
330
1A
100
AcDbEntity
  8
1
100
AcDbCircle
 10
154.19091717434
 20
70.95043032708145
 30
0.0
 40
8.063163169338064
100
AcDbArc
 50
0.0265242581543764
 51
21.00688711669095
  0
ARC
  5
2B83
330
1A
100
AcDbEntity
  8
1
100
AcDbCircle
 10
155.6882945494544
 20
76.43899060982312
 30
0.0
 40
6.565784930217233
100
AcDbArc
 50
336.6904080023536
 51
23.3095919975985
  0
LINE
  5
2B84
330
1A
100
AcDbEntity
  8
1
100
AcDbLine
 10
162.2540794796687
 20
78.10886359089181
 30
0.0
 11
161.7181810948122
 21
79.03706682116899
 31
0.0
  0
LINE
  5
2B85
330
1A
100
AcDbEntity
  8
1
100
AcDbLine
 10
162.2540794796714
 20
70.95416305251728
 30
0.0
 11
162.2540794796705
 21
78.10886359088726
 31
0.0
  0
LINE
  5
2B86
330
1A
100
AcDbEntity
  8
1
 62
     9
100
AcDbLine
 10
163.7540794796705
 20
77.78203805252633
 30
0.0
 11
163.7540794796723
 21
70.95416305251638
 31
0.0
  0
LINE
  5
2B87
330
1A
100
AcDbEntity
  8
1
 62
     9
100
AcDbLine
 10
163.7540794796696
 20
77.19990439290632
 30
0.0
 11
173.7540794796723
 21
76.57490439290905
 31
0.0
  0
LINE
  5
2B88
330
1A
100
AcDbEntity
  8
1
100
AcDbLine
 10
173.7540794796723
 20
77.15703805252179
 30
0.0
 11
173.7540794796723
 21
70.95416305251728
 31
0.0
  0
LINE
  5
2B89
330
1A
100
AcDbEntity
  8
1
100
AcDbLine
 10
162.2540794796687
 20
77.87578805252633
 30
0.0
 11
173.7540794796723
 21
77.15703805252179
 31
0.0
  0
LINE
  5
2B8A
330
1A
100
AcDbEntity
  8
1
100
AcDbLine
 10
151.7540794796723
 20
70.95416305251638
 30
0.0
 11
151.7540794781052
 21
78.1088635928636
 31
0.0
  0
ARC
  5
2B8B
330
1A
100
AcDbEntity
  8
1
100
AcDbCircle
 10
159.8172417850018
 20
70.95043032708327
 30
0.0
 40
8.063163169338064
100
AcDbArc
 50
158.9931128833576
 51
179.9734757418977
  0
ARC
  5
2B8C
330
1A
100
AcDbEntity
  8
1
100
AcDbCircle
 10
158.3198644098856
 20
76.43899060982494
 30
0.0
 40
6.565784930217233
100
AcDbArc
 50
156.6904080024015
 51
203.3095919976463
  0
LINE
  5
2B8D
330
1A
100
AcDbEntity
  8
1
100
AcDbLine
 10
161.7181810948095
 20
73.84091439846725
 30
0.0
 11
152.2899778645332
 21
73.84091439846634
 31
0.0
  0
LINE
  5
2B8E
330
1A
100
AcDbEntity
  8
1
100
AcDbLine
 10
161.7181810948095
 20
79.03706682117172
 30
0.0
 11
152.2899778645296
 21
79.03706682117172
 31
0.0
  0
LINE
  5
2B8F
330
1A
100
AcDbEntity
  8
1
100
AcDbLine
 10
151.7540794781052
 20
63.79946251217006
 30
0.0
 11
152.2899778627625
 21
62.87125928177829
 31
0.0
  0
ARC
  5
2B90
330
1A
100
AcDbEntity
  8
1
100
AcDbCircle
 10
154.19091717434
 20
70.95789577795222
 30
0.0
 40
8.063163169338064
100
AcDbArc
 50
338.993112883309
 51
359.9734757418456
  0
ARC
  5
2B91
330
1A
100
AcDbEntity
  8
1
100
AcDbCircle
 10
155.6882945494544
 20
65.46933549521054
 30
0.0
 40
6.565784930217233
100
AcDbArc
 50
336.6904080024015
 51
23.30959199764635
  0
LINE
  5
2B92
330
1A
100
AcDbEntity
  8
1
100
AcDbLine
 10
162.2540794796687
 20
63.79946251414276
 30
0.0
 11
161.7181810948122
 21
62.87125928386558
 31
0.0
  0
LINE
  5
2B93
330
1A
100
AcDbEntity
  8
1
100
AcDbLine
 10
162.2540794796714
 20
70.95416305251728
 30
0.0
 11
162.2540794796705
 21
63.79946251414731
 31
0.0
  0
LINE
  5
2B94
330
1A
100
AcDbEntity
  8
1
 62
     9
100
AcDbLine
 10
163.7540794796705
 20
64.12628805250824
 30
0.0
 11
163.7540794796723
 21
70.9541630525182
 31
0.0
  0
LINE
  5
2B95
330
1A
100
AcDbEntity
  8
1
 62
     9
100
AcDbLine
 10
163.7540794796696
 20
64.70842171212826
 30
0.0
 11
173.7540794796723
 21
65.33342171212552
 31
0.0
  0
LINE
  5
2B96
330
1A
100
AcDbEntity
  8
1
100
AcDbLine
 10
173.7540794796723
 20
64.75128805251279
 30
0.0
 11
173.7540794796723
 21
70.95416305251728
 31
0.0
  0
LINE
  5
2B97
330
1A
100
AcDbEntity
  8
1
100
AcDbLine
 10
162.2540794796687
 20
64.03253805250824
 30
0.0
 11
173.7540794796723
 21
64.75128805251279
 31
0.0
  0
LINE
  5
2B98
330
1A
100
AcDbEntity
  8
1
100
AcDbLine
 10
151.7540794796723
 20
70.45416305251729
 30
0.0
 11
151.7540794781052
 21
63.29946251217006
 31
0.0
  0
ARC
  5
2B99
330
1A
100
AcDbEntity
  8
1
100
AcDbCircle
 10
159.8172417850018
 20
70.9578957779513
 30
0.0
 40
8.063163169338064
100
AcDbArc
 50
180.0265242581022
 51
201.0068871166422
  0
ARC
  5
2B9A
330
1A
100
AcDbEntity
  8
1
100
AcDbCircle
 10
158.3198644098856
 20
65.46933549520872
 30
0.0
 40
6.565784930217233
100
AcDbArc
 50
156.6904080023536
 51
203.3095919975985
  0
LINE
  5
2B9B
330
1A
100
AcDbEntity
  8
1
100
AcDbLine
 10
161.7181810948095
 20
68.06741170656732
 30
0.0
 11
152.2899778645332
 21
68.06741170656732
 31
0.0
  0
LINE
  5
2B9C
330
1A
100
AcDbEntity
  8
1
100
AcDbLine
 10
161.7181810948095
 20
62.87125928386285
 30
0.0
 11
152.2899778645296
 21
62.87125928386195
 31
0.0
  0
LINE
  5
2B9D
330
1A
100
AcDbEntity
  8
1
100
AcDbLine
 10
173.7540794796723
 20
73.4541630582753
 30
0.0
 11
187.091491001187
 21
73.4541630582753
 31
0.0
  0
LINE
  5
2B9E
330
1A
100
AcDbEntity
  8
1
100
AcDbLine
 10
173.7540794796723
 20
68.4541630582753
 30
0.0
 11
187.091491001187
 21
68.4541630582753
 31
0.0
  0
LINE
  5
2B9F
330
1A
100
AcDbEntity
  8
1
 48
2.0
100
AcDbLine
 10
98.25407947967233
 20
114.9541630582753
 30
0.0
 11
97.75407947967233
 21
114.9541630582753
 31
0.0
  0
LINE
  5
2BA0
330
1A
100
AcDbEntity
  8
1
  6
HIDDEN
 48
2.0
100
AcDbLine
 10
97.75407947967233
 20
114.9541630582753
 30
0.0
 11
97.75407947967233
 21
108.4541630582753
 31
0.0
  0
LINE
  5
2BA1
330
1A
100
AcDbEntity
  8
1
 48
2.0
100
AcDbLine
 10
97.75407947967233
 20
108.4541630582753
 30
0.0
 11
98.25407947967233
 21
108.4541630582753
 31
0.0
  0
LINE
  5
2BA2
330
1A
100
AcDbEntity
  8
1
  6
HIDDEN
 48
2.0
100
AcDbLine
 10
127.2540794796741
 20
114.9541630582734
 30
0.0
 11
127.7540794796741
 21
114.9541630582734
 31
0.0
  0
LINE
  5
2BA3
330
1A
100
AcDbEntity
  8
1
  6
HIDDEN
 48
2.0
100
AcDbLine
 10
127.7540794796741
 20
114.9541630582734
 30
0.0
 11
127.7540794796741
 21
108.4541630582734
 31
0.0
  0
LINE
  5
2BA4
330
1A
100
AcDbEntity
  8
1
  6
HIDDEN
 48
2.0
100
AcDbLine
 10
127.7540794796741
 20
108.4541630582734
 30
0.0
 11
127.2540794796741
 21
108.4541630582734
 31
0.0
  0
LINE
  5
2BA5
330
1A
100
AcDbEntity
  8
1
  6
HIDDEN
 48
2.0
100
AcDbLine
 10
127.2540794796723
 20
114.9541630582734
 30
0.0
 11
127.2540794796723
 21
130.4541630582753
 31
0.0
  0
LINE
  5
2BA6
330
1A
100
AcDbEntity
  8
1
  6
HIDDEN
 48
2.0
100
AcDbLine
 10
98.25407947967233
 20
108.4541630582753
 30
0.0
 11
98.25407947967233
 21
105.4541630582753
 31
0.0
  0
LINE
  5
2BA9
330
1A
100
AcDbEntity
  8
CENTER
 62
     9
100
AcDbLine
 10
127.2540794796723
 20
120.9541630582753
 30
0.0
 11
98.25407947967233
 21
120.9541630582753
 31
0.0
  0
LINE
  5
2BAB
330
1A
100
AcDbEntity
  8
1
  6
HIDDEN
 48
2.0
100
AcDbLine
 10
97.75407947967233
 20
108.4541630582753
 30
0.0
 11
100.2540794796723
 21
108.4541630582753
 31
0.0
  0
LINE
  5
2BAC
330
1A
100
AcDbEntity
  8
1
  6
HIDDEN
 48
2.0
100
AcDbLine
 10
125.2540794796723
 20
108.4541630582743
 30
0.0
 11
127.7540794796741
 21
108.4541630582734
 31
0.0
  0
LINE
  5
2BAD
330
1A
100
AcDbEntity
  8
1
  6
HIDDEN
 48
2.0
100
AcDbLine
 10
100.2540794796723
 20
108.4541630582753
 30
0.0
 11
102.2540794796714
 21
108.4541630582753
 31
0.0
  0
LINE
  5
2BAE
330
1A
100
AcDbEntity
  8
1
  6
HIDDEN
 48
2.0
100
AcDbLine
 10
123.2540794796732
 20
108.4541630582743
 30
0.0
 11
125.2540794796723
 21
108.4541630582743
 31
0.0
  0
LINE
  5
2BB0
330
1A
100
AcDbEntity
  8
1
100
AcDbLine
 10
112.7540794796723
 20
129.4541630582753
 30
0.0
 11
162.7540794796723
 21
129.4541630582753
 31
0.0
  0
LINE
  5
2BB1
330
1A
100
AcDbEntity
  8
1
100
AcDbLine
 10
162.7540794796723
 20
129.4541630582753
 30
0.0
 11
162.7540794796723
 21
145.4541630582752
 31
0.0
  0
LINE
  5
2BB2
330
1A
100
AcDbEntity
  8
1
100
AcDbLine
 10
162.7540794796723
 20
145.4541630582752
 30
0.0
 11
62.75407947967233
 21
145.4541630582752
 31
0.0
  0
LINE
  5
2BB3
330
1A
100
AcDbEntity
  8
1
100
AcDbLine
 10
62.75407947967233
 20
145.4541630582752
 30
0.0
 11
62.75407947967233
 21
129.4541630582753
 31
0.0
  0
LINE
  5
2BB4
330
1A
100
AcDbEntity
  8
1
100
AcDbLine
 10
62.75407947967233
 20
129.4541630582753
 30
0.0
 11
112.7540794796723
 21
129.4541630582753
 31
0.0
  0
LINE
  5
2BB5
330
1A
100
AcDbEntity
  8
1
  6
HIDDEN
 48
2.0
100
AcDbLine
 10
120.8781178843082
 20
130.4541630582753
 30
0.0
 11
151.7540794796723
 21
130.4541630582753
 31
0.0
  0
LINE
  5
2BB6
330
1A
100
AcDbEntity
  8
1
  6
HIDDEN
 48
2.0
100
AcDbLine
 10
73.75407947967232
 20
130.4541630582753
 30
0.0
 11
104.6300410750363
 21
130.4541630582753
 31
0.0
  0
LINE
  5
2BB7
330
1A
100
AcDbEntity
  8
1
100
AcDbLine
 10
102.2540794796714
 20
105.4541630582753
 30
0.0
 11
102.2540794796714
 21
102.4541630582762
 31
0.0
  0
LINE
  5
2BB8
330
1A
100
AcDbEntity
  8
1
100
AcDbLine
 10
123.2540794796732
 20
105.4541630582753
 30
0.0
 11
123.2540794796732
 21
102.4541630582753
 31
0.0
  0
LINE
  5
2BB9
330
1A
100
AcDbEntity
  8
CENTER
 48
10.0
100
AcDbLine
 10
148.050919705367
 20
239.8787549472417
 30
0.0
 11
189.5856985747123
 21
239.8787549472417
 31
0.0
  0
ARC
  5
2BBA
330
1A
100
AcDbEntity
  8
1
100
AcDbCircle
 10
186.5012080948499
 20
241.1287549472417
 30
0.0
 40
1.382365331420526
100
AcDbArc
 50
295.2779144486573
 51
64.72208555134269
  0
ARC
  5
2BBB
330
1A
100
AcDbEntity
  8
1
100
AcDbCircle
 10
187.681773907524
 20
241.1287549472417
 30
0.0
 40
1.382365331420526
100
AcDbArc
 50
115.2779144486573
 51
244.7220855513426
  0
ARC
  5
2BBC
330
1A
100
AcDbEntity
  8
1
100
AcDbCircle
 10
186.5012080948499
 20
238.6287549472417
 30
0.0
 40
1.382365331420526
100
AcDbArc
 50
295.2779144486573
 51
64.72208555134269
  0
LINE
  5
2BBD
330
1A
100
AcDbEntity
  8
1
 62
     9
100
AcDbLine
 10
163.7540794796705
 20
246.7066299414937
 30
0.0
 11
163.7540794796723
 21
239.8787549414837
 31
0.0
  0
LINE
  5
2BBE
330
1A
100
AcDbEntity
  8
1
 62
     9
100
AcDbLine
 10
163.7540794796696
 20
246.1244962818736
 30
0.0
 11
173.7540794796723
 21
245.4994962818764
 31
0.0
  0
LINE
  5
2BBF
330
1A
100
AcDbEntity
  8
1
100
AcDbLine
 10
173.7540794796723
 20
246.0816299414891
 30
0.0
 11
173.7540794796723
 21
239.8787549414846
 31
0.0
  0
LINE
  5
2BC0
330
1A
100
AcDbEntity
  8
1
100
AcDbLine
 10
162.7540794796723
 20
246.7691299414927
 30
0.0
 11
173.7540794796723
 21
246.0816299414891
 31
0.0
  0
LINE
  5
2BC1
330
1A
100
AcDbEntity
  8
1
 62
     9
100
AcDbLine
 10
163.7540794796705
 20
233.0508799414747
 30
0.0
 11
163.7540794796723
 21
239.8787549414846
 31
0.0
  0
LINE
  5
2BC2
330
1A
100
AcDbEntity
  8
1
 62
     9
100
AcDbLine
 10
163.7540794796696
 20
233.6330136010947
 30
0.0
 11
173.7540794796723
 21
234.2580136010919
 31
0.0
  0
LINE
  5
2BC3
330
1A
100
AcDbEntity
  8
1
100
AcDbLine
 10
173.7540794796723
 20
233.6758799414792
 30
0.0
 11
173.7540794796723
 21
239.8787549414846
 31
0.0
  0
LINE
  5
2BC4
330
1A
100
AcDbEntity
  8
1
100
AcDbLine
 10
162.7540794796723
 20
232.9883799414746
 30
0.0
 11
173.7540794796723
 21
233.6758799414792
 31
0.0
  0
LINE
  5
2BC5
330
1A
100
AcDbEntity
  8
1
100
AcDbLine
 10
173.7540794796723
 20
242.3787549472417
 30
0.0
 11
187.091491001187
 21
242.3787549472417
 31
0.0
  0
LINE
  5
2BC6
330
1A
100
AcDbEntity
  8
1
100
AcDbLine
 10
173.7540794796723
 20
237.3787549472417
 30
0.0
 11
187.091491001187
 21
237.3787549472417
 31
0.0
  0
LINE
  5
2E7C
330
1A
100
AcDbEntity
  8
1
  6
HIDDEN
 48
2.0
100
AcDbLine
 10
73.75407947967232
 20
61.4541630582753
 30
0.0
 11
151.7540794796723
 21
61.4541630582753
 31
0.0
  0
CIRCLE
  5
2E81
102
{ACAD_REACTORS
330
2E83
102
}
330
1A
100
AcDbEntity
  8
1
 62
     8
100
AcDbCircle
 10
98.75407947967142
 20
215.6300436412784
 30
0.0
 40
4.0
  0
CIRCLE
  5
2E82
102
{ACAD_REACTORS
330
2E83
102
}
330
1A
100
AcDbEntity
  8
1
100
AcDbCircle
 10
98.75407947967142
 20
215.6300436412784
 30
0.0
 40
3.2
  0
CIRCLE
  5
2E84
102
{ACAD_REACTORS
330
2E86
102
}
330
1A
100
AcDbEntity
  8
1
 62
     8
100
AcDbCircle
 10
140.7540794796723
 20
239.8787549472417
 30
0.0
 40
4.0
  0
CIRCLE
  5
2E85
102
{ACAD_REACTORS
330
2E86
102
}
330
1A
100
AcDbEntity
  8
1
100
AcDbCircle
 10
140.7540794796723
 20
239.8787549472417
 30
0.0
 40
3.2
  0
LINE
  5
2EA2
330
1A
100
AcDbEntity
  8
1
  6
HIDDEN
 48
2.0
100
AcDbLine
 10
68.25407947967232
 20
62.4541630582753
 30
0.0
 11
68.25407947967232
 21
50.45416305827529
 31
0.0
  0
LINE
  5
2EA3
330
1A
100
AcDbEntity
  8
1
  6
HIDDEN
 48
2.0
100
AcDbLine
 10
80.25407947967233
 20
62.4541630582753
 30
0.0
 11
80.25407947967233
 21
50.45416305827529
 31
0.0
  0
LINE
  5
2EA4
330
1A
100
AcDbEntity
  8
1
  6
HIDDEN
 48
2.0
100
AcDbLine
 10
68.25407947967232
 20
145.4541630582752
 30
0.0
 11
68.25407947967232
 21
129.4541630582753
 31
0.0
  0
LINE
  5
2EA5
330
1A
100
AcDbEntity
  8
1
  6
HIDDEN
 48
2.0
100
AcDbLine
 10
80.25407947967233
 20
145.4541630582752
 30
0.0
 11
80.25407947967233
 21
129.4541630582753
 31
0.0
  0
LINE
  5
2EA6
330
1A
100
AcDbEntity
  8
CENTER
100
AcDbLine
 10
74.25407947967233
 20
147.9340324365775
 30
0.0
 11
74.25407947967233
 21
124.975371849282
 31
0.0
  0
LINE
  5
2EA7
330
1A
100
AcDbEntity
  8
CENTER
100
AcDbLine
 10
74.25407947967233
 20
66.1847163425673
 30
0.0
 11
74.25407947967233
 21
46.1829745861578
 31
0.0
  0
LINE
  5
2EA9
330
1A
100
AcDbEntity
  8
1
  6
HIDDEN
 48
2.0
100
AcDbLine
 10
157.2540794796723
 20
145.4541630582752
 30
0.0
 11
157.2540794796723
 21
129.4541630582753
 31
0.0
  0
LINE
  5
2EAA
330
1A
100
AcDbEntity
  8
1
  6
HIDDEN
 48
2.0
100
AcDbLine
 10
145.2540794796723
 20
145.4541630582752
 30
0.0
 11
145.2540794796723
 21
129.4541630582753
 31
0.0
  0
LINE
  5
2EAC
330
1A
100
AcDbEntity
  8
1
  6
HIDDEN
 48
2.0
100
AcDbLine
 10
157.2540794796723
 20
62.4541630582753
 30
0.0
 11
157.2540794796723
 21
50.45416305827529
 31
0.0
  0
LINE
  5
2EAD
330
1A
100
AcDbEntity
  8
1
  6
HIDDEN
 48
2.0
100
AcDbLine
 10
145.2540794796723
 20
62.4541630582753
 30
0.0
 11
145.2540794796723
 21
50.45416305827529
 31
0.0
  0
LINE
  5
2EAE
330
1A
100
AcDbEntity
  8
CENTER
100
AcDbLine
 10
151.2540794796723
 20
147.9340324365775
 30
0.0
 11
151.2540794796723
 21
124.975371849282
 31
0.0
  0
LINE
  5
2EAF
330
1A
100
AcDbEntity
  8
CENTER
100
AcDbLine
 10
151.2540794796723
 20
66.1847163425673
 30
0.0
 11
151.2540794796723
 21
46.1829745861578
 31
0.0
  0
MTEXT
  5
2F88
330
1A
100
AcDbEntity
  8
NOTE
 62
     2
100
AcDbMText
 10
5150.814448738759
 20
5068.333264290282
 30
0.0
 40
4.5
 41
0.0
 71
     7
 72
     1
  1

  7
AD-STANDARD
1001
ACAD
1000
MTEXTBEGIN
1070
    73
1070
     1
1070
    44
1040
1.0
1070
    74
1070
     0
1000
MTEXTEND
1000
MTEXTBEGIN
1070
    73
1070
     1
1070
    44
1040
1.0
1070
    74
1070
     0
1000
MTEXTEND
1000
MTEXTBEGIN
1070
    73
1070
     1
1070
    44
1040
1.0
1070
    74
1070
     0
1000
MTEXTEND
1000
MTEXTBEGIN
1070
    73
1070
     1
1070
    44
1040
1.0
1070
    74
1070
     0
1000
MTEXTEND
1000
MTEXTBEGIN
1070
    73
1070
     1
1070
    44
1040
1.0
1070
    74
1070
     0
1000
MTEXTEND
1000
MTEXTBEGIN
1070
    73
1070
     1
1070
    44
1040
1.0
1070
    74
1070
     0
1000
MTEXTEND
1000
MTEXTBEGIN
1070
    73
1070
     1
1070
    44
1040
1.0
1070
    74
1070
     0
1000
MTEXTEND
1000
MTEXTBEGIN
1070
    73
1070
     1
1070
    44
1040
1.0
1070
    74
1070
     0
1000
MTEXTEND
1000
MTEXTBEGIN
1070
    73
1070
     1
1070
    44
1040
1.0
1070
    74
1070
     0
1000
MTEXTEND
1000
MTEXTBEGIN
1070
    73
1070
     1
1070
    44
1040
1.0
1070
    74
1070
     0
1000
MTEXTEND
1000
MTEXTBEGIN
1070
    73
1070
     1
1070
    44
1040
1.0
1070
    74
1070
     0
1000
MTEXTEND
1000
MTEXTBEGIN
1070
    73
1070
     1
1070
    44
1040
1.0
1070
    74
1070
     0
1000
MTEXTEND
1000
MTEXTBEGIN
1070
    73
1070
     1
1070
    44
1040
1.0
1070
    74
1070
     0
1000
MTEXTEND
1000
MTEXTBEGIN
1070
    73
1070
     1
1070
    44
1040
1.0
1070
    74
1070
     0
1000
MTEXTEND
1000
MTEXTBEGIN
1070
    73
1070
     1
1070
    44
1040
1.0
1070
    74
1070
     0
1000
MTEXTEND
  0
VIEWPORT
  5
22
330
17
100
AcDbEntity
 67
     1
  8
0
100
AcDbViewport
 10
156.3158846377186
 20
123.8879354739303
 30
0.0
 40
626.9393457310179
 41
391.3282117428188
 68
     1
 69
     1
1001
ACAD
1000
MVIEW
1002
{
1070
    16
1010
0.0
1020
0.0
1030
0.0
1010
0.0
1020
0.0
1030
1.0
1040
0.0
1040
391.3282117428188
1040
156.3158846377186
1040
123.8879354739303
1040
50.0
1040
0.0
1040
0.0
1070
     0
1070
   100
1070
     1
1070
     0
1070
     0
1070
     0
1070
     0
1070
     0
1040
0.0
1040
0.0
1040
0.0
1040
1.0
1040
1.0
1040
10.0
1040
10.0
1070
     0
1002
{
1002
}
1002
}
  0
VIEWPORT
  5
2CF
330
17
100
AcDbEntity
 67
     1
  8
DEFPOINTS
100
AcDbViewport
 10
212.4999999999999
 20
149.4999999999999
 30
0.0
 40
384.9999999999998
 41
265.0
 68
     2
 69
     2
1001
ACAD
1000
MVIEW
1002
{
1070
    16
1010
0.0
1020
0.0
1030
0.0
1010
0.0
1020
0.0
1030
1.0
1040
0.0
1040
340.7100617575895
1040
130.6299261512117
1040
167.9116003768458
1040
50.0
1040
0.0
1040
0.0
1070
     0
1070
   100
1070
     1
1070
     0
1070
     0
1070
     0
1070
     0
1070
     1
1040
0.0
1040
0.0
1040
0.0
1040
168.0
1040
168.0
1040
0.0
1040
0.0
1070
     0
1002
{
1002
}
1002
}
  0
MTEXT
  5
1637
330
17
100
AcDbEntity
 67
     1
  8
NOTE
100
AcDbMText
 10
240.9999999999998
 20
14.99999999999995
 30
0.0
 40
1.5
 41
9.0
 71
     5
 72
     5
  1

  7
AD-STANDARD
1001
ACAD
1000
MTEXTBEGIN
1070
    73
1070
     1
1070
    44
1040
1.0
1070
    74
1070
     0
1000
MTEXTEND
1000
MTEXTBEGIN
1070
    73
1070
     1
1070
    44
1040
1.0
1070
    74
1070
     0
1000
MTEXTEND
1000
MTEXTBEGIN
1070
    73
1070
     1
1070
    44
1040
1.0
1070
    74
1070
     0
1000
MTEXTEND
1000
MTEXTBEGIN
1070
    73
1070
     1
1070
    44
1040
1.0
1070
    74
1070
     0
1000
MTEXTEND
1000
MTEXTBEGIN
1070
    73
1070
     1
1070
    44
1040
1.0
1070
    74
1070
     0
1000
MTEXTEND
1000
MTEXTBEGIN
1070
    73
1070
     1
1070
    44
1040
1.0
1070
    74
1070
     0
1000
MTEXTEND
1000
MTEXTBEGIN
1070
    73
1070
     1
1070
    44
1040
1.0
1070
    74
1070
     0
1000
MTEXTEND
1000
MTEXTBEGIN
1070
    73
1070
     1
1070
    44
1040
1.0
1070
    74
1070
     0
1000
MTEXTEND
1000
MTEXTBEGIN
1070
    73
1070
     1
1070
    44
1040
1.0
1070
    74
1070
     0
1000
MTEXTEND
1000
MTEXTBEGIN
1070
    73
1070
     1
1070
    44
1040
1.0
1070
    74
1070
     0
1000
MTEXTEND
1000
MTEXTBEGIN
1070
    73
1070
     1
1070
    44
1040
1.0
1070
    74
1070
     0
1000
MTEXTEND
1000
MTEXTBEGIN
1070
    73
1070
     1
1070
    44
1040
1.0
1070
    74
1070
     0
1000
MTEXTEND
1000
MTEXTBEGIN
1070
    73
1070
     1
1070
    44
1040
1.0
1070
    74
1070
     0
1000
MTEXTEND
1000
MTEXTBEGIN
1070
    73
1070
     1
1070
    44
1040
1.0
1070
    74
1070
     0
1000
MTEXTEND
1000
MTEXTBEGIN
1070
    73
1070
     1
1070
    44
1040
1.0
1070
    74
1070
     0
1000
MTEXTEND
1000
MTEXTBEGIN
1070
    73
1070
     1
1070
    44
1040
1.0
1070
    74
1070
     0
1000
MTEXTEND
1000
MTEXTBEGIN
1070
    73
1070
     1
1070
    44
1040
1.0
1070
    74
1070
     0
1000
MTEXTEND
1000
MTEXTBEGIN
1070
    73
1070
     1
1070
    44
1040
1.0
1070
    74
1070
     0
1000
MTEXTEND
1000
MTEXTBEGIN
1070
    73
1070
     1
1070
    44
1040
1.0
1070
    74
1070
     0
1000
MTEXTEND
1000
MTEXTBEGIN
1070
    73
1070
     1
1070
    44
1040
1.0
1070
    74
1070
     0
1000
MTEXTEND
1000
MTEXTBEGIN
1070
    73
1070
     1
1070
    44
1040
1.0
1070
    74
1070
     0
1000
MTEXTEND
1000
MTEXTBEGIN
1070
    73
1070
     1
1070
    44
1040
1.0
1070
    74
1070
     0
1000
MTEXTEND
1000
MTEXTBEGIN
1070
    73
1070
     1
1070
    44
1040
1.0
1070
    74
1070
     0
1000
MTEXTEND
1000
MTEXTBEGIN
1070
    73
1070
     1
1070
    44
1040
1.0
1070
    74
1070
     0
1000
MTEXTEND
1000
MTEXTBEGIN
1070
    73
1070
     1
1070
    44
1040
1.0
1070
    74
1070
     0
1000
MTEXTEND
1000
MTEXTBEGIN
1070
    73
1070
     1
1070
    44
1040
1.0
1070
    74
1070
     0
1000
MTEXTEND
1000
MTEXTBEGIN
1070
    73
1070
     1
1070
    44
1040
1.0
1070
    74
1070
     0
1000
MTEXTEND
1000
MTEXTBEGIN
1070
    73
1070
     1
1070
    44
1040
1.0
1070
    74
1070
     0
1000
MTEXTEND
1000
MTEXTBEGIN
1070
    73
1070
     1
1070
    44
1040
1.0
1070
    74
1070
     0
1000
MTEXTEND
  0
MTEXT
  5
1638
330
17
100
AcDbEntity
 67
     1
  8
NOTE
100
AcDbMText
 10
249.4999999999998
 20
14.99999999999995
 30
0.0
 40
2.5
 41
8.0
 71
     5
 72
     5
  1

  7
AD-STANDARD
1001
ACAD
1000
MTEXTBEGIN
1070
    73
1070
     1
1070
    44
1040
1.0
1070
    74
1070
     0
1000
MTEXTEND
1000
MTEXTBEGIN
1070
    73
1070
     1
1070
    44
1040
1.0
1070
    74
1070
     0
1000
MTEXTEND
1000
MTEXTBEGIN
1070
    73
1070
     1
1070
    44
1040
1.0
1070
    74
1070
     0
1000
MTEXTEND
1000
MTEXTBEGIN
1070
    73
1070
     1
1070
    44
1040
1.0
1070
    74
1070
     0
1000
MTEXTEND
1000
MTEXTBEGIN
1070
    73
1070
     1
1070
    44
1040
1.0
1070
    74
1070
     0
1000
MTEXTEND
1000
MTEXTBEGIN
1070
    73
1070
     1
1070
    44
1040
1.0
1070
    74
1070
     0
1000
MTEXTEND
1000
MTEXTBEGIN
1070
    73
1070
     1
1070
    44
1040
1.0
1070
    74
1070
     0
1000
MTEXTEND
1000
MTEXTBEGIN
1070
    73
1070
     1
1070
    44
1040
1.0
1070
    74
1070
     0
1000
MTEXTEND
1000
MTEXTBEGIN
1070
    73
1070
     1
1070
    44
1040
1.0
1070
    74
1070
     0
1000
MTEXTEND
1000
MTEXTBEGIN
1070
    73
1070
     1
1070
    44
1040
1.0
1070
    74
1070
     0
1000
MTEXTEND
1000
MTEXTBEGIN
1070
    73
1070
     1
1070
    44
1040
1.0
1070
    74
1070
     0
1000
MTEXTEND
1000
MTEXTBEGIN
1070
    73
1070
     1
1070
    44
1040
1.0
1070
    74
1070
     0
1000
MTEXTEND
1000
MTEXTBEGIN
1070
    73
1070
     1
1070
    44
1040
1.0
1070
    74
1070
     0
1000
MTEXTEND
1000
MTEXTBEGIN
1070
    73
1070
     1
1070
    44
1040
1.0
1070
    74
1070
     0
1000
MTEXTEND
1000
MTEXTBEGIN
1070
    73
1070
     1
1070
    44
1040
1.0
1070
    74
1070
     0
1000
MTEXTEND
1000
MTEXTBEGIN
1070
    73
1070
     1
1070
    44
1040
1.0
1070
    74
1070
     0
1000
MTEXTEND
1000
MTEXTBEGIN
1070
    73
1070
     1
1070
    44
1040
1.0
1070
    74
1070
     0
1000
MTEXTEND
1000
MTEXTBEGIN
1070
    73
1070
     1
1070
    44
1040
1.0
1070
    74
1070
     0
1000
MTEXTEND
1000
MTEXTBEGIN
1070
    73
1070
     1
1070
    44
1040
1.0
1070
    74
1070
     0
1000
MTEXTEND
1000
MTEXTBEGIN
1070
    73
1070
     1
1070
    44
1040
1.0
1070
    74
1070
     0
1000
MTEXTEND
1000
MTEXTBEGIN
1070
    73
1070
     1
1070
    44
1040
1.0
1070
    74
1070
     0
1000
MTEXTEND
1000
MTEXTBEGIN
1070
    73
1070
     1
1070
    44
1040
1.0
1070
    74
1070
     0
1000
MTEXTEND
1000
MTEXTBEGIN
1070
    73
1070
     1
1070
    44
1040
1.0
1070
    74
1070
     0
1000
MTEXTEND
1000
MTEXTBEGIN
1070
    73
1070
     1
1070
    44
1040
1.0
1070
    74
1070
     0
1000
MTEXTEND
1000
MTEXTBEGIN
1070
    73
1070
     1
1070
    44
1040
1.0
1070
    74
1070
     0
1000
MTEXTEND
1000
MTEXTBEGIN
1070
    73
1070
     1
1070
    44
1040
1.0
1070
    74
1070
     0
1000
MTEXTEND
1000
MTEXTBEGIN
1070
    73
1070
     1
1070
    44
1040
1.0
1070
    74
1070
     0
1000
MTEXTEND
1000
MTEXTBEGIN
1070
    73
1070
     1
1070
    44
1040
1.0
1070
    74
1070
     0
1000
MTEXTEND
1000
MTEXTBEGIN
1070
    73
1070
     1
1070
    44
1040
1.0
1070
    74
1070
     0
1000
MTEXTEND
  0
MTEXT
  5
28FA
330
17
100
AcDbEntity
 67
     1
  8
NOTE
100
AcDbMText
 10
265.2499999999998
 20
14.99999999999995
 30
0.0
 40
2.5
 41
23.5
 71
     5
 72
     5
  1

  7
AD-STANDARD
1001
ACAD
1000
MTEXTBEGIN
1070
    73
1070
     1
1070
    44
1040
1.0
1070
    74
1070
     0
1000
MTEXTEND
1000
MTEXTBEGIN
1070
    73
1070
     1
1070
    44
1040
1.0
1070
    74
1070
     0
1000
MTEXTEND
1000
MTEXTBEGIN
1070
    73
1070
     1
1070
    44
1040
1.0
1070
    74
1070
     0
1000
MTEXTEND
1000
MTEXTBEGIN
1070
    73
1070
     1
1070
    44
1040
1.0
1070
    74
1070
     0
1000
MTEXTEND
1000
MTEXTBEGIN
1070
    73
1070
     1
1070
    44
1040
1.0
1070
    74
1070
     0
1000
MTEXTEND
1000
MTEXTBEGIN
1070
    73
1070
     1
1070
    44
1040
1.0
1070
    74
1070
     0
1000
MTEXTEND
1000
MTEXTBEGIN
1070
    73
1070
     1
1070
    44
1040
1.0
1070
    74
1070
     0
1000
MTEXTEND
1000
MTEXTBEGIN
1070
    73
1070
     1
1070
    44
1040
1.0
1070
    74
1070
     0
1000
MTEXTEND
1000
MTEXTBEGIN
1070
    73
1070
     1
1070
    44
1040
1.0
1070
    74
1070
     0
1000
MTEXTEND
1000
MTEXTBEGIN
1070
    73
1070
     1
1070
    44
1040
1.0
1070
    74
1070
     0
1000
MTEXTEND
1000
MTEXTBEGIN
1070
    73
1070
     1
1070
    44
1040
1.0
1070
    74
1070
     0
1000
MTEXTEND
1000
MTEXTBEGIN
1070
    73
1070
     1
1070
    44
1040
1.0
1070
    74
1070
     0
1000
MTEXTEND
1000
MTEXTBEGIN
1070
    73
1070
     1
1070
    44
1040
1.0
1070
    74
1070
     0
1000
MTEXTEND
1000
MTEXTBEGIN
1070
    73
1070
     1
1070
    44
1040
1.0
1070
    74
1070
     0
1000
MTEXTEND
1000
MTEXTBEGIN
1070
    73
1070
     1
1070
    44
1040
1.0
1070
    74
1070
     0
1000
MTEXTEND
1000
MTEXTBEGIN
1070
    73
1070
     1
1070
    44
1040
1.0
1070
    74
1070
     0
1000
MTEXTEND
1000
MTEXTBEGIN
1070
    73
1070
     1
1070
    44
1040
1.0
1070
    74
1070
     0
1000
MTEXTEND
  0
ENDSEC
  0
SECTION
  2
OBJECTS
  0
DICTIONARY
  5
C
330
0
100
AcDbDictionary
  3
ACAD_GROUP
350
D
  3
ACAD_LAYOUT
350
1660
  3
ACAD_MLINESTYLE
350
E
  3
ACAD_PLOTSETTINGS
350
1661
  3
ACAD_PLOTSTYLENAME
350
165E
  3
ACADDIM
350
248F
  3
ACDBVARIABLEDICTIONARY
350
22AE
  3
CONTENTDICTIONARY
350
234
  3
ACDBHEADERROUNDTRIPXREC
350
367A
  0
DICTIONARY
  5
1E6D
330
1A
100
AcDbDictionary
280
     1
  3
ACAD_LAYOUTSELFREF
360
369B
  0
DICTIONARY
  5
1E6B
330
17
100
AcDbDictionary
280
     1
  3
ACAD_LAYOUTSELFREF
360
369A
  0
DICTIONARY
  5
D
102
{ACAD_REACTORS
330
C
102
}
330
C
100
AcDbDictionary
  3
*A1
350
36C
  3
*A2
350
621
  3
*A3
350
630
  3
*A4
350
682
  3
*A5
350
84A
  3
*A6
350
2E80
  3
*A7
350
2E83
  3
*A8
350
2E86
  3
*A9
350
2EE3
  3
*A10
350
2EED
  3
*A11
350
2F8A
  3
*A12
350
377
  3
*A13
350
419
  3
*A14
350
41A
  0
DICTIONARY
  5
1660
102
{ACAD_REACTORS
330
C
102
}
330
C
100
AcDbDictionary
  0
DICTIONARY
  5
E
102
{ACAD_REACTORS
330
C
102
}
330
C
100
AcDbDictionary
  3
STANDARD
350
13
  0
DICTIONARY
  5
1661
102
{ACAD_REACTORS
330
C
102
}
330
C
100
AcDbDictionary
  3
A3FORMNX710
350
1F2A
  0
ACDBDICTIONARYWDFLT
  5
165E
102
{ACAD_REACTORS
330
C
102
}
330
C
100
AcDbDictionary
281
     1
  3
Normal
350
165F
100
AcDbDictionaryWithDefault
340
165F
  0
XRECORD
  5
248F
102
{ACAD_REACTORS
330
C
102
}
330
C
100
AcDbXrecord
 90
   990106
  3

 60
     0
 61
     0
 62
     4
 63
     4
 64
     1
 65
     0
 66
     0
 67
     3
 68
     1
 69
     0
 70
     0
 71
     0
 72
     0
 40
0.0
170
     2
340
0
  0
DICTIONARY
  5
22AE
102
{ACAD_REACTORS
330
C
102
}
330
C
100
AcDbDictionary
  3
SORTENTS
350
22AF
  0
DICTIONARY
  5
234
102
{ACAD_REACTORS
330
C
102
}
330
C
100
AcDbDictionary
  0
DICTIONARY
  5
367A
102
{ACAD_REACTORS
330
C
102
}
330
C
100
AcDbDictionary
  3
TSTACKALIGN
350
367B
  3
TSTACKSIZE
350
367C
  3
HYPERLINKBASE
350
367D
  3
STYLESHEET
350
367E
  3
LAYOUTDICT
350
367F
  3
PLOTSETDICT
350
3680
  3
PLOTSTYLNAMDICT
350
3681
  3
LWETCUNION
350
3682
  3
INSUNITS
350
3683
  3
CEPSNTYPE
350
3684
  3
FINGERPRINTGUID
350
3685
  3
VERSIONGUID
350
3686
  3
PSVPSCALE
350
3687
  3
PUCSORTHOREF
350
3688
  3
PUCSORTHOVIEW
350
3689
  3
PUCSBASE
350
368A
  3
PUCSORGTOP
350
368B
  3
PUCSORGBOTTOM
350
368C
  3
PUCSORGLEFT
350
368D
  3
PUCSORGRIGHT
350
368E
  3
PUCSORGFRONT
350
368F
  3
PUCSORGBACK
350
3690
  3
UCSORTHOREF
350
3691
  3
UCSORTHOVIEW
350
3692
  3
UCSBASE
350
3693
  3
UCSORGTOP
350
3694
  3
UCSORGBOTTOM
350
3695
  3
UCSORGLEFT
350
3696
  3
UCSORGRIGHT
350
3697
  3
UCSORGFRONT
350
3698
  3
UCSORGBACK
350
3699
  0
XRECORD
  5
369B
102
{ACAD_REACTORS
330
1E6D
102
}
330
1E6D
100
AcDbXrecord
340
1A
  0
XRECORD
  5
369A
102
{ACAD_REACTORS
330
1E6B
102
}
330
1E6B
100
AcDbXrecord
340
17
  0
GROUP
  5
36C
102
{ACAD_REACTORS
330
D
102
}
330
D
100
AcDbGroup
300

 70
     1
 71
     1
  0
GROUP
  5
621
102
{ACAD_REACTORS
330
D
102
}
330
D
100
AcDbGroup
300

 70
     1
 71
     1
  0
GROUP
  5
630
102
{ACAD_REACTORS
330
D
102
}
330
D
100
AcDbGroup
300

 70
     1
 71
     1
  0
GROUP
  5
682
102
{ACAD_REACTORS
330
D
102
}
330
D
100
AcDbGroup
300

 70
     1
 71
     1
  0
GROUP
  5
84A
102
{ACAD_REACTORS
330
D
102
}
330
D
100
AcDbGroup
300

 70
     1
 71
     1
  0
GROUP
  5
2E80
102
{ACAD_REACTORS
330
D
102
}
330
D
100
AcDbGroup
300

 70
     1
 71
     1
340
2B7C
340
2B7E
  0
GROUP
  5
2E83
102
{ACAD_REACTORS
330
D
102
}
330
D
100
AcDbGroup
300

 70
     1
 71
     1
340
2E81
340
2E82
  0
GROUP
  5
2E86
102
{ACAD_REACTORS
330
D
102
}
330
D
100
AcDbGroup
300

 70
     1
 71
     1
340
2E84
340
2E85
  0
GROUP
  5
2EE3
102
{ACAD_REACTORS
330
D
102
}
330
D
100
AcDbGroup
300

 70
     1
 71
     1
  0
GROUP
  5
2EED
102
{ACAD_REACTORS
330
D
102
}
330
D
100
AcDbGroup
300

 70
     1
 71
     1
  0
GROUP
  5
2F8A
102
{ACAD_REACTORS
330
D
102
}
330
D
100
AcDbGroup
300

 70
     1
 71
     1
  0
GROUP
  5
377
102
{ACAD_REACTORS
330
D
102
}
330
D
100
AcDbGroup
300

 70
     1
 71
     1
  0
GROUP
  5
419
102
{ACAD_REACTORS
330
D
102
}
330
D
100
AcDbGroup
300

 70
     1
 71
     1
  0
GROUP
  5
41A
102
{ACAD_REACTORS
330
D
102
}
330
D
100
AcDbGroup
300

 70
     1
 71
     1
  0
MLINESTYLE
  5
13
102
{ACAD_REACTORS
330
E
102
}
330
E
100
AcDbMlineStyle
  2
STANDARD
 70
     0
  3

 62
     0
 51
90.0
 52
90.0
 71
     2
 49
0.5
 62
   256
  6
BYLAYER
 49
-0.5
 62
   256
  6
BYLAYER
  0
PLOTSETTINGS
  5
1F2A
102
{ACAD_REACTORS
330
1661
102
}
330
1661
100
AcDbPlotSettings
  1
A3formNX710
  2
RICOH IPSiO NX710
  4
A3
  6

 40
5.831416606903076
 41
4.307413101196289
 42
8.244415283203125
 43
5.789093017578125
 44
296.9683227539062
 45
419.9889831542968
 46
0.0
 47
0.0
 48
0.0
 49
0.0
140
0.0
141
0.0
142
1.0
143
0.999993956865126
 70
   688
 72
     1
 73
     1
 74
     2
  7
monochrome.ctb
 75
     0
147
1.000006043171393
148
0.0
149
0.0
  0
ACDBPLACEHOLDER
  5
165F
102
{ACAD_REACTORS
330
165E
102
}
330
165E
100
AcDbPlaceHolder
280
     0
  0
DICTIONARYVAR
  5
22AF
102
{ACAD_REACTORS
330
22AE
102
}
330
22AE
100
DictionaryVariables
280
     0
  1
96
  0
XRECORD
  5
367B
102
{ACAD_REACTORS
330
367A
102
}
330
367A
100
AcDbXrecord
 90
        1
  0
XRECORD
  5
367C
102
{ACAD_REACTORS
330
367A
102
}
330
367A
100
AcDbXrecord
 90
       70
  0
XRECORD
  5
367D
102
{ACAD_REACTORS
330
367A
102
}
330
367A
100
AcDbXrecord
  1

  0
XRECORD
  5
367E
102
{ACAD_REACTORS
330
367A
102
}
330
367A
100
AcDbXrecord
  1

  0
XRECORD
  5
367F
102
{ACAD_REACTORS
330
367A
102
}
330
367A
100
AcDbXrecord
340
1660
  0
XRECORD
  5
3680
102
{ACAD_REACTORS
330
367A
102
}
330
367A
100
AcDbXrecord
340
1661
  0
XRECORD
  5
3681
102
{ACAD_REACTORS
330
367A
102
}
330
367A
100
AcDbXrecord
340
165E
  0
XRECORD
  5
3682
102
{ACAD_REACTORS
330
367A
102
}
330
367A
100
AcDbXrecord
 90
    27165
  0
XRECORD
  5
3683
102
{ACAD_REACTORS
330
367A
102
}
330
367A
100
AcDbXrecord
 90
        0
  0
XRECORD
  5
3684
102
{ACAD_REACTORS
330
367A
102
}
330
367A
100
AcDbXrecord
 90
        0
  0
XRECORD
  5
3685
102
{ACAD_REACTORS
330
367A
102
}
330
367A
100
AcDbXrecord
  1
{EE503B12-8F09-11D4-BE4C-00402655F364}
  0
XRECORD
  5
3686
102
{ACAD_REACTORS
330
367A
102
}
330
367A
100
AcDbXrecord
  1
{099E21E4-26BE-4617-B2A9-BC4577C14020}
  0
XRECORD
  5
3687
102
{ACAD_REACTORS
330
367A
102
}
330
367A
100
AcDbXrecord
 40
0.0
  0
XRECORD
  5
3688
102
{ACAD_REACTORS
330
367A
102
}
330
367A
100
AcDbXrecord
340
0
  0
XRECORD
  5
3689
102
{ACAD_REACTORS
330
367A
102
}
330
367A
100
AcDbXrecord
 70
     0
  0
XRECORD
  5
368A
102
{ACAD_REACTORS
330
367A
102
}
330
367A
100
AcDbXrecord
340
0
  0
XRECORD
  5
368B
102
{ACAD_REACTORS
330
367A
102
}
330
367A
100
AcDbXrecord
 10
0.0
 20
0.0
 30
0.0
  0
XRECORD
  5
368C
102
{ACAD_REACTORS
330
367A
102
}
330
367A
100
AcDbXrecord
 10
0.0
 20
0.0
 30
0.0
  0
XRECORD
  5
368D
102
{ACAD_REACTORS
330
367A
102
}
330
367A
100
AcDbXrecord
 10
0.0
 20
0.0
 30
0.0
  0
XRECORD
  5
368E
102
{ACAD_REACTORS
330
367A
102
}
330
367A
100
AcDbXrecord
 10
0.0
 20
0.0
 30
0.0
  0
XRECORD
  5
368F
102
{ACAD_REACTORS
330
367A
102
}
330
367A
100
AcDbXrecord
 10
0.0
 20
0.0
 30
0.0
  0
XRECORD
  5
3690
102
{ACAD_REACTORS
330
367A
102
}
330
367A
100
AcDbXrecord
 10
0.0
 20
0.0
 30
0.0
  0
XRECORD
  5
3691
102
{ACAD_REACTORS
330
367A
102
}
330
367A
100
AcDbXrecord
340
0
  0
XRECORD
  5
3692
102
{ACAD_REACTORS
330
367A
102
}
330
367A
100
AcDbXrecord
 70
     0
  0
XRECORD
  5
3693
102
{ACAD_REACTORS
330
367A
102
}
330
367A
100
AcDbXrecord
340
0
  0
XRECORD
  5
3694
102
{ACAD_REACTORS
330
367A
102
}
330
367A
100
AcDbXrecord
 10
0.0
 20
0.0
 30
0.0
  0
XRECORD
  5
3695
102
{ACAD_REACTORS
330
367A
102
}
330
367A
100
AcDbXrecord
 10
0.0
 20
0.0
 30
0.0
  0
XRECORD
  5
3696
102
{ACAD_REACTORS
330
367A
102
}
330
367A
100
AcDbXrecord
 10
0.0
 20
0.0
 30
0.0
  0
XRECORD
  5
3697
102
{ACAD_REACTORS
330
367A
102
}
330
367A
100
AcDbXrecord
 10
0.0
 20
0.0
 30
0.0
  0
XRECORD
  5
3698
102
{ACAD_REACTORS
330
367A
102
}
330
367A
100
AcDbXrecord
 10
0.0
 20
0.0
 30
0.0
  0
XRECORD
  5
3699
102
{ACAD_REACTORS
330
367A
102
}
330
367A
100
AcDbXrecord
 10
0.0
 20
0.0
 30
0.0
  0
ENDSEC
  0
EOF
