  0
SECTION
  2
HEADER
  9
$ACADVER
  1
AC1009
  9
$INSBASE
 10
0.0
 20
0.0
 30
0.0
  9
$EXTMIN
 10
64.499999789646949
 20
164.49999982287139
 30
-0.00000001
  9
$EXTMAX
 10
345.02499978964693
 20
346.99999982287147
 30
0.00000001
  9
$LIMMIN
 10
0.0
 20
0.0
  9
$LIMMAX
 10
10000.0
 20
10000.0
  9
$ORTHOMODE
 70
     1
  9
$REGENMODE
 70
     1
  9
$FILLMODE
 70
     1
  9
$QTEXTMODE
 70
     0
  9
$MIRRTEXT
 70
     1
  9
$DRAGMODE
 70
     2
  9
$LTSCALE
 40
33.670033670033661
  9
$OSMODE
 70
    32
  9
$ATTMODE
 70
     1
  9
$TEXTSIZE
 40
2.7999999999999989
  9
$TRACEWID
 40
1.0
  9
$TEXTSTYLE
  7
AD-STANDARD
  9
$CLAYER
  8
1
  9
$CELTYPE
  6
BYLAYER
  9
$CECOLOR
 62
   256
  9
$DIMSCALE
 40
1.0
  9
$DIMASZ
 40
2.5
  9
$DIMEXO
 40
1.0
  9
$DIMDLI
 40
0.38
  9
$DIMRND
 40
0.0
  9
$DIMDLE
 40
0.0
  9
$DIMEXE
 40
2.0
  9
$DIMTP
 40
0.15
  9
$DIMTM
 40
0.15
  9
$DIMTXT
 40
3.5
  9
$DIMCEN
 40
-2.0
  9
$DIMTSZ
 40
0.0
  9
$DIMTOL
 70
     1
  9
$DIMLIM
 70
     0
  9
$DIMTIH
 70
     0
  9
$DIMTOH
 70
     0
  9
$DIMSE1
 70
     0
  9
$DIMSE2
 70
     0
  9
$DIMTAD
 70
     1
  9
$DIMZIN
 70
     8
  9
$DIMBLK
  1

  9
$DIMASO
 70
     1
  9
$DIMSHO
 70
     1
  9
$DIMPOST
  1

  9
$DIMAPOST
  1

  9
$DIMALT
 70
     0
  9
$DIMALTD
 70
     2
  9
$DIMALTF
 40
25.399999999999999
  9
$DIMLFAC
 40
1.0
  9
$DIMTOFL
 70
     1
  9
$DIMTVP
 40
0.0
  9
$DIMTIX
 70
     0
  9
$DIMSOXD
 70
     0
  9
$DIMSAH
 70
     0
  9
$DIMBLK1
  1

  9
$DIMBLK2
  1

  9
$DIMSTYLE
  2
AD-STANDARD
  9
$DIMCLRD
 70
     8
  9
$DIMCLRE
 70
     8
  9
$DIMCLRT
 70
     2
  9
$DIMTFAC
 40
0.7
  9
$DIMGAP
 40
0.5
  9
$LUNITS
 70
     2
  9
$LUPREC
 70
     4
  9
$SKETCHINC
 40
1.0
  9
$FILLETRAD
 40
2.0
  9
$AUNITS
 70
     0
  9
$AUPREC
 70
     0
  9
$MENU
  1
.
  9
$ELEVATION
 40
0.0
  9
$PELEVATION
 40
0.0
  9
$THICKNESS
 40
0.0
  9
$LIMCHECK
 70
     0
  9
$BLIPMODE
 70
     0
  9
$CHAMFERA
 40
0.0
  9
$CHAMFERB
 40
0.0
  9
$SKPOLY
 70
     0
  9
$TDCREATE
 40
2450492.6330531249
  9
$TDUPDATE
 40
2453973.8894948601
  9
$TDINDWG
 40
0.7655791204
  9
$TDUSRTIMER
 40
0.7655791204
  9
$USRTIMER
 70
     1
  9
$ANGBASE
 50
0.0
  9
$ANGDIR
 70
     0
  9
$PDMODE
 70
     0
  9
$PDSIZE
 40
0.0
  9
$PLINEWID
 40
0.0
  9
$COORDS
 70
     1
  9
$SPLFRAME
 70
     0
  9
$SPLINETYPE
 70
     6
  9
$SPLINESEGS
 70
     8
  9
$ATTDIA
 70
     0
  9
$ATTREQ
 70
     1
  9
$HANDLING
 70
 10241
  9
$HANDSEED
  5
ADD
  9
$SURFTAB1
 70
     6
  9
$SURFTAB2
 70
     6
  9
$SURFTYPE
 70
     6
  9
$SURFU
 70
     6
  9
$SURFV
 70
     6
  9
$UCSNAME
  2

  9
$UCSORG
 10
0.0
 20
0.0
 30
0.0
  9
$UCSXDIR
 10
1.0
 20
0.0
 30
0.0
  9
$UCSYDIR
 10
0.0
 20
1.0
 30
0.0
  9
$PUCSNAME
  2

  9
$PUCSORG
 10
0.0
 20
0.0
 30
0.0
  9
$PUCSXDIR
 10
1.0
 20
0.0
 30
0.0
  9
$PUCSYDIR
 10
0.0
 20
1.0
 30
0.0
  9
$USERI1
 70
     0
  9
$USERI2
 70
     0
  9
$USERI3
 70
     0
  9
$USERI4
 70
     0
  9
$USERI5
 70
     0
  9
$USERR1
 40
0.0
  9
$USERR2
 40
0.0
  9
$USERR3
 40
0.0
  9
$USERR4
 40
0.0
  9
$USERR5
 40
0.0
  9
$WORLDVIEW
 70
     1
  9
$SHADEDGE
 70
     3
  9
$SHADEDIF
 70
    70
  9
$TILEMODE
 70
     1
  9
$MAXACTVP
 70
    16
  9
$PLIMCHECK
 70
     0
  9
$PEXTMIN
 10
20.0
 20
17.0
 30
0.0
  9
$PEXTMAX
 10
405.0
 20
281.99999999999989
 30
0.0
  9
$PLIMMIN
 10
-5.789093017578125
 20
-5.8314166069030762
  9
$PLIMMAX
 10
414.19989013671869
 20
291.13690614700312
  9
$UNITMODE
 70
     0
  9
$VISRETAIN
 70
     0
  9
$PLINEGEN
 70
     0
  9
$PSLTSCALE
 70
     1
  0
ENDSEC
  0
SECTION
  2
TABLES
  0
TABLE
  2
VPORT
 70
     1
  0
VPORT
  2
*ACTIVE
 70
     0
 10
0.0
 20
0.0
 11
1.0
 21
1.0
 12
239.28952273561131
 22
273.75431038711622
 13
0.0
 23
0.0
 14
0.5
 24
0.5
 15
5.0
 25
5.0
 16
0.0
 26
0.0
 36
1.0
 17
0.0
 27
0.0
 37
0.0
 40
306.61682392881852
 41
1.6020806241872561
 42
50.0
 43
0.0
 44
0.0
 50
0.0
 51
0.0
 71
     0
 72
   100
 73
     1
 74
     0
 75
     0
 76
     0
 77
     0
 78
     1
  0
ENDTAB
  0
TABLE
  2
LTYPE
 70
     3
  0
LTYPE
  2
CONTINUOUS
 70
     0
  3
Solid line
 72
    65
 73
     0
 40
0.0
  0
LTYPE
  2
CENTER
 70
     0
  3
____ _ ____ _ ____ _ ____ _ ____ _ ____ _ ____ 
 72
    65
 73
     4
 40
2.0
 49
1.25
 49
-0.25
 49
0.25
 49
-0.25
  0
LTYPE
  2
HIDDEN
 70
     0
  3
__ __ __ __ __ __ __ __ __ __ __ __ __ __ __ __
 72
    65
 73
     2
 40
0.375
 49
0.25
 49
-0.125
  0
ENDTAB
  0
TABLE
  2
LAYER
 70
     3
  0
LAYER
  2
0
 70
     0
 62
     7
  6
CONTINUOUS
  0
LAYER
  2
CENTER
 70
     0
 62
     8
  6
CENTER
  0
LAYER
  2
1
 70
     0
 62
     7
  6
CONTINUOUS
  0
ENDTAB
  0
TABLE
  2
STYLE
 70
     2
  0
STYLE
  2
STANDARD
 70
     0
 40
0.0
 41
0.8
 50
0.0
 71
     0
 42
84.175084175084166
  3
TXT
  4
Bigfont.shx
  0
STYLE
  2
AD-STANDARD
 70
     0
 40
0.0
 41
0.8
 50
0.0
 71
     0
 42
2.7999999999999989
  3
romans.shx
  4
Bigfont.shx
  0
ENDTAB
  0
TABLE
  2
VIEW
 70
     0
  0
ENDTAB
  0
TABLE
  2
UCS
 70
     0
  0
ENDTAB
  0
TABLE
  2
APPID
 70
     1
  0
APPID
  2
ACAD
 70
     0
  0
ENDTAB
  0
TABLE
  2
DIMSTYLE
 70
     1
  0
DIMSTYLE
  2
AD-STANDARD
 70
     0
  3

  4

  5

  6

  7

 40
5.0
 41
2.5
 42
0.5
 43
0.38
 44
1.0
 45
0.0
 46
0.0
 47
0.0
 48
0.0
140
3.5
141
-2.0
142
0.0
143
25.399999999999999
144
1.0
145
0.0
146
1.0
147
0.5
 71
     0
 72
     0
 73
     0
 74
     0
 75
     0
 76
     0
 77
     1
 78
     8
170
     0
171
     2
172
     1
173
     0
174
     0
175
     0
176
     8
177
     8
178
     2
  0
ENDTAB
  0
ENDSEC
  0
SECTION
  2
BLOCKS
  0
BLOCK
  8
0
  2
$MODEL_SPACE
 70
     0
 10
0.0
 20
0.0
 30
0.0
  3
$MODEL_SPACE
  1

  0
ENDBLK
  5
A
  8
0
  0
BLOCK
 67
     1
  8
0
  2
$PAPER_SPACE
 70
     0
 10
0.0
 20
0.0
 30
0.0
  3
$PAPER_SPACE
  1

  0
ENDBLK
  5
10
 67
     1
  8
0
  0
ENDSEC
  0
SECTION
  2
ENTITIES
  0
POLYLINE
  8
1
  5
231
  66
     1
 10
0.000000
 20
0.000000
 30
0.000000
  70
     8
  0
VERTEX
  8
1
  5
232
 10
117.900
 20
216.950
 30
0.000000
  70
    32
  0
VERTEX
  8
1
  5
233
 10
117.884
 20
216.948
 30
0.000000
  70
    32
  0
VERTEX
  8
1
  5
234
 10
117.868
 20
216.946
 30
0.000000
  70
    32
  0
VERTEX
  8
1
  5
235
 10
117.852
 20
216.943
 30
0.000000
  70
    32
  0
VERTEX
  8
1
  5
236
 10
117.837
 20
216.941
 30
0.000000
  70
    32
  0
VERTEX
  8
1
  5
237
 10
117.821
 20
216.939
 30
0.000000
  70
    32
  0
VERTEX
  8
1
  5
238
 10
117.805
 20
216.936
 30
0.000000
  70
    32
  0
VERTEX
  8
1
  5
239
 10
117.789
 20
216.934
 30
0.000000
  70
    32
  0
VERTEX
  8
1
  5
23A
 10
117.774
 20
216.931
 30
0.000000
  70
    32
  0
VERTEX
  8
1
  5
23B
 10
117.758
 20
216.928
 30
0.000000
  70
    32
  0
VERTEX
  8
1
  5
23C
 10
117.742
 20
216.925
 30
0.000000
  70
    32
  0
VERTEX
  8
1
  5
23D
 10
117.727
 20
216.922
 30
0.000000
  70
    32
  0
VERTEX
  8
1
  5
23E
 10
117.711
 20
216.919
 30
0.000000
  70
    32
  0
VERTEX
  8
1
  5
23F
 10
117.696
 20
216.916
 30
0.000000
  70
    32
  0
VERTEX
  8
1
  5
240
 10
117.680
 20
216.913
 30
0.000000
  70
    32
  0
VERTEX
  8
1
  5
241
 10
117.665
 20
216.910
 30
0.000000
  70
    32
  0
VERTEX
  8
1
  5
242
 10
117.650
 20
216.906
 30
0.000000
  70
    32
  0
VERTEX
  8
1
  5
243
 10
117.634
 20
216.903
 30
0.000000
  70
    32
  0
VERTEX
  8
1
  5
244
 10
117.619
 20
216.899
 30
0.000000
  70
    32
  0
VERTEX
  8
1
  5
245
 10
117.604
 20
216.896
 30
0.000000
  70
    32
  0
VERTEX
  8
1
  5
246
 10
117.589
 20
216.892
 30
0.000000
  70
    32
  0
VERTEX
  8
1
  5
247
 10
117.574
 20
216.888
 30
0.000000
  70
    32
  0
VERTEX
  8
1
  5
248
 10
117.559
 20
216.884
 30
0.000000
  70
    32
  0
VERTEX
  8
1
  5
249
 10
117.544
 20
216.880
 30
0.000000
  70
    32
  0
VERTEX
  8
1
  5
24A
 10
117.529
 20
216.876
 30
0.000000
  70
    32
  0
VERTEX
  8
1
  5
24B
 10
117.514
 20
216.872
 30
0.000000
  70
    32
  0
VERTEX
  8
1
  5
24C
 10
117.499
 20
216.868
 30
0.000000
  70
    32
  0
VERTEX
  8
1
  5
24D
 10
117.484
 20
216.863
 30
0.000000
  70
    32
  0
VERTEX
  8
1
  5
24E
 10
117.469
 20
216.859
 30
0.000000
  70
    32
  0
VERTEX
  8
1
  5
24F
 10
117.454
 20
216.854
 30
0.000000
  70
    32
  0
VERTEX
  8
1
  5
250
 10
117.440
 20
216.849
 30
0.000000
  70
    32
  0
VERTEX
  8
1
  5
251
 10
117.425
 20
216.845
 30
0.000000
  70
    32
  0
VERTEX
  8
1
  5
252
 10
117.410
 20
216.840
 30
0.000000
  70
    32
  0
VERTEX
  8
1
  5
253
 10
117.396
 20
216.835
 30
0.000000
  70
    32
  0
VERTEX
  8
1
  5
254
 10
117.381
 20
216.829
 30
0.000000
  70
    32
  0
VERTEX
  8
1
  5
255
 10
117.367
 20
216.824
 30
0.000000
  70
    32
  0
VERTEX
  8
1
  5
256
 10
117.353
 20
216.819
 30
0.000000
  70
    32
  0
VERTEX
  8
1
  5
257
 10
117.338
 20
216.813
 30
0.000000
  70
    32
  0
VERTEX
  8
1
  5
258
 10
117.324
 20
216.808
 30
0.000000
  70
    32
  0
VERTEX
  8
1
  5
259
 10
117.310
 20
216.802
 30
0.000000
  70
    32
  0
VERTEX
  8
1
  5
25A
 10
117.296
 20
216.796
 30
0.000000
  70
    32
  0
VERTEX
  8
1
  5
25B
 10
117.282
 20
216.790
 30
0.000000
  70
    32
  0
VERTEX
  8
1
  5
25C
 10
117.268
 20
216.784
 30
0.000000
  70
    32
  0
VERTEX
  8
1
  5
25D
 10
117.254
 20
216.778
 30
0.000000
  70
    32
  0
VERTEX
  8
1
  5
25E
 10
117.240
 20
216.771
 30
0.000000
  70
    32
  0
VERTEX
  8
1
  5
25F
 10
117.226
 20
216.765
 30
0.000000
  70
    32
  0
VERTEX
  8
1
  5
260
 10
117.212
 20
216.758
 30
0.000000
  70
    32
  0
VERTEX
  8
1
  5
261
 10
117.199
 20
216.751
 30
0.000000
  70
    32
  0
VERTEX
  8
1
  5
262
 10
117.185
 20
216.744
 30
0.000000
  70
    32
  0
VERTEX
  8
1
  5
263
 10
117.171
 20
216.737
 30
0.000000
  70
    32
  0
VERTEX
  8
1
  5
264
 10
117.158
 20
216.730
 30
0.000000
  70
    32
  0
VERTEX
  8
1
  5
265
 10
117.144
 20
216.723
 30
0.000000
  70
    32
  0
VERTEX
  8
1
  5
266
 10
117.131
 20
216.716
 30
0.000000
  70
    32
  0
VERTEX
  8
1
  5
267
 10
117.117
 20
216.708
 30
0.000000
  70
    32
  0
VERTEX
  8
1
  5
268
 10
117.104
 20
216.701
 30
0.000000
  70
    32
  0
VERTEX
  8
1
  5
269
 10
117.091
 20
216.693
 30
0.000000
  70
    32
  0
VERTEX
  8
1
  5
26A
 10
117.077
 20
216.686
 30
0.000000
  70
    32
  0
VERTEX
  8
1
  5
26B
 10
117.064
 20
216.678
 30
0.000000
  70
    32
  0
VERTEX
  8
1
  5
26C
 10
117.051
 20
216.670
 30
0.000000
  70
    32
  0
VERTEX
  8
1
  5
26D
 10
117.038
 20
216.662
 30
0.000000
  70
    32
  0
VERTEX
  8
1
  5
26E
 10
117.025
 20
216.653
 30
0.000000
  70
    32
  0
VERTEX
  8
1
  5
26F
 10
117.012
 20
216.645
 30
0.000000
  70
    32
  0
VERTEX
  8
1
  5
270
 10
116.999
 20
216.637
 30
0.000000
  70
    32
  0
VERTEX
  8
1
  5
271
 10
116.986
 20
216.628
 30
0.000000
  70
    32
  0
VERTEX
  8
1
  5
272
 10
116.973
 20
216.620
 30
0.000000
  70
    32
  0
VERTEX
  8
1
  5
273
 10
116.961
 20
216.611
 30
0.000000
  70
    32
  0
VERTEX
  8
1
  5
274
 10
116.948
 20
216.602
 30
0.000000
  70
    32
  0
VERTEX
  8
1
  5
275
 10
116.935
 20
216.593
 30
0.000000
  70
    32
  0
VERTEX
  8
1
  5
276
 10
116.923
 20
216.584
 30
0.000000
  70
    32
  0
VERTEX
  8
1
  5
277
 10
116.910
 20
216.575
 30
0.000000
  70
    32
  0
VERTEX
  8
1
  5
278
 10
116.897
 20
216.566
 30
0.000000
  70
    32
  0
VERTEX
  8
1
  5
279
 10
116.885
 20
216.557
 30
0.000000
  70
    32
  0
VERTEX
  8
1
  5
27A
 10
116.872
 20
216.548
 30
0.000000
  70
    32
  0
VERTEX
  8
1
  5
27B
 10
116.860
 20
216.538
 30
0.000000
  70
    32
  0
VERTEX
  8
1
  5
27C
 10
116.848
 20
216.529
 30
0.000000
  70
    32
  0
VERTEX
  8
1
  5
27D
 10
116.835
 20
216.519
 30
0.000000
  70
    32
  0
VERTEX
  8
1
  5
27E
 10
116.823
 20
216.509
 30
0.000000
  70
    32
  0
VERTEX
  8
1
  5
27F
 10
116.811
 20
216.499
 30
0.000000
  70
    32
  0
VERTEX
  8
1
  5
280
 10
116.799
 20
216.490
 30
0.000000
  70
    32
  0
VERTEX
  8
1
  5
281
 10
116.786
 20
216.480
 30
0.000000
  70
    32
  0
VERTEX
  8
1
  5
282
 10
116.774
 20
216.470
 30
0.000000
  70
    32
  0
VERTEX
  8
1
  5
283
 10
116.762
 20
216.459
 30
0.000000
  70
    32
  0
VERTEX
  8
1
  5
284
 10
116.750
 20
216.449
 30
0.000000
  70
    32
  0
VERTEX
  8
1
  5
285
 10
116.738
 20
216.439
 30
0.000000
  70
    32
  0
VERTEX
  8
1
  5
286
 10
116.726
 20
216.429
 30
0.000000
  70
    32
  0
VERTEX
  8
1
  5
287
 10
116.714
 20
216.418
 30
0.000000
  70
    32
  0
VERTEX
  8
1
  5
288
 10
116.702
 20
216.408
 30
0.000000
  70
    32
  0
VERTEX
  8
1
  5
289
 10
116.690
 20
216.397
 30
0.000000
  70
    32
  0
VERTEX
  8
1
  5
28A
 10
116.679
 20
216.386
 30
0.000000
  70
    32
  0
VERTEX
  8
1
  5
28B
 10
116.667
 20
216.375
 30
0.000000
  70
    32
  0
VERTEX
  8
1
  5
28C
 10
116.655
 20
216.365
 30
0.000000
  70
    32
  0
VERTEX
  8
1
  5
28D
 10
116.643
 20
216.354
 30
0.000000
  70
    32
  0
VERTEX
  8
1
  5
28E
 10
116.632
 20
216.343
 30
0.000000
  70
    32
  0
VERTEX
  8
1
  5
28F
 10
116.620
 20
216.332
 30
0.000000
  70
    32
  0
VERTEX
  8
1
  5
290
 10
116.608
 20
216.321
 30
0.000000
  70
    32
  0
VERTEX
  8
1
  5
291
 10
116.597
 20
216.309
 30
0.000000
  70
    32
  0
VERTEX
  8
1
  5
292
 10
116.585
 20
216.298
 30
0.000000
  70
    32
  0
VERTEX
  8
1
  5
293
 10
116.574
 20
216.287
 30
0.000000
  70
    32
  0
VERTEX
  8
1
  5
294
 10
116.562
 20
216.275
 30
0.000000
  70
    32
  0
VERTEX
  8
1
  5
295
 10
116.551
 20
216.264
 30
0.000000
  70
    32
  0
VERTEX
  8
1
  5
296
 10
116.539
 20
216.253
 30
0.000000
  70
    32
  0
VERTEX
  8
1
  5
297
 10
116.528
 20
216.241
 30
0.000000
  70
    32
  0
VERTEX
  8
1
  5
298
 10
116.516
 20
216.229
 30
0.000000
  70
    32
  0
VERTEX
  8
1
  5
299
 10
116.505
 20
216.218
 30
0.000000
  70
    32
  0
VERTEX
  8
1
  5
29A
 10
116.494
 20
216.206
 30
0.000000
  70
    32
  0
VERTEX
  8
1
  5
29B
 10
116.483
 20
216.194
 30
0.000000
  70
    32
  0
VERTEX
  8
1
  5
29C
 10
116.471
 20
216.182
 30
0.000000
  70
    32
  0
VERTEX
  8
1
  5
29D
 10
116.460
 20
216.170
 30
0.000000
  70
    32
  0
VERTEX
  8
1
  5
29E
 10
116.449
 20
216.158
 30
0.000000
  70
    32
  0
VERTEX
  8
1
  5
29F
 10
116.438
 20
216.146
 30
0.000000
  70
    32
  0
VERTEX
  8
1
  5
2A0
 10
116.426
 20
216.134
 30
0.000000
  70
    32
  0
VERTEX
  8
1
  5
2A1
 10
116.415
 20
216.122
 30
0.000000
  70
    32
  0
VERTEX
  8
1
  5
2A2
 10
116.404
 20
216.110
 30
0.000000
  70
    32
  0
VERTEX
  8
1
  5
2A3
 10
116.393
 20
216.098
 30
0.000000
  70
    32
  0
VERTEX
  8
1
  5
2A4
 10
116.382
 20
216.085
 30
0.000000
  70
    32
  0
VERTEX
  8
1
  5
2A5
 10
116.371
 20
216.073
 30
0.000000
  70
    32
  0
VERTEX
  8
1
  5
2A6
 10
116.360
 20
216.061
 30
0.000000
  70
    32
  0
VERTEX
  8
1
  5
2A7
 10
116.349
 20
216.048
 30
0.000000
  70
    32
  0
VERTEX
  8
1
  5
2A8
 10
116.338
 20
216.036
 30
0.000000
  70
    32
  0
VERTEX
  8
1
  5
2A9
 10
116.327
 20
216.023
 30
0.000000
  70
    32
  0
VERTEX
  8
1
  5
2AA
 10
116.316
 20
216.011
 30
0.000000
  70
    32
  0
VERTEX
  8
1
  5
2AB
 10
116.305
 20
215.998
 30
0.000000
  70
    32
  0
VERTEX
  8
1
  5
2AC
 10
116.294
 20
215.986
 30
0.000000
  70
    32
  0
VERTEX
  8
1
  5
2AD
 10
116.283
 20
215.973
 30
0.000000
  70
    32
  0
VERTEX
  8
1
  5
2AE
 10
116.273
 20
215.960
 30
0.000000
  70
    32
  0
VERTEX
  8
1
  5
2AF
 10
116.262
 20
215.947
 30
0.000000
  70
    32
  0
VERTEX
  8
1
  5
2B0
 10
116.251
 20
215.935
 30
0.000000
  70
    32
  0
VERTEX
  8
1
  5
2B1
 10
116.240
 20
215.922
 30
0.000000
  70
    32
  0
VERTEX
  8
1
  5
2B2
 10
116.229
 20
215.909
 30
0.000000
  70
    32
  0
VERTEX
  8
1
  5
2B3
 10
116.219
 20
215.896
 30
0.000000
  70
    32
  0
VERTEX
  8
1
  5
2B4
 10
116.208
 20
215.883
 30
0.000000
  70
    32
  0
VERTEX
  8
1
  5
2B5
 10
116.197
 20
215.870
 30
0.000000
  70
    32
  0
VERTEX
  8
1
  5
2B6
 10
116.186
 20
215.857
 30
0.000000
  70
    32
  0
VERTEX
  8
1
  5
2B7
 10
116.176
 20
215.844
 30
0.000000
  70
    32
  0
VERTEX
  8
1
  5
2B8
 10
116.165
 20
215.831
 30
0.000000
  70
    32
  0
VERTEX
  8
1
  5
2B9
 10
116.154
 20
215.818
 30
0.000000
  70
    32
  0
VERTEX
  8
1
  5
2BA
 10
116.144
 20
215.805
 30
0.000000
  70
    32
  0
VERTEX
  8
1
  5
2BB
 10
116.133
 20
215.792
 30
0.000000
  70
    32
  0
VERTEX
  8
1
  5
2BC
 10
116.122
 20
215.779
 30
0.000000
  70
    32
  0
VERTEX
  8
1
  5
2BD
 10
116.112
 20
215.766
 30
0.000000
  70
    32
  0
VERTEX
  8
1
  5
2BE
 10
116.101
 20
215.753
 30
0.000000
  70
    32
  0
VERTEX
  8
1
  5
2BF
 10
116.090
 20
215.739
 30
0.000000
  70
    32
  0
VERTEX
  8
1
  5
2C0
 10
116.080
 20
215.726
 30
0.000000
  70
    32
  0
VERTEX
  8
1
  5
2C1
 10
116.069
 20
215.713
 30
0.000000
  70
    32
  0
VERTEX
  8
1
  5
2C2
 10
116.058
 20
215.700
 30
0.000000
  70
    32
  0
VERTEX
  8
1
  5
2C3
 10
116.048
 20
215.687
 30
0.000000
  70
    32
  0
VERTEX
  8
1
  5
2C4
 10
116.037
 20
215.673
 30
0.000000
  70
    32
  0
VERTEX
  8
1
  5
2C5
 10
116.027
 20
215.660
 30
0.000000
  70
    32
  0
VERTEX
  8
1
  5
2C6
 10
116.016
 20
215.647
 30
0.000000
  70
    32
  0
VERTEX
  8
1
  5
2C7
 10
116.006
 20
215.633
 30
0.000000
  70
    32
  0
VERTEX
  8
1
  5
2C8
 10
115.995
 20
215.620
 30
0.000000
  70
    32
  0
VERTEX
  8
1
  5
2C9
 10
115.984
 20
215.607
 30
0.000000
  70
    32
  0
VERTEX
  8
1
  5
2CA
 10
115.974
 20
215.593
 30
0.000000
  70
    32
  0
VERTEX
  8
1
  5
2CB
 10
115.963
 20
215.580
 30
0.000000
  70
    32
  0
VERTEX
  8
1
  5
2CC
 10
115.953
 20
215.567
 30
0.000000
  70
    32
  0
VERTEX
  8
1
  5
2CD
 10
115.942
 20
215.553
 30
0.000000
  70
    32
  0
VERTEX
  8
1
  5
2CE
 10
115.932
 20
215.540
 30
0.000000
  70
    32
  0
VERTEX
  8
1
  5
2CF
 10
115.921
 20
215.527
 30
0.000000
  70
    32
  0
VERTEX
  8
1
  5
2D0
 10
115.911
 20
215.513
 30
0.000000
  70
    32
  0
VERTEX
  8
1
  5
2D1
 10
115.900
 20
215.500
 30
0.000000
  70
    32
  0
SEQEND
  8
1
  5
2D2
  0
POLYLINE
  8
1
  5
2D3
  66
     1
 10
0.000000
 20
0.000000
 30
0.000000
  70
     8
  0
VERTEX
  8
1
  5
2D4
 10
106.900
 20
216.568
 30
0.000000
  70
    32
  0
VERTEX
  8
1
  5
2D5
 10
106.909
 20
216.562
 30
0.000000
  70
    32
  0
VERTEX
  8
1
  5
2D6
 10
106.918
 20
216.555
 30
0.000000
  70
    32
  0
VERTEX
  8
1
  5
2D7
 10
106.926
 20
216.548
 30
0.000000
  70
    32
  0
VERTEX
  8
1
  5
2D8
 10
106.935
 20
216.542
 30
0.000000
  70
    32
  0
VERTEX
  8
1
  5
2D9
 10
106.944
 20
216.535
 30
0.000000
  70
    32
  0
VERTEX
  8
1
  5
2DA
 10
106.952
 20
216.528
 30
0.000000
  70
    32
  0
VERTEX
  8
1
  5
2DB
 10
106.961
 20
216.522
 30
0.000000
  70
    32
  0
VERTEX
  8
1
  5
2DC
 10
106.970
 20
216.515
 30
0.000000
  70
    32
  0
VERTEX
  8
1
  5
2DD
 10
106.978
 20
216.508
 30
0.000000
  70
    32
  0
VERTEX
  8
1
  5
2DE
 10
106.987
 20
216.501
 30
0.000000
  70
    32
  0
VERTEX
  8
1
  5
2DF
 10
106.996
 20
216.494
 30
0.000000
  70
    32
  0
VERTEX
  8
1
  5
2E0
 10
107.004
 20
216.487
 30
0.000000
  70
    32
  0
VERTEX
  8
1
  5
2E1
 10
107.013
 20
216.480
 30
0.000000
  70
    32
  0
VERTEX
  8
1
  5
2E2
 10
107.021
 20
216.473
 30
0.000000
  70
    32
  0
VERTEX
  8
1
  5
2E3
 10
107.030
 20
216.466
 30
0.000000
  70
    32
  0
VERTEX
  8
1
  5
2E4
 10
107.038
 20
216.459
 30
0.000000
  70
    32
  0
VERTEX
  8
1
  5
2E5
 10
107.047
 20
216.452
 30
0.000000
  70
    32
  0
VERTEX
  8
1
  5
2E6
 10
107.055
 20
216.445
 30
0.000000
  70
    32
  0
VERTEX
  8
1
  5
2E7
 10
107.064
 20
216.437
 30
0.000000
  70
    32
  0
VERTEX
  8
1
  5
2E8
 10
107.072
 20
216.430
 30
0.000000
  70
    32
  0
VERTEX
  8
1
  5
2E9
 10
107.080
 20
216.423
 30
0.000000
  70
    32
  0
VERTEX
  8
1
  5
2EA
 10
107.089
 20
216.415
 30
0.000000
  70
    32
  0
VERTEX
  8
1
  5
2EB
 10
107.097
 20
216.408
 30
0.000000
  70
    32
  0
VERTEX
  8
1
  5
2EC
 10
107.105
 20
216.401
 30
0.000000
  70
    32
  0
VERTEX
  8
1
  5
2ED
 10
107.114
 20
216.393
 30
0.000000
  70
    32
  0
VERTEX
  8
1
  5
2EE
 10
107.122
 20
216.386
 30
0.000000
  70
    32
  0
VERTEX
  8
1
  5
2EF
 10
107.130
 20
216.378
 30
0.000000
  70
    32
  0
VERTEX
  8
1
  5
2F0
 10
107.139
 20
216.370
 30
0.000000
  70
    32
  0
VERTEX
  8
1
  5
2F1
 10
107.147
 20
216.363
 30
0.000000
  70
    32
  0
VERTEX
  8
1
  5
2F2
 10
107.155
 20
216.355
 30
0.000000
  70
    32
  0
VERTEX
  8
1
  5
2F3
 10
107.163
 20
216.348
 30
0.000000
  70
    32
  0
VERTEX
  8
1
  5
2F4
 10
107.172
 20
216.340
 30
0.000000
  70
    32
  0
VERTEX
  8
1
  5
2F5
 10
107.180
 20
216.332
 30
0.000000
  70
    32
  0
VERTEX
  8
1
  5
2F6
 10
107.188
 20
216.324
 30
0.000000
  70
    32
  0
VERTEX
  8
1
  5
2F7
 10
107.196
 20
216.316
 30
0.000000
  70
    32
  0
VERTEX
  8
1
  5
2F8
 10
107.204
 20
216.309
 30
0.000000
  70
    32
  0
VERTEX
  8
1
  5
2F9
 10
107.212
 20
216.301
 30
0.000000
  70
    32
  0
VERTEX
  8
1
  5
2FA
 10
107.220
 20
216.293
 30
0.000000
  70
    32
  0
VERTEX
  8
1
  5
2FB
 10
107.229
 20
216.285
 30
0.000000
  70
    32
  0
VERTEX
  8
1
  5
2FC
 10
107.237
 20
216.277
 30
0.000000
  70
    32
  0
VERTEX
  8
1
  5
2FD
 10
107.245
 20
216.269
 30
0.000000
  70
    32
  0
VERTEX
  8
1
  5
2FE
 10
107.253
 20
216.261
 30
0.000000
  70
    32
  0
VERTEX
  8
1
  5
2FF
 10
107.261
 20
216.253
 30
0.000000
  70
    32
  0
VERTEX
  8
1
  5
300
 10
107.269
 20
216.244
 30
0.000000
  70
    32
  0
VERTEX
  8
1
  5
301
 10
107.277
 20
216.236
 30
0.000000
  70
    32
  0
VERTEX
  8
1
  5
302
 10
107.285
 20
216.228
 30
0.000000
  70
    32
  0
VERTEX
  8
1
  5
303
 10
107.293
 20
216.220
 30
0.000000
  70
    32
  0
VERTEX
  8
1
  5
304
 10
107.301
 20
216.212
 30
0.000000
  70
    32
  0
VERTEX
  8
1
  5
305
 10
107.309
 20
216.203
 30
0.000000
  70
    32
  0
VERTEX
  8
1
  5
306
 10
107.317
 20
216.195
 30
0.000000
  70
    32
  0
VERTEX
  8
1
  5
307
 10
107.324
 20
216.187
 30
0.000000
  70
    32
  0
VERTEX
  8
1
  5
308
 10
107.332
 20
216.178
 30
0.000000
  70
    32
  0
VERTEX
  8
1
  5
309
 10
107.340
 20
216.170
 30
0.000000
  70
    32
  0
VERTEX
  8
1
  5
30A
 10
107.348
 20
216.162
 30
0.000000
  70
    32
  0
VERTEX
  8
1
  5
30B
 10
107.356
 20
216.153
 30
0.000000
  70
    32
  0
VERTEX
  8
1
  5
30C
 10
107.364
 20
216.145
 30
0.000000
  70
    32
  0
VERTEX
  8
1
  5
30D
 10
107.372
 20
216.136
 30
0.000000
  70
    32
  0
VERTEX
  8
1
  5
30E
 10
107.379
 20
216.128
 30
0.000000
  70
    32
  0
VERTEX
  8
1
  5
30F
 10
107.387
 20
216.119
 30
0.000000
  70
    32
  0
VERTEX
  8
1
  5
310
 10
107.395
 20
216.111
 30
0.000000
  70
    32
  0
VERTEX
  8
1
  5
311
 10
107.403
 20
216.102
 30
0.000000
  70
    32
  0
VERTEX
  8
1
  5
312
 10
107.411
 20
216.093
 30
0.000000
  70
    32
  0
VERTEX
  8
1
  5
313
 10
107.418
 20
216.085
 30
0.000000
  70
    32
  0
VERTEX
  8
1
  5
314
 10
107.426
 20
216.076
 30
0.000000
  70
    32
  0
VERTEX
  8
1
  5
315
 10
107.434
 20
216.067
 30
0.000000
  70
    32
  0
VERTEX
  8
1
  5
316
 10
107.442
 20
216.059
 30
0.000000
  70
    32
  0
VERTEX
  8
1
  5
317
 10
107.449
 20
216.050
 30
0.000000
  70
    32
  0
VERTEX
  8
1
  5
318
 10
107.457
 20
216.041
 30
0.000000
  70
    32
  0
VERTEX
  8
1
  5
319
 10
107.465
 20
216.033
 30
0.000000
  70
    32
  0
VERTEX
  8
1
  5
31A
 10
107.472
 20
216.024
 30
0.000000
  70
    32
  0
VERTEX
  8
1
  5
31B
 10
107.480
 20
216.015
 30
0.000000
  70
    32
  0
VERTEX
  8
1
  5
31C
 10
107.488
 20
216.006
 30
0.000000
  70
    32
  0
VERTEX
  8
1
  5
31D
 10
107.496
 20
215.997
 30
0.000000
  70
    32
  0
VERTEX
  8
1
  5
31E
 10
107.503
 20
215.988
 30
0.000000
  70
    32
  0
VERTEX
  8
1
  5
31F
 10
107.511
 20
215.980
 30
0.000000
  70
    32
  0
VERTEX
  8
1
  5
320
 10
107.518
 20
215.971
 30
0.000000
  70
    32
  0
VERTEX
  8
1
  5
321
 10
107.526
 20
215.962
 30
0.000000
  70
    32
  0
VERTEX
  8
1
  5
322
 10
107.534
 20
215.953
 30
0.000000
  70
    32
  0
VERTEX
  8
1
  5
323
 10
107.541
 20
215.944
 30
0.000000
  70
    32
  0
VERTEX
  8
1
  5
324
 10
107.549
 20
215.935
 30
0.000000
  70
    32
  0
VERTEX
  8
1
  5
325
 10
107.557
 20
215.926
 30
0.000000
  70
    32
  0
VERTEX
  8
1
  5
326
 10
107.564
 20
215.917
 30
0.000000
  70
    32
  0
VERTEX
  8
1
  5
327
 10
107.572
 20
215.908
 30
0.000000
  70
    32
  0
VERTEX
  8
1
  5
328
 10
107.579
 20
215.899
 30
0.000000
  70
    32
  0
VERTEX
  8
1
  5
329
 10
107.587
 20
215.890
 30
0.000000
  70
    32
  0
VERTEX
  8
1
  5
32A
 10
107.594
 20
215.881
 30
0.000000
  70
    32
  0
VERTEX
  8
1
  5
32B
 10
107.602
 20
215.872
 30
0.000000
  70
    32
  0
VERTEX
  8
1
  5
32C
 10
107.609
 20
215.862
 30
0.000000
  70
    32
  0
VERTEX
  8
1
  5
32D
 10
107.617
 20
215.853
 30
0.000000
  70
    32
  0
VERTEX
  8
1
  5
32E
 10
107.625
 20
215.844
 30
0.000000
  70
    32
  0
VERTEX
  8
1
  5
32F
 10
107.632
 20
215.835
 30
0.000000
  70
    32
  0
VERTEX
  8
1
  5
330
 10
107.640
 20
215.826
 30
0.000000
  70
    32
  0
VERTEX
  8
1
  5
331
 10
107.647
 20
215.817
 30
0.000000
  70
    32
  0
VERTEX
  8
1
  5
332
 10
107.655
 20
215.808
 30
0.000000
  70
    32
  0
VERTEX
  8
1
  5
333
 10
107.662
 20
215.798
 30
0.000000
  70
    32
  0
VERTEX
  8
1
  5
334
 10
107.670
 20
215.789
 30
0.000000
  70
    32
  0
VERTEX
  8
1
  5
335
 10
107.677
 20
215.780
 30
0.000000
  70
    32
  0
VERTEX
  8
1
  5
336
 10
107.685
 20
215.771
 30
0.000000
  70
    32
  0
VERTEX
  8
1
  5
337
 10
107.692
 20
215.761
 30
0.000000
  70
    32
  0
VERTEX
  8
1
  5
338
 10
107.699
 20
215.752
 30
0.000000
  70
    32
  0
VERTEX
  8
1
  5
339
 10
107.707
 20
215.743
 30
0.000000
  70
    32
  0
VERTEX
  8
1
  5
33A
 10
107.714
 20
215.734
 30
0.000000
  70
    32
  0
VERTEX
  8
1
  5
33B
 10
107.722
 20
215.724
 30
0.000000
  70
    32
  0
VERTEX
  8
1
  5
33C
 10
107.729
 20
215.715
 30
0.000000
  70
    32
  0
VERTEX
  8
1
  5
33D
 10
107.737
 20
215.706
 30
0.000000
  70
    32
  0
VERTEX
  8
1
  5
33E
 10
107.744
 20
215.697
 30
0.000000
  70
    32
  0
VERTEX
  8
1
  5
33F
 10
107.752
 20
215.687
 30
0.000000
  70
    32
  0
VERTEX
  8
1
  5
340
 10
107.759
 20
215.678
 30
0.000000
  70
    32
  0
VERTEX
  8
1
  5
341
 10
107.767
 20
215.669
 30
0.000000
  70
    32
  0
VERTEX
  8
1
  5
342
 10
107.774
 20
215.659
 30
0.000000
  70
    32
  0
VERTEX
  8
1
  5
343
 10
107.781
 20
215.650
 30
0.000000
  70
    32
  0
VERTEX
  8
1
  5
344
 10
107.789
 20
215.641
 30
0.000000
  70
    32
  0
VERTEX
  8
1
  5
345
 10
107.796
 20
215.631
 30
0.000000
  70
    32
  0
VERTEX
  8
1
  5
346
 10
107.804
 20
215.622
 30
0.000000
  70
    32
  0
VERTEX
  8
1
  5
347
 10
107.811
 20
215.613
 30
0.000000
  70
    32
  0
VERTEX
  8
1
  5
348
 10
107.818
 20
215.603
 30
0.000000
  70
    32
  0
VERTEX
  8
1
  5
349
 10
107.826
 20
215.594
 30
0.000000
  70
    32
  0
VERTEX
  8
1
  5
34A
 10
107.833
 20
215.584
 30
0.000000
  70
    32
  0
VERTEX
  8
1
  5
34B
 10
107.841
 20
215.575
 30
0.000000
  70
    32
  0
VERTEX
  8
1
  5
34C
 10
107.848
 20
215.566
 30
0.000000
  70
    32
  0
VERTEX
  8
1
  5
34D
 10
107.856
 20
215.556
 30
0.000000
  70
    32
  0
VERTEX
  8
1
  5
34E
 10
107.863
 20
215.547
 30
0.000000
  70
    32
  0
VERTEX
  8
1
  5
34F
 10
107.870
 20
215.538
 30
0.000000
  70
    32
  0
VERTEX
  8
1
  5
350
 10
107.878
 20
215.528
 30
0.000000
  70
    32
  0
VERTEX
  8
1
  5
351
 10
107.885
 20
215.519
 30
0.000000
  70
    32
  0
VERTEX
  8
1
  5
352
 10
107.893
 20
215.509
 30
0.000000
  70
    32
  0
VERTEX
  8
1
  5
353
 10
107.900
 20
215.500
 30
0.000000
  70
    32
  0
SEQEND
  8
1
  5
354
  0
POLYLINE
  8
1
  5
355
  66
     1
 10
0.000000
 20
0.000000
 30
0.000000
  70
     8
  0
VERTEX
  8
1
  5
356
 10
70.1148
 20
322.465
 30
0.000000
  70
    32
  0
VERTEX
  8
1
  5
357
 10
70.1042
 20
322.445
 30
0.000000
  70
    32
  0
VERTEX
  8
1
  5
358
 10
70.0936
 20
322.425
 30
0.000000
  70
    32
  0
VERTEX
  8
1
  5
359
 10
70.0831
 20
322.405
 30
0.000000
  70
    32
  0
VERTEX
  8
1
  5
35A
 10
70.0725
 20
322.385
 30
0.000000
  70
    32
  0
VERTEX
  8
1
  5
35B
 10
70.0619
 20
322.365
 30
0.000000
  70
    32
  0
VERTEX
  8
1
  5
35C
 10
70.0513
 20
322.344
 30
0.000000
  70
    32
  0
VERTEX
  8
1
  5
35D
 10
70.0407
 20
322.324
 30
0.000000
  70
    32
  0
VERTEX
  8
1
  5
35E
 10
70.0302
 20
322.304
 30
0.000000
  70
    32
  0
VERTEX
  8
1
  5
35F
 10
70.0196
 20
322.284
 30
0.000000
  70
    32
  0
VERTEX
  8
1
  5
360
 10
70.0090
 20
322.264
 30
0.000000
  70
    32
  0
VERTEX
  8
1
  5
361
 10
69.9984
 20
322.244
 30
0.000000
  70
    32
  0
VERTEX
  8
1
  5
362
 10
69.9878
 20
322.223
 30
0.000000
  70
    32
  0
VERTEX
  8
1
  5
363
 10
69.9772
 20
322.203
 30
0.000000
  70
    32
  0
VERTEX
  8
1
  5
364
 10
69.9666
 20
322.183
 30
0.000000
  70
    32
  0
VERTEX
  8
1
  5
365
 10
69.9560
 20
322.163
 30
0.000000
  70
    32
  0
VERTEX
  8
1
  5
366
 10
69.9454
 20
322.143
 30
0.000000
  70
    32
  0
VERTEX
  8
1
  5
367
 10
69.9348
 20
322.122
 30
0.000000
  70
    32
  0
VERTEX
  8
1
  5
368
 10
69.9242
 20
322.102
 30
0.000000
  70
    32
  0
VERTEX
  8
1
  5
369
 10
69.9136
 20
322.082
 30
0.000000
  70
    32
  0
VERTEX
  8
1
  5
36A
 10
69.9030
 20
322.061
 30
0.000000
  70
    32
  0
VERTEX
  8
1
  5
36B
 10
69.8923
 20
322.041
 30
0.000000
  70
    32
  0
VERTEX
  8
1
  5
36C
 10
69.8817
 20
322.021
 30
0.000000
  70
    32
  0
VERTEX
  8
1
  5
36D
 10
69.8711
 20
322.001
 30
0.000000
  70
    32
  0
VERTEX
  8
1
  5
36E
 10
69.8605
 20
321.980
 30
0.000000
  70
    32
  0
VERTEX
  8
1
  5
36F
 10
69.8499
 20
321.960
 30
0.000000
  70
    32
  0
VERTEX
  8
1
  5
370
 10
69.8393
 20
321.940
 30
0.000000
  70
    32
  0
VERTEX
  8
1
  5
371
 10
69.8287
 20
321.919
 30
0.000000
  70
    32
  0
VERTEX
  8
1
  5
372
 10
69.8181
 20
321.899
 30
0.000000
  70
    32
  0
VERTEX
  8
1
  5
373
 10
69.8075
 20
321.879
 30
0.000000
  70
    32
  0
VERTEX
  8
1
  5
374
 10
69.7970
 20
321.858
 30
0.000000
  70
    32
  0
VERTEX
  8
1
  5
375
 10
69.7864
 20
321.838
 30
0.000000
  70
    32
  0
VERTEX
  8
1
  5
376
 10
69.7758
 20
321.818
 30
0.000000
  70
    32
  0
VERTEX
  8
1
  5
377
 10
69.7652
 20
321.797
 30
0.000000
  70
    32
  0
VERTEX
  8
1
  5
378
 10
69.7546
 20
321.777
 30
0.000000
  70
    32
  0
VERTEX
  8
1
  5
379
 10
69.7440
 20
321.756
 30
0.000000
  70
    32
  0
VERTEX
  8
1
  5
37A
 10
69.7335
 20
321.736
 30
0.000000
  70
    32
  0
VERTEX
  8
1
  5
37B
 10
69.7229
 20
321.715
 30
0.000000
  70
    32
  0
VERTEX
  8
1
  5
37C
 10
69.7124
 20
321.695
 30
0.000000
  70
    32
  0
VERTEX
  8
1
  5
37D
 10
69.7018
 20
321.675
 30
0.000000
  70
    32
  0
VERTEX
  8
1
  5
37E
 10
69.6912
 20
321.654
 30
0.000000
  70
    32
  0
VERTEX
  8
1
  5
37F
 10
69.6807
 20
321.634
 30
0.000000
  70
    32
  0
VERTEX
  8
1
  5
380
 10
69.6702
 20
321.613
 30
0.000000
  70
    32
  0
VERTEX
  8
1
  5
381
 10
69.6596
 20
321.593
 30
0.000000
  70
    32
  0
VERTEX
  8
1
  5
382
 10
69.6491
 20
321.572
 30
0.000000
  70
    32
  0
VERTEX
  8
1
  5
383
 10
69.6386
 20
321.552
 30
0.000000
  70
    32
  0
VERTEX
  8
1
  5
384
 10
69.6281
 20
321.531
 30
0.000000
  70
    32
  0
VERTEX
  8
1
  5
385
 10
69.6176
 20
321.511
 30
0.000000
  70
    32
  0
VERTEX
  8
1
  5
386
 10
69.6071
 20
321.490
 30
0.000000
  70
    32
  0
VERTEX
  8
1
  5
387
 10
69.5966
 20
321.469
 30
0.000000
  70
    32
  0
VERTEX
  8
1
  5
388
 10
69.5861
 20
321.449
 30
0.000000
  70
    32
  0
VERTEX
  8
1
  5
389
 10
69.5756
 20
321.428
 30
0.000000
  70
    32
  0
VERTEX
  8
1
  5
38A
 10
69.5652
 20
321.408
 30
0.000000
  70
    32
  0
VERTEX
  8
1
  5
38B
 10
69.5547
 20
321.387
 30
0.000000
  70
    32
  0
VERTEX
  8
1
  5
38C
 10
69.5443
 20
321.367
 30
0.000000
  70
    32
  0
VERTEX
  8
1
  5
38D
 10
69.5338
 20
321.346
 30
0.000000
  70
    32
  0
VERTEX
  8
1
  5
38E
 10
69.5234
 20
321.325
 30
0.000000
  70
    32
  0
VERTEX
  8
1
  5
38F
 10
69.5130
 20
321.305
 30
0.000000
  70
    32
  0
VERTEX
  8
1
  5
390
 10
69.5026
 20
321.284
 30
0.000000
  70
    32
  0
VERTEX
  8
1
  5
391
 10
69.4922
 20
321.263
 30
0.000000
  70
    32
  0
VERTEX
  8
1
  5
392
 10
69.4818
 20
321.243
 30
0.000000
  70
    32
  0
VERTEX
  8
1
  5
393
 10
69.4714
 20
321.222
 30
0.000000
  70
    32
  0
VERTEX
  8
1
  5
394
 10
69.4610
 20
321.201
 30
0.000000
  70
    32
  0
VERTEX
  8
1
  5
395
 10
69.4507
 20
321.181
 30
0.000000
  70
    32
  0
VERTEX
  8
1
  5
396
 10
69.4403
 20
321.160
 30
0.000000
  70
    32
  0
VERTEX
  8
1
  5
397
 10
69.4300
 20
321.139
 30
0.000000
  70
    32
  0
VERTEX
  8
1
  5
398
 10
69.4197
 20
321.118
 30
0.000000
  70
    32
  0
VERTEX
  8
1
  5
399
 10
69.4094
 20
321.098
 30
0.000000
  70
    32
  0
VERTEX
  8
1
  5
39A
 10
69.3991
 20
321.077
 30
0.000000
  70
    32
  0
VERTEX
  8
1
  5
39B
 10
69.3888
 20
321.056
 30
0.000000
  70
    32
  0
VERTEX
  8
1
  5
39C
 10
69.3785
 20
321.035
 30
0.000000
  70
    32
  0
VERTEX
  8
1
  5
39D
 10
69.3683
 20
321.014
 30
0.000000
  70
    32
  0
VERTEX
  8
1
  5
39E
 10
69.3580
 20
320.994
 30
0.000000
  70
    32
  0
VERTEX
  8
1
  5
39F
 10
69.3478
 20
320.973
 30
0.000000
  70
    32
  0
VERTEX
  8
1
  5
3A0
 10
69.3376
 20
320.952
 30
0.000000
  70
    32
  0
VERTEX
  8
1
  5
3A1
 10
69.3274
 20
320.931
 30
0.000000
  70
    32
  0
VERTEX
  8
1
  5
3A2
 10
69.3172
 20
320.910
 30
0.000000
  70
    32
  0
VERTEX
  8
1
  5
3A3
 10
69.3071
 20
320.889
 30
0.000000
  70
    32
  0
VERTEX
  8
1
  5
3A4
 10
69.2969
 20
320.868
 30
0.000000
  70
    32
  0
VERTEX
  8
1
  5
3A5
 10
69.2868
 20
320.848
 30
0.000000
  70
    32
  0
VERTEX
  8
1
  5
3A6
 10
69.2767
 20
320.827
 30
0.000000
  70
    32
  0
VERTEX
  8
1
  5
3A7
 10
69.2665
 20
320.806
 30
0.000000
  70
    32
  0
VERTEX
  8
1
  5
3A8
 10
69.2565
 20
320.785
 30
0.000000
  70
    32
  0
VERTEX
  8
1
  5
3A9
 10
69.2464
 20
320.764
 30
0.000000
  70
    32
  0
VERTEX
  8
1
  5
3AA
 10
69.2363
 20
320.743
 30
0.000000
  70
    32
  0
VERTEX
  8
1
  5
3AB
 10
69.2263
 20
320.722
 30
0.000000
  70
    32
  0
VERTEX
  8
1
  5
3AC
 10
69.2163
 20
320.701
 30
0.000000
  70
    32
  0
VERTEX
  8
1
  5
3AD
 10
69.2063
 20
320.680
 30
0.000000
  70
    32
  0
VERTEX
  8
1
  5
3AE
 10
69.1963
 20
320.659
 30
0.000000
  70
    32
  0
VERTEX
  8
1
  5
3AF
 10
69.1863
 20
320.638
 30
0.000000
  70
    32
  0
VERTEX
  8
1
  5
3B0
 10
69.1764
 20
320.617
 30
0.000000
  70
    32
  0
VERTEX
  8
1
  5
3B1
 10
69.1665
 20
320.596
 30
0.000000
  70
    32
  0
VERTEX
  8
1
  5
3B2
 10
69.1566
 20
320.575
 30
0.000000
  70
    32
  0
VERTEX
  8
1
  5
3B3
 10
69.1467
 20
320.554
 30
0.000000
  70
    32
  0
VERTEX
  8
1
  5
3B4
 10
69.1368
 20
320.533
 30
0.000000
  70
    32
  0
VERTEX
  8
1
  5
3B5
 10
69.1270
 20
320.512
 30
0.000000
  70
    32
  0
VERTEX
  8
1
  5
3B6
 10
69.1171
 20
320.491
 30
0.000000
  70
    32
  0
VERTEX
  8
1
  5
3B7
 10
69.1073
 20
320.469
 30
0.000000
  70
    32
  0
VERTEX
  8
1
  5
3B8
 10
69.0975
 20
320.448
 30
0.000000
  70
    32
  0
VERTEX
  8
1
  5
3B9
 10
69.0878
 20
320.427
 30
0.000000
  70
    32
  0
VERTEX
  8
1
  5
3BA
 10
69.0780
 20
320.406
 30
0.000000
  70
    32
  0
VERTEX
  8
1
  5
3BB
 10
69.0683
 20
320.385
 30
0.000000
  70
    32
  0
VERTEX
  8
1
  5
3BC
 10
69.0586
 20
320.364
 30
0.000000
  70
    32
  0
VERTEX
  8
1
  5
3BD
 10
69.0489
 20
320.342
 30
0.000000
  70
    32
  0
VERTEX
  8
1
  5
3BE
 10
69.0393
 20
320.321
 30
0.000000
  70
    32
  0
VERTEX
  8
1
  5
3BF
 10
69.0296
 20
320.300
 30
0.000000
  70
    32
  0
VERTEX
  8
1
  5
3C0
 10
69.0200
 20
320.279
 30
0.000000
  70
    32
  0
VERTEX
  8
1
  5
3C1
 10
69.0104
 20
320.258
 30
0.000000
  70
    32
  0
VERTEX
  8
1
  5
3C2
 10
69.0009
 20
320.236
 30
0.000000
  70
    32
  0
VERTEX
  8
1
  5
3C3
 10
68.9913
 20
320.215
 30
0.000000
  70
    32
  0
VERTEX
  8
1
  5
3C4
 10
68.9818
 20
320.194
 30
0.000000
  70
    32
  0
VERTEX
  8
1
  5
3C5
 10
68.9723
 20
320.172
 30
0.000000
  70
    32
  0
VERTEX
  8
1
  5
3C6
 10
68.9628
 20
320.151
 30
0.000000
  70
    32
  0
VERTEX
  8
1
  5
3C7
 10
68.9534
 20
320.130
 30
0.000000
  70
    32
  0
VERTEX
  8
1
  5
3C8
 10
68.9440
 20
320.108
 30
0.000000
  70
    32
  0
VERTEX
  8
1
  5
3C9
 10
68.9346
 20
320.087
 30
0.000000
  70
    32
  0
VERTEX
  8
1
  5
3CA
 10
68.9252
 20
320.066
 30
0.000000
  70
    32
  0
VERTEX
  8
1
  5
3CB
 10
68.9159
 20
320.044
 30
0.000000
  70
    32
  0
VERTEX
  8
1
  5
3CC
 10
68.9066
 20
320.023
 30
0.000000
  70
    32
  0
VERTEX
  8
1
  5
3CD
 10
68.8973
 20
320.002
 30
0.000000
  70
    32
  0
VERTEX
  8
1
  5
3CE
 10
68.8880
 20
319.980
 30
0.000000
  70
    32
  0
VERTEX
  8
1
  5
3CF
 10
68.8788
 20
319.959
 30
0.000000
  70
    32
  0
VERTEX
  8
1
  5
3D0
 10
68.8696
 20
319.937
 30
0.000000
  70
    32
  0
VERTEX
  8
1
  5
3D1
 10
68.8604
 20
319.916
 30
0.000000
  70
    32
  0
VERTEX
  8
1
  5
3D2
 10
68.8512
 20
319.894
 30
0.000000
  70
    32
  0
VERTEX
  8
1
  5
3D3
 10
68.8421
 20
319.873
 30
0.000000
  70
    32
  0
VERTEX
  8
1
  5
3D4
 10
68.8330
 20
319.851
 30
0.000000
  70
    32
  0
VERTEX
  8
1
  5
3D5
 10
68.8239
 20
319.830
 30
0.000000
  70
    32
  0
VERTEX
  8
1
  5
3D6
 10
68.8149
 20
319.808
 30
0.000000
  70
    32
  0
VERTEX
  8
1
  5
3D7
 10
68.8059
 20
319.787
 30
0.000000
  70
    32
  0
VERTEX
  8
1
  5
3D8
 10
68.7969
 20
319.765
 30
0.000000
  70
    32
  0
VERTEX
  8
1
  5
3D9
 10
68.7879
 20
319.744
 30
0.000000
  70
    32
  0
VERTEX
  8
1
  5
3DA
 10
68.7790
 20
319.722
 30
0.000000
  70
    32
  0
VERTEX
  8
1
  5
3DB
 10
68.7701
 20
319.700
 30
0.000000
  70
    32
  0
VERTEX
  8
1
  5
3DC
 10
68.7612
 20
319.679
 30
0.000000
  70
    32
  0
VERTEX
  8
1
  5
3DD
 10
68.7524
 20
319.657
 30
0.000000
  70
    32
  0
VERTEX
  8
1
  5
3DE
 10
68.7436
 20
319.636
 30
0.000000
  70
    32
  0
VERTEX
  8
1
  5
3DF
 10
68.7348
 20
319.614
 30
0.000000
  70
    32
  0
VERTEX
  8
1
  5
3E0
 10
68.7261
 20
319.592
 30
0.000000
  70
    32
  0
VERTEX
  8
1
  5
3E1
 10
68.7174
 20
319.571
 30
0.000000
  70
    32
  0
VERTEX
  8
1
  5
3E2
 10
68.7087
 20
319.549
 30
0.000000
  70
    32
  0
VERTEX
  8
1
  5
3E3
 10
68.7001
 20
319.527
 30
0.000000
  70
    32
  0
VERTEX
  8
1
  5
3E4
 10
68.6914
 20
319.505
 30
0.000000
  70
    32
  0
VERTEX
  8
1
  5
3E5
 10
68.6829
 20
319.484
 30
0.000000
  70
    32
  0
VERTEX
  8
1
  5
3E6
 10
68.6743
 20
319.462
 30
0.000000
  70
    32
  0
VERTEX
  8
1
  5
3E7
 10
68.6658
 20
319.440
 30
0.000000
  70
    32
  0
VERTEX
  8
1
  5
3E8
 10
68.6573
 20
319.418
 30
0.000000
  70
    32
  0
VERTEX
  8
1
  5
3E9
 10
68.6489
 20
319.396
 30
0.000000
  70
    32
  0
VERTEX
  8
1
  5
3EA
 10
68.6405
 20
319.375
 30
0.000000
  70
    32
  0
VERTEX
  8
1
  5
3EB
 10
68.6321
 20
319.353
 30
0.000000
  70
    32
  0
VERTEX
  8
1
  5
3EC
 10
68.6238
 20
319.331
 30
0.000000
  70
    32
  0
VERTEX
  8
1
  5
3ED
 10
68.6155
 20
319.309
 30
0.000000
  70
    32
  0
VERTEX
  8
1
  5
3EE
 10
68.6072
 20
319.287
 30
0.000000
  70
    32
  0
VERTEX
  8
1
  5
3EF
 10
68.5990
 20
319.265
 30
0.000000
  70
    32
  0
VERTEX
  8
1
  5
3F0
 10
68.5908
 20
319.243
 30
0.000000
  70
    32
  0
VERTEX
  8
1
  5
3F1
 10
68.5826
 20
319.221
 30
0.000000
  70
    32
  0
VERTEX
  8
1
  5
3F2
 10
68.5745
 20
319.199
 30
0.000000
  70
    32
  0
VERTEX
  8
1
  5
3F3
 10
68.5664
 20
319.177
 30
0.000000
  70
    32
  0
VERTEX
  8
1
  5
3F4
 10
68.5584
 20
319.155
 30
0.000000
  70
    32
  0
VERTEX
  8
1
  5
3F5
 10
68.5504
 20
319.133
 30
0.000000
  70
    32
  0
VERTEX
  8
1
  5
3F6
 10
68.5424
 20
319.111
 30
0.000000
  70
    32
  0
VERTEX
  8
1
  5
3F7
 10
68.5345
 20
319.089
 30
0.000000
  70
    32
  0
VERTEX
  8
1
  5
3F8
 10
68.5266
 20
319.067
 30
0.000000
  70
    32
  0
VERTEX
  8
1
  5
3F9
 10
68.5187
 20
319.045
 30
0.000000
  70
    32
  0
VERTEX
  8
1
  5
3FA
 10
68.5109
 20
319.023
 30
0.000000
  70
    32
  0
VERTEX
  8
1
  5
3FB
 10
68.5032
 20
319.001
 30
0.000000
  70
    32
  0
VERTEX
  8
1
  5
3FC
 10
68.4954
 20
318.979
 30
0.000000
  70
    32
  0
VERTEX
  8
1
  5
3FD
 10
68.4878
 20
318.957
 30
0.000000
  70
    32
  0
VERTEX
  8
1
  5
3FE
 10
68.4801
 20
318.934
 30
0.000000
  70
    32
  0
VERTEX
  8
1
  5
3FF
 10
68.4725
 20
318.912
 30
0.000000
  70
    32
  0
VERTEX
  8
1
  5
400
 10
68.4650
 20
318.890
 30
0.000000
  70
    32
  0
VERTEX
  8
1
  5
401
 10
68.4574
 20
318.868
 30
0.000000
  70
    32
  0
VERTEX
  8
1
  5
402
 10
68.4500
 20
318.846
 30
0.000000
  70
    32
  0
VERTEX
  8
1
  5
403
 10
68.4425
 20
318.823
 30
0.000000
  70
    32
  0
VERTEX
  8
1
  5
404
 10
68.4352
 20
318.801
 30
0.000000
  70
    32
  0
VERTEX
  8
1
  5
405
 10
68.4278
 20
318.779
 30
0.000000
  70
    32
  0
VERTEX
  8
1
  5
406
 10
68.4205
 20
318.756
 30
0.000000
  70
    32
  0
VERTEX
  8
1
  5
407
 10
68.4133
 20
318.734
 30
0.000000
  70
    32
  0
VERTEX
  8
1
  5
408
 10
68.4061
 20
318.712
 30
0.000000
  70
    32
  0
VERTEX
  8
1
  5
409
 10
68.3989
 20
318.689
 30
0.000000
  70
    32
  0
VERTEX
  8
1
  5
40A
 10
68.3918
 20
318.667
 30
0.000000
  70
    32
  0
VERTEX
  8
1
  5
40B
 10
68.3847
 20
318.645
 30
0.000000
  70
    32
  0
VERTEX
  8
1
  5
40C
 10
68.3777
 20
318.622
 30
0.000000
  70
    32
  0
VERTEX
  8
1
  5
40D
 10
68.3707
 20
318.600
 30
0.000000
  70
    32
  0
VERTEX
  8
1
  5
40E
 10
68.3638
 20
318.577
 30
0.000000
  70
    32
  0
VERTEX
  8
1
  5
40F
 10
68.3569
 20
318.555
 30
0.000000
  70
    32
  0
VERTEX
  8
1
  5
410
 10
68.3501
 20
318.533
 30
0.000000
  70
    32
  0
VERTEX
  8
1
  5
411
 10
68.3433
 20
318.510
 30
0.000000
  70
    32
  0
VERTEX
  8
1
  5
412
 10
68.3366
 20
318.488
 30
0.000000
  70
    32
  0
VERTEX
  8
1
  5
413
 10
68.3299
 20
318.465
 30
0.000000
  70
    32
  0
VERTEX
  8
1
  5
414
 10
68.3232
 20
318.442
 30
0.000000
  70
    32
  0
VERTEX
  8
1
  5
415
 10
68.3166
 20
318.420
 30
0.000000
  70
    32
  0
VERTEX
  8
1
  5
416
 10
68.3101
 20
318.397
 30
0.000000
  70
    32
  0
VERTEX
  8
1
  5
417
 10
68.3036
 20
318.375
 30
0.000000
  70
    32
  0
VERTEX
  8
1
  5
418
 10
68.2972
 20
318.352
 30
0.000000
  70
    32
  0
VERTEX
  8
1
  5
419
 10
68.2908
 20
318.330
 30
0.000000
  70
    32
  0
VERTEX
  8
1
  5
41A
 10
68.2844
 20
318.307
 30
0.000000
  70
    32
  0
VERTEX
  8
1
  5
41B
 10
68.2782
 20
318.284
 30
0.000000
  70
    32
  0
VERTEX
  8
1
  5
41C
 10
68.2719
 20
318.262
 30
0.000000
  70
    32
  0
VERTEX
  8
1
  5
41D
 10
68.2657
 20
318.239
 30
0.000000
  70
    32
  0
VERTEX
  8
1
  5
41E
 10
68.2596
 20
318.216
 30
0.000000
  70
    32
  0
VERTEX
  8
1
  5
41F
 10
68.2535
 20
318.193
 30
0.000000
  70
    32
  0
VERTEX
  8
1
  5
420
 10
68.2475
 20
318.171
 30
0.000000
  70
    32
  0
VERTEX
  8
1
  5
421
 10
68.2415
 20
318.148
 30
0.000000
  70
    32
  0
VERTEX
  8
1
  5
422
 10
68.2356
 20
318.125
 30
0.000000
  70
    32
  0
VERTEX
  8
1
  5
423
 10
68.2298
 20
318.102
 30
0.000000
  70
    32
  0
VERTEX
  8
1
  5
424
 10
68.2240
 20
318.079
 30
0.000000
  70
    32
  0
VERTEX
  8
1
  5
425
 10
68.2182
 20
318.057
 30
0.000000
  70
    32
  0
VERTEX
  8
1
  5
426
 10
68.2125
 20
318.034
 30
0.000000
  70
    32
  0
VERTEX
  8
1
  5
427
 10
68.2069
 20
318.011
 30
0.000000
  70
    32
  0
VERTEX
  8
1
  5
428
 10
68.2013
 20
317.988
 30
0.000000
  70
    32
  0
VERTEX
  8
1
  5
429
 10
68.1958
 20
317.965
 30
0.000000
  70
    32
  0
VERTEX
  8
1
  5
42A
 10
68.1903
 20
317.942
 30
0.000000
  70
    32
  0
VERTEX
  8
1
  5
42B
 10
68.1849
 20
317.919
 30
0.000000
  70
    32
  0
VERTEX
  8
1
  5
42C
 10
68.1795
 20
317.896
 30
0.000000
  70
    32
  0
VERTEX
  8
1
  5
42D
 10
68.1742
 20
317.873
 30
0.000000
  70
    32
  0
VERTEX
  8
1
  5
42E
 10
68.1690
 20
317.850
 30
0.000000
  70
    32
  0
VERTEX
  8
1
  5
42F
 10
68.1638
 20
317.827
 30
0.000000
  70
    32
  0
VERTEX
  8
1
  5
430
 10
68.1587
 20
317.804
 30
0.000000
  70
    32
  0
VERTEX
  8
1
  5
431
 10
68.1536
 20
317.781
 30
0.000000
  70
    32
  0
VERTEX
  8
1
  5
432
 10
68.1486
 20
317.758
 30
0.000000
  70
    32
  0
VERTEX
  8
1
  5
433
 10
68.1436
 20
317.735
 30
0.000000
  70
    32
  0
VERTEX
  8
1
  5
434
 10
68.1387
 20
317.712
 30
0.000000
  70
    32
  0
VERTEX
  8
1
  5
435
 10
68.1339
 20
317.689
 30
0.000000
  70
    32
  0
VERTEX
  8
1
  5
436
 10
68.1291
 20
317.665
 30
0.000000
  70
    32
  0
VERTEX
  8
1
  5
437
 10
68.1244
 20
317.642
 30
0.000000
  70
    32
  0
VERTEX
  8
1
  5
438
 10
68.1198
 20
317.619
 30
0.000000
  70
    32
  0
VERTEX
  8
1
  5
439
 10
68.1152
 20
317.596
 30
0.000000
  70
    32
  0
VERTEX
  8
1
  5
43A
 10
68.1107
 20
317.573
 30
0.000000
  70
    32
  0
VERTEX
  8
1
  5
43B
 10
68.1062
 20
317.549
 30
0.000000
  70
    32
  0
VERTEX
  8
1
  5
43C
 10
68.1018
 20
317.526
 30
0.000000
  70
    32
  0
VERTEX
  8
1
  5
43D
 10
68.0975
 20
317.503
 30
0.000000
  70
    32
  0
VERTEX
  8
1
  5
43E
 10
68.0932
 20
317.479
 30
0.000000
  70
    32
  0
VERTEX
  8
1
  5
43F
 10
68.0890
 20
317.456
 30
0.000000
  70
    32
  0
VERTEX
  8
1
  5
440
 10
68.0849
 20
317.433
 30
0.000000
  70
    32
  0
VERTEX
  8
1
  5
441
 10
68.0808
 20
317.409
 30
0.000000
  70
    32
  0
VERTEX
  8
1
  5
442
 10
68.0768
 20
317.386
 30
0.000000
  70
    32
  0
VERTEX
  8
1
  5
443
 10
68.0729
 20
317.363
 30
0.000000
  70
    32
  0
VERTEX
  8
1
  5
444
 10
68.0690
 20
317.339
 30
0.000000
  70
    32
  0
VERTEX
  8
1
  5
445
 10
68.0652
 20
317.316
 30
0.000000
  70
    32
  0
VERTEX
  8
1
  5
446
 10
68.0614
 20
317.292
 30
0.000000
  70
    32
  0
VERTEX
  8
1
  5
447
 10
68.0577
 20
317.269
 30
0.000000
  70
    32
  0
VERTEX
  8
1
  5
448
 10
68.0541
 20
317.245
 30
0.000000
  70
    32
  0
VERTEX
  8
1
  5
449
 10
68.0506
 20
317.222
 30
0.000000
  70
    32
  0
VERTEX
  8
1
  5
44A
 10
68.0471
 20
317.198
 30
0.000000
  70
    32
  0
VERTEX
  8
1
  5
44B
 10
68.0437
 20
317.175
 30
0.000000
  70
    32
  0
VERTEX
  8
1
  5
44C
 10
68.0403
 20
317.151
 30
0.000000
  70
    32
  0
VERTEX
  8
1
  5
44D
 10
68.0371
 20
317.128
 30
0.000000
  70
    32
  0
VERTEX
  8
1
  5
44E
 10
68.0338
 20
317.104
 30
0.000000
  70
    32
  0
VERTEX
  8
1
  5
44F
 10
68.0307
 20
317.080
 30
0.000000
  70
    32
  0
VERTEX
  8
1
  5
450
 10
68.0276
 20
317.057
 30
0.000000
  70
    32
  0
VERTEX
  8
1
  5
451
 10
68.0246
 20
317.033
 30
0.000000
  70
    32
  0
VERTEX
  8
1
  5
452
 10
68.0217
 20
317.009
 30
0.000000
  70
    32
  0
VERTEX
  8
1
  5
453
 10
68.0189
 20
316.985
 30
0.000000
  70
    32
  0
VERTEX
  8
1
  5
454
 10
68.0161
 20
316.962
 30
0.000000
  70
    32
  0
VERTEX
  8
1
  5
455
 10
68.0134
 20
316.938
 30
0.000000
  70
    32
  0
VERTEX
  8
1
  5
456
 10
68.0107
 20
316.914
 30
0.000000
  70
    32
  0
VERTEX
  8
1
  5
457
 10
68.0081
 20
316.890
 30
0.000000
  70
    32
  0
VERTEX
  8
1
  5
458
 10
68.0056
 20
316.867
 30
0.000000
  70
    32
  0
VERTEX
  8
1
  5
459
 10
68.0032
 20
316.843
 30
0.000000
  70
    32
  0
VERTEX
  8
1
  5
45A
 10
68.0009
 20
316.819
 30
0.000000
  70
    32
  0
VERTEX
  8
1
  5
45B
 10
67.9986
 20
316.795
 30
0.000000
  70
    32
  0
VERTEX
  8
1
  5
45C
 10
67.9964
 20
316.771
 30
0.000000
  70
    32
  0
VERTEX
  8
1
  5
45D
 10
67.9943
 20
316.747
 30
0.000000
  70
    32
  0
VERTEX
  8
1
  5
45E
 10
67.9922
 20
316.723
 30
0.000000
  70
    32
  0
VERTEX
  8
1
  5
45F
 10
67.9902
 20
316.700
 30
0.000000
  70
    32
  0
VERTEX
  8
1
  5
460
 10
67.9883
 20
316.676
 30
0.000000
  70
    32
  0
VERTEX
  8
1
  5
461
 10
67.9865
 20
316.652
 30
0.000000
  70
    32
  0
VERTEX
  8
1
  5
462
 10
67.9848
 20
316.628
 30
0.000000
  70
    32
  0
VERTEX
  8
1
  5
463
 10
67.9831
 20
316.604
 30
0.000000
  70
    32
  0
VERTEX
  8
1
  5
464
 10
67.9815
 20
316.580
 30
0.000000
  70
    32
  0
VERTEX
  8
1
  5
465
 10
67.9800
 20
316.556
 30
0.000000
  70
    32
  0
VERTEX
  8
1
  5
466
 10
67.9786
 20
316.532
 30
0.000000
  70
    32
  0
VERTEX
  8
1
  5
467
 10
67.9772
 20
316.508
 30
0.000000
  70
    32
  0
VERTEX
  8
1
  5
468
 10
67.9760
 20
316.484
 30
0.000000
  70
    32
  0
VERTEX
  8
1
  5
469
 10
67.9748
 20
316.459
 30
0.000000
  70
    32
  0
VERTEX
  8
1
  5
46A
 10
67.9737
 20
316.435
 30
0.000000
  70
    32
  0
VERTEX
  8
1
  5
46B
 10
67.9726
 20
316.411
 30
0.000000
  70
    32
  0
VERTEX
  8
1
  5
46C
 10
67.9717
 20
316.387
 30
0.000000
  70
    32
  0
VERTEX
  8
1
  5
46D
 10
67.9708
 20
316.363
 30
0.000000
  70
    32
  0
VERTEX
  8
1
  5
46E
 10
67.9700
 20
316.339
 30
0.000000
  70
    32
  0
VERTEX
  8
1
  5
46F
 10
67.9693
 20
316.314
 30
0.000000
  70
    32
  0
VERTEX
  8
1
  5
470
 10
67.9687
 20
316.290
 30
0.000000
  70
    32
  0
VERTEX
  8
1
  5
471
 10
67.9682
 20
316.266
 30
0.000000
  70
    32
  0
VERTEX
  8
1
  5
472
 10
67.9677
 20
316.241
 30
0.000000
  70
    32
  0
VERTEX
  8
1
  5
473
 10
67.9673
 20
316.217
 30
0.000000
  70
    32
  0
VERTEX
  8
1
  5
474
 10
67.9670
 20
316.193
 30
0.000000
  70
    32
  0
VERTEX
  8
1
  5
475
 10
67.9668
 20
316.168
 30
0.000000
  70
    32
  0
VERTEX
  8
1
  5
476
 10
67.9667
 20
316.144
 30
0.000000
  70
    32
  0
VERTEX
  8
1
  5
477
 10
67.9667
 20
316.119
 30
0.000000
  70
    32
  0
VERTEX
  8
1
  5
478
 10
67.9667
 20
316.095
 30
0.000000
  70
    32
  0
VERTEX
  8
1
  5
479
 10
67.9669
 20
316.070
 30
0.000000
  70
    32
  0
VERTEX
  8
1
  5
47A
 10
67.9671
 20
316.046
 30
0.000000
  70
    32
  0
VERTEX
  8
1
  5
47B
 10
67.9674
 20
316.021
 30
0.000000
  70
    32
  0
VERTEX
  8
1
  5
47C
 10
67.9678
 20
315.997
 30
0.000000
  70
    32
  0
VERTEX
  8
1
  5
47D
 10
67.9683
 20
315.972
 30
0.000000
  70
    32
  0
VERTEX
  8
1
  5
47E
 10
67.9689
 20
315.947
 30
0.000000
  70
    32
  0
VERTEX
  8
1
  5
47F
 10
67.9696
 20
315.923
 30
0.000000
  70
    32
  0
VERTEX
  8
1
  5
480
 10
67.9704
 20
315.898
 30
0.000000
  70
    32
  0
VERTEX
  8
1
  5
481
 10
67.9712
 20
315.874
 30
0.000000
  70
    32
  0
VERTEX
  8
1
  5
482
 10
67.9722
 20
315.849
 30
0.000000
  70
    32
  0
VERTEX
  8
1
  5
483
 10
67.9732
 20
315.824
 30
0.000000
  70
    32
  0
VERTEX
  8
1
  5
484
 10
67.9743
 20
315.800
 30
0.000000
  70
    32
  0
VERTEX
  8
1
  5
485
 10
67.9755
 20
315.775
 30
0.000000
  70
    32
  0
VERTEX
  8
1
  5
486
 10
67.9768
 20
315.750
 30
0.000000
  70
    32
  0
VERTEX
  8
1
  5
487
 10
67.9782
 20
315.726
 30
0.000000
  70
    32
  0
VERTEX
  8
1
  5
488
 10
67.9797
 20
315.701
 30
0.000000
  70
    32
  0
VERTEX
  8
1
  5
489
 10
67.9812
 20
315.676
 30
0.000000
  70
    32
  0
VERTEX
  8
1
  5
48A
 10
67.9829
 20
315.652
 30
0.000000
  70
    32
  0
VERTEX
  8
1
  5
48B
 10
67.9846
 20
315.627
 30
0.000000
  70
    32
  0
VERTEX
  8
1
  5
48C
 10
67.9864
 20
315.602
 30
0.000000
  70
    32
  0
VERTEX
  8
1
  5
48D
 10
67.9884
 20
315.578
 30
0.000000
  70
    32
  0
VERTEX
  8
1
  5
48E
 10
67.9904
 20
315.553
 30
0.000000
  70
    32
  0
VERTEX
  8
1
  5
48F
 10
67.9925
 20
315.529
 30
0.000000
  70
    32
  0
VERTEX
  8
1
  5
490
 10
67.9947
 20
315.504
 30
0.000000
  70
    32
  0
VERTEX
  8
1
  5
491
 10
67.9969
 20
315.480
 30
0.000000
  70
    32
  0
VERTEX
  8
1
  5
492
 10
67.9993
 20
315.455
 30
0.000000
  70
    32
  0
VERTEX
  8
1
  5
493
 10
68.0018
 20
315.431
 30
0.000000
  70
    32
  0
VERTEX
  8
1
  5
494
 10
68.0043
 20
315.406
 30
0.000000
  70
    32
  0
VERTEX
  8
1
  5
495
 10
68.0069
 20
315.382
 30
0.000000
  70
    32
  0
VERTEX
  8
1
  5
496
 10
68.0097
 20
315.358
 30
0.000000
  70
    32
  0
VERTEX
  8
1
  5
497
 10
68.0125
 20
315.333
 30
0.000000
  70
    32
  0
VERTEX
  8
1
  5
498
 10
68.0154
 20
315.309
 30
0.000000
  70
    32
  0
VERTEX
  8
1
  5
499
 10
68.0184
 20
315.285
 30
0.000000
  70
    32
  0
VERTEX
  8
1
  5
49A
 10
68.0214
 20
315.261
 30
0.000000
  70
    32
  0
VERTEX
  8
1
  5
49B
 10
68.0246
 20
315.236
 30
0.000000
  70
    32
  0
VERTEX
  8
1
  5
49C
 10
68.0278
 20
315.212
 30
0.000000
  70
    32
  0
VERTEX
  8
1
  5
49D
 10
68.0312
 20
315.188
 30
0.000000
  70
    32
  0
VERTEX
  8
1
  5
49E
 10
68.0346
 20
315.164
 30
0.000000
  70
    32
  0
VERTEX
  8
1
  5
49F
 10
68.0380
 20
315.139
 30
0.000000
  70
    32
  0
VERTEX
  8
1
  5
4A0
 10
68.0416
 20
315.115
 30
0.000000
  70
    32
  0
VERTEX
  8
1
  5
4A1
 10
68.0452
 20
315.091
 30
0.000000
  70
    32
  0
VERTEX
  8
1
  5
4A2
 10
68.0490
 20
315.067
 30
0.000000
  70
    32
  0
VERTEX
  8
1
  5
4A3
 10
68.0527
 20
315.043
 30
0.000000
  70
    32
  0
VERTEX
  8
1
  5
4A4
 10
68.0566
 20
315.019
 30
0.000000
  70
    32
  0
VERTEX
  8
1
  5
4A5
 10
68.0605
 20
314.995
 30
0.000000
  70
    32
  0
VERTEX
  8
1
  5
4A6
 10
68.0646
 20
314.971
 30
0.000000
  70
    32
  0
VERTEX
  8
1
  5
4A7
 10
68.0686
 20
314.947
 30
0.000000
  70
    32
  0
VERTEX
  8
1
  5
4A8
 10
68.0728
 20
314.923
 30
0.000000
  70
    32
  0
VERTEX
  8
1
  5
4A9
 10
68.0770
 20
314.899
 30
0.000000
  70
    32
  0
VERTEX
  8
1
  5
4AA
 10
68.0813
 20
314.875
 30
0.000000
  70
    32
  0
VERTEX
  8
1
  5
4AB
 10
68.0856
 20
314.851
 30
0.000000
  70
    32
  0
VERTEX
  8
1
  5
4AC
 10
68.0901
 20
314.827
 30
0.000000
  70
    32
  0
VERTEX
  8
1
  5
4AD
 10
68.0945
 20
314.803
 30
0.000000
  70
    32
  0
VERTEX
  8
1
  5
4AE
 10
68.0991
 20
314.779
 30
0.000000
  70
    32
  0
VERTEX
  8
1
  5
4AF
 10
68.1037
 20
314.755
 30
0.000000
  70
    32
  0
VERTEX
  8
1
  5
4B0
 10
68.1084
 20
314.732
 30
0.000000
  70
    32
  0
VERTEX
  8
1
  5
4B1
 10
68.1131
 20
314.708
 30
0.000000
  70
    32
  0
VERTEX
  8
1
  5
4B2
 10
68.1179
 20
314.684
 30
0.000000
  70
    32
  0
VERTEX
  8
1
  5
4B3
 10
68.1227
 20
314.660
 30
0.000000
  70
    32
  0
VERTEX
  8
1
  5
4B4
 10
68.1276
 20
314.637
 30
0.000000
  70
    32
  0
VERTEX
  8
1
  5
4B5
 10
68.1325
 20
314.613
 30
0.000000
  70
    32
  0
VERTEX
  8
1
  5
4B6
 10
68.1375
 20
314.589
 30
0.000000
  70
    32
  0
VERTEX
  8
1
  5
4B7
 10
68.1426
 20
314.566
 30
0.000000
  70
    32
  0
VERTEX
  8
1
  5
4B8
 10
68.1477
 20
314.542
 30
0.000000
  70
    32
  0
VERTEX
  8
1
  5
4B9
 10
68.1529
 20
314.519
 30
0.000000
  70
    32
  0
VERTEX
  8
1
  5
4BA
 10
68.1581
 20
314.495
 30
0.000000
  70
    32
  0
VERTEX
  8
1
  5
4BB
 10
68.1633
 20
314.472
 30
0.000000
  70
    32
  0
VERTEX
  8
1
  5
4BC
 10
68.1686
 20
314.448
 30
0.000000
  70
    32
  0
VERTEX
  8
1
  5
4BD
 10
68.1740
 20
314.425
 30
0.000000
  70
    32
  0
VERTEX
  8
1
  5
4BE
 10
68.1794
 20
314.402
 30
0.000000
  70
    32
  0
VERTEX
  8
1
  5
4BF
 10
68.1848
 20
314.378
 30
0.000000
  70
    32
  0
VERTEX
  8
1
  5
4C0
 10
68.1903
 20
314.355
 30
0.000000
  70
    32
  0
VERTEX
  8
1
  5
4C1
 10
68.1958
 20
314.332
 30
0.000000
  70
    32
  0
VERTEX
  8
1
  5
4C2
 10
68.2014
 20
314.309
 30
0.000000
  70
    32
  0
VERTEX
  8
1
  5
4C3
 10
68.2070
 20
314.285
 30
0.000000
  70
    32
  0
VERTEX
  8
1
  5
4C4
 10
68.2126
 20
314.262
 30
0.000000
  70
    32
  0
VERTEX
  8
1
  5
4C5
 10
68.2183
 20
314.239
 30
0.000000
  70
    32
  0
VERTEX
  8
1
  5
4C6
 10
68.2240
 20
314.216
 30
0.000000
  70
    32
  0
VERTEX
  8
1
  5
4C7
 10
68.2297
 20
314.193
 30
0.000000
  70
    32
  0
VERTEX
  8
1
  5
4C8
 10
68.2355
 20
314.170
 30
0.000000
  70
    32
  0
VERTEX
  8
1
  5
4C9
 10
68.2413
 20
314.147
 30
0.000000
  70
    32
  0
VERTEX
  8
1
  5
4CA
 10
68.2472
 20
314.124
 30
0.000000
  70
    32
  0
VERTEX
  8
1
  5
4CB
 10
68.2530
 20
314.101
 30
0.000000
  70
    32
  0
VERTEX
  8
1
  5
4CC
 10
68.2589
 20
314.079
 30
0.000000
  70
    32
  0
VERTEX
  8
1
  5
4CD
 10
68.2649
 20
314.056
 30
0.000000
  70
    32
  0
VERTEX
  8
1
  5
4CE
 10
68.2708
 20
314.033
 30
0.000000
  70
    32
  0
VERTEX
  8
1
  5
4CF
 10
68.2768
 20
314.010
 30
0.000000
  70
    32
  0
VERTEX
  8
1
  5
4D0
 10
68.2828
 20
313.988
 30
0.000000
  70
    32
  0
VERTEX
  8
1
  5
4D1
 10
68.2888
 20
313.965
 30
0.000000
  70
    32
  0
VERTEX
  8
1
  5
4D2
 10
68.2949
 20
313.942
 30
0.000000
  70
    32
  0
VERTEX
  8
1
  5
4D3
 10
68.3009
 20
313.920
 30
0.000000
  70
    32
  0
VERTEX
  8
1
  5
4D4
 10
68.3070
 20
313.897
 30
0.000000
  70
    32
  0
VERTEX
  8
1
  5
4D5
 10
68.3131
 20
313.875
 30
0.000000
  70
    32
  0
VERTEX
  8
1
  5
4D6
 10
68.3192
 20
313.853
 30
0.000000
  70
    32
  0
VERTEX
  8
1
  5
4D7
 10
68.3254
 20
313.830
 30
0.000000
  70
    32
  0
VERTEX
  8
1
  5
4D8
 10
68.3315
 20
313.808
 30
0.000000
  70
    32
  0
VERTEX
  8
1
  5
4D9
 10
68.3377
 20
313.786
 30
0.000000
  70
    32
  0
VERTEX
  8
1
  5
4DA
 10
68.3439
 20
313.763
 30
0.000000
  70
    32
  0
VERTEX
  8
1
  5
4DB
 10
68.3501
 20
313.741
 30
0.000000
  70
    32
  0
VERTEX
  8
1
  5
4DC
 10
68.3563
 20
313.719
 30
0.000000
  70
    32
  0
VERTEX
  8
1
  5
4DD
 10
68.3626
 20
313.697
 30
0.000000
  70
    32
  0
VERTEX
  8
1
  5
4DE
 10
68.3688
 20
313.675
 30
0.000000
  70
    32
  0
VERTEX
  8
1
  5
4DF
 10
68.3751
 20
313.652
 30
0.000000
  70
    32
  0
VERTEX
  8
1
  5
4E0
 10
68.3814
 20
313.630
 30
0.000000
  70
    32
  0
VERTEX
  8
1
  5
4E1
 10
68.3876
 20
313.608
 30
0.000000
  70
    32
  0
VERTEX
  8
1
  5
4E2
 10
68.3939
 20
313.586
 30
0.000000
  70
    32
  0
VERTEX
  8
1
  5
4E3
 10
68.4002
 20
313.564
 30
0.000000
  70
    32
  0
VERTEX
  8
1
  5
4E4
 10
68.4065
 20
313.542
 30
0.000000
  70
    32
  0
VERTEX
  8
1
  5
4E5
 10
68.4129
 20
313.521
 30
0.000000
  70
    32
  0
VERTEX
  8
1
  5
4E6
 10
68.4192
 20
313.499
 30
0.000000
  70
    32
  0
VERTEX
  8
1
  5
4E7
 10
68.4255
 20
313.477
 30
0.000000
  70
    32
  0
VERTEX
  8
1
  5
4E8
 10
68.4319
 20
313.455
 30
0.000000
  70
    32
  0
VERTEX
  8
1
  5
4E9
 10
68.4382
 20
313.433
 30
0.000000
  70
    32
  0
VERTEX
  8
1
  5
4EA
 10
68.4445
 20
313.412
 30
0.000000
  70
    32
  0
VERTEX
  8
1
  5
4EB
 10
68.4509
 20
313.390
 30
0.000000
  70
    32
  0
VERTEX
  8
1
  5
4EC
 10
68.4572
 20
313.368
 30
0.000000
  70
    32
  0
VERTEX
  8
1
  5
4ED
 10
68.4636
 20
313.347
 30
0.000000
  70
    32
  0
VERTEX
  8
1
  5
4EE
 10
68.4699
 20
313.325
 30
0.000000
  70
    32
  0
VERTEX
  8
1
  5
4EF
 10
68.4762
 20
313.303
 30
0.000000
  70
    32
  0
VERTEX
  8
1
  5
4F0
 10
68.4826
 20
313.282
 30
0.000000
  70
    32
  0
VERTEX
  8
1
  5
4F1
 10
68.4889
 20
313.260
 30
0.000000
  70
    32
  0
VERTEX
  8
1
  5
4F2
 10
68.4953
 20
313.239
 30
0.000000
  70
    32
  0
VERTEX
  8
1
  5
4F3
 10
68.5016
 20
313.218
 30
0.000000
  70
    32
  0
VERTEX
  8
1
  5
4F4
 10
68.5079
 20
313.196
 30
0.000000
  70
    32
  0
VERTEX
  8
1
  5
4F5
 10
68.5142
 20
313.175
 30
0.000000
  70
    32
  0
VERTEX
  8
1
  5
4F6
 10
68.5205
 20
313.154
 30
0.000000
  70
    32
  0
VERTEX
  8
1
  5
4F7
 10
68.5268
 20
313.132
 30
0.000000
  70
    32
  0
VERTEX
  8
1
  5
4F8
 10
68.5331
 20
313.111
 30
0.000000
  70
    32
  0
VERTEX
  8
1
  5
4F9
 10
68.5394
 20
313.090
 30
0.000000
  70
    32
  0
VERTEX
  8
1
  5
4FA
 10
68.5457
 20
313.069
 30
0.000000
  70
    32
  0
VERTEX
  8
1
  5
4FB
 10
68.5520
 20
313.048
 30
0.000000
  70
    32
  0
VERTEX
  8
1
  5
4FC
 10
68.5582
 20
313.027
 30
0.000000
  70
    32
  0
VERTEX
  8
1
  5
4FD
 10
68.5645
 20
313.005
 30
0.000000
  70
    32
  0
VERTEX
  8
1
  5
4FE
 10
68.5707
 20
312.984
 30
0.000000
  70
    32
  0
VERTEX
  8
1
  5
4FF
 10
68.5769
 20
312.963
 30
0.000000
  70
    32
  0
VERTEX
  8
1
  5
500
 10
68.5831
 20
312.943
 30
0.000000
  70
    32
  0
VERTEX
  8
1
  5
501
 10
68.5893
 20
312.922
 30
0.000000
  70
    32
  0
VERTEX
  8
1
  5
502
 10
68.5954
 20
312.901
 30
0.000000
  70
    32
  0
VERTEX
  8
1
  5
503
 10
68.6016
 20
312.880
 30
0.000000
  70
    32
  0
VERTEX
  8
1
  5
504
 10
68.6077
 20
312.859
 30
0.000000
  70
    32
  0
VERTEX
  8
1
  5
505
 10
68.6138
 20
312.838
 30
0.000000
  70
    32
  0
VERTEX
  8
1
  5
506
 10
68.6199
 20
312.818
 30
0.000000
  70
    32
  0
VERTEX
  8
1
  5
507
 10
68.6260
 20
312.797
 30
0.000000
  70
    32
  0
VERTEX
  8
1
  5
508
 10
68.6320
 20
312.776
 30
0.000000
  70
    32
  0
VERTEX
  8
1
  5
509
 10
68.6380
 20
312.756
 30
0.000000
  70
    32
  0
VERTEX
  8
1
  5
50A
 10
68.6440
 20
312.735
 30
0.000000
  70
    32
  0
VERTEX
  8
1
  5
50B
 10
68.6500
 20
312.715
 30
0.000000
  70
    32
  0
VERTEX
  8
1
  5
50C
 10
68.6560
 20
312.694
 30
0.000000
  70
    32
  0
VERTEX
  8
1
  5
50D
 10
68.6619
 20
312.674
 30
0.000000
  70
    32
  0
VERTEX
  8
1
  5
50E
 10
68.6678
 20
312.653
 30
0.000000
  70
    32
  0
VERTEX
  8
1
  5
50F
 10
68.6737
 20
312.633
 30
0.000000
  70
    32
  0
VERTEX
  8
1
  5
510
 10
68.6795
 20
312.612
 30
0.000000
  70
    32
  0
VERTEX
  8
1
  5
511
 10
68.6853
 20
312.592
 30
0.000000
  70
    32
  0
VERTEX
  8
1
  5
512
 10
68.6911
 20
312.572
 30
0.000000
  70
    32
  0
VERTEX
  8
1
  5
513
 10
68.6968
 20
312.552
 30
0.000000
  70
    32
  0
VERTEX
  8
1
  5
514
 10
68.7026
 20
312.531
 30
0.000000
  70
    32
  0
VERTEX
  8
1
  5
515
 10
68.7083
 20
312.511
 30
0.000000
  70
    32
  0
VERTEX
  8
1
  5
516
 10
68.7139
 20
312.491
 30
0.000000
  70
    32
  0
VERTEX
  8
1
  5
517
 10
68.7195
 20
312.471
 30
0.000000
  70
    32
  0
VERTEX
  8
1
  5
518
 10
68.7251
 20
312.451
 30
0.000000
  70
    32
  0
VERTEX
  8
1
  5
519
 10
68.7307
 20
312.431
 30
0.000000
  70
    32
  0
VERTEX
  8
1
  5
51A
 10
68.7362
 20
312.411
 30
0.000000
  70
    32
  0
VERTEX
  8
1
  5
51B
 10
68.7416
 20
312.391
 30
0.000000
  70
    32
  0
VERTEX
  8
1
  5
51C
 10
68.7471
 20
312.371
 30
0.000000
  70
    32
  0
VERTEX
  8
1
  5
51D
 10
68.7525
 20
312.351
 30
0.000000
  70
    32
  0
VERTEX
  8
1
  5
51E
 10
68.7578
 20
312.332
 30
0.000000
  70
    32
  0
VERTEX
  8
1
  5
51F
 10
68.7631
 20
312.312
 30
0.000000
  70
    32
  0
VERTEX
  8
1
  5
520
 10
68.7684
 20
312.292
 30
0.000000
  70
    32
  0
VERTEX
  8
1
  5
521
 10
68.7737
 20
312.273
 30
0.000000
  70
    32
  0
VERTEX
  8
1
  5
522
 10
68.7789
 20
312.253
 30
0.000000
  70
    32
  0
VERTEX
  8
1
  5
523
 10
68.7840
 20
312.233
 30
0.000000
  70
    32
  0
VERTEX
  8
1
  5
524
 10
68.7891
 20
312.214
 30
0.000000
  70
    32
  0
VERTEX
  8
1
  5
525
 10
68.7942
 20
312.194
 30
0.000000
  70
    32
  0
VERTEX
  8
1
  5
526
 10
68.7992
 20
312.175
 30
0.000000
  70
    32
  0
VERTEX
  8
1
  5
527
 10
68.8042
 20
312.155
 30
0.000000
  70
    32
  0
VERTEX
  8
1
  5
528
 10
68.8092
 20
312.136
 30
0.000000
  70
    32
  0
VERTEX
  8
1
  5
529
 10
68.8141
 20
312.117
 30
0.000000
  70
    32
  0
VERTEX
  8
1
  5
52A
 10
68.8189
 20
312.097
 30
0.000000
  70
    32
  0
VERTEX
  8
1
  5
52B
 10
68.8237
 20
312.078
 30
0.000000
  70
    32
  0
VERTEX
  8
1
  5
52C
 10
68.8285
 20
312.059
 30
0.000000
  70
    32
  0
VERTEX
  8
1
  5
52D
 10
68.8332
 20
312.040
 30
0.000000
  70
    32
  0
VERTEX
  8
1
  5
52E
 10
68.8378
 20
312.021
 30
0.000000
  70
    32
  0
VERTEX
  8
1
  5
52F
 10
68.8424
 20
312.002
 30
0.000000
  70
    32
  0
VERTEX
  8
1
  5
530
 10
68.8470
 20
311.982
 30
0.000000
  70
    32
  0
VERTEX
  8
1
  5
531
 10
68.8515
 20
311.964
 30
0.000000
  70
    32
  0
VERTEX
  8
1
  5
532
 10
68.8560
 20
311.945
 30
0.000000
  70
    32
  0
VERTEX
  8
1
  5
533
 10
68.8604
 20
311.926
 30
0.000000
  70
    32
  0
VERTEX
  8
1
  5
534
 10
68.8647
 20
311.907
 30
0.000000
  70
    32
  0
VERTEX
  8
1
  5
535
 10
68.8690
 20
311.888
 30
0.000000
  70
    32
  0
VERTEX
  8
1
  5
536
 10
68.8733
 20
311.869
 30
0.000000
  70
    32
  0
VERTEX
  8
1
  5
537
 10
68.8775
 20
311.851
 30
0.000000
  70
    32
  0
VERTEX
  8
1
  5
538
 10
68.8816
 20
311.832
 30
0.000000
  70
    32
  0
VERTEX
  8
1
  5
539
 10
68.8857
 20
311.813
 30
0.000000
  70
    32
  0
VERTEX
  8
1
  5
53A
 10
68.8898
 20
311.795
 30
0.000000
  70
    32
  0
VERTEX
  8
1
  5
53B
 10
68.8937
 20
311.776
 30
0.000000
  70
    32
  0
VERTEX
  8
1
  5
53C
 10
68.8977
 20
311.758
 30
0.000000
  70
    32
  0
VERTEX
  8
1
  5
53D
 10
68.9015
 20
311.739
 30
0.000000
  70
    32
  0
VERTEX
  8
1
  5
53E
 10
68.9053
 20
311.721
 30
0.000000
  70
    32
  0
VERTEX
  8
1
  5
53F
 10
68.9091
 20
311.703
 30
0.000000
  70
    32
  0
VERTEX
  8
1
  5
540
 10
68.9128
 20
311.685
 30
0.000000
  70
    32
  0
VERTEX
  8
1
  5
541
 10
68.9164
 20
311.666
 30
0.000000
  70
    32
  0
VERTEX
  8
1
  5
542
 10
68.9200
 20
311.648
 30
0.000000
  70
    32
  0
VERTEX
  8
1
  5
543
 10
68.9235
 20
311.630
 30
0.000000
  70
    32
  0
VERTEX
  8
1
  5
544
 10
68.9270
 20
311.612
 30
0.000000
  70
    32
  0
VERTEX
  8
1
  5
545
 10
68.9303
 20
311.594
 30
0.000000
  70
    32
  0
VERTEX
  8
1
  5
546
 10
68.9337
 20
311.576
 30
0.000000
  70
    32
  0
VERTEX
  8
1
  5
547
 10
68.9369
 20
311.558
 30
0.000000
  70
    32
  0
VERTEX
  8
1
  5
548
 10
68.9401
 20
311.540
 30
0.000000
  70
    32
  0
VERTEX
  8
1
  5
549
 10
68.9433
 20
311.523
 30
0.000000
  70
    32
  0
VERTEX
  8
1
  5
54A
 10
68.9464
 20
311.505
 30
0.000000
  70
    32
  0
VERTEX
  8
1
  5
54B
 10
68.9494
 20
311.487
 30
0.000000
  70
    32
  0
VERTEX
  8
1
  5
54C
 10
68.9523
 20
311.470
 30
0.000000
  70
    32
  0
VERTEX
  8
1
  5
54D
 10
68.9552
 20
311.452
 30
0.000000
  70
    32
  0
VERTEX
  8
1
  5
54E
 10
68.9580
 20
311.434
 30
0.000000
  70
    32
  0
VERTEX
  8
1
  5
54F
 10
68.9607
 20
311.417
 30
0.000000
  70
    32
  0
VERTEX
  8
1
  5
550
 10
68.9634
 20
311.400
 30
0.000000
  70
    32
  0
VERTEX
  8
1
  5
551
 10
68.9660
 20
311.382
 30
0.000000
  70
    32
  0
VERTEX
  8
1
  5
552
 10
68.9686
 20
311.365
 30
0.000000
  70
    32
  0
VERTEX
  8
1
  5
553
 10
68.9710
 20
311.348
 30
0.000000
  70
    32
  0
VERTEX
  8
1
  5
554
 10
68.9734
 20
311.330
 30
0.000000
  70
    32
  0
VERTEX
  8
1
  5
555
 10
68.9758
 20
311.313
 30
0.000000
  70
    32
  0
VERTEX
  8
1
  5
556
 10
68.9780
 20
311.296
 30
0.000000
  70
    32
  0
VERTEX
  8
1
  5
557
 10
68.9802
 20
311.279
 30
0.000000
  70
    32
  0
VERTEX
  8
1
  5
558
 10
68.9823
 20
311.262
 30
0.000000
  70
    32
  0
VERTEX
  8
1
  5
559
 10
68.9844
 20
311.246
 30
0.000000
  70
    32
  0
VERTEX
  8
1
  5
55A
 10
68.9864
 20
311.229
 30
0.000000
  70
    32
  0
VERTEX
  8
1
  5
55B
 10
68.9883
 20
311.212
 30
0.000000
  70
    32
  0
VERTEX
  8
1
  5
55C
 10
68.9901
 20
311.196
 30
0.000000
  70
    32
  0
VERTEX
  8
1
  5
55D
 10
68.9919
 20
311.179
 30
0.000000
  70
    32
  0
VERTEX
  8
1
  5
55E
 10
68.9936
 20
311.163
 30
0.000000
  70
    32
  0
VERTEX
  8
1
  5
55F
 10
68.9952
 20
311.146
 30
0.000000
  70
    32
  0
VERTEX
  8
1
  5
560
 10
68.9967
 20
311.130
 30
0.000000
  70
    32
  0
VERTEX
  8
1
  5
561
 10
68.9982
 20
311.114
 30
0.000000
  70
    32
  0
VERTEX
  8
1
  5
562
 10
68.9996
 20
311.098
 30
0.000000
  70
    32
  0
VERTEX
  8
1
  5
563
 10
69.0010
 20
311.082
 30
0.000000
  70
    32
  0
VERTEX
  8
1
  5
564
 10
69.0022
 20
311.065
 30
0.000000
  70
    32
  0
VERTEX
  8
1
  5
565
 10
69.0034
 20
311.050
 30
0.000000
  70
    32
  0
VERTEX
  8
1
  5
566
 10
69.0045
 20
311.034
 30
0.000000
  70
    32
  0
VERTEX
  8
1
  5
567
 10
69.0056
 20
311.018
 30
0.000000
  70
    32
  0
VERTEX
  8
1
  5
568
 10
69.0066
 20
311.002
 30
0.000000
  70
    32
  0
VERTEX
  8
1
  5
569
 10
69.0075
 20
310.986
 30
0.000000
  70
    32
  0
VERTEX
  8
1
  5
56A
 10
69.0083
 20
310.971
 30
0.000000
  70
    32
  0
VERTEX
  8
1
  5
56B
 10
69.0090
 20
310.955
 30
0.000000
  70
    32
  0
VERTEX
  8
1
  5
56C
 10
69.0097
 20
310.939
 30
0.000000
  70
    32
  0
VERTEX
  8
1
  5
56D
 10
69.0103
 20
310.924
 30
0.000000
  70
    32
  0
VERTEX
  8
1
  5
56E
 10
69.0108
 20
310.909
 30
0.000000
  70
    32
  0
VERTEX
  8
1
  5
56F
 10
69.0113
 20
310.893
 30
0.000000
  70
    32
  0
VERTEX
  8
1
  5
570
 10
69.0117
 20
310.878
 30
0.000000
  70
    32
  0
VERTEX
  8
1
  5
571
 10
69.0120
 20
310.862
 30
0.000000
  70
    32
  0
VERTEX
  8
1
  5
572
 10
69.0122
 20
310.847
 30
0.000000
  70
    32
  0
VERTEX
  8
1
  5
573
 10
69.0123
 20
310.832
 30
0.000000
  70
    32
  0
VERTEX
  8
1
  5
574
 10
69.0124
 20
310.817
 30
0.000000
  70
    32
  0
VERTEX
  8
1
  5
575
 10
69.0124
 20
310.802
 30
0.000000
  70
    32
  0
VERTEX
  8
1
  5
576
 10
69.0123
 20
310.786
 30
0.000000
  70
    32
  0
VERTEX
  8
1
  5
577
 10
69.0121
 20
310.771
 30
0.000000
  70
    32
  0
VERTEX
  8
1
  5
578
 10
69.0119
 20
310.756
 30
0.000000
  70
    32
  0
VERTEX
  8
1
  5
579
 10
69.0116
 20
310.741
 30
0.000000
  70
    32
  0
VERTEX
  8
1
  5
57A
 10
69.0112
 20
310.726
 30
0.000000
  70
    32
  0
VERTEX
  8
1
  5
57B
 10
69.0107
 20
310.711
 30
0.000000
  70
    32
  0
VERTEX
  8
1
  5
57C
 10
69.0102
 20
310.696
 30
0.000000
  70
    32
  0
VERTEX
  8
1
  5
57D
 10
69.0095
 20
310.681
 30
0.000000
  70
    32
  0
VERTEX
  8
1
  5
57E
 10
69.0088
 20
310.666
 30
0.000000
  70
    32
  0
VERTEX
  8
1
  5
57F
 10
69.0080
 20
310.652
 30
0.000000
  70
    32
  0
VERTEX
  8
1
  5
580
 10
69.0072
 20
310.637
 30
0.000000
  70
    32
  0
VERTEX
  8
1
  5
581
 10
69.0062
 20
310.622
 30
0.000000
  70
    32
  0
VERTEX
  8
1
  5
582
 10
69.0052
 20
310.607
 30
0.000000
  70
    32
  0
VERTEX
  8
1
  5
583
 10
69.0041
 20
310.592
 30
0.000000
  70
    32
  0
VERTEX
  8
1
  5
584
 10
69.0029
 20
310.577
 30
0.000000
  70
    32
  0
VERTEX
  8
1
  5
585
 10
69.0016
 20
310.563
 30
0.000000
  70
    32
  0
VERTEX
  8
1
  5
586
 10
69.0003
 20
310.548
 30
0.000000
  70
    32
  0
VERTEX
  8
1
  5
587
 10
68.9988
 20
310.533
 30
0.000000
  70
    32
  0
VERTEX
  8
1
  5
588
 10
68.9973
 20
310.518
 30
0.000000
  70
    32
  0
VERTEX
  8
1
  5
589
 10
68.9957
 20
310.504
 30
0.000000
  70
    32
  0
VERTEX
  8
1
  5
58A
 10
68.9940
 20
310.489
 30
0.000000
  70
    32
  0
VERTEX
  8
1
  5
58B
 10
68.9923
 20
310.474
 30
0.000000
  70
    32
  0
VERTEX
  8
1
  5
58C
 10
68.9904
 20
310.459
 30
0.000000
  70
    32
  0
VERTEX
  8
1
  5
58D
 10
68.9885
 20
310.445
 30
0.000000
  70
    32
  0
VERTEX
  8
1
  5
58E
 10
68.9865
 20
310.430
 30
0.000000
  70
    32
  0
VERTEX
  8
1
  5
58F
 10
68.9844
 20
310.415
 30
0.000000
  70
    32
  0
VERTEX
  8
1
  5
590
 10
68.9822
 20
310.400
 30
0.000000
  70
    32
  0
VERTEX
  8
1
  5
591
 10
68.9800
 20
310.385
 30
0.000000
  70
    32
  0
VERTEX
  8
1
  5
592
 10
68.9776
 20
310.371
 30
0.000000
  70
    32
  0
VERTEX
  8
1
  5
593
 10
68.9752
 20
310.356
 30
0.000000
  70
    32
  0
VERTEX
  8
1
  5
594
 10
68.9727
 20
310.341
 30
0.000000
  70
    32
  0
VERTEX
  8
1
  5
595
 10
68.9701
 20
310.326
 30
0.000000
  70
    32
  0
VERTEX
  8
1
  5
596
 10
68.9674
 20
310.311
 30
0.000000
  70
    32
  0
VERTEX
  8
1
  5
597
 10
68.9646
 20
310.296
 30
0.000000
  70
    32
  0
VERTEX
  8
1
  5
598
 10
68.9618
 20
310.282
 30
0.000000
  70
    32
  0
VERTEX
  8
1
  5
599
 10
68.9588
 20
310.267
 30
0.000000
  70
    32
  0
VERTEX
  8
1
  5
59A
 10
68.9558
 20
310.252
 30
0.000000
  70
    32
  0
VERTEX
  8
1
  5
59B
 10
68.9527
 20
310.237
 30
0.000000
  70
    32
  0
VERTEX
  8
1
  5
59C
 10
68.9495
 20
310.222
 30
0.000000
  70
    32
  0
VERTEX
  8
1
  5
59D
 10
68.9463
 20
310.207
 30
0.000000
  70
    32
  0
VERTEX
  8
1
  5
59E
 10
68.9429
 20
310.192
 30
0.000000
  70
    32
  0
VERTEX
  8
1
  5
59F
 10
68.9395
 20
310.177
 30
0.000000
  70
    32
  0
VERTEX
  8
1
  5
5A0
 10
68.9360
 20
310.162
 30
0.000000
  70
    32
  0
VERTEX
  8
1
  5
5A1
 10
68.9324
 20
310.147
 30
0.000000
  70
    32
  0
VERTEX
  8
1
  5
5A2
 10
68.9287
 20
310.132
 30
0.000000
  70
    32
  0
VERTEX
  8
1
  5
5A3
 10
68.9250
 20
310.117
 30
0.000000
  70
    32
  0
VERTEX
  8
1
  5
5A4
 10
68.9211
 20
310.102
 30
0.000000
  70
    32
  0
VERTEX
  8
1
  5
5A5
 10
68.9172
 20
310.086
 30
0.000000
  70
    32
  0
VERTEX
  8
1
  5
5A6
 10
68.9132
 20
310.071
 30
0.000000
  70
    32
  0
VERTEX
  8
1
  5
5A7
 10
68.9091
 20
310.056
 30
0.000000
  70
    32
  0
VERTEX
  8
1
  5
5A8
 10
68.9050
 20
310.041
 30
0.000000
  70
    32
  0
VERTEX
  8
1
  5
5A9
 10
68.9007
 20
310.026
 30
0.000000
  70
    32
  0
VERTEX
  8
1
  5
5AA
 10
68.8964
 20
310.010
 30
0.000000
  70
    32
  0
VERTEX
  8
1
  5
5AB
 10
68.8920
 20
309.995
 30
0.000000
  70
    32
  0
VERTEX
  8
1
  5
5AC
 10
68.8875
 20
309.980
 30
0.000000
  70
    32
  0
VERTEX
  8
1
  5
5AD
 10
68.8830
 20
309.965
 30
0.000000
  70
    32
  0
VERTEX
  8
1
  5
5AE
 10
68.8783
 20
309.949
 30
0.000000
  70
    32
  0
VERTEX
  8
1
  5
5AF
 10
68.8736
 20
309.934
 30
0.000000
  70
    32
  0
VERTEX
  8
1
  5
5B0
 10
68.8688
 20
309.919
 30
0.000000
  70
    32
  0
VERTEX
  8
1
  5
5B1
 10
68.8639
 20
309.903
 30
0.000000
  70
    32
  0
VERTEX
  8
1
  5
5B2
 10
68.8590
 20
309.888
 30
0.000000
  70
    32
  0
VERTEX
  8
1
  5
5B3
 10
68.8539
 20
309.872
 30
0.000000
  70
    32
  0
VERTEX
  8
1
  5
5B4
 10
68.8488
 20
309.857
 30
0.000000
  70
    32
  0
VERTEX
  8
1
  5
5B5
 10
68.8436
 20
309.842
 30
0.000000
  70
    32
  0
VERTEX
  8
1
  5
5B6
 10
68.8383
 20
309.826
 30
0.000000
  70
    32
  0
VERTEX
  8
1
  5
5B7
 10
68.8329
 20
309.811
 30
0.000000
  70
    32
  0
VERTEX
  8
1
  5
5B8
 10
68.8275
 20
309.795
 30
0.000000
  70
    32
  0
VERTEX
  8
1
  5
5B9
 10
68.8220
 20
309.779
 30
0.000000
  70
    32
  0
VERTEX
  8
1
  5
5BA
 10
68.8164
 20
309.764
 30
0.000000
  70
    32
  0
VERTEX
  8
1
  5
5BB
 10
68.8107
 20
309.748
 30
0.000000
  70
    32
  0
VERTEX
  8
1
  5
5BC
 10
68.8049
 20
309.733
 30
0.000000
  70
    32
  0
VERTEX
  8
1
  5
5BD
 10
68.7991
 20
309.717
 30
0.000000
  70
    32
  0
VERTEX
  8
1
  5
5BE
 10
68.7932
 20
309.701
 30
0.000000
  70
    32
  0
VERTEX
  8
1
  5
5BF
 10
68.7872
 20
309.685
 30
0.000000
  70
    32
  0
VERTEX
  8
1
  5
5C0
 10
68.7811
 20
309.670
 30
0.000000
  70
    32
  0
VERTEX
  8
1
  5
5C1
 10
68.7750
 20
309.654
 30
0.000000
  70
    32
  0
VERTEX
  8
1
  5
5C2
 10
68.7687
 20
309.638
 30
0.000000
  70
    32
  0
VERTEX
  8
1
  5
5C3
 10
68.7624
 20
309.622
 30
0.000000
  70
    32
  0
VERTEX
  8
1
  5
5C4
 10
68.7561
 20
309.607
 30
0.000000
  70
    32
  0
VERTEX
  8
1
  5
5C5
 10
68.7496
 20
309.591
 30
0.000000
  70
    32
  0
VERTEX
  8
1
  5
5C6
 10
68.7431
 20
309.575
 30
0.000000
  70
    32
  0
VERTEX
  8
1
  5
5C7
 10
68.7364
 20
309.559
 30
0.000000
  70
    32
  0
VERTEX
  8
1
  5
5C8
 10
68.7297
 20
309.543
 30
0.000000
  70
    32
  0
VERTEX
  8
1
  5
5C9
 10
68.7230
 20
309.527
 30
0.000000
  70
    32
  0
VERTEX
  8
1
  5
5CA
 10
68.7161
 20
309.511
 30
0.000000
  70
    32
  0
VERTEX
  8
1
  5
5CB
 10
68.7092
 20
309.495
 30
0.000000
  70
    32
  0
VERTEX
  8
1
  5
5CC
 10
68.7022
 20
309.479
 30
0.000000
  70
    32
  0
VERTEX
  8
1
  5
5CD
 10
68.6951
 20
309.463
 30
0.000000
  70
    32
  0
VERTEX
  8
1
  5
5CE
 10
68.6879
 20
309.447
 30
0.000000
  70
    32
  0
VERTEX
  8
1
  5
5CF
 10
68.6807
 20
309.431
 30
0.000000
  70
    32
  0
VERTEX
  8
1
  5
5D0
 10
68.6734
 20
309.414
 30
0.000000
  70
    32
  0
VERTEX
  8
1
  5
5D1
 10
68.6660
 20
309.398
 30
0.000000
  70
    32
  0
VERTEX
  8
1
  5
5D2
 10
68.6585
 20
309.382
 30
0.000000
  70
    32
  0
VERTEX
  8
1
  5
5D3
 10
68.6510
 20
309.366
 30
0.000000
  70
    32
  0
VERTEX
  8
1
  5
5D4
 10
68.6434
 20
309.349
 30
0.000000
  70
    32
  0
VERTEX
  8
1
  5
5D5
 10
68.6357
 20
309.333
 30
0.000000
  70
    32
  0
VERTEX
  8
1
  5
5D6
 10
68.6279
 20
309.317
 30
0.000000
  70
    32
  0
VERTEX
  8
1
  5
5D7
 10
68.6201
 20
309.300
 30
0.000000
  70
    32
  0
VERTEX
  8
1
  5
5D8
 10
68.6121
 20
309.284
 30
0.000000
  70
    32
  0
VERTEX
  8
1
  5
5D9
 10
68.6041
 20
309.268
 30
0.000000
  70
    32
  0
VERTEX
  8
1
  5
5DA
 10
68.5961
 20
309.251
 30
0.000000
  70
    32
  0
VERTEX
  8
1
  5
5DB
 10
68.5879
 20
309.235
 30
0.000000
  70
    32
  0
VERTEX
  8
1
  5
5DC
 10
68.5797
 20
309.218
 30
0.000000
  70
    32
  0
VERTEX
  8
1
  5
5DD
 10
68.5714
 20
309.202
 30
0.000000
  70
    32
  0
VERTEX
  8
1
  5
5DE
 10
68.5631
 20
309.185
 30
0.000000
  70
    32
  0
VERTEX
  8
1
  5
5DF
 10
68.5547
 20
309.169
 30
0.000000
  70
    32
  0
VERTEX
  8
1
  5
5E0
 10
68.5462
 20
309.152
 30
0.000000
  70
    32
  0
VERTEX
  8
1
  5
5E1
 10
68.5376
 20
309.136
 30
0.000000
  70
    32
  0
VERTEX
  8
1
  5
5E2
 10
68.5290
 20
309.119
 30
0.000000
  70
    32
  0
VERTEX
  8
1
  5
5E3
 10
68.5203
 20
309.102
 30
0.000000
  70
    32
  0
VERTEX
  8
1
  5
5E4
 10
68.5115
 20
309.086
 30
0.000000
  70
    32
  0
VERTEX
  8
1
  5
5E5
 10
68.5026
 20
309.069
 30
0.000000
  70
    32
  0
VERTEX
  8
1
  5
5E6
 10
68.4937
 20
309.052
 30
0.000000
  70
    32
  0
VERTEX
  8
1
  5
5E7
 10
68.4848
 20
309.036
 30
0.000000
  70
    32
  0
VERTEX
  8
1
  5
5E8
 10
68.4757
 20
309.019
 30
0.000000
  70
    32
  0
VERTEX
  8
1
  5
5E9
 10
68.4666
 20
309.002
 30
0.000000
  70
    32
  0
VERTEX
  8
1
  5
5EA
 10
68.4574
 20
308.985
 30
0.000000
  70
    32
  0
VERTEX
  8
1
  5
5EB
 10
68.4482
 20
308.968
 30
0.000000
  70
    32
  0
VERTEX
  8
1
  5
5EC
 10
68.4389
 20
308.952
 30
0.000000
  70
    32
  0
VERTEX
  8
1
  5
5ED
 10
68.4295
 20
308.935
 30
0.000000
  70
    32
  0
VERTEX
  8
1
  5
5EE
 10
68.4201
 20
308.918
 30
0.000000
  70
    32
  0
VERTEX
  8
1
  5
5EF
 10
68.4106
 20
308.901
 30
0.000000
  70
    32
  0
VERTEX
  8
1
  5
5F0
 10
68.4010
 20
308.884
 30
0.000000
  70
    32
  0
VERTEX
  8
1
  5
5F1
 10
68.3914
 20
308.867
 30
0.000000
  70
    32
  0
VERTEX
  8
1
  5
5F2
 10
68.3817
 20
308.850
 30
0.000000
  70
    32
  0
VERTEX
  8
1
  5
5F3
 10
68.3719
 20
308.833
 30
0.000000
  70
    32
  0
VERTEX
  8
1
  5
5F4
 10
68.3621
 20
308.816
 30
0.000000
  70
    32
  0
VERTEX
  8
1
  5
5F5
 10
68.3522
 20
308.799
 30
0.000000
  70
    32
  0
VERTEX
  8
1
  5
5F6
 10
68.3423
 20
308.782
 30
0.000000
  70
    32
  0
VERTEX
  8
1
  5
5F7
 10
68.3323
 20
308.765
 30
0.000000
  70
    32
  0
VERTEX
  8
1
  5
5F8
 10
68.3222
 20
308.748
 30
0.000000
  70
    32
  0
VERTEX
  8
1
  5
5F9
 10
68.3121
 20
308.731
 30
0.000000
  70
    32
  0
VERTEX
  8
1
  5
5FA
 10
68.3020
 20
308.714
 30
0.000000
  70
    32
  0
VERTEX
  8
1
  5
5FB
 10
68.2917
 20
308.697
 30
0.000000
  70
    32
  0
VERTEX
  8
1
  5
5FC
 10
68.2814
 20
308.680
 30
0.000000
  70
    32
  0
VERTEX
  8
1
  5
5FD
 10
68.2711
 20
308.663
 30
0.000000
  70
    32
  0
VERTEX
  8
1
  5
5FE
 10
68.2607
 20
308.645
 30
0.000000
  70
    32
  0
VERTEX
  8
1
  5
5FF
 10
68.2502
 20
308.628
 30
0.000000
  70
    32
  0
VERTEX
  8
1
  5
600
 10
68.2397
 20
308.611
 30
0.000000
  70
    32
  0
VERTEX
  8
1
  5
601
 10
68.2291
 20
308.594
 30
0.000000
  70
    32
  0
VERTEX
  8
1
  5
602
 10
68.2185
 20
308.576
 30
0.000000
  70
    32
  0
VERTEX
  8
1
  5
603
 10
68.2078
 20
308.559
 30
0.000000
  70
    32
  0
VERTEX
  8
1
  5
604
 10
68.1971
 20
308.542
 30
0.000000
  70
    32
  0
VERTEX
  8
1
  5
605
 10
68.1863
 20
308.525
 30
0.000000
  70
    32
  0
VERTEX
  8
1
  5
606
 10
68.1754
 20
308.507
 30
0.000000
  70
    32
  0
VERTEX
  8
1
  5
607
 10
68.1645
 20
308.490
 30
0.000000
  70
    32
  0
VERTEX
  8
1
  5
608
 10
68.1535
 20
308.473
 30
0.000000
  70
    32
  0
VERTEX
  8
1
  5
609
 10
68.1425
 20
308.455
 30
0.000000
  70
    32
  0
VERTEX
  8
1
  5
60A
 10
68.1315
 20
308.438
 30
0.000000
  70
    32
  0
VERTEX
  8
1
  5
60B
 10
68.1204
 20
308.420
 30
0.000000
  70
    32
  0
VERTEX
  8
1
  5
60C
 10
68.1092
 20
308.403
 30
0.000000
  70
    32
  0
VERTEX
  8
1
  5
60D
 10
68.0980
 20
308.386
 30
0.000000
  70
    32
  0
VERTEX
  8
1
  5
60E
 10
68.0867
 20
308.368
 30
0.000000
  70
    32
  0
VERTEX
  8
1
  5
60F
 10
68.0754
 20
308.351
 30
0.000000
  70
    32
  0
VERTEX
  8
1
  5
610
 10
68.0640
 20
308.333
 30
0.000000
  70
    32
  0
VERTEX
  8
1
  5
611
 10
68.0526
 20
308.316
 30
0.000000
  70
    32
  0
VERTEX
  8
1
  5
612
 10
68.0412
 20
308.298
 30
0.000000
  70
    32
  0
VERTEX
  8
1
  5
613
 10
68.0297
 20
308.281
 30
0.000000
  70
    32
  0
VERTEX
  8
1
  5
614
 10
68.0181
 20
308.263
 30
0.000000
  70
    32
  0
VERTEX
  8
1
  5
615
 10
68.0065
 20
308.245
 30
0.000000
  70
    32
  0
VERTEX
  8
1
  5
616
 10
67.9949
 20
308.228
 30
0.000000
  70
    32
  0
VERTEX
  8
1
  5
617
 10
67.9832
 20
308.210
 30
0.000000
  70
    32
  0
VERTEX
  8
1
  5
618
 10
67.9714
 20
308.193
 30
0.000000
  70
    32
  0
VERTEX
  8
1
  5
619
 10
67.9596
 20
308.175
 30
0.000000
  70
    32
  0
VERTEX
  8
1
  5
61A
 10
67.9478
 20
308.157
 30
0.000000
  70
    32
  0
VERTEX
  8
1
  5
61B
 10
67.9359
 20
308.140
 30
0.000000
  70
    32
  0
VERTEX
  8
1
  5
61C
 10
67.9240
 20
308.122
 30
0.000000
  70
    32
  0
VERTEX
  8
1
  5
61D
 10
67.9120
 20
308.104
 30
0.000000
  70
    32
  0
VERTEX
  8
1
  5
61E
 10
67.9000
 20
308.087
 30
0.000000
  70
    32
  0
VERTEX
  8
1
  5
61F
 10
67.8880
 20
308.069
 30
0.000000
  70
    32
  0
VERTEX
  8
1
  5
620
 10
67.8759
 20
308.051
 30
0.000000
  70
    32
  0
VERTEX
  8
1
  5
621
 10
67.8638
 20
308.033
 30
0.000000
  70
    32
  0
VERTEX
  8
1
  5
622
 10
67.8516
 20
308.016
 30
0.000000
  70
    32
  0
VERTEX
  8
1
  5
623
 10
67.8394
 20
307.998
 30
0.000000
  70
    32
  0
VERTEX
  8
1
  5
624
 10
67.8272
 20
307.980
 30
0.000000
  70
    32
  0
VERTEX
  8
1
  5
625
 10
67.8149
 20
307.962
 30
0.000000
  70
    32
  0
VERTEX
  8
1
  5
626
 10
67.8026
 20
307.944
 30
0.000000
  70
    32
  0
VERTEX
  8
1
  5
627
 10
67.7902
 20
307.926
 30
0.000000
  70
    32
  0
VERTEX
  8
1
  5
628
 10
67.7778
 20
307.908
 30
0.000000
  70
    32
  0
VERTEX
  8
1
  5
629
 10
67.7654
 20
307.891
 30
0.000000
  70
    32
  0
VERTEX
  8
1
  5
62A
 10
67.7529
 20
307.873
 30
0.000000
  70
    32
  0
VERTEX
  8
1
  5
62B
 10
67.7404
 20
307.855
 30
0.000000
  70
    32
  0
VERTEX
  8
1
  5
62C
 10
67.7279
 20
307.837
 30
0.000000
  70
    32
  0
VERTEX
  8
1
  5
62D
 10
67.7153
 20
307.819
 30
0.000000
  70
    32
  0
VERTEX
  8
1
  5
62E
 10
67.7027
 20
307.801
 30
0.000000
  70
    32
  0
VERTEX
  8
1
  5
62F
 10
67.6901
 20
307.783
 30
0.000000
  70
    32
  0
VERTEX
  8
1
  5
630
 10
67.6774
 20
307.765
 30
0.000000
  70
    32
  0
VERTEX
  8
1
  5
631
 10
67.6647
 20
307.747
 30
0.000000
  70
    32
  0
VERTEX
  8
1
  5
632
 10
67.6520
 20
307.729
 30
0.000000
  70
    32
  0
VERTEX
  8
1
  5
633
 10
67.6392
 20
307.711
 30
0.000000
  70
    32
  0
VERTEX
  8
1
  5
634
 10
67.6264
 20
307.693
 30
0.000000
  70
    32
  0
VERTEX
  8
1
  5
635
 10
67.6136
 20
307.675
 30
0.000000
  70
    32
  0
VERTEX
  8
1
  5
636
 10
67.6007
 20
307.656
 30
0.000000
  70
    32
  0
VERTEX
  8
1
  5
637
 10
67.5879
 20
307.638
 30
0.000000
  70
    32
  0
VERTEX
  8
1
  5
638
 10
67.5749
 20
307.620
 30
0.000000
  70
    32
  0
VERTEX
  8
1
  5
639
 10
67.5620
 20
307.602
 30
0.000000
  70
    32
  0
VERTEX
  8
1
  5
63A
 10
67.5490
 20
307.584
 30
0.000000
  70
    32
  0
VERTEX
  8
1
  5
63B
 10
67.5360
 20
307.566
 30
0.000000
  70
    32
  0
VERTEX
  8
1
  5
63C
 10
67.5230
 20
307.548
 30
0.000000
  70
    32
  0
VERTEX
  8
1
  5
63D
 10
67.5100
 20
307.529
 30
0.000000
  70
    32
  0
VERTEX
  8
1
  5
63E
 10
67.4969
 20
307.511
 30
0.000000
  70
    32
  0
VERTEX
  8
1
  5
63F
 10
67.4838
 20
307.493
 30
0.000000
  70
    32
  0
VERTEX
  8
1
  5
640
 10
67.4707
 20
307.475
 30
0.000000
  70
    32
  0
VERTEX
  8
1
  5
641
 10
67.4576
 20
307.456
 30
0.000000
  70
    32
  0
VERTEX
  8
1
  5
642
 10
67.4444
 20
307.438
 30
0.000000
  70
    32
  0
VERTEX
  8
1
  5
643
 10
67.4312
 20
307.420
 30
0.000000
  70
    32
  0
VERTEX
  8
1
  5
644
 10
67.4180
 20
307.401
 30
0.000000
  70
    32
  0
VERTEX
  8
1
  5
645
 10
67.4048
 20
307.383
 30
0.000000
  70
    32
  0
VERTEX
  8
1
  5
646
 10
67.3915
 20
307.365
 30
0.000000
  70
    32
  0
VERTEX
  8
1
  5
647
 10
67.3783
 20
307.346
 30
0.000000
  70
    32
  0
VERTEX
  8
1
  5
648
 10
67.3650
 20
307.328
 30
0.000000
  70
    32
  0
VERTEX
  8
1
  5
649
 10
67.3517
 20
307.309
 30
0.000000
  70
    32
  0
VERTEX
  8
1
  5
64A
 10
67.3383
 20
307.291
 30
0.000000
  70
    32
  0
VERTEX
  8
1
  5
64B
 10
67.3250
 20
307.273
 30
0.000000
  70
    32
  0
VERTEX
  8
1
  5
64C
 10
67.3116
 20
307.254
 30
0.000000
  70
    32
  0
VERTEX
  8
1
  5
64D
 10
67.2982
 20
307.236
 30
0.000000
  70
    32
  0
VERTEX
  8
1
  5
64E
 10
67.2849
 20
307.217
 30
0.000000
  70
    32
  0
VERTEX
  8
1
  5
64F
 10
67.2714
 20
307.199
 30
0.000000
  70
    32
  0
VERTEX
  8
1
  5
650
 10
67.2580
 20
307.180
 30
0.000000
  70
    32
  0
VERTEX
  8
1
  5
651
 10
67.2446
 20
307.162
 30
0.000000
  70
    32
  0
VERTEX
  8
1
  5
652
 10
67.2311
 20
307.143
 30
0.000000
  70
    32
  0
VERTEX
  8
1
  5
653
 10
67.2176
 20
307.125
 30
0.000000
  70
    32
  0
VERTEX
  8
1
  5
654
 10
67.2042
 20
307.106
 30
0.000000
  70
    32
  0
VERTEX
  8
1
  5
655
 10
67.1907
 20
307.087
 30
0.000000
  70
    32
  0
SEQEND
  8
1
  5
656
  0
POLYLINE
  8
1
  5
657
  66
     1
 10
0.000000
 20
0.000000
 30
0.000000
  70
     8
  0
VERTEX
  8
1
  5
658
 10
71.0000
 20
322.000
 30
0.000000
  70
    32
  0
VERTEX
  8
1
  5
659
 10
70.9576
 20
321.919
 30
0.000000
  70
    32
  0
VERTEX
  8
1
  5
65A
 10
70.9152
 20
321.839
 30
0.000000
  70
    32
  0
VERTEX
  8
1
  5
65B
 10
70.8729
 20
321.758
 30
0.000000
  70
    32
  0
VERTEX
  8
1
  5
65C
 10
70.8306
 20
321.677
 30
0.000000
  70
    32
  0
VERTEX
  8
1
  5
65D
 10
70.7884
 20
321.597
 30
0.000000
  70
    32
  0
VERTEX
  8
1
  5
65E
 10
70.7462
 20
321.516
 30
0.000000
  70
    32
  0
VERTEX
  8
1
  5
65F
 10
70.7042
 20
321.435
 30
0.000000
  70
    32
  0
VERTEX
  8
1
  5
660
 10
70.6623
 20
321.354
 30
0.000000
  70
    32
  0
VERTEX
  8
1
  5
661
 10
70.6205
 20
321.274
 30
0.000000
  70
    32
  0
VERTEX
  8
1
  5
662
 10
70.5788
 20
321.193
 30
0.000000
  70
    32
  0
VERTEX
  8
1
  5
663
 10
70.5373
 20
321.112
 30
0.000000
  70
    32
  0
VERTEX
  8
1
  5
664
 10
70.4960
 20
321.031
 30
0.000000
  70
    32
  0
VERTEX
  8
1
  5
665
 10
70.4549
 20
320.951
 30
0.000000
  70
    32
  0
VERTEX
  8
1
  5
666
 10
70.4140
 20
320.870
 30
0.000000
  70
    32
  0
VERTEX
  8
1
  5
667
 10
70.3733
 20
320.789
 30
0.000000
  70
    32
  0
VERTEX
  8
1
  5
668
 10
70.3329
 20
320.708
 30
0.000000
  70
    32
  0
VERTEX
  8
1
  5
669
 10
70.2927
 20
320.627
 30
0.000000
  70
    32
  0
VERTEX
  8
1
  5
66A
 10
70.2528
 20
320.547
 30
0.000000
  70
    32
  0
VERTEX
  8
1
  5
66B
 10
70.2133
 20
320.466
 30
0.000000
  70
    32
  0
VERTEX
  8
1
  5
66C
 10
70.1740
 20
320.385
 30
0.000000
  70
    32
  0
VERTEX
  8
1
  5
66D
 10
70.1350
 20
320.304
 30
0.000000
  70
    32
  0
VERTEX
  8
1
  5
66E
 10
70.0964
 20
320.223
 30
0.000000
  70
    32
  0
VERTEX
  8
1
  5
66F
 10
70.0582
 20
320.142
 30
0.000000
  70
    32
  0
VERTEX
  8
1
  5
670
 10
70.0203
 20
320.061
 30
0.000000
  70
    32
  0
VERTEX
  8
1
  5
671
 10
69.9828
 20
319.980
 30
0.000000
  70
    32
  0
VERTEX
  8
1
  5
672
 10
69.9458
 20
319.899
 30
0.000000
  70
    32
  0
VERTEX
  8
1
  5
673
 10
69.9091
 20
319.818
 30
0.000000
  70
    32
  0
VERTEX
  8
1
  5
674
 10
69.8729
 20
319.736
 30
0.000000
  70
    32
  0
VERTEX
  8
1
  5
675
 10
69.8372
 20
319.655
 30
0.000000
  70
    32
  0
VERTEX
  8
1
  5
676
 10
69.8019
 20
319.574
 30
0.000000
  70
    32
  0
VERTEX
  8
1
  5
677
 10
69.7671
 20
319.493
 30
0.000000
  70
    32
  0
VERTEX
  8
1
  5
678
 10
69.7329
 20
319.412
 30
0.000000
  70
    32
  0
VERTEX
  8
1
  5
679
 10
69.6991
 20
319.330
 30
0.000000
  70
    32
  0
VERTEX
  8
1
  5
67A
 10
69.6659
 20
319.249
 30
0.000000
  70
    32
  0
VERTEX
  8
1
  5
67B
 10
69.6333
 20
319.168
 30
0.000000
  70
    32
  0
VERTEX
  8
1
  5
67C
 10
69.6012
 20
319.086
 30
0.000000
  70
    32
  0
VERTEX
  8
1
  5
67D
 10
69.5697
 20
319.005
 30
0.000000
  70
    32
  0
VERTEX
  8
1
  5
67E
 10
69.5389
 20
318.923
 30
0.000000
  70
    32
  0
VERTEX
  8
1
  5
67F
 10
69.5086
 20
318.842
 30
0.000000
  70
    32
  0
VERTEX
  8
1
  5
680
 10
69.4790
 20
318.760
 30
0.000000
  70
    32
  0
VERTEX
  8
1
  5
681
 10
69.4500
 20
318.678
 30
0.000000
  70
    32
  0
VERTEX
  8
1
  5
682
 10
69.4218
 20
318.597
 30
0.000000
  70
    32
  0
VERTEX
  8
1
  5
683
 10
69.3942
 20
318.515
 30
0.000000
  70
    32
  0
VERTEX
  8
1
  5
684
 10
69.3673
 20
318.433
 30
0.000000
  70
    32
  0
VERTEX
  8
1
  5
685
 10
69.3411
 20
318.351
 30
0.000000
  70
    32
  0
VERTEX
  8
1
  5
686
 10
69.3157
 20
318.269
 30
0.000000
  70
    32
  0
VERTEX
  8
1
  5
687
 10
69.2910
 20
318.187
 30
0.000000
  70
    32
  0
VERTEX
  8
1
  5
688
 10
69.2671
 20
318.105
 30
0.000000
  70
    32
  0
VERTEX
  8
1
  5
689
 10
69.2439
 20
318.023
 30
0.000000
  70
    32
  0
VERTEX
  8
1
  5
68A
 10
69.2216
 20
317.941
 30
0.000000
  70
    32
  0
VERTEX
  8
1
  5
68B
 10
69.2001
 20
317.859
 30
0.000000
  70
    32
  0
VERTEX
  8
1
  5
68C
 10
69.1794
 20
317.777
 30
0.000000
  70
    32
  0
VERTEX
  8
1
  5
68D
 10
69.1596
 20
317.694
 30
0.000000
  70
    32
  0
VERTEX
  8
1
  5
68E
 10
69.1407
 20
317.612
 30
0.000000
  70
    32
  0
VERTEX
  8
1
  5
68F
 10
69.1226
 20
317.529
 30
0.000000
  70
    32
  0
VERTEX
  8
1
  5
690
 10
69.1054
 20
317.447
 30
0.000000
  70
    32
  0
VERTEX
  8
1
  5
691
 10
69.0892
 20
317.364
 30
0.000000
  70
    32
  0
VERTEX
  8
1
  5
692
 10
69.0739
 20
317.282
 30
0.000000
  70
    32
  0
VERTEX
  8
1
  5
693
 10
69.0595
 20
317.199
 30
0.000000
  70
    32
  0
VERTEX
  8
1
  5
694
 10
69.0461
 20
317.116
 30
0.000000
  70
    32
  0
VERTEX
  8
1
  5
695
 10
69.0337
 20
317.033
 30
0.000000
  70
    32
  0
VERTEX
  8
1
  5
696
 10
69.0223
 20
316.951
 30
0.000000
  70
    32
  0
VERTEX
  8
1
  5
697
 10
69.0119
 20
316.868
 30
0.000000
  70
    32
  0
VERTEX
  8
1
  5
698
 10
69.0025
 20
316.784
 30
0.000000
  70
    32
  0
VERTEX
  8
1
  5
699
 10
68.9942
 20
316.701
 30
0.000000
  70
    32
  0
VERTEX
  8
1
  5
69A
 10
68.9869
 20
316.618
 30
0.000000
  70
    32
  0
VERTEX
  8
1
  5
69B
 10
68.9808
 20
316.535
 30
0.000000
  70
    32
  0
VERTEX
  8
1
  5
69C
 10
68.9757
 20
316.451
 30
0.000000
  70
    32
  0
VERTEX
  8
1
  5
69D
 10
68.9717
 20
316.368
 30
0.000000
  70
    32
  0
VERTEX
  8
1
  5
69E
 10
68.9689
 20
316.284
 30
0.000000
  70
    32
  0
VERTEX
  8
1
  5
69F
 10
68.9672
 20
316.201
 30
0.000000
  70
    32
  0
VERTEX
  8
1
  5
6A0
 10
68.9667
 20
316.117
 30
0.000000
  70
    32
  0
VERTEX
  8
1
  5
6A1
 10
68.9673
 20
316.033
 30
0.000000
  70
    32
  0
VERTEX
  8
1
  5
6A2
 10
68.9692
 20
315.949
 30
0.000000
  70
    32
  0
VERTEX
  8
1
  5
6A3
 10
68.9723
 20
315.865
 30
0.000000
  70
    32
  0
VERTEX
  8
1
  5
6A4
 10
68.9765
 20
315.781
 30
0.000000
  70
    32
  0
VERTEX
  8
1
  5
6A5
 10
68.9821
 20
315.697
 30
0.000000
  70
    32
  0
VERTEX
  8
1
  5
6A6
 10
68.9889
 20
315.613
 30
0.000000
  70
    32
  0
VERTEX
  8
1
  5
6A7
 10
68.9970
 20
315.529
 30
0.000000
  70
    32
  0
VERTEX
  8
1
  5
6A8
 10
69.0063
 20
315.444
 30
0.000000
  70
    32
  0
VERTEX
  8
1
  5
6A9
 10
69.0170
 20
315.360
 30
0.000000
  70
    32
  0
VERTEX
  8
1
  5
6AA
 10
69.0288
 20
315.275
 30
0.000000
  70
    32
  0
VERTEX
  8
1
  5
6AB
 10
69.0418
 20
315.190
 30
0.000000
  70
    32
  0
VERTEX
  8
1
  5
6AC
 10
69.0559
 20
315.106
 30
0.000000
  70
    32
  0
VERTEX
  8
1
  5
6AD
 10
69.0711
 20
315.021
 30
0.000000
  70
    32
  0
VERTEX
  8
1
  5
6AE
 10
69.0873
 20
314.936
 30
0.000000
  70
    32
  0
VERTEX
  8
1
  5
6AF
 10
69.1044
 20
314.851
 30
0.000000
  70
    32
  0
VERTEX
  8
1
  5
6B0
 10
69.1224
 20
314.766
 30
0.000000
  70
    32
  0
VERTEX
  8
1
  5
6B1
 10
69.1412
 20
314.681
 30
0.000000
  70
    32
  0
VERTEX
  8
1
  5
6B2
 10
69.1609
 20
314.596
 30
0.000000
  70
    32
  0
VERTEX
  8
1
  5
6B3
 10
69.1813
 20
314.511
 30
0.000000
  70
    32
  0
VERTEX
  8
1
  5
6B4
 10
69.2024
 20
314.426
 30
0.000000
  70
    32
  0
VERTEX
  8
1
  5
6B5
 10
69.2241
 20
314.340
 30
0.000000
  70
    32
  0
VERTEX
  8
1
  5
6B6
 10
69.2464
 20
314.255
 30
0.000000
  70
    32
  0
VERTEX
  8
1
  5
6B7
 10
69.2692
 20
314.170
 30
0.000000
  70
    32
  0
VERTEX
  8
1
  5
6B8
 10
69.2925
 20
314.085
 30
0.000000
  70
    32
  0
VERTEX
  8
1
  5
6B9
 10
69.3162
 20
314.000
 30
0.000000
  70
    32
  0
VERTEX
  8
1
  5
6BA
 10
69.3403
 20
313.914
 30
0.000000
  70
    32
  0
VERTEX
  8
1
  5
6BB
 10
69.3647
 20
313.829
 30
0.000000
  70
    32
  0
VERTEX
  8
1
  5
6BC
 10
69.3894
 20
313.744
 30
0.000000
  70
    32
  0
VERTEX
  8
1
  5
6BD
 10
69.4143
 20
313.659
 30
0.000000
  70
    32
  0
VERTEX
  8
1
  5
6BE
 10
69.4393
 20
313.574
 30
0.000000
  70
    32
  0
VERTEX
  8
1
  5
6BF
 10
69.4645
 20
313.488
 30
0.000000
  70
    32
  0
VERTEX
  8
1
  5
6C0
 10
69.4897
 20
313.403
 30
0.000000
  70
    32
  0
VERTEX
  8
1
  5
6C1
 10
69.5149
 20
313.318
 30
0.000000
  70
    32
  0
VERTEX
  8
1
  5
6C2
 10
69.5401
 20
313.233
 30
0.000000
  70
    32
  0
VERTEX
  8
1
  5
6C3
 10
69.5652
 20
313.148
 30
0.000000
  70
    32
  0
VERTEX
  8
1
  5
6C4
 10
69.5901
 20
313.063
 30
0.000000
  70
    32
  0
VERTEX
  8
1
  5
6C5
 10
69.6148
 20
312.978
 30
0.000000
  70
    32
  0
VERTEX
  8
1
  5
6C6
 10
69.6392
 20
312.894
 30
0.000000
  70
    32
  0
VERTEX
  8
1
  5
6C7
 10
69.6633
 20
312.809
 30
0.000000
  70
    32
  0
VERTEX
  8
1
  5
6C8
 10
69.6871
 20
312.724
 30
0.000000
  70
    32
  0
VERTEX
  8
1
  5
6C9
 10
69.7105
 20
312.640
 30
0.000000
  70
    32
  0
VERTEX
  8
1
  5
6CA
 10
69.7333
 20
312.555
 30
0.000000
  70
    32
  0
VERTEX
  8
1
  5
6CB
 10
69.7557
 20
312.471
 30
0.000000
  70
    32
  0
VERTEX
  8
1
  5
6CC
 10
69.7775
 20
312.386
 30
0.000000
  70
    32
  0
VERTEX
  8
1
  5
6CD
 10
69.7986
 20
312.302
 30
0.000000
  70
    32
  0
VERTEX
  8
1
  5
6CE
 10
69.8191
 20
312.218
 30
0.000000
  70
    32
  0
VERTEX
  8
1
  5
6CF
 10
69.8389
 20
312.134
 30
0.000000
  70
    32
  0
VERTEX
  8
1
  5
6D0
 10
69.8578
 20
312.050
 30
0.000000
  70
    32
  0
VERTEX
  8
1
  5
6D1
 10
69.8759
 20
311.966
 30
0.000000
  70
    32
  0
VERTEX
  8
1
  5
6D2
 10
69.8932
 20
311.883
 30
0.000000
  70
    32
  0
VERTEX
  8
1
  5
6D3
 10
69.9094
 20
311.799
 30
0.000000
  70
    32
  0
VERTEX
  8
1
  5
6D4
 10
69.9247
 20
311.716
 30
0.000000
  70
    32
  0
VERTEX
  8
1
  5
6D5
 10
69.9390
 20
311.633
 30
0.000000
  70
    32
  0
VERTEX
  8
1
  5
6D6
 10
69.9521
 20
311.550
 30
0.000000
  70
    32
  0
VERTEX
  8
1
  5
6D7
 10
69.9641
 20
311.467
 30
0.000000
  70
    32
  0
VERTEX
  8
1
  5
6D8
 10
69.9749
 20
311.384
 30
0.000000
  70
    32
  0
VERTEX
  8
1
  5
6D9
 10
69.9844
 20
311.301
 30
0.000000
  70
    32
  0
VERTEX
  8
1
  5
6DA
 10
69.9926
 20
311.219
 30
0.000000
  70
    32
  0
VERTEX
  8
1
  5
6DB
 10
69.9995
 20
311.137
 30
0.000000
  70
    32
  0
VERTEX
  8
1
  5
6DC
 10
70.0049
 20
311.055
 30
0.000000
  70
    32
  0
VERTEX
  8
1
  5
6DD
 10
70.0089
 20
310.973
 30
0.000000
  70
    32
  0
VERTEX
  8
1
  5
6DE
 10
70.0113
 20
310.891
 30
0.000000
  70
    32
  0
VERTEX
  8
1
  5
6DF
 10
70.0122
 20
310.810
 30
0.000000
  70
    32
  0
VERTEX
  8
1
  5
6E0
 10
70.0114
 20
310.729
 30
0.000000
  70
    32
  0
VERTEX
  8
1
  5
6E1
 10
70.0090
 20
310.648
 30
0.000000
  70
    32
  0
VERTEX
  8
1
  5
6E2
 10
70.0048
 20
310.567
 30
0.000000
  70
    32
  0
VERTEX
  8
1
  5
6E3
 10
69.9988
 20
310.486
 30
0.000000
  70
    32
  0
VERTEX
  8
1
  5
6E4
 10
69.9911
 20
310.406
 30
0.000000
  70
    32
  0
VERTEX
  8
1
  5
6E5
 10
69.9815
 20
310.325
 30
0.000000
  70
    32
  0
VERTEX
  8
1
  5
6E6
 10
69.9702
 20
310.245
 30
0.000000
  70
    32
  0
VERTEX
  8
1
  5
6E7
 10
69.9572
 20
310.166
 30
0.000000
  70
    32
  0
VERTEX
  8
1
  5
6E8
 10
69.9425
 20
310.086
 30
0.000000
  70
    32
  0
VERTEX
  8
1
  5
6E9
 10
69.9261
 20
310.007
 30
0.000000
  70
    32
  0
VERTEX
  8
1
  5
6EA
 10
69.9082
 20
309.928
 30
0.000000
  70
    32
  0
VERTEX
  8
1
  5
6EB
 10
69.8886
 20
309.849
 30
0.000000
  70
    32
  0
VERTEX
  8
1
  5
6EC
 10
69.8675
 20
309.770
 30
0.000000
  70
    32
  0
VERTEX
  8
1
  5
6ED
 10
69.8450
 20
309.691
 30
0.000000
  70
    32
  0
VERTEX
  8
1
  5
6EE
 10
69.8209
 20
309.613
 30
0.000000
  70
    32
  0
VERTEX
  8
1
  5
6EF
 10
69.7954
 20
309.535
 30
0.000000
  70
    32
  0
VERTEX
  8
1
  5
6F0
 10
69.7685
 20
309.457
 30
0.000000
  70
    32
  0
VERTEX
  8
1
  5
6F1
 10
69.7402
 20
309.379
 30
0.000000
  70
    32
  0
VERTEX
  8
1
  5
6F2
 10
69.7107
 20
309.301
 30
0.000000
  70
    32
  0
VERTEX
  8
1
  5
6F3
 10
69.6798
 20
309.223
 30
0.000000
  70
    32
  0
VERTEX
  8
1
  5
6F4
 10
69.6476
 20
309.146
 30
0.000000
  70
    32
  0
VERTEX
  8
1
  5
6F5
 10
69.6142
 20
309.069
 30
0.000000
  70
    32
  0
VERTEX
  8
1
  5
6F6
 10
69.5797
 20
308.992
 30
0.000000
  70
    32
  0
VERTEX
  8
1
  5
6F7
 10
69.5439
 20
308.915
 30
0.000000
  70
    32
  0
VERTEX
  8
1
  5
6F8
 10
69.5071
 20
308.838
 30
0.000000
  70
    32
  0
VERTEX
  8
1
  5
6F9
 10
69.4692
 20
308.761
 30
0.000000
  70
    32
  0
VERTEX
  8
1
  5
6FA
 10
69.4302
 20
308.684
 30
0.000000
  70
    32
  0
VERTEX
  8
1
  5
6FB
 10
69.3902
 20
308.608
 30
0.000000
  70
    32
  0
VERTEX
  8
1
  5
6FC
 10
69.3492
 20
308.532
 30
0.000000
  70
    32
  0
VERTEX
  8
1
  5
6FD
 10
69.3073
 20
308.455
 30
0.000000
  70
    32
  0
VERTEX
  8
1
  5
6FE
 10
69.2644
 20
308.379
 30
0.000000
  70
    32
  0
VERTEX
  8
1
  5
6FF
 10
69.2207
 20
308.303
 30
0.000000
  70
    32
  0
VERTEX
  8
1
  5
700
 10
69.1762
 20
308.227
 30
0.000000
  70
    32
  0
VERTEX
  8
1
  5
701
 10
69.1308
 20
308.152
 30
0.000000
  70
    32
  0
VERTEX
  8
1
  5
702
 10
69.0847
 20
308.076
 30
0.000000
  70
    32
  0
VERTEX
  8
1
  5
703
 10
69.0378
 20
308.000
 30
0.000000
  70
    32
  0
VERTEX
  8
1
  5
704
 10
68.9903
 20
307.925
 30
0.000000
  70
    32
  0
VERTEX
  8
1
  5
705
 10
68.9420
 20
307.849
 30
0.000000
  70
    32
  0
VERTEX
  8
1
  5
706
 10
68.8932
 20
307.774
 30
0.000000
  70
    32
  0
VERTEX
  8
1
  5
707
 10
68.8437
 20
307.699
 30
0.000000
  70
    32
  0
VERTEX
  8
1
  5
708
 10
68.7937
 20
307.623
 30
0.000000
  70
    32
  0
VERTEX
  8
1
  5
709
 10
68.7432
 20
307.548
 30
0.000000
  70
    32
  0
VERTEX
  8
1
  5
70A
 10
68.6921
 20
307.473
 30
0.000000
  70
    32
  0
VERTEX
  8
1
  5
70B
 10
68.6406
 20
307.398
 30
0.000000
  70
    32
  0
VERTEX
  8
1
  5
70C
 10
68.5887
 20
307.323
 30
0.000000
  70
    32
  0
VERTEX
  8
1
  5
70D
 10
68.5364
 20
307.248
 30
0.000000
  70
    32
  0
VERTEX
  8
1
  5
70E
 10
68.4838
 20
307.173
 30
0.000000
  70
    32
  0
VERTEX
  8
1
  5
70F
 10
68.4308
 20
307.098
 30
0.000000
  70
    32
  0
VERTEX
  8
1
  5
710
 10
68.3776
 20
307.023
 30
0.000000
  70
    32
  0
VERTEX
  8
1
  5
711
 10
68.3241
 20
306.949
 30
0.000000
  70
    32
  0
VERTEX
  8
1
  5
712
 10
68.2704
 20
306.874
 30
0.000000
  70
    32
  0
VERTEX
  8
1
  5
713
 10
68.2165
 20
306.799
 30
0.000000
  70
    32
  0
VERTEX
  8
1
  5
714
 10
68.1625
 20
306.724
 30
0.000000
  70
    32
  0
VERTEX
  8
1
  5
715
 10
68.1084
 20
306.649
 30
0.000000
  70
    32
  0
VERTEX
  8
1
  5
716
 10
68.0542
 20
306.575
 30
0.000000
  70
    32
  0
VERTEX
  8
1
  5
717
 10
68.0000
 20
306.500
 30
0.000000
  70
    32
  0
SEQEND
  8
1
  5
718
  0
POLYLINE
  8
1
  5
719
  66
     1
 10
0.000000
 20
0.000000
 30
0.000000
  70
     8
  0
VERTEX
  8
1
  5
71A
 10
71.0000
 20
221.000
 30
0.000000
  70
    32
  0
VERTEX
  8
1
  5
71B
 10
70.9576
 20
220.919
 30
0.000000
  70
    32
  0
VERTEX
  8
1
  5
71C
 10
70.9152
 20
220.839
 30
0.000000
  70
    32
  0
VERTEX
  8
1
  5
71D
 10
70.8729
 20
220.758
 30
0.000000
  70
    32
  0
VERTEX
  8
1
  5
71E
 10
70.8306
 20
220.677
 30
0.000000
  70
    32
  0
VERTEX
  8
1
  5
71F
 10
70.7884
 20
220.597
 30
0.000000
  70
    32
  0
VERTEX
  8
1
  5
720
 10
70.7462
 20
220.516
 30
0.000000
  70
    32
  0
VERTEX
  8
1
  5
721
 10
70.7042
 20
220.435
 30
0.000000
  70
    32
  0
VERTEX
  8
1
  5
722
 10
70.6623
 20
220.354
 30
0.000000
  70
    32
  0
VERTEX
  8
1
  5
723
 10
70.6205
 20
220.274
 30
0.000000
  70
    32
  0
VERTEX
  8
1
  5
724
 10
70.5788
 20
220.193
 30
0.000000
  70
    32
  0
VERTEX
  8
1
  5
725
 10
70.5373
 20
220.112
 30
0.000000
  70
    32
  0
VERTEX
  8
1
  5
726
 10
70.4960
 20
220.031
 30
0.000000
  70
    32
  0
VERTEX
  8
1
  5
727
 10
70.4549
 20
219.951
 30
0.000000
  70
    32
  0
VERTEX
  8
1
  5
728
 10
70.4140
 20
219.870
 30
0.000000
  70
    32
  0
VERTEX
  8
1
  5
729
 10
70.3733
 20
219.789
 30
0.000000
  70
    32
  0
VERTEX
  8
1
  5
72A
 10
70.3329
 20
219.708
 30
0.000000
  70
    32
  0
VERTEX
  8
1
  5
72B
 10
70.2927
 20
219.627
 30
0.000000
  70
    32
  0
VERTEX
  8
1
  5
72C
 10
70.2528
 20
219.547
 30
0.000000
  70
    32
  0
VERTEX
  8
1
  5
72D
 10
70.2133
 20
219.466
 30
0.000000
  70
    32
  0
VERTEX
  8
1
  5
72E
 10
70.1740
 20
219.385
 30
0.000000
  70
    32
  0
VERTEX
  8
1
  5
72F
 10
70.1350
 20
219.304
 30
0.000000
  70
    32
  0
VERTEX
  8
1
  5
730
 10
70.0964
 20
219.223
 30
0.000000
  70
    32
  0
VERTEX
  8
1
  5
731
 10
70.0582
 20
219.142
 30
0.000000
  70
    32
  0
VERTEX
  8
1
  5
732
 10
70.0203
 20
219.061
 30
0.000000
  70
    32
  0
VERTEX
  8
1
  5
733
 10
69.9828
 20
218.980
 30
0.000000
  70
    32
  0
VERTEX
  8
1
  5
734
 10
69.9458
 20
218.899
 30
0.000000
  70
    32
  0
VERTEX
  8
1
  5
735
 10
69.9091
 20
218.818
 30
0.000000
  70
    32
  0
VERTEX
  8
1
  5
736
 10
69.8729
 20
218.736
 30
0.000000
  70
    32
  0
VERTEX
  8
1
  5
737
 10
69.8372
 20
218.655
 30
0.000000
  70
    32
  0
VERTEX
  8
1
  5
738
 10
69.8019
 20
218.574
 30
0.000000
  70
    32
  0
VERTEX
  8
1
  5
739
 10
69.7671
 20
218.493
 30
0.000000
  70
    32
  0
VERTEX
  8
1
  5
73A
 10
69.7329
 20
218.412
 30
0.000000
  70
    32
  0
VERTEX
  8
1
  5
73B
 10
69.6991
 20
218.330
 30
0.000000
  70
    32
  0
VERTEX
  8
1
  5
73C
 10
69.6659
 20
218.249
 30
0.000000
  70
    32
  0
VERTEX
  8
1
  5
73D
 10
69.6333
 20
218.168
 30
0.000000
  70
    32
  0
VERTEX
  8
1
  5
73E
 10
69.6012
 20
218.086
 30
0.000000
  70
    32
  0
VERTEX
  8
1
  5
73F
 10
69.5697
 20
218.005
 30
0.000000
  70
    32
  0
VERTEX
  8
1
  5
740
 10
69.5389
 20
217.923
 30
0.000000
  70
    32
  0
VERTEX
  8
1
  5
741
 10
69.5086
 20
217.842
 30
0.000000
  70
    32
  0
VERTEX
  8
1
  5
742
 10
69.4790
 20
217.760
 30
0.000000
  70
    32
  0
VERTEX
  8
1
  5
743
 10
69.4500
 20
217.678
 30
0.000000
  70
    32
  0
VERTEX
  8
1
  5
744
 10
69.4218
 20
217.597
 30
0.000000
  70
    32
  0
VERTEX
  8
1
  5
745
 10
69.3942
 20
217.515
 30
0.000000
  70
    32
  0
VERTEX
  8
1
  5
746
 10
69.3673
 20
217.433
 30
0.000000
  70
    32
  0
VERTEX
  8
1
  5
747
 10
69.3411
 20
217.351
 30
0.000000
  70
    32
  0
VERTEX
  8
1
  5
748
 10
69.3157
 20
217.269
 30
0.000000
  70
    32
  0
VERTEX
  8
1
  5
749
 10
69.2910
 20
217.187
 30
0.000000
  70
    32
  0
VERTEX
  8
1
  5
74A
 10
69.2671
 20
217.105
 30
0.000000
  70
    32
  0
VERTEX
  8
1
  5
74B
 10
69.2439
 20
217.023
 30
0.000000
  70
    32
  0
VERTEX
  8
1
  5
74C
 10
69.2216
 20
216.941
 30
0.000000
  70
    32
  0
VERTEX
  8
1
  5
74D
 10
69.2001
 20
216.859
 30
0.000000
  70
    32
  0
VERTEX
  8
1
  5
74E
 10
69.1794
 20
216.777
 30
0.000000
  70
    32
  0
VERTEX
  8
1
  5
74F
 10
69.1596
 20
216.694
 30
0.000000
  70
    32
  0
VERTEX
  8
1
  5
750
 10
69.1407
 20
216.612
 30
0.000000
  70
    32
  0
VERTEX
  8
1
  5
751
 10
69.1226
 20
216.529
 30
0.000000
  70
    32
  0
VERTEX
  8
1
  5
752
 10
69.1054
 20
216.447
 30
0.000000
  70
    32
  0
VERTEX
  8
1
  5
753
 10
69.0892
 20
216.364
 30
0.000000
  70
    32
  0
VERTEX
  8
1
  5
754
 10
69.0739
 20
216.282
 30
0.000000
  70
    32
  0
VERTEX
  8
1
  5
755
 10
69.0595
 20
216.199
 30
0.000000
  70
    32
  0
VERTEX
  8
1
  5
756
 10
69.0461
 20
216.116
 30
0.000000
  70
    32
  0
VERTEX
  8
1
  5
757
 10
69.0337
 20
216.033
 30
0.000000
  70
    32
  0
VERTEX
  8
1
  5
758
 10
69.0223
 20
215.951
 30
0.000000
  70
    32
  0
VERTEX
  8
1
  5
759
 10
69.0119
 20
215.868
 30
0.000000
  70
    32
  0
VERTEX
  8
1
  5
75A
 10
69.0025
 20
215.784
 30
0.000000
  70
    32
  0
VERTEX
  8
1
  5
75B
 10
68.9942
 20
215.701
 30
0.000000
  70
    32
  0
VERTEX
  8
1
  5
75C
 10
68.9869
 20
215.618
 30
0.000000
  70
    32
  0
VERTEX
  8
1
  5
75D
 10
68.9808
 20
215.535
 30
0.000000
  70
    32
  0
VERTEX
  8
1
  5
75E
 10
68.9757
 20
215.451
 30
0.000000
  70
    32
  0
VERTEX
  8
1
  5
75F
 10
68.9717
 20
215.368
 30
0.000000
  70
    32
  0
VERTEX
  8
1
  5
760
 10
68.9689
 20
215.284
 30
0.000000
  70
    32
  0
VERTEX
  8
1
  5
761
 10
68.9672
 20
215.201
 30
0.000000
  70
    32
  0
VERTEX
  8
1
  5
762
 10
68.9667
 20
215.117
 30
0.000000
  70
    32
  0
VERTEX
  8
1
  5
763
 10
68.9673
 20
215.033
 30
0.000000
  70
    32
  0
VERTEX
  8
1
  5
764
 10
68.9692
 20
214.949
 30
0.000000
  70
    32
  0
VERTEX
  8
1
  5
765
 10
68.9723
 20
214.865
 30
0.000000
  70
    32
  0
VERTEX
  8
1
  5
766
 10
68.9765
 20
214.781
 30
0.000000
  70
    32
  0
VERTEX
  8
1
  5
767
 10
68.9821
 20
214.697
 30
0.000000
  70
    32
  0
VERTEX
  8
1
  5
768
 10
68.9889
 20
214.613
 30
0.000000
  70
    32
  0
VERTEX
  8
1
  5
769
 10
68.9970
 20
214.529
 30
0.000000
  70
    32
  0
VERTEX
  8
1
  5
76A
 10
69.0063
 20
214.444
 30
0.000000
  70
    32
  0
VERTEX
  8
1
  5
76B
 10
69.0170
 20
214.360
 30
0.000000
  70
    32
  0
VERTEX
  8
1
  5
76C
 10
69.0288
 20
214.275
 30
0.000000
  70
    32
  0
VERTEX
  8
1
  5
76D
 10
69.0418
 20
214.190
 30
0.000000
  70
    32
  0
VERTEX
  8
1
  5
76E
 10
69.0559
 20
214.106
 30
0.000000
  70
    32
  0
VERTEX
  8
1
  5
76F
 10
69.0711
 20
214.021
 30
0.000000
  70
    32
  0
VERTEX
  8
1
  5
770
 10
69.0873
 20
213.936
 30
0.000000
  70
    32
  0
VERTEX
  8
1
  5
771
 10
69.1044
 20
213.851
 30
0.000000
  70
    32
  0
VERTEX
  8
1
  5
772
 10
69.1224
 20
213.766
 30
0.000000
  70
    32
  0
VERTEX
  8
1
  5
773
 10
69.1412
 20
213.681
 30
0.000000
  70
    32
  0
VERTEX
  8
1
  5
774
 10
69.1609
 20
213.596
 30
0.000000
  70
    32
  0
VERTEX
  8
1
  5
775
 10
69.1813
 20
213.511
 30
0.000000
  70
    32
  0
VERTEX
  8
1
  5
776
 10
69.2024
 20
213.426
 30
0.000000
  70
    32
  0
VERTEX
  8
1
  5
777
 10
69.2241
 20
213.340
 30
0.000000
  70
    32
  0
VERTEX
  8
1
  5
778
 10
69.2464
 20
213.255
 30
0.000000
  70
    32
  0
VERTEX
  8
1
  5
779
 10
69.2692
 20
213.170
 30
0.000000
  70
    32
  0
VERTEX
  8
1
  5
77A
 10
69.2925
 20
213.085
 30
0.000000
  70
    32
  0
VERTEX
  8
1
  5
77B
 10
69.3162
 20
213.000
 30
0.000000
  70
    32
  0
VERTEX
  8
1
  5
77C
 10
69.3403
 20
212.914
 30
0.000000
  70
    32
  0
VERTEX
  8
1
  5
77D
 10
69.3647
 20
212.829
 30
0.000000
  70
    32
  0
VERTEX
  8
1
  5
77E
 10
69.3894
 20
212.744
 30
0.000000
  70
    32
  0
VERTEX
  8
1
  5
77F
 10
69.4143
 20
212.659
 30
0.000000
  70
    32
  0
VERTEX
  8
1
  5
780
 10
69.4393
 20
212.574
 30
0.000000
  70
    32
  0
VERTEX
  8
1
  5
781
 10
69.4645
 20
212.488
 30
0.000000
  70
    32
  0
VERTEX
  8
1
  5
782
 10
69.4897
 20
212.403
 30
0.000000
  70
    32
  0
VERTEX
  8
1
  5
783
 10
69.5149
 20
212.318
 30
0.000000
  70
    32
  0
VERTEX
  8
1
  5
784
 10
69.5401
 20
212.233
 30
0.000000
  70
    32
  0
VERTEX
  8
1
  5
785
 10
69.5652
 20
212.148
 30
0.000000
  70
    32
  0
VERTEX
  8
1
  5
786
 10
69.5901
 20
212.063
 30
0.000000
  70
    32
  0
VERTEX
  8
1
  5
787
 10
69.6148
 20
211.978
 30
0.000000
  70
    32
  0
VERTEX
  8
1
  5
788
 10
69.6392
 20
211.894
 30
0.000000
  70
    32
  0
VERTEX
  8
1
  5
789
 10
69.6633
 20
211.809
 30
0.000000
  70
    32
  0
VERTEX
  8
1
  5
78A
 10
69.6871
 20
211.724
 30
0.000000
  70
    32
  0
VERTEX
  8
1
  5
78B
 10
69.7105
 20
211.640
 30
0.000000
  70
    32
  0
VERTEX
  8
1
  5
78C
 10
69.7333
 20
211.555
 30
0.000000
  70
    32
  0
VERTEX
  8
1
  5
78D
 10
69.7557
 20
211.471
 30
0.000000
  70
    32
  0
VERTEX
  8
1
  5
78E
 10
69.7775
 20
211.386
 30
0.000000
  70
    32
  0
VERTEX
  8
1
  5
78F
 10
69.7986
 20
211.302
 30
0.000000
  70
    32
  0
VERTEX
  8
1
  5
790
 10
69.8191
 20
211.218
 30
0.000000
  70
    32
  0
VERTEX
  8
1
  5
791
 10
69.8389
 20
211.134
 30
0.000000
  70
    32
  0
VERTEX
  8
1
  5
792
 10
69.8578
 20
211.050
 30
0.000000
  70
    32
  0
VERTEX
  8
1
  5
793
 10
69.8759
 20
210.966
 30
0.000000
  70
    32
  0
VERTEX
  8
1
  5
794
 10
69.8932
 20
210.883
 30
0.000000
  70
    32
  0
VERTEX
  8
1
  5
795
 10
69.9094
 20
210.799
 30
0.000000
  70
    32
  0
VERTEX
  8
1
  5
796
 10
69.9247
 20
210.716
 30
0.000000
  70
    32
  0
VERTEX
  8
1
  5
797
 10
69.9390
 20
210.633
 30
0.000000
  70
    32
  0
VERTEX
  8
1
  5
798
 10
69.9521
 20
210.550
 30
0.000000
  70
    32
  0
VERTEX
  8
1
  5
799
 10
69.9641
 20
210.467
 30
0.000000
  70
    32
  0
VERTEX
  8
1
  5
79A
 10
69.9749
 20
210.384
 30
0.000000
  70
    32
  0
VERTEX
  8
1
  5
79B
 10
69.9844
 20
210.301
 30
0.000000
  70
    32
  0
VERTEX
  8
1
  5
79C
 10
69.9926
 20
210.219
 30
0.000000
  70
    32
  0
VERTEX
  8
1
  5
79D
 10
69.9995
 20
210.137
 30
0.000000
  70
    32
  0
VERTEX
  8
1
  5
79E
 10
70.0049
 20
210.055
 30
0.000000
  70
    32
  0
VERTEX
  8
1
  5
79F
 10
70.0089
 20
209.973
 30
0.000000
  70
    32
  0
VERTEX
  8
1
  5
7A0
 10
70.0113
 20
209.891
 30
0.000000
  70
    32
  0
VERTEX
  8
1
  5
7A1
 10
70.0122
 20
209.810
 30
0.000000
  70
    32
  0
VERTEX
  8
1
  5
7A2
 10
70.0114
 20
209.729
 30
0.000000
  70
    32
  0
VERTEX
  8
1
  5
7A3
 10
70.0090
 20
209.648
 30
0.000000
  70
    32
  0
VERTEX
  8
1
  5
7A4
 10
70.0048
 20
209.567
 30
0.000000
  70
    32
  0
VERTEX
  8
1
  5
7A5
 10
69.9988
 20
209.486
 30
0.000000
  70
    32
  0
VERTEX
  8
1
  5
7A6
 10
69.9911
 20
209.406
 30
0.000000
  70
    32
  0
VERTEX
  8
1
  5
7A7
 10
69.9815
 20
209.325
 30
0.000000
  70
    32
  0
VERTEX
  8
1
  5
7A8
 10
69.9702
 20
209.245
 30
0.000000
  70
    32
  0
VERTEX
  8
1
  5
7A9
 10
69.9572
 20
209.166
 30
0.000000
  70
    32
  0
VERTEX
  8
1
  5
7AA
 10
69.9425
 20
209.086
 30
0.000000
  70
    32
  0
VERTEX
  8
1
  5
7AB
 10
69.9261
 20
209.007
 30
0.000000
  70
    32
  0
VERTEX
  8
1
  5
7AC
 10
69.9082
 20
208.928
 30
0.000000
  70
    32
  0
VERTEX
  8
1
  5
7AD
 10
69.8886
 20
208.849
 30
0.000000
  70
    32
  0
VERTEX
  8
1
  5
7AE
 10
69.8675
 20
208.770
 30
0.000000
  70
    32
  0
VERTEX
  8
1
  5
7AF
 10
69.8450
 20
208.691
 30
0.000000
  70
    32
  0
VERTEX
  8
1
  5
7B0
 10
69.8209
 20
208.613
 30
0.000000
  70
    32
  0
VERTEX
  8
1
  5
7B1
 10
69.7954
 20
208.535
 30
0.000000
  70
    32
  0
VERTEX
  8
1
  5
7B2
 10
69.7685
 20
208.457
 30
0.000000
  70
    32
  0
VERTEX
  8
1
  5
7B3
 10
69.7402
 20
208.379
 30
0.000000
  70
    32
  0
VERTEX
  8
1
  5
7B4
 10
69.7107
 20
208.301
 30
0.000000
  70
    32
  0
VERTEX
  8
1
  5
7B5
 10
69.6798
 20
208.223
 30
0.000000
  70
    32
  0
VERTEX
  8
1
  5
7B6
 10
69.6476
 20
208.146
 30
0.000000
  70
    32
  0
VERTEX
  8
1
  5
7B7
 10
69.6142
 20
208.069
 30
0.000000
  70
    32
  0
VERTEX
  8
1
  5
7B8
 10
69.5797
 20
207.992
 30
0.000000
  70
    32
  0
VERTEX
  8
1
  5
7B9
 10
69.5439
 20
207.915
 30
0.000000
  70
    32
  0
VERTEX
  8
1
  5
7BA
 10
69.5071
 20
207.838
 30
0.000000
  70
    32
  0
VERTEX
  8
1
  5
7BB
 10
69.4692
 20
207.761
 30
0.000000
  70
    32
  0
VERTEX
  8
1
  5
7BC
 10
69.4302
 20
207.684
 30
0.000000
  70
    32
  0
VERTEX
  8
1
  5
7BD
 10
69.3902
 20
207.608
 30
0.000000
  70
    32
  0
VERTEX
  8
1
  5
7BE
 10
69.3492
 20
207.532
 30
0.000000
  70
    32
  0
VERTEX
  8
1
  5
7BF
 10
69.3073
 20
207.455
 30
0.000000
  70
    32
  0
VERTEX
  8
1
  5
7C0
 10
69.2644
 20
207.379
 30
0.000000
  70
    32
  0
VERTEX
  8
1
  5
7C1
 10
69.2207
 20
207.303
 30
0.000000
  70
    32
  0
VERTEX
  8
1
  5
7C2
 10
69.1762
 20
207.227
 30
0.000000
  70
    32
  0
VERTEX
  8
1
  5
7C3
 10
69.1308
 20
207.152
 30
0.000000
  70
    32
  0
VERTEX
  8
1
  5
7C4
 10
69.0847
 20
207.076
 30
0.000000
  70
    32
  0
VERTEX
  8
1
  5
7C5
 10
69.0378
 20
207.000
 30
0.000000
  70
    32
  0
VERTEX
  8
1
  5
7C6
 10
68.9903
 20
206.925
 30
0.000000
  70
    32
  0
VERTEX
  8
1
  5
7C7
 10
68.9420
 20
206.849
 30
0.000000
  70
    32
  0
VERTEX
  8
1
  5
7C8
 10
68.8932
 20
206.774
 30
0.000000
  70
    32
  0
VERTEX
  8
1
  5
7C9
 10
68.8437
 20
206.699
 30
0.000000
  70
    32
  0
VERTEX
  8
1
  5
7CA
 10
68.7937
 20
206.623
 30
0.000000
  70
    32
  0
VERTEX
  8
1
  5
7CB
 10
68.7432
 20
206.548
 30
0.000000
  70
    32
  0
VERTEX
  8
1
  5
7CC
 10
68.6921
 20
206.473
 30
0.000000
  70
    32
  0
VERTEX
  8
1
  5
7CD
 10
68.6406
 20
206.398
 30
0.000000
  70
    32
  0
VERTEX
  8
1
  5
7CE
 10
68.5887
 20
206.323
 30
0.000000
  70
    32
  0
VERTEX
  8
1
  5
7CF
 10
68.5364
 20
206.248
 30
0.000000
  70
    32
  0
VERTEX
  8
1
  5
7D0
 10
68.4838
 20
206.173
 30
0.000000
  70
    32
  0
VERTEX
  8
1
  5
7D1
 10
68.4308
 20
206.098
 30
0.000000
  70
    32
  0
VERTEX
  8
1
  5
7D2
 10
68.3776
 20
206.023
 30
0.000000
  70
    32
  0
VERTEX
  8
1
  5
7D3
 10
68.3241
 20
205.949
 30
0.000000
  70
    32
  0
VERTEX
  8
1
  5
7D4
 10
68.2704
 20
205.874
 30
0.000000
  70
    32
  0
VERTEX
  8
1
  5
7D5
 10
68.2165
 20
205.799
 30
0.000000
  70
    32
  0
VERTEX
  8
1
  5
7D6
 10
68.1625
 20
205.724
 30
0.000000
  70
    32
  0
VERTEX
  8
1
  5
7D7
 10
68.1084
 20
205.649
 30
0.000000
  70
    32
  0
VERTEX
  8
1
  5
7D8
 10
68.0542
 20
205.575
 30
0.000000
  70
    32
  0
VERTEX
  8
1
  5
7D9
 10
68.0000
 20
205.500
 30
0.000000
  70
    32
  0
SEQEND
  8
1
  5
7DA
  0
POLYLINE
  8
1
  5
7DB
  66
     1
 10
0.000000
 20
0.000000
 30
0.000000
  70
     8
  0
VERTEX
  8
1
  5
7DC
 10
70.1148
 20
221.465
 30
0.000000
  70
    32
  0
VERTEX
  8
1
  5
7DD
 10
70.1042
 20
221.445
 30
0.000000
  70
    32
  0
VERTEX
  8
1
  5
7DE
 10
70.0936
 20
221.425
 30
0.000000
  70
    32
  0
VERTEX
  8
1
  5
7DF
 10
70.0831
 20
221.405
 30
0.000000
  70
    32
  0
VERTEX
  8
1
  5
7E0
 10
70.0725
 20
221.385
 30
0.000000
  70
    32
  0
VERTEX
  8
1
  5
7E1
 10
70.0619
 20
221.365
 30
0.000000
  70
    32
  0
VERTEX
  8
1
  5
7E2
 10
70.0513
 20
221.344
 30
0.000000
  70
    32
  0
VERTEX
  8
1
  5
7E3
 10
70.0407
 20
221.324
 30
0.000000
  70
    32
  0
VERTEX
  8
1
  5
7E4
 10
70.0302
 20
221.304
 30
0.000000
  70
    32
  0
VERTEX
  8
1
  5
7E5
 10
70.0196
 20
221.284
 30
0.000000
  70
    32
  0
VERTEX
  8
1
  5
7E6
 10
70.0090
 20
221.264
 30
0.000000
  70
    32
  0
VERTEX
  8
1
  5
7E7
 10
69.9984
 20
221.244
 30
0.000000
  70
    32
  0
VERTEX
  8
1
  5
7E8
 10
69.9878
 20
221.223
 30
0.000000
  70
    32
  0
VERTEX
  8
1
  5
7E9
 10
69.9772
 20
221.203
 30
0.000000
  70
    32
  0
VERTEX
  8
1
  5
7EA
 10
69.9666
 20
221.183
 30
0.000000
  70
    32
  0
VERTEX
  8
1
  5
7EB
 10
69.9560
 20
221.163
 30
0.000000
  70
    32
  0
VERTEX
  8
1
  5
7EC
 10
69.9454
 20
221.143
 30
0.000000
  70
    32
  0
VERTEX
  8
1
  5
7ED
 10
69.9348
 20
221.122
 30
0.000000
  70
    32
  0
VERTEX
  8
1
  5
7EE
 10
69.9242
 20
221.102
 30
0.000000
  70
    32
  0
VERTEX
  8
1
  5
7EF
 10
69.9136
 20
221.082
 30
0.000000
  70
    32
  0
VERTEX
  8
1
  5
7F0
 10
69.9030
 20
221.061
 30
0.000000
  70
    32
  0
VERTEX
  8
1
  5
7F1
 10
69.8923
 20
221.041
 30
0.000000
  70
    32
  0
VERTEX
  8
1
  5
7F2
 10
69.8817
 20
221.021
 30
0.000000
  70
    32
  0
VERTEX
  8
1
  5
7F3
 10
69.8711
 20
221.001
 30
0.000000
  70
    32
  0
VERTEX
  8
1
  5
7F4
 10
69.8605
 20
220.980
 30
0.000000
  70
    32
  0
VERTEX
  8
1
  5
7F5
 10
69.8499
 20
220.960
 30
0.000000
  70
    32
  0
VERTEX
  8
1
  5
7F6
 10
69.8393
 20
220.940
 30
0.000000
  70
    32
  0
VERTEX
  8
1
  5
7F7
 10
69.8287
 20
220.919
 30
0.000000
  70
    32
  0
VERTEX
  8
1
  5
7F8
 10
69.8181
 20
220.899
 30
0.000000
  70
    32
  0
VERTEX
  8
1
  5
7F9
 10
69.8075
 20
220.879
 30
0.000000
  70
    32
  0
VERTEX
  8
1
  5
7FA
 10
69.7970
 20
220.858
 30
0.000000
  70
    32
  0
VERTEX
  8
1
  5
7FB
 10
69.7864
 20
220.838
 30
0.000000
  70
    32
  0
VERTEX
  8
1
  5
7FC
 10
69.7758
 20
220.818
 30
0.000000
  70
    32
  0
VERTEX
  8
1
  5
7FD
 10
69.7652
 20
220.797
 30
0.000000
  70
    32
  0
VERTEX
  8
1
  5
7FE
 10
69.7546
 20
220.777
 30
0.000000
  70
    32
  0
VERTEX
  8
1
  5
7FF
 10
69.7440
 20
220.756
 30
0.000000
  70
    32
  0
VERTEX
  8
1
  5
800
 10
69.7335
 20
220.736
 30
0.000000
  70
    32
  0
VERTEX
  8
1
  5
801
 10
69.7229
 20
220.715
 30
0.000000
  70
    32
  0
VERTEX
  8
1
  5
802
 10
69.7124
 20
220.695
 30
0.000000
  70
    32
  0
VERTEX
  8
1
  5
803
 10
69.7018
 20
220.675
 30
0.000000
  70
    32
  0
VERTEX
  8
1
  5
804
 10
69.6912
 20
220.654
 30
0.000000
  70
    32
  0
VERTEX
  8
1
  5
805
 10
69.6807
 20
220.634
 30
0.000000
  70
    32
  0
VERTEX
  8
1
  5
806
 10
69.6702
 20
220.613
 30
0.000000
  70
    32
  0
VERTEX
  8
1
  5
807
 10
69.6596
 20
220.593
 30
0.000000
  70
    32
  0
VERTEX
  8
1
  5
808
 10
69.6491
 20
220.572
 30
0.000000
  70
    32
  0
VERTEX
  8
1
  5
809
 10
69.6386
 20
220.552
 30
0.000000
  70
    32
  0
VERTEX
  8
1
  5
80A
 10
69.6281
 20
220.531
 30
0.000000
  70
    32
  0
VERTEX
  8
1
  5
80B
 10
69.6176
 20
220.511
 30
0.000000
  70
    32
  0
VERTEX
  8
1
  5
80C
 10
69.6071
 20
220.490
 30
0.000000
  70
    32
  0
VERTEX
  8
1
  5
80D
 10
69.5966
 20
220.469
 30
0.000000
  70
    32
  0
VERTEX
  8
1
  5
80E
 10
69.5861
 20
220.449
 30
0.000000
  70
    32
  0
VERTEX
  8
1
  5
80F
 10
69.5756
 20
220.428
 30
0.000000
  70
    32
  0
VERTEX
  8
1
  5
810
 10
69.5652
 20
220.408
 30
0.000000
  70
    32
  0
VERTEX
  8
1
  5
811
 10
69.5547
 20
220.387
 30
0.000000
  70
    32
  0
VERTEX
  8
1
  5
812
 10
69.5443
 20
220.367
 30
0.000000
  70
    32
  0
VERTEX
  8
1
  5
813
 10
69.5338
 20
220.346
 30
0.000000
  70
    32
  0
VERTEX
  8
1
  5
814
 10
69.5234
 20
220.325
 30
0.000000
  70
    32
  0
VERTEX
  8
1
  5
815
 10
69.5130
 20
220.305
 30
0.000000
  70
    32
  0
VERTEX
  8
1
  5
816
 10
69.5026
 20
220.284
 30
0.000000
  70
    32
  0
VERTEX
  8
1
  5
817
 10
69.4922
 20
220.263
 30
0.000000
  70
    32
  0
VERTEX
  8
1
  5
818
 10
69.4818
 20
220.243
 30
0.000000
  70
    32
  0
VERTEX
  8
1
  5
819
 10
69.4714
 20
220.222
 30
0.000000
  70
    32
  0
VERTEX
  8
1
  5
81A
 10
69.4610
 20
220.201
 30
0.000000
  70
    32
  0
VERTEX
  8
1
  5
81B
 10
69.4507
 20
220.181
 30
0.000000
  70
    32
  0
VERTEX
  8
1
  5
81C
 10
69.4403
 20
220.160
 30
0.000000
  70
    32
  0
VERTEX
  8
1
  5
81D
 10
69.4300
 20
220.139
 30
0.000000
  70
    32
  0
VERTEX
  8
1
  5
81E
 10
69.4197
 20
220.118
 30
0.000000
  70
    32
  0
VERTEX
  8
1
  5
81F
 10
69.4094
 20
220.098
 30
0.000000
  70
    32
  0
VERTEX
  8
1
  5
820
 10
69.3991
 20
220.077
 30
0.000000
  70
    32
  0
VERTEX
  8
1
  5
821
 10
69.3888
 20
220.056
 30
0.000000
  70
    32
  0
VERTEX
  8
1
  5
822
 10
69.3785
 20
220.035
 30
0.000000
  70
    32
  0
VERTEX
  8
1
  5
823
 10
69.3683
 20
220.014
 30
0.000000
  70
    32
  0
VERTEX
  8
1
  5
824
 10
69.3580
 20
219.994
 30
0.000000
  70
    32
  0
VERTEX
  8
1
  5
825
 10
69.3478
 20
219.973
 30
0.000000
  70
    32
  0
VERTEX
  8
1
  5
826
 10
69.3376
 20
219.952
 30
0.000000
  70
    32
  0
VERTEX
  8
1
  5
827
 10
69.3274
 20
219.931
 30
0.000000
  70
    32
  0
VERTEX
  8
1
  5
828
 10
69.3172
 20
219.910
 30
0.000000
  70
    32
  0
VERTEX
  8
1
  5
829
 10
69.3071
 20
219.889
 30
0.000000
  70
    32
  0
VERTEX
  8
1
  5
82A
 10
69.2969
 20
219.868
 30
0.000000
  70
    32
  0
VERTEX
  8
1
  5
82B
 10
69.2868
 20
219.848
 30
0.000000
  70
    32
  0
VERTEX
  8
1
  5
82C
 10
69.2767
 20
219.827
 30
0.000000
  70
    32
  0
VERTEX
  8
1
  5
82D
 10
69.2665
 20
219.806
 30
0.000000
  70
    32
  0
VERTEX
  8
1
  5
82E
 10
69.2565
 20
219.785
 30
0.000000
  70
    32
  0
VERTEX
  8
1
  5
82F
 10
69.2464
 20
219.764
 30
0.000000
  70
    32
  0
VERTEX
  8
1
  5
830
 10
69.2363
 20
219.743
 30
0.000000
  70
    32
  0
VERTEX
  8
1
  5
831
 10
69.2263
 20
219.722
 30
0.000000
  70
    32
  0
VERTEX
  8
1
  5
832
 10
69.2163
 20
219.701
 30
0.000000
  70
    32
  0
VERTEX
  8
1
  5
833
 10
69.2063
 20
219.680
 30
0.000000
  70
    32
  0
VERTEX
  8
1
  5
834
 10
69.1963
 20
219.659
 30
0.000000
  70
    32
  0
VERTEX
  8
1
  5
835
 10
69.1863
 20
219.638
 30
0.000000
  70
    32
  0
VERTEX
  8
1
  5
836
 10
69.1764
 20
219.617
 30
0.000000
  70
    32
  0
VERTEX
  8
1
  5
837
 10
69.1665
 20
219.596
 30
0.000000
  70
    32
  0
VERTEX
  8
1
  5
838
 10
69.1566
 20
219.575
 30
0.000000
  70
    32
  0
VERTEX
  8
1
  5
839
 10
69.1467
 20
219.554
 30
0.000000
  70
    32
  0
VERTEX
  8
1
  5
83A
 10
69.1368
 20
219.533
 30
0.000000
  70
    32
  0
VERTEX
  8
1
  5
83B
 10
69.1270
 20
219.512
 30
0.000000
  70
    32
  0
VERTEX
  8
1
  5
83C
 10
69.1171
 20
219.491
 30
0.000000
  70
    32
  0
VERTEX
  8
1
  5
83D
 10
69.1073
 20
219.469
 30
0.000000
  70
    32
  0
VERTEX
  8
1
  5
83E
 10
69.0975
 20
219.448
 30
0.000000
  70
    32
  0
VERTEX
  8
1
  5
83F
 10
69.0878
 20
219.427
 30
0.000000
  70
    32
  0
VERTEX
  8
1
  5
840
 10
69.0780
 20
219.406
 30
0.000000
  70
    32
  0
VERTEX
  8
1
  5
841
 10
69.0683
 20
219.385
 30
0.000000
  70
    32
  0
VERTEX
  8
1
  5
842
 10
69.0586
 20
219.364
 30
0.000000
  70
    32
  0
VERTEX
  8
1
  5
843
 10
69.0489
 20
219.342
 30
0.000000
  70
    32
  0
VERTEX
  8
1
  5
844
 10
69.0393
 20
219.321
 30
0.000000
  70
    32
  0
VERTEX
  8
1
  5
845
 10
69.0296
 20
219.300
 30
0.000000
  70
    32
  0
VERTEX
  8
1
  5
846
 10
69.0200
 20
219.279
 30
0.000000
  70
    32
  0
VERTEX
  8
1
  5
847
 10
69.0104
 20
219.258
 30
0.000000
  70
    32
  0
VERTEX
  8
1
  5
848
 10
69.0009
 20
219.236
 30
0.000000
  70
    32
  0
VERTEX
  8
1
  5
849
 10
68.9913
 20
219.215
 30
0.000000
  70
    32
  0
VERTEX
  8
1
  5
84A
 10
68.9818
 20
219.194
 30
0.000000
  70
    32
  0
VERTEX
  8
1
  5
84B
 10
68.9723
 20
219.172
 30
0.000000
  70
    32
  0
VERTEX
  8
1
  5
84C
 10
68.9628
 20
219.151
 30
0.000000
  70
    32
  0
VERTEX
  8
1
  5
84D
 10
68.9534
 20
219.130
 30
0.000000
  70
    32
  0
VERTEX
  8
1
  5
84E
 10
68.9440
 20
219.108
 30
0.000000
  70
    32
  0
VERTEX
  8
1
  5
84F
 10
68.9346
 20
219.087
 30
0.000000
  70
    32
  0
VERTEX
  8
1
  5
850
 10
68.9252
 20
219.066
 30
0.000000
  70
    32
  0
VERTEX
  8
1
  5
851
 10
68.9159
 20
219.044
 30
0.000000
  70
    32
  0
VERTEX
  8
1
  5
852
 10
68.9066
 20
219.023
 30
0.000000
  70
    32
  0
VERTEX
  8
1
  5
853
 10
68.8973
 20
219.002
 30
0.000000
  70
    32
  0
VERTEX
  8
1
  5
854
 10
68.8880
 20
218.980
 30
0.000000
  70
    32
  0
VERTEX
  8
1
  5
855
 10
68.8788
 20
218.959
 30
0.000000
  70
    32
  0
VERTEX
  8
1
  5
856
 10
68.8696
 20
218.937
 30
0.000000
  70
    32
  0
VERTEX
  8
1
  5
857
 10
68.8604
 20
218.916
 30
0.000000
  70
    32
  0
VERTEX
  8
1
  5
858
 10
68.8512
 20
218.894
 30
0.000000
  70
    32
  0
VERTEX
  8
1
  5
859
 10
68.8421
 20
218.873
 30
0.000000
  70
    32
  0
VERTEX
  8
1
  5
85A
 10
68.8330
 20
218.851
 30
0.000000
  70
    32
  0
VERTEX
  8
1
  5
85B
 10
68.8239
 20
218.830
 30
0.000000
  70
    32
  0
VERTEX
  8
1
  5
85C
 10
68.8149
 20
218.808
 30
0.000000
  70
    32
  0
VERTEX
  8
1
  5
85D
 10
68.8059
 20
218.787
 30
0.000000
  70
    32
  0
VERTEX
  8
1
  5
85E
 10
68.7969
 20
218.765
 30
0.000000
  70
    32
  0
VERTEX
  8
1
  5
85F
 10
68.7879
 20
218.744
 30
0.000000
  70
    32
  0
VERTEX
  8
1
  5
860
 10
68.7790
 20
218.722
 30
0.000000
  70
    32
  0
VERTEX
  8
1
  5
861
 10
68.7701
 20
218.700
 30
0.000000
  70
    32
  0
VERTEX
  8
1
  5
862
 10
68.7612
 20
218.679
 30
0.000000
  70
    32
  0
VERTEX
  8
1
  5
863
 10
68.7524
 20
218.657
 30
0.000000
  70
    32
  0
VERTEX
  8
1
  5
864
 10
68.7436
 20
218.636
 30
0.000000
  70
    32
  0
VERTEX
  8
1
  5
865
 10
68.7348
 20
218.614
 30
0.000000
  70
    32
  0
VERTEX
  8
1
  5
866
 10
68.7261
 20
218.592
 30
0.000000
  70
    32
  0
VERTEX
  8
1
  5
867
 10
68.7174
 20
218.571
 30
0.000000
  70
    32
  0
VERTEX
  8
1
  5
868
 10
68.7087
 20
218.549
 30
0.000000
  70
    32
  0
VERTEX
  8
1
  5
869
 10
68.7001
 20
218.527
 30
0.000000
  70
    32
  0
VERTEX
  8
1
  5
86A
 10
68.6914
 20
218.505
 30
0.000000
  70
    32
  0
VERTEX
  8
1
  5
86B
 10
68.6829
 20
218.484
 30
0.000000
  70
    32
  0
VERTEX
  8
1
  5
86C
 10
68.6743
 20
218.462
 30
0.000000
  70
    32
  0
VERTEX
  8
1
  5
86D
 10
68.6658
 20
218.440
 30
0.000000
  70
    32
  0
VERTEX
  8
1
  5
86E
 10
68.6573
 20
218.418
 30
0.000000
  70
    32
  0
VERTEX
  8
1
  5
86F
 10
68.6489
 20
218.396
 30
0.000000
  70
    32
  0
VERTEX
  8
1
  5
870
 10
68.6405
 20
218.375
 30
0.000000
  70
    32
  0
VERTEX
  8
1
  5
871
 10
68.6321
 20
218.353
 30
0.000000
  70
    32
  0
VERTEX
  8
1
  5
872
 10
68.6238
 20
218.331
 30
0.000000
  70
    32
  0
VERTEX
  8
1
  5
873
 10
68.6155
 20
218.309
 30
0.000000
  70
    32
  0
VERTEX
  8
1
  5
874
 10
68.6072
 20
218.287
 30
0.000000
  70
    32
  0
VERTEX
  8
1
  5
875
 10
68.5990
 20
218.265
 30
0.000000
  70
    32
  0
VERTEX
  8
1
  5
876
 10
68.5908
 20
218.243
 30
0.000000
  70
    32
  0
VERTEX
  8
1
  5
877
 10
68.5826
 20
218.221
 30
0.000000
  70
    32
  0
VERTEX
  8
1
  5
878
 10
68.5745
 20
218.199
 30
0.000000
  70
    32
  0
VERTEX
  8
1
  5
879
 10
68.5664
 20
218.177
 30
0.000000
  70
    32
  0
VERTEX
  8
1
  5
87A
 10
68.5584
 20
218.155
 30
0.000000
  70
    32
  0
VERTEX
  8
1
  5
87B
 10
68.5504
 20
218.133
 30
0.000000
  70
    32
  0
VERTEX
  8
1
  5
87C
 10
68.5424
 20
218.111
 30
0.000000
  70
    32
  0
VERTEX
  8
1
  5
87D
 10
68.5345
 20
218.089
 30
0.000000
  70
    32
  0
VERTEX
  8
1
  5
87E
 10
68.5266
 20
218.067
 30
0.000000
  70
    32
  0
VERTEX
  8
1
  5
87F
 10
68.5187
 20
218.045
 30
0.000000
  70
    32
  0
VERTEX
  8
1
  5
880
 10
68.5109
 20
218.023
 30
0.000000
  70
    32
  0
VERTEX
  8
1
  5
881
 10
68.5032
 20
218.001
 30
0.000000
  70
    32
  0
VERTEX
  8
1
  5
882
 10
68.4954
 20
217.979
 30
0.000000
  70
    32
  0
VERTEX
  8
1
  5
883
 10
68.4878
 20
217.957
 30
0.000000
  70
    32
  0
VERTEX
  8
1
  5
884
 10
68.4801
 20
217.934
 30
0.000000
  70
    32
  0
VERTEX
  8
1
  5
885
 10
68.4725
 20
217.912
 30
0.000000
  70
    32
  0
VERTEX
  8
1
  5
886
 10
68.4650
 20
217.890
 30
0.000000
  70
    32
  0
VERTEX
  8
1
  5
887
 10
68.4574
 20
217.868
 30
0.000000
  70
    32
  0
VERTEX
  8
1
  5
888
 10
68.4500
 20
217.846
 30
0.000000
  70
    32
  0
VERTEX
  8
1
  5
889
 10
68.4425
 20
217.823
 30
0.000000
  70
    32
  0
VERTEX
  8
1
  5
88A
 10
68.4352
 20
217.801
 30
0.000000
  70
    32
  0
VERTEX
  8
1
  5
88B
 10
68.4278
 20
217.779
 30
0.000000
  70
    32
  0
VERTEX
  8
1
  5
88C
 10
68.4205
 20
217.756
 30
0.000000
  70
    32
  0
VERTEX
  8
1
  5
88D
 10
68.4133
 20
217.734
 30
0.000000
  70
    32
  0
VERTEX
  8
1
  5
88E
 10
68.4061
 20
217.712
 30
0.000000
  70
    32
  0
VERTEX
  8
1
  5
88F
 10
68.3989
 20
217.689
 30
0.000000
  70
    32
  0
VERTEX
  8
1
  5
890
 10
68.3918
 20
217.667
 30
0.000000
  70
    32
  0
VERTEX
  8
1
  5
891
 10
68.3847
 20
217.645
 30
0.000000
  70
    32
  0
VERTEX
  8
1
  5
892
 10
68.3777
 20
217.622
 30
0.000000
  70
    32
  0
VERTEX
  8
1
  5
893
 10
68.3707
 20
217.600
 30
0.000000
  70
    32
  0
VERTEX
  8
1
  5
894
 10
68.3638
 20
217.577
 30
0.000000
  70
    32
  0
VERTEX
  8
1
  5
895
 10
68.3569
 20
217.555
 30
0.000000
  70
    32
  0
VERTEX
  8
1
  5
896
 10
68.3501
 20
217.533
 30
0.000000
  70
    32
  0
VERTEX
  8
1
  5
897
 10
68.3433
 20
217.510
 30
0.000000
  70
    32
  0
VERTEX
  8
1
  5
898
 10
68.3366
 20
217.488
 30
0.000000
  70
    32
  0
VERTEX
  8
1
  5
899
 10
68.3299
 20
217.465
 30
0.000000
  70
    32
  0
VERTEX
  8
1
  5
89A
 10
68.3232
 20
217.442
 30
0.000000
  70
    32
  0
VERTEX
  8
1
  5
89B
 10
68.3166
 20
217.420
 30
0.000000
  70
    32
  0
VERTEX
  8
1
  5
89C
 10
68.3101
 20
217.397
 30
0.000000
  70
    32
  0
VERTEX
  8
1
  5
89D
 10
68.3036
 20
217.375
 30
0.000000
  70
    32
  0
VERTEX
  8
1
  5
89E
 10
68.2972
 20
217.352
 30
0.000000
  70
    32
  0
VERTEX
  8
1
  5
89F
 10
68.2908
 20
217.330
 30
0.000000
  70
    32
  0
VERTEX
  8
1
  5
8A0
 10
68.2844
 20
217.307
 30
0.000000
  70
    32
  0
VERTEX
  8
1
  5
8A1
 10
68.2782
 20
217.284
 30
0.000000
  70
    32
  0
VERTEX
  8
1
  5
8A2
 10
68.2719
 20
217.262
 30
0.000000
  70
    32
  0
VERTEX
  8
1
  5
8A3
 10
68.2657
 20
217.239
 30
0.000000
  70
    32
  0
VERTEX
  8
1
  5
8A4
 10
68.2596
 20
217.216
 30
0.000000
  70
    32
  0
VERTEX
  8
1
  5
8A5
 10
68.2535
 20
217.193
 30
0.000000
  70
    32
  0
VERTEX
  8
1
  5
8A6
 10
68.2475
 20
217.171
 30
0.000000
  70
    32
  0
VERTEX
  8
1
  5
8A7
 10
68.2415
 20
217.148
 30
0.000000
  70
    32
  0
VERTEX
  8
1
  5
8A8
 10
68.2356
 20
217.125
 30
0.000000
  70
    32
  0
VERTEX
  8
1
  5
8A9
 10
68.2298
 20
217.102
 30
0.000000
  70
    32
  0
VERTEX
  8
1
  5
8AA
 10
68.2240
 20
217.079
 30
0.000000
  70
    32
  0
VERTEX
  8
1
  5
8AB
 10
68.2182
 20
217.057
 30
0.000000
  70
    32
  0
VERTEX
  8
1
  5
8AC
 10
68.2125
 20
217.034
 30
0.000000
  70
    32
  0
VERTEX
  8
1
  5
8AD
 10
68.2069
 20
217.011
 30
0.000000
  70
    32
  0
VERTEX
  8
1
  5
8AE
 10
68.2013
 20
216.988
 30
0.000000
  70
    32
  0
VERTEX
  8
1
  5
8AF
 10
68.1958
 20
216.965
 30
0.000000
  70
    32
  0
VERTEX
  8
1
  5
8B0
 10
68.1903
 20
216.942
 30
0.000000
  70
    32
  0
VERTEX
  8
1
  5
8B1
 10
68.1849
 20
216.919
 30
0.000000
  70
    32
  0
VERTEX
  8
1
  5
8B2
 10
68.1795
 20
216.896
 30
0.000000
  70
    32
  0
VERTEX
  8
1
  5
8B3
 10
68.1742
 20
216.873
 30
0.000000
  70
    32
  0
VERTEX
  8
1
  5
8B4
 10
68.1690
 20
216.850
 30
0.000000
  70
    32
  0
VERTEX
  8
1
  5
8B5
 10
68.1638
 20
216.827
 30
0.000000
  70
    32
  0
VERTEX
  8
1
  5
8B6
 10
68.1587
 20
216.804
 30
0.000000
  70
    32
  0
VERTEX
  8
1
  5
8B7
 10
68.1536
 20
216.781
 30
0.000000
  70
    32
  0
VERTEX
  8
1
  5
8B8
 10
68.1486
 20
216.758
 30
0.000000
  70
    32
  0
VERTEX
  8
1
  5
8B9
 10
68.1436
 20
216.735
 30
0.000000
  70
    32
  0
VERTEX
  8
1
  5
8BA
 10
68.1387
 20
216.712
 30
0.000000
  70
    32
  0
VERTEX
  8
1
  5
8BB
 10
68.1339
 20
216.689
 30
0.000000
  70
    32
  0
VERTEX
  8
1
  5
8BC
 10
68.1291
 20
216.665
 30
0.000000
  70
    32
  0
VERTEX
  8
1
  5
8BD
 10
68.1244
 20
216.642
 30
0.000000
  70
    32
  0
VERTEX
  8
1
  5
8BE
 10
68.1198
 20
216.619
 30
0.000000
  70
    32
  0
VERTEX
  8
1
  5
8BF
 10
68.1152
 20
216.596
 30
0.000000
  70
    32
  0
VERTEX
  8
1
  5
8C0
 10
68.1107
 20
216.573
 30
0.000000
  70
    32
  0
VERTEX
  8
1
  5
8C1
 10
68.1062
 20
216.549
 30
0.000000
  70
    32
  0
VERTEX
  8
1
  5
8C2
 10
68.1018
 20
216.526
 30
0.000000
  70
    32
  0
VERTEX
  8
1
  5
8C3
 10
68.0975
 20
216.503
 30
0.000000
  70
    32
  0
VERTEX
  8
1
  5
8C4
 10
68.0932
 20
216.479
 30
0.000000
  70
    32
  0
VERTEX
  8
1
  5
8C5
 10
68.0890
 20
216.456
 30
0.000000
  70
    32
  0
VERTEX
  8
1
  5
8C6
 10
68.0849
 20
216.433
 30
0.000000
  70
    32
  0
VERTEX
  8
1
  5
8C7
 10
68.0808
 20
216.409
 30
0.000000
  70
    32
  0
VERTEX
  8
1
  5
8C8
 10
68.0768
 20
216.386
 30
0.000000
  70
    32
  0
VERTEX
  8
1
  5
8C9
 10
68.0729
 20
216.363
 30
0.000000
  70
    32
  0
VERTEX
  8
1
  5
8CA
 10
68.0690
 20
216.339
 30
0.000000
  70
    32
  0
VERTEX
  8
1
  5
8CB
 10
68.0652
 20
216.316
 30
0.000000
  70
    32
  0
VERTEX
  8
1
  5
8CC
 10
68.0614
 20
216.292
 30
0.000000
  70
    32
  0
VERTEX
  8
1
  5
8CD
 10
68.0577
 20
216.269
 30
0.000000
  70
    32
  0
VERTEX
  8
1
  5
8CE
 10
68.0541
 20
216.245
 30
0.000000
  70
    32
  0
VERTEX
  8
1
  5
8CF
 10
68.0506
 20
216.222
 30
0.000000
  70
    32
  0
VERTEX
  8
1
  5
8D0
 10
68.0471
 20
216.198
 30
0.000000
  70
    32
  0
VERTEX
  8
1
  5
8D1
 10
68.0437
 20
216.175
 30
0.000000
  70
    32
  0
VERTEX
  8
1
  5
8D2
 10
68.0403
 20
216.151
 30
0.000000
  70
    32
  0
VERTEX
  8
1
  5
8D3
 10
68.0371
 20
216.128
 30
0.000000
  70
    32
  0
VERTEX
  8
1
  5
8D4
 10
68.0338
 20
216.104
 30
0.000000
  70
    32
  0
VERTEX
  8
1
  5
8D5
 10
68.0307
 20
216.080
 30
0.000000
  70
    32
  0
VERTEX
  8
1
  5
8D6
 10
68.0276
 20
216.057
 30
0.000000
  70
    32
  0
VERTEX
  8
1
  5
8D7
 10
68.0246
 20
216.033
 30
0.000000
  70
    32
  0
VERTEX
  8
1
  5
8D8
 10
68.0217
 20
216.009
 30
0.000000
  70
    32
  0
VERTEX
  8
1
  5
8D9
 10
68.0189
 20
215.985
 30
0.000000
  70
    32
  0
VERTEX
  8
1
  5
8DA
 10
68.0161
 20
215.962
 30
0.000000
  70
    32
  0
VERTEX
  8
1
  5
8DB
 10
68.0134
 20
215.938
 30
0.000000
  70
    32
  0
VERTEX
  8
1
  5
8DC
 10
68.0107
 20
215.914
 30
0.000000
  70
    32
  0
VERTEX
  8
1
  5
8DD
 10
68.0081
 20
215.890
 30
0.000000
  70
    32
  0
VERTEX
  8
1
  5
8DE
 10
68.0056
 20
215.867
 30
0.000000
  70
    32
  0
VERTEX
  8
1
  5
8DF
 10
68.0032
 20
215.843
 30
0.000000
  70
    32
  0
VERTEX
  8
1
  5
8E0
 10
68.0009
 20
215.819
 30
0.000000
  70
    32
  0
VERTEX
  8
1
  5
8E1
 10
67.9986
 20
215.795
 30
0.000000
  70
    32
  0
VERTEX
  8
1
  5
8E2
 10
67.9964
 20
215.771
 30
0.000000
  70
    32
  0
VERTEX
  8
1
  5
8E3
 10
67.9943
 20
215.747
 30
0.000000
  70
    32
  0
VERTEX
  8
1
  5
8E4
 10
67.9922
 20
215.723
 30
0.000000
  70
    32
  0
VERTEX
  8
1
  5
8E5
 10
67.9902
 20
215.700
 30
0.000000
  70
    32
  0
VERTEX
  8
1
  5
8E6
 10
67.9883
 20
215.676
 30
0.000000
  70
    32
  0
VERTEX
  8
1
  5
8E7
 10
67.9865
 20
215.652
 30
0.000000
  70
    32
  0
VERTEX
  8
1
  5
8E8
 10
67.9848
 20
215.628
 30
0.000000
  70
    32
  0
VERTEX
  8
1
  5
8E9
 10
67.9831
 20
215.604
 30
0.000000
  70
    32
  0
VERTEX
  8
1
  5
8EA
 10
67.9815
 20
215.580
 30
0.000000
  70
    32
  0
VERTEX
  8
1
  5
8EB
 10
67.9800
 20
215.556
 30
0.000000
  70
    32
  0
VERTEX
  8
1
  5
8EC
 10
67.9786
 20
215.532
 30
0.000000
  70
    32
  0
VERTEX
  8
1
  5
8ED
 10
67.9772
 20
215.508
 30
0.000000
  70
    32
  0
VERTEX
  8
1
  5
8EE
 10
67.9760
 20
215.484
 30
0.000000
  70
    32
  0
VERTEX
  8
1
  5
8EF
 10
67.9748
 20
215.459
 30
0.000000
  70
    32
  0
VERTEX
  8
1
  5
8F0
 10
67.9737
 20
215.435
 30
0.000000
  70
    32
  0
VERTEX
  8
1
  5
8F1
 10
67.9726
 20
215.411
 30
0.000000
  70
    32
  0
VERTEX
  8
1
  5
8F2
 10
67.9717
 20
215.387
 30
0.000000
  70
    32
  0
VERTEX
  8
1
  5
8F3
 10
67.9708
 20
215.363
 30
0.000000
  70
    32
  0
VERTEX
  8
1
  5
8F4
 10
67.9700
 20
215.339
 30
0.000000
  70
    32
  0
VERTEX
  8
1
  5
8F5
 10
67.9693
 20
215.314
 30
0.000000
  70
    32
  0
VERTEX
  8
1
  5
8F6
 10
67.9687
 20
215.290
 30
0.000000
  70
    32
  0
VERTEX
  8
1
  5
8F7
 10
67.9682
 20
215.266
 30
0.000000
  70
    32
  0
VERTEX
  8
1
  5
8F8
 10
67.9677
 20
215.241
 30
0.000000
  70
    32
  0
VERTEX
  8
1
  5
8F9
 10
67.9673
 20
215.217
 30
0.000000
  70
    32
  0
VERTEX
  8
1
  5
8FA
 10
67.9670
 20
215.193
 30
0.000000
  70
    32
  0
VERTEX
  8
1
  5
8FB
 10
67.9668
 20
215.168
 30
0.000000
  70
    32
  0
VERTEX
  8
1
  5
8FC
 10
67.9667
 20
215.144
 30
0.000000
  70
    32
  0
VERTEX
  8
1
  5
8FD
 10
67.9667
 20
215.119
 30
0.000000
  70
    32
  0
VERTEX
  8
1
  5
8FE
 10
67.9667
 20
215.095
 30
0.000000
  70
    32
  0
VERTEX
  8
1
  5
8FF
 10
67.9669
 20
215.070
 30
0.000000
  70
    32
  0
VERTEX
  8
1
  5
900
 10
67.9671
 20
215.046
 30
0.000000
  70
    32
  0
VERTEX
  8
1
  5
901
 10
67.9674
 20
215.021
 30
0.000000
  70
    32
  0
VERTEX
  8
1
  5
902
 10
67.9678
 20
214.997
 30
0.000000
  70
    32
  0
VERTEX
  8
1
  5
903
 10
67.9683
 20
214.972
 30
0.000000
  70
    32
  0
VERTEX
  8
1
  5
904
 10
67.9689
 20
214.947
 30
0.000000
  70
    32
  0
VERTEX
  8
1
  5
905
 10
67.9696
 20
214.923
 30
0.000000
  70
    32
  0
VERTEX
  8
1
  5
906
 10
67.9704
 20
214.898
 30
0.000000
  70
    32
  0
VERTEX
  8
1
  5
907
 10
67.9712
 20
214.874
 30
0.000000
  70
    32
  0
VERTEX
  8
1
  5
908
 10
67.9722
 20
214.849
 30
0.000000
  70
    32
  0
VERTEX
  8
1
  5
909
 10
67.9732
 20
214.824
 30
0.000000
  70
    32
  0
VERTEX
  8
1
  5
90A
 10
67.9743
 20
214.800
 30
0.000000
  70
    32
  0
VERTEX
  8
1
  5
90B
 10
67.9755
 20
214.775
 30
0.000000
  70
    32
  0
VERTEX
  8
1
  5
90C
 10
67.9768
 20
214.750
 30
0.000000
  70
    32
  0
VERTEX
  8
1
  5
90D
 10
67.9782
 20
214.726
 30
0.000000
  70
    32
  0
VERTEX
  8
1
  5
90E
 10
67.9797
 20
214.701
 30
0.000000
  70
    32
  0
VERTEX
  8
1
  5
90F
 10
67.9812
 20
214.676
 30
0.000000
  70
    32
  0
VERTEX
  8
1
  5
910
 10
67.9829
 20
214.652
 30
0.000000
  70
    32
  0
VERTEX
  8
1
  5
911
 10
67.9846
 20
214.627
 30
0.000000
  70
    32
  0
VERTEX
  8
1
  5
912
 10
67.9864
 20
214.602
 30
0.000000
  70
    32
  0
VERTEX
  8
1
  5
913
 10
67.9884
 20
214.578
 30
0.000000
  70
    32
  0
VERTEX
  8
1
  5
914
 10
67.9904
 20
214.553
 30
0.000000
  70
    32
  0
VERTEX
  8
1
  5
915
 10
67.9925
 20
214.529
 30
0.000000
  70
    32
  0
VERTEX
  8
1
  5
916
 10
67.9947
 20
214.504
 30
0.000000
  70
    32
  0
VERTEX
  8
1
  5
917
 10
67.9969
 20
214.480
 30
0.000000
  70
    32
  0
VERTEX
  8
1
  5
918
 10
67.9993
 20
214.455
 30
0.000000
  70
    32
  0
VERTEX
  8
1
  5
919
 10
68.0018
 20
214.431
 30
0.000000
  70
    32
  0
VERTEX
  8
1
  5
91A
 10
68.0043
 20
214.406
 30
0.000000
  70
    32
  0
VERTEX
  8
1
  5
91B
 10
68.0069
 20
214.382
 30
0.000000
  70
    32
  0
VERTEX
  8
1
  5
91C
 10
68.0097
 20
214.358
 30
0.000000
  70
    32
  0
VERTEX
  8
1
  5
91D
 10
68.0125
 20
214.333
 30
0.000000
  70
    32
  0
VERTEX
  8
1
  5
91E
 10
68.0154
 20
214.309
 30
0.000000
  70
    32
  0
VERTEX
  8
1
  5
91F
 10
68.0184
 20
214.285
 30
0.000000
  70
    32
  0
VERTEX
  8
1
  5
920
 10
68.0214
 20
214.261
 30
0.000000
  70
    32
  0
VERTEX
  8
1
  5
921
 10
68.0246
 20
214.236
 30
0.000000
  70
    32
  0
VERTEX
  8
1
  5
922
 10
68.0278
 20
214.212
 30
0.000000
  70
    32
  0
VERTEX
  8
1
  5
923
 10
68.0312
 20
214.188
 30
0.000000
  70
    32
  0
VERTEX
  8
1
  5
924
 10
68.0346
 20
214.164
 30
0.000000
  70
    32
  0
VERTEX
  8
1
  5
925
 10
68.0380
 20
214.139
 30
0.000000
  70
    32
  0
VERTEX
  8
1
  5
926
 10
68.0416
 20
214.115
 30
0.000000
  70
    32
  0
VERTEX
  8
1
  5
927
 10
68.0452
 20
214.091
 30
0.000000
  70
    32
  0
VERTEX
  8
1
  5
928
 10
68.0490
 20
214.067
 30
0.000000
  70
    32
  0
VERTEX
  8
1
  5
929
 10
68.0527
 20
214.043
 30
0.000000
  70
    32
  0
VERTEX
  8
1
  5
92A
 10
68.0566
 20
214.019
 30
0.000000
  70
    32
  0
VERTEX
  8
1
  5
92B
 10
68.0605
 20
213.995
 30
0.000000
  70
    32
  0
VERTEX
  8
1
  5
92C
 10
68.0646
 20
213.971
 30
0.000000
  70
    32
  0
VERTEX
  8
1
  5
92D
 10
68.0686
 20
213.947
 30
0.000000
  70
    32
  0
VERTEX
  8
1
  5
92E
 10
68.0728
 20
213.923
 30
0.000000
  70
    32
  0
VERTEX
  8
1
  5
92F
 10
68.0770
 20
213.899
 30
0.000000
  70
    32
  0
VERTEX
  8
1
  5
930
 10
68.0813
 20
213.875
 30
0.000000
  70
    32
  0
VERTEX
  8
1
  5
931
 10
68.0856
 20
213.851
 30
0.000000
  70
    32
  0
VERTEX
  8
1
  5
932
 10
68.0901
 20
213.827
 30
0.000000
  70
    32
  0
VERTEX
  8
1
  5
933
 10
68.0945
 20
213.803
 30
0.000000
  70
    32
  0
VERTEX
  8
1
  5
934
 10
68.0991
 20
213.779
 30
0.000000
  70
    32
  0
VERTEX
  8
1
  5
935
 10
68.1037
 20
213.755
 30
0.000000
  70
    32
  0
VERTEX
  8
1
  5
936
 10
68.1084
 20
213.732
 30
0.000000
  70
    32
  0
VERTEX
  8
1
  5
937
 10
68.1131
 20
213.708
 30
0.000000
  70
    32
  0
VERTEX
  8
1
  5
938
 10
68.1179
 20
213.684
 30
0.000000
  70
    32
  0
VERTEX
  8
1
  5
939
 10
68.1227
 20
213.660
 30
0.000000
  70
    32
  0
VERTEX
  8
1
  5
93A
 10
68.1276
 20
213.637
 30
0.000000
  70
    32
  0
VERTEX
  8
1
  5
93B
 10
68.1325
 20
213.613
 30
0.000000
  70
    32
  0
VERTEX
  8
1
  5
93C
 10
68.1375
 20
213.589
 30
0.000000
  70
    32
  0
VERTEX
  8
1
  5
93D
 10
68.1426
 20
213.566
 30
0.000000
  70
    32
  0
VERTEX
  8
1
  5
93E
 10
68.1477
 20
213.542
 30
0.000000
  70
    32
  0
VERTEX
  8
1
  5
93F
 10
68.1529
 20
213.519
 30
0.000000
  70
    32
  0
VERTEX
  8
1
  5
940
 10
68.1581
 20
213.495
 30
0.000000
  70
    32
  0
VERTEX
  8
1
  5
941
 10
68.1633
 20
213.472
 30
0.000000
  70
    32
  0
VERTEX
  8
1
  5
942
 10
68.1686
 20
213.448
 30
0.000000
  70
    32
  0
VERTEX
  8
1
  5
943
 10
68.1740
 20
213.425
 30
0.000000
  70
    32
  0
VERTEX
  8
1
  5
944
 10
68.1794
 20
213.402
 30
0.000000
  70
    32
  0
VERTEX
  8
1
  5
945
 10
68.1848
 20
213.378
 30
0.000000
  70
    32
  0
VERTEX
  8
1
  5
946
 10
68.1903
 20
213.355
 30
0.000000
  70
    32
  0
VERTEX
  8
1
  5
947
 10
68.1958
 20
213.332
 30
0.000000
  70
    32
  0
VERTEX
  8
1
  5
948
 10
68.2014
 20
213.309
 30
0.000000
  70
    32
  0
VERTEX
  8
1
  5
949
 10
68.2070
 20
213.285
 30
0.000000
  70
    32
  0
VERTEX
  8
1
  5
94A
 10
68.2126
 20
213.262
 30
0.000000
  70
    32
  0
VERTEX
  8
1
  5
94B
 10
68.2183
 20
213.239
 30
0.000000
  70
    32
  0
VERTEX
  8
1
  5
94C
 10
68.2240
 20
213.216
 30
0.000000
  70
    32
  0
VERTEX
  8
1
  5
94D
 10
68.2297
 20
213.193
 30
0.000000
  70
    32
  0
VERTEX
  8
1
  5
94E
 10
68.2355
 20
213.170
 30
0.000000
  70
    32
  0
VERTEX
  8
1
  5
94F
 10
68.2413
 20
213.147
 30
0.000000
  70
    32
  0
VERTEX
  8
1
  5
950
 10
68.2472
 20
213.124
 30
0.000000
  70
    32
  0
VERTEX
  8
1
  5
951
 10
68.2530
 20
213.101
 30
0.000000
  70
    32
  0
VERTEX
  8
1
  5
952
 10
68.2589
 20
213.079
 30
0.000000
  70
    32
  0
VERTEX
  8
1
  5
953
 10
68.2649
 20
213.056
 30
0.000000
  70
    32
  0
VERTEX
  8
1
  5
954
 10
68.2708
 20
213.033
 30
0.000000
  70
    32
  0
VERTEX
  8
1
  5
955
 10
68.2768
 20
213.010
 30
0.000000
  70
    32
  0
VERTEX
  8
1
  5
956
 10
68.2828
 20
212.988
 30
0.000000
  70
    32
  0
VERTEX
  8
1
  5
957
 10
68.2888
 20
212.965
 30
0.000000
  70
    32
  0
VERTEX
  8
1
  5
958
 10
68.2949
 20
212.942
 30
0.000000
  70
    32
  0
VERTEX
  8
1
  5
959
 10
68.3009
 20
212.920
 30
0.000000
  70
    32
  0
VERTEX
  8
1
  5
95A
 10
68.3070
 20
212.897
 30
0.000000
  70
    32
  0
VERTEX
  8
1
  5
95B
 10
68.3131
 20
212.875
 30
0.000000
  70
    32
  0
VERTEX
  8
1
  5
95C
 10
68.3192
 20
212.853
 30
0.000000
  70
    32
  0
VERTEX
  8
1
  5
95D
 10
68.3254
 20
212.830
 30
0.000000
  70
    32
  0
VERTEX
  8
1
  5
95E
 10
68.3315
 20
212.808
 30
0.000000
  70
    32
  0
VERTEX
  8
1
  5
95F
 10
68.3377
 20
212.786
 30
0.000000
  70
    32
  0
VERTEX
  8
1
  5
960
 10
68.3439
 20
212.763
 30
0.000000
  70
    32
  0
VERTEX
  8
1
  5
961
 10
68.3501
 20
212.741
 30
0.000000
  70
    32
  0
VERTEX
  8
1
  5
962
 10
68.3563
 20
212.719
 30
0.000000
  70
    32
  0
VERTEX
  8
1
  5
963
 10
68.3626
 20
212.697
 30
0.000000
  70
    32
  0
VERTEX
  8
1
  5
964
 10
68.3688
 20
212.675
 30
0.000000
  70
    32
  0
VERTEX
  8
1
  5
965
 10
68.3751
 20
212.652
 30
0.000000
  70
    32
  0
VERTEX
  8
1
  5
966
 10
68.3814
 20
212.630
 30
0.000000
  70
    32
  0
VERTEX
  8
1
  5
967
 10
68.3876
 20
212.608
 30
0.000000
  70
    32
  0
VERTEX
  8
1
  5
968
 10
68.3939
 20
212.586
 30
0.000000
  70
    32
  0
VERTEX
  8
1
  5
969
 10
68.4002
 20
212.564
 30
0.000000
  70
    32
  0
VERTEX
  8
1
  5
96A
 10
68.4065
 20
212.542
 30
0.000000
  70
    32
  0
VERTEX
  8
1
  5
96B
 10
68.4129
 20
212.521
 30
0.000000
  70
    32
  0
VERTEX
  8
1
  5
96C
 10
68.4192
 20
212.499
 30
0.000000
  70
    32
  0
VERTEX
  8
1
  5
96D
 10
68.4255
 20
212.477
 30
0.000000
  70
    32
  0
VERTEX
  8
1
  5
96E
 10
68.4319
 20
212.455
 30
0.000000
  70
    32
  0
VERTEX
  8
1
  5
96F
 10
68.4382
 20
212.433
 30
0.000000
  70
    32
  0
VERTEX
  8
1
  5
970
 10
68.4445
 20
212.412
 30
0.000000
  70
    32
  0
VERTEX
  8
1
  5
971
 10
68.4509
 20
212.390
 30
0.000000
  70
    32
  0
VERTEX
  8
1
  5
972
 10
68.4572
 20
212.368
 30
0.000000
  70
    32
  0
VERTEX
  8
1
  5
973
 10
68.4636
 20
212.347
 30
0.000000
  70
    32
  0
VERTEX
  8
1
  5
974
 10
68.4699
 20
212.325
 30
0.000000
  70
    32
  0
VERTEX
  8
1
  5
975
 10
68.4762
 20
212.303
 30
0.000000
  70
    32
  0
VERTEX
  8
1
  5
976
 10
68.4826
 20
212.282
 30
0.000000
  70
    32
  0
VERTEX
  8
1
  5
977
 10
68.4889
 20
212.260
 30
0.000000
  70
    32
  0
VERTEX
  8
1
  5
978
 10
68.4953
 20
212.239
 30
0.000000
  70
    32
  0
VERTEX
  8
1
  5
979
 10
68.5016
 20
212.218
 30
0.000000
  70
    32
  0
VERTEX
  8
1
  5
97A
 10
68.5079
 20
212.196
 30
0.000000
  70
    32
  0
VERTEX
  8
1
  5
97B
 10
68.5142
 20
212.175
 30
0.000000
  70
    32
  0
VERTEX
  8
1
  5
97C
 10
68.5205
 20
212.154
 30
0.000000
  70
    32
  0
VERTEX
  8
1
  5
97D
 10
68.5268
 20
212.132
 30
0.000000
  70
    32
  0
VERTEX
  8
1
  5
97E
 10
68.5331
 20
212.111
 30
0.000000
  70
    32
  0
VERTEX
  8
1
  5
97F
 10
68.5394
 20
212.090
 30
0.000000
  70
    32
  0
VERTEX
  8
1
  5
980
 10
68.5457
 20
212.069
 30
0.000000
  70
    32
  0
VERTEX
  8
1
  5
981
 10
68.5520
 20
212.048
 30
0.000000
  70
    32
  0
VERTEX
  8
1
  5
982
 10
68.5582
 20
212.027
 30
0.000000
  70
    32
  0
VERTEX
  8
1
  5
983
 10
68.5645
 20
212.005
 30
0.000000
  70
    32
  0
VERTEX
  8
1
  5
984
 10
68.5707
 20
211.984
 30
0.000000
  70
    32
  0
VERTEX
  8
1
  5
985
 10
68.5769
 20
211.963
 30
0.000000
  70
    32
  0
VERTEX
  8
1
  5
986
 10
68.5831
 20
211.943
 30
0.000000
  70
    32
  0
VERTEX
  8
1
  5
987
 10
68.5893
 20
211.922
 30
0.000000
  70
    32
  0
VERTEX
  8
1
  5
988
 10
68.5954
 20
211.901
 30
0.000000
  70
    32
  0
VERTEX
  8
1
  5
989
 10
68.6016
 20
211.880
 30
0.000000
  70
    32
  0
VERTEX
  8
1
  5
98A
 10
68.6077
 20
211.859
 30
0.000000
  70
    32
  0
VERTEX
  8
1
  5
98B
 10
68.6138
 20
211.838
 30
0.000000
  70
    32
  0
VERTEX
  8
1
  5
98C
 10
68.6199
 20
211.818
 30
0.000000
  70
    32
  0
VERTEX
  8
1
  5
98D
 10
68.6260
 20
211.797
 30
0.000000
  70
    32
  0
VERTEX
  8
1
  5
98E
 10
68.6320
 20
211.776
 30
0.000000
  70
    32
  0
VERTEX
  8
1
  5
98F
 10
68.6380
 20
211.756
 30
0.000000
  70
    32
  0
VERTEX
  8
1
  5
990
 10
68.6440
 20
211.735
 30
0.000000
  70
    32
  0
VERTEX
  8
1
  5
991
 10
68.6500
 20
211.715
 30
0.000000
  70
    32
  0
VERTEX
  8
1
  5
992
 10
68.6560
 20
211.694
 30
0.000000
  70
    32
  0
VERTEX
  8
1
  5
993
 10
68.6619
 20
211.674
 30
0.000000
  70
    32
  0
VERTEX
  8
1
  5
994
 10
68.6678
 20
211.653
 30
0.000000
  70
    32
  0
VERTEX
  8
1
  5
995
 10
68.6737
 20
211.633
 30
0.000000
  70
    32
  0
VERTEX
  8
1
  5
996
 10
68.6795
 20
211.612
 30
0.000000
  70
    32
  0
VERTEX
  8
1
  5
997
 10
68.6853
 20
211.592
 30
0.000000
  70
    32
  0
VERTEX
  8
1
  5
998
 10
68.6911
 20
211.572
 30
0.000000
  70
    32
  0
VERTEX
  8
1
  5
999
 10
68.6968
 20
211.552
 30
0.000000
  70
    32
  0
VERTEX
  8
1
  5
99A
 10
68.7026
 20
211.531
 30
0.000000
  70
    32
  0
VERTEX
  8
1
  5
99B
 10
68.7083
 20
211.511
 30
0.000000
  70
    32
  0
VERTEX
  8
1
  5
99C
 10
68.7139
 20
211.491
 30
0.000000
  70
    32
  0
VERTEX
  8
1
  5
99D
 10
68.7195
 20
211.471
 30
0.000000
  70
    32
  0
VERTEX
  8
1
  5
99E
 10
68.7251
 20
211.451
 30
0.000000
  70
    32
  0
VERTEX
  8
1
  5
99F
 10
68.7307
 20
211.431
 30
0.000000
  70
    32
  0
VERTEX
  8
1
  5
9A0
 10
68.7362
 20
211.411
 30
0.000000
  70
    32
  0
VERTEX
  8
1
  5
9A1
 10
68.7416
 20
211.391
 30
0.000000
  70
    32
  0
VERTEX
  8
1
  5
9A2
 10
68.7471
 20
211.371
 30
0.000000
  70
    32
  0
VERTEX
  8
1
  5
9A3
 10
68.7525
 20
211.351
 30
0.000000
  70
    32
  0
VERTEX
  8
1
  5
9A4
 10
68.7578
 20
211.332
 30
0.000000
  70
    32
  0
VERTEX
  8
1
  5
9A5
 10
68.7631
 20
211.312
 30
0.000000
  70
    32
  0
VERTEX
  8
1
  5
9A6
 10
68.7684
 20
211.292
 30
0.000000
  70
    32
  0
VERTEX
  8
1
  5
9A7
 10
68.7737
 20
211.273
 30
0.000000
  70
    32
  0
VERTEX
  8
1
  5
9A8
 10
68.7789
 20
211.253
 30
0.000000
  70
    32
  0
VERTEX
  8
1
  5
9A9
 10
68.7840
 20
211.233
 30
0.000000
  70
    32
  0
VERTEX
  8
1
  5
9AA
 10
68.7891
 20
211.214
 30
0.000000
  70
    32
  0
VERTEX
  8
1
  5
9AB
 10
68.7942
 20
211.194
 30
0.000000
  70
    32
  0
VERTEX
  8
1
  5
9AC
 10
68.7992
 20
211.175
 30
0.000000
  70
    32
  0
VERTEX
  8
1
  5
9AD
 10
68.8042
 20
211.155
 30
0.000000
  70
    32
  0
VERTEX
  8
1
  5
9AE
 10
68.8092
 20
211.136
 30
0.000000
  70
    32
  0
VERTEX
  8
1
  5
9AF
 10
68.8141
 20
211.117
 30
0.000000
  70
    32
  0
VERTEX
  8
1
  5
9B0
 10
68.8189
 20
211.097
 30
0.000000
  70
    32
  0
VERTEX
  8
1
  5
9B1
 10
68.8237
 20
211.078
 30
0.000000
  70
    32
  0
VERTEX
  8
1
  5
9B2
 10
68.8285
 20
211.059
 30
0.000000
  70
    32
  0
VERTEX
  8
1
  5
9B3
 10
68.8332
 20
211.040
 30
0.000000
  70
    32
  0
VERTEX
  8
1
  5
9B4
 10
68.8378
 20
211.021
 30
0.000000
  70
    32
  0
VERTEX
  8
1
  5
9B5
 10
68.8424
 20
211.002
 30
0.000000
  70
    32
  0
VERTEX
  8
1
  5
9B6
 10
68.8470
 20
210.982
 30
0.000000
  70
    32
  0
VERTEX
  8
1
  5
9B7
 10
68.8515
 20
210.964
 30
0.000000
  70
    32
  0
VERTEX
  8
1
  5
9B8
 10
68.8560
 20
210.945
 30
0.000000
  70
    32
  0
VERTEX
  8
1
  5
9B9
 10
68.8604
 20
210.926
 30
0.000000
  70
    32
  0
VERTEX
  8
1
  5
9BA
 10
68.8647
 20
210.907
 30
0.000000
  70
    32
  0
VERTEX
  8
1
  5
9BB
 10
68.8690
 20
210.888
 30
0.000000
  70
    32
  0
VERTEX
  8
1
  5
9BC
 10
68.8733
 20
210.869
 30
0.000000
  70
    32
  0
VERTEX
  8
1
  5
9BD
 10
68.8775
 20
210.851
 30
0.000000
  70
    32
  0
VERTEX
  8
1
  5
9BE
 10
68.8816
 20
210.832
 30
0.000000
  70
    32
  0
VERTEX
  8
1
  5
9BF
 10
68.8857
 20
210.813
 30
0.000000
  70
    32
  0
VERTEX
  8
1
  5
9C0
 10
68.8898
 20
210.795
 30
0.000000
  70
    32
  0
VERTEX
  8
1
  5
9C1
 10
68.8937
 20
210.776
 30
0.000000
  70
    32
  0
VERTEX
  8
1
  5
9C2
 10
68.8977
 20
210.758
 30
0.000000
  70
    32
  0
VERTEX
  8
1
  5
9C3
 10
68.9015
 20
210.739
 30
0.000000
  70
    32
  0
VERTEX
  8
1
  5
9C4
 10
68.9053
 20
210.721
 30
0.000000
  70
    32
  0
VERTEX
  8
1
  5
9C5
 10
68.9091
 20
210.703
 30
0.000000
  70
    32
  0
VERTEX
  8
1
  5
9C6
 10
68.9128
 20
210.685
 30
0.000000
  70
    32
  0
VERTEX
  8
1
  5
9C7
 10
68.9164
 20
210.666
 30
0.000000
  70
    32
  0
VERTEX
  8
1
  5
9C8
 10
68.9200
 20
210.648
 30
0.000000
  70
    32
  0
VERTEX
  8
1
  5
9C9
 10
68.9235
 20
210.630
 30
0.000000
  70
    32
  0
VERTEX
  8
1
  5
9CA
 10
68.9270
 20
210.612
 30
0.000000
  70
    32
  0
VERTEX
  8
1
  5
9CB
 10
68.9303
 20
210.594
 30
0.000000
  70
    32
  0
VERTEX
  8
1
  5
9CC
 10
68.9337
 20
210.576
 30
0.000000
  70
    32
  0
VERTEX
  8
1
  5
9CD
 10
68.9369
 20
210.558
 30
0.000000
  70
    32
  0
VERTEX
  8
1
  5
9CE
 10
68.9401
 20
210.540
 30
0.000000
  70
    32
  0
VERTEX
  8
1
  5
9CF
 10
68.9433
 20
210.523
 30
0.000000
  70
    32
  0
VERTEX
  8
1
  5
9D0
 10
68.9464
 20
210.505
 30
0.000000
  70
    32
  0
VERTEX
  8
1
  5
9D1
 10
68.9494
 20
210.487
 30
0.000000
  70
    32
  0
VERTEX
  8
1
  5
9D2
 10
68.9523
 20
210.470
 30
0.000000
  70
    32
  0
VERTEX
  8
1
  5
9D3
 10
68.9552
 20
210.452
 30
0.000000
  70
    32
  0
VERTEX
  8
1
  5
9D4
 10
68.9580
 20
210.434
 30
0.000000
  70
    32
  0
VERTEX
  8
1
  5
9D5
 10
68.9607
 20
210.417
 30
0.000000
  70
    32
  0
VERTEX
  8
1
  5
9D6
 10
68.9634
 20
210.400
 30
0.000000
  70
    32
  0
VERTEX
  8
1
  5
9D7
 10
68.9660
 20
210.382
 30
0.000000
  70
    32
  0
VERTEX
  8
1
  5
9D8
 10
68.9686
 20
210.365
 30
0.000000
  70
    32
  0
VERTEX
  8
1
  5
9D9
 10
68.9710
 20
210.348
 30
0.000000
  70
    32
  0
VERTEX
  8
1
  5
9DA
 10
68.9734
 20
210.330
 30
0.000000
  70
    32
  0
VERTEX
  8
1
  5
9DB
 10
68.9758
 20
210.313
 30
0.000000
  70
    32
  0
VERTEX
  8
1
  5
9DC
 10
68.9780
 20
210.296
 30
0.000000
  70
    32
  0
VERTEX
  8
1
  5
9DD
 10
68.9802
 20
210.279
 30
0.000000
  70
    32
  0
VERTEX
  8
1
  5
9DE
 10
68.9823
 20
210.262
 30
0.000000
  70
    32
  0
VERTEX
  8
1
  5
9DF
 10
68.9844
 20
210.246
 30
0.000000
  70
    32
  0
VERTEX
  8
1
  5
9E0
 10
68.9864
 20
210.229
 30
0.000000
  70
    32
  0
VERTEX
  8
1
  5
9E1
 10
68.9883
 20
210.212
 30
0.000000
  70
    32
  0
VERTEX
  8
1
  5
9E2
 10
68.9901
 20
210.196
 30
0.000000
  70
    32
  0
VERTEX
  8
1
  5
9E3
 10
68.9919
 20
210.179
 30
0.000000
  70
    32
  0
VERTEX
  8
1
  5
9E4
 10
68.9936
 20
210.163
 30
0.000000
  70
    32
  0
VERTEX
  8
1
  5
9E5
 10
68.9952
 20
210.146
 30
0.000000
  70
    32
  0
VERTEX
  8
1
  5
9E6
 10
68.9967
 20
210.130
 30
0.000000
  70
    32
  0
VERTEX
  8
1
  5
9E7
 10
68.9982
 20
210.114
 30
0.000000
  70
    32
  0
VERTEX
  8
1
  5
9E8
 10
68.9996
 20
210.098
 30
0.000000
  70
    32
  0
VERTEX
  8
1
  5
9E9
 10
69.0010
 20
210.082
 30
0.000000
  70
    32
  0
VERTEX
  8
1
  5
9EA
 10
69.0022
 20
210.065
 30
0.000000
  70
    32
  0
VERTEX
  8
1
  5
9EB
 10
69.0034
 20
210.050
 30
0.000000
  70
    32
  0
VERTEX
  8
1
  5
9EC
 10
69.0045
 20
210.034
 30
0.000000
  70
    32
  0
VERTEX
  8
1
  5
9ED
 10
69.0056
 20
210.018
 30
0.000000
  70
    32
  0
VERTEX
  8
1
  5
9EE
 10
69.0066
 20
210.002
 30
0.000000
  70
    32
  0
VERTEX
  8
1
  5
9EF
 10
69.0075
 20
209.986
 30
0.000000
  70
    32
  0
VERTEX
  8
1
  5
9F0
 10
69.0083
 20
209.971
 30
0.000000
  70
    32
  0
VERTEX
  8
1
  5
9F1
 10
69.0090
 20
209.955
 30
0.000000
  70
    32
  0
VERTEX
  8
1
  5
9F2
 10
69.0097
 20
209.939
 30
0.000000
  70
    32
  0
VERTEX
  8
1
  5
9F3
 10
69.0103
 20
209.924
 30
0.000000
  70
    32
  0
VERTEX
  8
1
  5
9F4
 10
69.0108
 20
209.909
 30
0.000000
  70
    32
  0
VERTEX
  8
1
  5
9F5
 10
69.0113
 20
209.893
 30
0.000000
  70
    32
  0
VERTEX
  8
1
  5
9F6
 10
69.0117
 20
209.878
 30
0.000000
  70
    32
  0
VERTEX
  8
1
  5
9F7
 10
69.0120
 20
209.862
 30
0.000000
  70
    32
  0
VERTEX
  8
1
  5
9F8
 10
69.0122
 20
209.847
 30
0.000000
  70
    32
  0
VERTEX
  8
1
  5
9F9
 10
69.0123
 20
209.832
 30
0.000000
  70
    32
  0
VERTEX
  8
1
  5
9FA
 10
69.0124
 20
209.817
 30
0.000000
  70
    32
  0
VERTEX
  8
1
  5
9FB
 10
69.0124
 20
209.802
 30
0.000000
  70
    32
  0
VERTEX
  8
1
  5
9FC
 10
69.0123
 20
209.786
 30
0.000000
  70
    32
  0
VERTEX
  8
1
  5
9FD
 10
69.0121
 20
209.771
 30
0.000000
  70
    32
  0
VERTEX
  8
1
  5
9FE
 10
69.0119
 20
209.756
 30
0.000000
  70
    32
  0
VERTEX
  8
1
  5
9FF
 10
69.0116
 20
209.741
 30
0.000000
  70
    32
  0
VERTEX
  8
1
  5
A00
 10
69.0112
 20
209.726
 30
0.000000
  70
    32
  0
VERTEX
  8
1
  5
A01
 10
69.0107
 20
209.711
 30
0.000000
  70
    32
  0
VERTEX
  8
1
  5
A02
 10
69.0102
 20
209.696
 30
0.000000
  70
    32
  0
VERTEX
  8
1
  5
A03
 10
69.0095
 20
209.681
 30
0.000000
  70
    32
  0
VERTEX
  8
1
  5
A04
 10
69.0088
 20
209.666
 30
0.000000
  70
    32
  0
VERTEX
  8
1
  5
A05
 10
69.0080
 20
209.652
 30
0.000000
  70
    32
  0
VERTEX
  8
1
  5
A06
 10
69.0072
 20
209.637
 30
0.000000
  70
    32
  0
VERTEX
  8
1
  5
A07
 10
69.0062
 20
209.622
 30
0.000000
  70
    32
  0
VERTEX
  8
1
  5
A08
 10
69.0052
 20
209.607
 30
0.000000
  70
    32
  0
VERTEX
  8
1
  5
A09
 10
69.0041
 20
209.592
 30
0.000000
  70
    32
  0
VERTEX
  8
1
  5
A0A
 10
69.0029
 20
209.577
 30
0.000000
  70
    32
  0
VERTEX
  8
1
  5
A0B
 10
69.0016
 20
209.563
 30
0.000000
  70
    32
  0
VERTEX
  8
1
  5
A0C
 10
69.0003
 20
209.548
 30
0.000000
  70
    32
  0
VERTEX
  8
1
  5
A0D
 10
68.9988
 20
209.533
 30
0.000000
  70
    32
  0
VERTEX
  8
1
  5
A0E
 10
68.9973
 20
209.518
 30
0.000000
  70
    32
  0
VERTEX
  8
1
  5
A0F
 10
68.9957
 20
209.504
 30
0.000000
  70
    32
  0
VERTEX
  8
1
  5
A10
 10
68.9940
 20
209.489
 30
0.000000
  70
    32
  0
VERTEX
  8
1
  5
A11
 10
68.9923
 20
209.474
 30
0.000000
  70
    32
  0
VERTEX
  8
1
  5
A12
 10
68.9904
 20
209.459
 30
0.000000
  70
    32
  0
VERTEX
  8
1
  5
A13
 10
68.9885
 20
209.445
 30
0.000000
  70
    32
  0
VERTEX
  8
1
  5
A14
 10
68.9865
 20
209.430
 30
0.000000
  70
    32
  0
VERTEX
  8
1
  5
A15
 10
68.9844
 20
209.415
 30
0.000000
  70
    32
  0
VERTEX
  8
1
  5
A16
 10
68.9822
 20
209.400
 30
0.000000
  70
    32
  0
VERTEX
  8
1
  5
A17
 10
68.9800
 20
209.385
 30
0.000000
  70
    32
  0
VERTEX
  8
1
  5
A18
 10
68.9776
 20
209.371
 30
0.000000
  70
    32
  0
VERTEX
  8
1
  5
A19
 10
68.9752
 20
209.356
 30
0.000000
  70
    32
  0
VERTEX
  8
1
  5
A1A
 10
68.9727
 20
209.341
 30
0.000000
  70
    32
  0
VERTEX
  8
1
  5
A1B
 10
68.9701
 20
209.326
 30
0.000000
  70
    32
  0
VERTEX
  8
1
  5
A1C
 10
68.9674
 20
209.311
 30
0.000000
  70
    32
  0
VERTEX
  8
1
  5
A1D
 10
68.9646
 20
209.296
 30
0.000000
  70
    32
  0
VERTEX
  8
1
  5
A1E
 10
68.9618
 20
209.282
 30
0.000000
  70
    32
  0
VERTEX
  8
1
  5
A1F
 10
68.9588
 20
209.267
 30
0.000000
  70
    32
  0
VERTEX
  8
1
  5
A20
 10
68.9558
 20
209.252
 30
0.000000
  70
    32
  0
VERTEX
  8
1
  5
A21
 10
68.9527
 20
209.237
 30
0.000000
  70
    32
  0
VERTEX
  8
1
  5
A22
 10
68.9495
 20
209.222
 30
0.000000
  70
    32
  0
VERTEX
  8
1
  5
A23
 10
68.9463
 20
209.207
 30
0.000000
  70
    32
  0
VERTEX
  8
1
  5
A24
 10
68.9429
 20
209.192
 30
0.000000
  70
    32
  0
VERTEX
  8
1
  5
A25
 10
68.9395
 20
209.177
 30
0.000000
  70
    32
  0
VERTEX
  8
1
  5
A26
 10
68.9360
 20
209.162
 30
0.000000
  70
    32
  0
VERTEX
  8
1
  5
A27
 10
68.9324
 20
209.147
 30
0.000000
  70
    32
  0
VERTEX
  8
1
  5
A28
 10
68.9287
 20
209.132
 30
0.000000
  70
    32
  0
VERTEX
  8
1
  5
A29
 10
68.9250
 20
209.117
 30
0.000000
  70
    32
  0
VERTEX
  8
1
  5
A2A
 10
68.9211
 20
209.102
 30
0.000000
  70
    32
  0
VERTEX
  8
1
  5
A2B
 10
68.9172
 20
209.086
 30
0.000000
  70
    32
  0
VERTEX
  8
1
  5
A2C
 10
68.9132
 20
209.071
 30
0.000000
  70
    32
  0
VERTEX
  8
1
  5
A2D
 10
68.9091
 20
209.056
 30
0.000000
  70
    32
  0
VERTEX
  8
1
  5
A2E
 10
68.9050
 20
209.041
 30
0.000000
  70
    32
  0
VERTEX
  8
1
  5
A2F
 10
68.9007
 20
209.026
 30
0.000000
  70
    32
  0
VERTEX
  8
1
  5
A30
 10
68.8964
 20
209.010
 30
0.000000
  70
    32
  0
VERTEX
  8
1
  5
A31
 10
68.8920
 20
208.995
 30
0.000000
  70
    32
  0
VERTEX
  8
1
  5
A32
 10
68.8875
 20
208.980
 30
0.000000
  70
    32
  0
VERTEX
  8
1
  5
A33
 10
68.8830
 20
208.965
 30
0.000000
  70
    32
  0
VERTEX
  8
1
  5
A34
 10
68.8783
 20
208.949
 30
0.000000
  70
    32
  0
VERTEX
  8
1
  5
A35
 10
68.8736
 20
208.934
 30
0.000000
  70
    32
  0
VERTEX
  8
1
  5
A36
 10
68.8688
 20
208.919
 30
0.000000
  70
    32
  0
VERTEX
  8
1
  5
A37
 10
68.8639
 20
208.903
 30
0.000000
  70
    32
  0
VERTEX
  8
1
  5
A38
 10
68.8590
 20
208.888
 30
0.000000
  70
    32
  0
VERTEX
  8
1
  5
A39
 10
68.8539
 20
208.872
 30
0.000000
  70
    32
  0
VERTEX
  8
1
  5
A3A
 10
68.8488
 20
208.857
 30
0.000000
  70
    32
  0
VERTEX
  8
1
  5
A3B
 10
68.8436
 20
208.842
 30
0.000000
  70
    32
  0
VERTEX
  8
1
  5
A3C
 10
68.8383
 20
208.826
 30
0.000000
  70
    32
  0
VERTEX
  8
1
  5
A3D
 10
68.8329
 20
208.811
 30
0.000000
  70
    32
  0
VERTEX
  8
1
  5
A3E
 10
68.8275
 20
208.795
 30
0.000000
  70
    32
  0
VERTEX
  8
1
  5
A3F
 10
68.8220
 20
208.779
 30
0.000000
  70
    32
  0
VERTEX
  8
1
  5
A40
 10
68.8164
 20
208.764
 30
0.000000
  70
    32
  0
VERTEX
  8
1
  5
A41
 10
68.8107
 20
208.748
 30
0.000000
  70
    32
  0
VERTEX
  8
1
  5
A42
 10
68.8049
 20
208.733
 30
0.000000
  70
    32
  0
VERTEX
  8
1
  5
A43
 10
68.7991
 20
208.717
 30
0.000000
  70
    32
  0
VERTEX
  8
1
  5
A44
 10
68.7932
 20
208.701
 30
0.000000
  70
    32
  0
VERTEX
  8
1
  5
A45
 10
68.7872
 20
208.685
 30
0.000000
  70
    32
  0
VERTEX
  8
1
  5
A46
 10
68.7811
 20
208.670
 30
0.000000
  70
    32
  0
VERTEX
  8
1
  5
A47
 10
68.7750
 20
208.654
 30
0.000000
  70
    32
  0
VERTEX
  8
1
  5
A48
 10
68.7687
 20
208.638
 30
0.000000
  70
    32
  0
VERTEX
  8
1
  5
A49
 10
68.7624
 20
208.622
 30
0.000000
  70
    32
  0
VERTEX
  8
1
  5
A4A
 10
68.7561
 20
208.607
 30
0.000000
  70
    32
  0
VERTEX
  8
1
  5
A4B
 10
68.7496
 20
208.591
 30
0.000000
  70
    32
  0
VERTEX
  8
1
  5
A4C
 10
68.7431
 20
208.575
 30
0.000000
  70
    32
  0
VERTEX
  8
1
  5
A4D
 10
68.7364
 20
208.559
 30
0.000000
  70
    32
  0
VERTEX
  8
1
  5
A4E
 10
68.7297
 20
208.543
 30
0.000000
  70
    32
  0
VERTEX
  8
1
  5
A4F
 10
68.7230
 20
208.527
 30
0.000000
  70
    32
  0
VERTEX
  8
1
  5
A50
 10
68.7161
 20
208.511
 30
0.000000
  70
    32
  0
VERTEX
  8
1
  5
A51
 10
68.7092
 20
208.495
 30
0.000000
  70
    32
  0
VERTEX
  8
1
  5
A52
 10
68.7022
 20
208.479
 30
0.000000
  70
    32
  0
VERTEX
  8
1
  5
A53
 10
68.6951
 20
208.463
 30
0.000000
  70
    32
  0
VERTEX
  8
1
  5
A54
 10
68.6879
 20
208.447
 30
0.000000
  70
    32
  0
VERTEX
  8
1
  5
A55
 10
68.6807
 20
208.431
 30
0.000000
  70
    32
  0
VERTEX
  8
1
  5
A56
 10
68.6734
 20
208.414
 30
0.000000
  70
    32
  0
VERTEX
  8
1
  5
A57
 10
68.6660
 20
208.398
 30
0.000000
  70
    32
  0
VERTEX
  8
1
  5
A58
 10
68.6585
 20
208.382
 30
0.000000
  70
    32
  0
VERTEX
  8
1
  5
A59
 10
68.6510
 20
208.366
 30
0.000000
  70
    32
  0
VERTEX
  8
1
  5
A5A
 10
68.6434
 20
208.349
 30
0.000000
  70
    32
  0
VERTEX
  8
1
  5
A5B
 10
68.6357
 20
208.333
 30
0.000000
  70
    32
  0
VERTEX
  8
1
  5
A5C
 10
68.6279
 20
208.317
 30
0.000000
  70
    32
  0
VERTEX
  8
1
  5
A5D
 10
68.6201
 20
208.300
 30
0.000000
  70
    32
  0
VERTEX
  8
1
  5
A5E
 10
68.6121
 20
208.284
 30
0.000000
  70
    32
  0
VERTEX
  8
1
  5
A5F
 10
68.6041
 20
208.268
 30
0.000000
  70
    32
  0
VERTEX
  8
1
  5
A60
 10
68.5961
 20
208.251
 30
0.000000
  70
    32
  0
VERTEX
  8
1
  5
A61
 10
68.5879
 20
208.235
 30
0.000000
  70
    32
  0
VERTEX
  8
1
  5
A62
 10
68.5797
 20
208.218
 30
0.000000
  70
    32
  0
VERTEX
  8
1
  5
A63
 10
68.5714
 20
208.202
 30
0.000000
  70
    32
  0
VERTEX
  8
1
  5
A64
 10
68.5631
 20
208.185
 30
0.000000
  70
    32
  0
VERTEX
  8
1
  5
A65
 10
68.5547
 20
208.169
 30
0.000000
  70
    32
  0
VERTEX
  8
1
  5
A66
 10
68.5462
 20
208.152
 30
0.000000
  70
    32
  0
VERTEX
  8
1
  5
A67
 10
68.5376
 20
208.136
 30
0.000000
  70
    32
  0
VERTEX
  8
1
  5
A68
 10
68.5290
 20
208.119
 30
0.000000
  70
    32
  0
VERTEX
  8
1
  5
A69
 10
68.5203
 20
208.102
 30
0.000000
  70
    32
  0
VERTEX
  8
1
  5
A6A
 10
68.5115
 20
208.086
 30
0.000000
  70
    32
  0
VERTEX
  8
1
  5
A6B
 10
68.5026
 20
208.069
 30
0.000000
  70
    32
  0
VERTEX
  8
1
  5
A6C
 10
68.4937
 20
208.052
 30
0.000000
  70
    32
  0
VERTEX
  8
1
  5
A6D
 10
68.4848
 20
208.036
 30
0.000000
  70
    32
  0
VERTEX
  8
1
  5
A6E
 10
68.4757
 20
208.019
 30
0.000000
  70
    32
  0
VERTEX
  8
1
  5
A6F
 10
68.4666
 20
208.002
 30
0.000000
  70
    32
  0
VERTEX
  8
1
  5
A70
 10
68.4574
 20
207.985
 30
0.000000
  70
    32
  0
VERTEX
  8
1
  5
A71
 10
68.4482
 20
207.968
 30
0.000000
  70
    32
  0
VERTEX
  8
1
  5
A72
 10
68.4389
 20
207.952
 30
0.000000
  70
    32
  0
VERTEX
  8
1
  5
A73
 10
68.4295
 20
207.935
 30
0.000000
  70
    32
  0
VERTEX
  8
1
  5
A74
 10
68.4201
 20
207.918
 30
0.000000
  70
    32
  0
VERTEX
  8
1
  5
A75
 10
68.4106
 20
207.901
 30
0.000000
  70
    32
  0
VERTEX
  8
1
  5
A76
 10
68.4010
 20
207.884
 30
0.000000
  70
    32
  0
VERTEX
  8
1
  5
A77
 10
68.3914
 20
207.867
 30
0.000000
  70
    32
  0
VERTEX
  8
1
  5
A78
 10
68.3817
 20
207.850
 30
0.000000
  70
    32
  0
VERTEX
  8
1
  5
A79
 10
68.3719
 20
207.833
 30
0.000000
  70
    32
  0
VERTEX
  8
1
  5
A7A
 10
68.3621
 20
207.816
 30
0.000000
  70
    32
  0
VERTEX
  8
1
  5
A7B
 10
68.3522
 20
207.799
 30
0.000000
  70
    32
  0
VERTEX
  8
1
  5
A7C
 10
68.3423
 20
207.782
 30
0.000000
  70
    32
  0
VERTEX
  8
1
  5
A7D
 10
68.3323
 20
207.765
 30
0.000000
  70
    32
  0
VERTEX
  8
1
  5
A7E
 10
68.3222
 20
207.748
 30
0.000000
  70
    32
  0
VERTEX
  8
1
  5
A7F
 10
68.3121
 20
207.731
 30
0.000000
  70
    32
  0
VERTEX
  8
1
  5
A80
 10
68.3020
 20
207.714
 30
0.000000
  70
    32
  0
VERTEX
  8
1
  5
A81
 10
68.2917
 20
207.697
 30
0.000000
  70
    32
  0
VERTEX
  8
1
  5
A82
 10
68.2814
 20
207.680
 30
0.000000
  70
    32
  0
VERTEX
  8
1
  5
A83
 10
68.2711
 20
207.663
 30
0.000000
  70
    32
  0
VERTEX
  8
1
  5
A84
 10
68.2607
 20
207.645
 30
0.000000
  70
    32
  0
VERTEX
  8
1
  5
A85
 10
68.2502
 20
207.628
 30
0.000000
  70
    32
  0
VERTEX
  8
1
  5
A86
 10
68.2397
 20
207.611
 30
0.000000
  70
    32
  0
VERTEX
  8
1
  5
A87
 10
68.2291
 20
207.594
 30
0.000000
  70
    32
  0
VERTEX
  8
1
  5
A88
 10
68.2185
 20
207.576
 30
0.000000
  70
    32
  0
VERTEX
  8
1
  5
A89
 10
68.2078
 20
207.559
 30
0.000000
  70
    32
  0
VERTEX
  8
1
  5
A8A
 10
68.1971
 20
207.542
 30
0.000000
  70
    32
  0
VERTEX
  8
1
  5
A8B
 10
68.1863
 20
207.525
 30
0.000000
  70
    32
  0
VERTEX
  8
1
  5
A8C
 10
68.1754
 20
207.507
 30
0.000000
  70
    32
  0
VERTEX
  8
1
  5
A8D
 10
68.1645
 20
207.490
 30
0.000000
  70
    32
  0
VERTEX
  8
1
  5
A8E
 10
68.1535
 20
207.473
 30
0.000000
  70
    32
  0
VERTEX
  8
1
  5
A8F
 10
68.1425
 20
207.455
 30
0.000000
  70
    32
  0
VERTEX
  8
1
  5
A90
 10
68.1315
 20
207.438
 30
0.000000
  70
    32
  0
VERTEX
  8
1
  5
A91
 10
68.1204
 20
207.420
 30
0.000000
  70
    32
  0
VERTEX
  8
1
  5
A92
 10
68.1092
 20
207.403
 30
0.000000
  70
    32
  0
VERTEX
  8
1
  5
A93
 10
68.0980
 20
207.386
 30
0.000000
  70
    32
  0
VERTEX
  8
1
  5
A94
 10
68.0867
 20
207.368
 30
0.000000
  70
    32
  0
VERTEX
  8
1
  5
A95
 10
68.0754
 20
207.351
 30
0.000000
  70
    32
  0
VERTEX
  8
1
  5
A96
 10
68.0640
 20
207.333
 30
0.000000
  70
    32
  0
VERTEX
  8
1
  5
A97
 10
68.0526
 20
207.316
 30
0.000000
  70
    32
  0
VERTEX
  8
1
  5
A98
 10
68.0412
 20
207.298
 30
0.000000
  70
    32
  0
VERTEX
  8
1
  5
A99
 10
68.0297
 20
207.281
 30
0.000000
  70
    32
  0
VERTEX
  8
1
  5
A9A
 10
68.0181
 20
207.263
 30
0.000000
  70
    32
  0
VERTEX
  8
1
  5
A9B
 10
68.0065
 20
207.245
 30
0.000000
  70
    32
  0
VERTEX
  8
1
  5
A9C
 10
67.9949
 20
207.228
 30
0.000000
  70
    32
  0
VERTEX
  8
1
  5
A9D
 10
67.9832
 20
207.210
 30
0.000000
  70
    32
  0
VERTEX
  8
1
  5
A9E
 10
67.9714
 20
207.193
 30
0.000000
  70
    32
  0
VERTEX
  8
1
  5
A9F
 10
67.9596
 20
207.175
 30
0.000000
  70
    32
  0
VERTEX
  8
1
  5
AA0
 10
67.9478
 20
207.157
 30
0.000000
  70
    32
  0
VERTEX
  8
1
  5
AA1
 10
67.9359
 20
207.140
 30
0.000000
  70
    32
  0
VERTEX
  8
1
  5
AA2
 10
67.9240
 20
207.122
 30
0.000000
  70
    32
  0
VERTEX
  8
1
  5
AA3
 10
67.9120
 20
207.104
 30
0.000000
  70
    32
  0
VERTEX
  8
1
  5
AA4
 10
67.9000
 20
207.087
 30
0.000000
  70
    32
  0
VERTEX
  8
1
  5
AA5
 10
67.8880
 20
207.069
 30
0.000000
  70
    32
  0
VERTEX
  8
1
  5
AA6
 10
67.8759
 20
207.051
 30
0.000000
  70
    32
  0
VERTEX
  8
1
  5
AA7
 10
67.8638
 20
207.033
 30
0.000000
  70
    32
  0
VERTEX
  8
1
  5
AA8
 10
67.8516
 20
207.016
 30
0.000000
  70
    32
  0
VERTEX
  8
1
  5
AA9
 10
67.8394
 20
206.998
 30
0.000000
  70
    32
  0
VERTEX
  8
1
  5
AAA
 10
67.8272
 20
206.980
 30
0.000000
  70
    32
  0
VERTEX
  8
1
  5
AAB
 10
67.8149
 20
206.962
 30
0.000000
  70
    32
  0
VERTEX
  8
1
  5
AAC
 10
67.8026
 20
206.944
 30
0.000000
  70
    32
  0
VERTEX
  8
1
  5
AAD
 10
67.7902
 20
206.926
 30
0.000000
  70
    32
  0
VERTEX
  8
1
  5
AAE
 10
67.7778
 20
206.908
 30
0.000000
  70
    32
  0
VERTEX
  8
1
  5
AAF
 10
67.7654
 20
206.891
 30
0.000000
  70
    32
  0
VERTEX
  8
1
  5
AB0
 10
67.7529
 20
206.873
 30
0.000000
  70
    32
  0
VERTEX
  8
1
  5
AB1
 10
67.7404
 20
206.855
 30
0.000000
  70
    32
  0
VERTEX
  8
1
  5
AB2
 10
67.7279
 20
206.837
 30
0.000000
  70
    32
  0
VERTEX
  8
1
  5
AB3
 10
67.7153
 20
206.819
 30
0.000000
  70
    32
  0
VERTEX
  8
1
  5
AB4
 10
67.7027
 20
206.801
 30
0.000000
  70
    32
  0
VERTEX
  8
1
  5
AB5
 10
67.6901
 20
206.783
 30
0.000000
  70
    32
  0
VERTEX
  8
1
  5
AB6
 10
67.6774
 20
206.765
 30
0.000000
  70
    32
  0
VERTEX
  8
1
  5
AB7
 10
67.6647
 20
206.747
 30
0.000000
  70
    32
  0
VERTEX
  8
1
  5
AB8
 10
67.6520
 20
206.729
 30
0.000000
  70
    32
  0
VERTEX
  8
1
  5
AB9
 10
67.6392
 20
206.711
 30
0.000000
  70
    32
  0
VERTEX
  8
1
  5
ABA
 10
67.6264
 20
206.693
 30
0.000000
  70
    32
  0
VERTEX
  8
1
  5
ABB
 10
67.6136
 20
206.675
 30
0.000000
  70
    32
  0
VERTEX
  8
1
  5
ABC
 10
67.6007
 20
206.656
 30
0.000000
  70
    32
  0
VERTEX
  8
1
  5
ABD
 10
67.5879
 20
206.638
 30
0.000000
  70
    32
  0
VERTEX
  8
1
  5
ABE
 10
67.5749
 20
206.620
 30
0.000000
  70
    32
  0
VERTEX
  8
1
  5
ABF
 10
67.5620
 20
206.602
 30
0.000000
  70
    32
  0
VERTEX
  8
1
  5
AC0
 10
67.5490
 20
206.584
 30
0.000000
  70
    32
  0
VERTEX
  8
1
  5
AC1
 10
67.5360
 20
206.566
 30
0.000000
  70
    32
  0
VERTEX
  8
1
  5
AC2
 10
67.5230
 20
206.548
 30
0.000000
  70
    32
  0
VERTEX
  8
1
  5
AC3
 10
67.5100
 20
206.529
 30
0.000000
  70
    32
  0
VERTEX
  8
1
  5
AC4
 10
67.4969
 20
206.511
 30
0.000000
  70
    32
  0
VERTEX
  8
1
  5
AC5
 10
67.4838
 20
206.493
 30
0.000000
  70
    32
  0
VERTEX
  8
1
  5
AC6
 10
67.4707
 20
206.475
 30
0.000000
  70
    32
  0
VERTEX
  8
1
  5
AC7
 10
67.4576
 20
206.456
 30
0.000000
  70
    32
  0
VERTEX
  8
1
  5
AC8
 10
67.4444
 20
206.438
 30
0.000000
  70
    32
  0
VERTEX
  8
1
  5
AC9
 10
67.4312
 20
206.420
 30
0.000000
  70
    32
  0
VERTEX
  8
1
  5
ACA
 10
67.4180
 20
206.401
 30
0.000000
  70
    32
  0
VERTEX
  8
1
  5
ACB
 10
67.4048
 20
206.383
 30
0.000000
  70
    32
  0
VERTEX
  8
1
  5
ACC
 10
67.3915
 20
206.365
 30
0.000000
  70
    32
  0
VERTEX
  8
1
  5
ACD
 10
67.3783
 20
206.346
 30
0.000000
  70
    32
  0
VERTEX
  8
1
  5
ACE
 10
67.3650
 20
206.328
 30
0.000000
  70
    32
  0
VERTEX
  8
1
  5
ACF
 10
67.3517
 20
206.309
 30
0.000000
  70
    32
  0
VERTEX
  8
1
  5
AD0
 10
67.3383
 20
206.291
 30
0.000000
  70
    32
  0
VERTEX
  8
1
  5
AD1
 10
67.3250
 20
206.273
 30
0.000000
  70
    32
  0
VERTEX
  8
1
  5
AD2
 10
67.3116
 20
206.254
 30
0.000000
  70
    32
  0
VERTEX
  8
1
  5
AD3
 10
67.2982
 20
206.236
 30
0.000000
  70
    32
  0
VERTEX
  8
1
  5
AD4
 10
67.2849
 20
206.217
 30
0.000000
  70
    32
  0
VERTEX
  8
1
  5
AD5
 10
67.2714
 20
206.199
 30
0.000000
  70
    32
  0
VERTEX
  8
1
  5
AD6
 10
67.2580
 20
206.180
 30
0.000000
  70
    32
  0
VERTEX
  8
1
  5
AD7
 10
67.2446
 20
206.162
 30
0.000000
  70
    32
  0
VERTEX
  8
1
  5
AD8
 10
67.2311
 20
206.143
 30
0.000000
  70
    32
  0
VERTEX
  8
1
  5
AD9
 10
67.2176
 20
206.125
 30
0.000000
  70
    32
  0
VERTEX
  8
1
  5
ADA
 10
67.2042
 20
206.106
 30
0.000000
  70
    32
  0
VERTEX
  8
1
  5
ADB
 10
67.1907
 20
206.087
 30
0.000000
  70
    32
  0
SEQEND
  8
1
  5
ADC
  0
LINE
  5
2E
  8
CENTER
 10
138.5045013709825
 20
204.99999982287139
 30
0.0
 11
326.54841121705999
 21
204.99999982287139
 31
0.0
1001
ACAD
1000
ASC_BOUNDS
1002
{
1070
    19
1002
}
  0
LINE
  5
31
  8
CENTER
 10
64.499999789646949
 20
314.49999982287142
 30
0.0
 11
329.33719762528148
 21
314.49999982287142
 31
0.0
1001
ACAD
1000
ASC_BOUNDS
1002
{
1070
    19
1002
}
  0
LINE
  5
32
  8
1
 10
323.99999978964672
 20
245.49999982287139
 30
0.0
 11
283.99999978964689
 21
245.49999982287139
 31
0.0
  0
LINE
  5
33
  8
1
 10
323.99999978964672
 20
230.49999982287139
 30
0.0
 11
283.99999978964689
 21
230.49999982287139
 31
0.0
  0
CIRCLE
  5
34
  8
1
 10
307.99999978964689
 20
314.49999982287147
 30
0.0
 40
5.0
  0
CIRCLE
  5
35
  8
1
 10
307.99999978964689
 20
314.49999982287147
 30
0.0
 40
7.0
  0
LINE
  5
36
  8
1
 10
323.99999978964672
 20
344.49999982287142
 30
0.0
 11
283.99999978964689
 21
344.49999982287142
 31
0.0
  0
LINE
  5
37
  8
1
 10
323.99999978964672
 20
284.49999982287142
 30
0.0
 11
283.99999978964689
 21
284.49999982287142
 31
0.0
  0
LINE
  5
38
  8
1
  6
HIDDEN
 10
313.99999978964689
 20
336.99999982287142
 30
0.0
 11
292.5004997396569
 21
336.99999982287142
 31
0.0
  0
LINE
  5
3A
  8
1
  6
HIDDEN
 10
292.5004997396569
 20
291.99999982287159
 30
0.0
 11
313.99999978964689
 21
291.99999982287142
 31
0.0
  0
LINE
  5
3B
  8
1
 10
283.99999978964689
 20
229.49999982287139
 30
0.0
 11
313.99999978964689
 21
229.49999982287139
 31
0.0
1001
ACAD
1000
ASC_BOUNDS
1002
{
1070
    19
1002
}
  0
LINE
  5
3C
  8
1
 10
283.94028478993761
 20
180.49999982287139
 30
0.0
 11
313.99999978964689
 21
180.49999982287139
 31
0.0
1001
ACAD
1000
ASC_BOUNDS
1002
{
1070
    19
1002
}
  0
LINE
  5
3D
  8
1
 10
283.99999978964689
 20
291.99999982287142
 30
0.0
 11
283.99999978964689
 21
336.99999982287142
 31
0.0
  0
LINE
  5
3E
  8
1
 10
283.99999978964689
 20
291.99999982287142
 30
0.0
 11
283.99999978964689
 21
336.99999982287142
 31
0.0
  0
LINE
  5
3F
  8
1
 10
282.7999997896469
 20
323.28585698001712
 30
0.0
 11
282.7999997896469
 21
305.71414266572577
 31
0.0
  0
LINE
  5
40
  8
1
 10
283.99999978964689
 20
335.99999982287142
 30
0.0
 11
283.99999978964689
 21
292.99999982287142
 31
0.0
  0
LINE
  5
41
  8
1
 10
305.49999978964689
 20
313.0566241498974
 30
0.0
 11
307.99999978964689
 21
311.61324847692327
 31
0.0
  0
LINE
  5
42
  8
1
 10
307.99999978964689
 20
311.61324847692327
 30
0.0
 11
310.49999978964689
 21
313.0566241498974
 31
0.0
  0
CIRCLE
  5
43
  8
1
 10
307.99999978964689
 20
314.49999982287147
 30
0.0
 40
4.3071796769724484
  0
LINE
  5
44
  8
1
 10
283.99999978964689
 20
344.49999982287142
 30
0.0
 11
283.99999978964689
 21
284.49999982287147
 31
0.0
  0
LINE
  5
45
  8
1
 10
213.99999978964681
 20
284.49999982287193
 30
0.0
 11
213.99999978964689
 21
344.49999982287142
 31
0.0
  0
LINE
  5
46
  8
1
 10
143.99999978964681
 20
284.49999982287193
 30
0.0
 11
143.99999978964689
 21
344.49999982287147
 31
0.0
  0
LINE
  5
47
  8
1
 10
115.8999997896469
 20
304.46256987292901
 30
0.0
 11
115.8999997896469
 21
324.53742977281382
 31
0.0
  0
LINE
  5
48
  8
1
 10
107.8999997896469
 20
324.53742977281382
 30
0.0
 11
107.8999997896469
 21
304.46256987292901
 31
0.0
  0
ARC
  5
49
  8
1
 10
183.99999978964689
 20
314.4999998228713
 30
0.0
 40
28.5
 50
129.4724968964419
 51
230.52750310355799
  0
ARC
  5
4A
  8
1
 10
183.99999978964689
 20
314.4999998228713
 30
0.0
 40
28.5
 50
309.4724968964419
 51
50.527503103558011
  0
LINE
  5
4B
  8
1
 10
213.99999978964689
 20
336.99999982287142
 30
0.0
 11
213.99999978964689
 21
291.99999982287142
 31
0.0
  0
LINE
  5
4C
  8
1
 10
148.99999978964689
 20
336.99999982287142
 30
0.0
 11
148.99999978964689
 21
291.99999982287142
 31
0.0
1001
ACAD
1000
ASC_BOUNDS
1002
{
1070
    19
1002
}
  0
LINE
  5
4D
  8
1
 10
120.99999978964691
 20
326.99999982287142
 30
0.0
 11
120.99999978964691
 21
309.59999982287138
 31
0.0
  0
LINE
  5
4E
  8
1
 10
148.99999978964689
 20
324.49999982287142
 30
0.0
 11
148.99999978964689
 21
304.49999982287142
 31
0.0
  0
LINE
  5
4F
  8
1
 10
139.99999978964689
 20
327.49999982287147
 30
0.0
 11
139.99999978964689
 21
301.49999982287142
 31
0.0
  0
LINE
  5
50
  8
1
 10
135.99999978964701
 20
327.99999982287142
 30
0.0
 11
135.99999978964701
 21
300.99999982287142
 31
0.0
  0
LINE
  5
51
  8
1
 10
143.99999978964689
 20
332.47392974338641
 30
0.0
 11
143.99999978964689
 21
296.48889282394111
 31
0.0
  0
LINE
  5
52
  8
1
 10
277.49999978964689
 20
345.93794988769008
 30
0.0
 11
277.49999978964689
 21
282.99999982287142
 31
0.0
  0
LINE
  5
53
  8
1
 10
215.19999978964691
 20
323.28585698001712
 30
0.0
 11
215.1999997896468
 21
305.71414266572572
 31
0.0
  0
LINE
  5
54
  8
1
 10
262.49999978964689
 20
346.0379498876901
 30
0.0
 11
262.49999978964689
 21
282.99999982287142
 31
0.0
  0
LINE
  5
55
  8
1
 10
264.99999978964689
 20
341.79999982287148
 30
0.0
 11
264.99999978964689
 21
287.19999982296463
 31
0.0
  0
LINE
  5
56
  8
1
 10
267.49999978964689
 20
345.93794988769008
 30
0.0
 11
267.49999978964689
 21
282.99999982287142
 31
0.0
  0
LINE
  5
57
  8
1
 10
269.99999978964689
 20
341.79999982287148
 30
0.0
 11
269.99999978964689
 21
287.19999982296463
 31
0.0
  0
LINE
  5
58
  8
1
 10
272.49999978964689
 20
345.93794988769008
 30
0.0
 11
272.49999978964689
 21
282.99999982287142
 31
0.0
  0
LINE
  5
59
  8
1
 10
274.99999978964689
 20
341.79999982287148
 30
0.0
 11
274.99999978964689
 21
287.19999982296463
 31
0.0
  0
LINE
  5
5A
  8
1
 10
213.99999978964689
 20
335.99999982287142
 30
0.0
 11
213.99999978964689
 21
292.99999982287142
 31
0.0
  0
LINE
  5
5B
  8
1
 10
225.49999978964689
 20
345.99999982287142
 30
0.0
 11
225.49999978964689
 21
282.99999982287142
 31
0.0
  0
LINE
  5
5C
  8
1
 10
222.99999978964689
 20
341.79999982287148
 30
0.0
 11
222.99999978964689
 21
287.19999982296463
 31
0.0
  0
LINE
  5
5D
  8
1
 10
220.49999978964689
 20
345.93794988769008
 30
0.0
 11
220.49999978964689
 21
282.99999982287142
 31
0.0
  0
LINE
  5
5E
  8
CENTER
 62
     8
 10
65.272727062374202
 20
213.49999982287139
 30
0.0
 11
155.23722219252599
 21
213.49999982287139
 31
0.0
  0
LINE
  5
5F
  8
1
 10
115.8999997896469
 20
310.99999982287142
 30
0.0
 11
120.99999978964691
 21
310.99999982287142
 31
0.0
1001
ACAD
1000
ASC_BOUNDS
1002
{
1070
    19
1002
}
  0
ARC
  5
60
  8
1
 10
116.8999997896469
 20
306.49999982287142
 30
0.0
 40
1.0
 50
0.0
 51
180.0
  0
LINE
  5
61
  8
1
 10
115.8999997896469
 20
213.49999982287139
 30
0.0
 11
117.8999997896469
 21
213.49999982287139
 31
0.0
  0
LINE
  5
62
  8
1
 10
106.8999997896469
 20
213.49999982287139
 30
0.0
 11
117.8999997896469
 21
213.49999982287139
 31
0.0
  0
ARC
  5
63
  8
1
 10
116.8999997896469
 20
205.49999982287139
 30
0.0
 40
1.0
 50
0.0
 51
180.0
  0
CIRCLE
  5
64
  8
1
 10
111.8999997896469
 20
306.49999982287142
 30
0.0
 40
1.0
  0
LINE
  5
65
  8
1
 10
106.8999997896469
 20
310.99999982287142
 30
0.0
 11
107.8999997896469
 21
310.99999982287142
 31
0.0
  0
LINE
  5
66
  8
1
 10
115.8999997896469
 20
309.49999982287142
 30
0.0
 11
107.8999997896469
 21
309.49999982287142
 31
0.0
  0
LINE
  5
67
  8
1
 10
115.8999997896469
 20
304.46256987292901
 30
0.0
 11
107.8999997896469
 21
304.46256987292901
 31
0.0
  0
LINE
  5
68
  8
1
 10
115.8999997896469
 20
306.49999982287142
 30
0.0
 11
115.899999789647
 21
304.46256987292901
 31
0.0
  0
CIRCLE
  5
69
  8
1
 10
111.8999997896469
 20
306.49999982287142
 30
0.0
 40
1.75
  0
LINE
  5
6A
  8
1
 10
70.007710786863953
 20
310.99999982287142
 30
0.0
 11
107.8999997896469
 21
310.99999982287142
 31
0.0
1001
ACAD
1000
ASC_BOUNDS
1002
{
1070
    19
1002
}
  0
LINE
  5
6B
  8
1
 10
115.899999789647
 20
303.99999982287142
 30
0.0
 11
115.3999997896471
 21
303.49999982287142
 31
0.0
  0
LINE
  5
6C
  8
1
 10
98.899999789646984
 20
303.99999982287142
 30
0.0
 11
99.399999789646984
 21
303.49999982287142
 31
0.0
  0
LINE
  5
6D
  8
1
 10
99.399999789646984
 20
303.49999982287142
 30
0.0
 11
115.3999997896471
 21
303.49999982287142
 31
0.0
  0
LINE
  5
6E
  8
1
 10
110.3999997896469
 20
215.49999982287139
 30
0.0
 11
110.3999997896469
 21
213.49999982287139
 31
0.0
  0
LINE
  5
6F
  8
1
 10
113.3999997896469
 20
215.49999982287139
 30
0.0
 11
113.3999997896469
 21
213.49999982287139
 31
0.0
  0
LINE
  5
70
  8
1
 10
115.8999997896469
 20
215.49999982287139
 30
0.0
 11
115.8999997896469
 21
221.59999982287141
 31
0.0
  0
LINE
  5
71
  8
1
 10
98.899999789647069
 20
218.39999982287139
 30
0.0
 11
98.899999789647069
 21
222.99999982287139
 31
0.0
  0
LINE
  5
72
  8
1
 10
99.399999789647055
 20
223.49999982287139
 30
0.0
 11
98.899999789647069
 21
222.99999982287139
 31
0.0
  0
LINE
  5
73
  8
1
 10
99.399999789647055
 20
223.49999982287139
 30
0.0
 11
106.8999997896469
 21
223.49999982287139
 31
0.0
  0
LINE
  5
74
  8
1
 10
107.8999997896469
 20
221.59999982287141
 30
0.0
 11
107.8999997896469
 21
215.49999982287139
 31
0.0
  0
LINE
  5
75
  8
1
 10
106.8999997896469
 20
223.49999982287139
 30
0.0
 11
106.8999997896469
 21
213.49999982287139
 31
0.0
  0
LINE
  5
76
  8
1
 10
115.8999997896469
 20
221.59999982287141
 30
0.0
 11
107.8999997896469
 21
221.59999982287141
 31
0.0
  0
LINE
  5
77
  8
1
 10
115.8999997896469
 20
215.49999982287139
 30
0.0
 11
107.8999997896469
 21
215.49999982287139
 31
0.0
  0
LINE
  5
78
  8
1
 10
115.8999997896469
 20
203.99999982287139
 30
0.0
 11
115.3999997896469
 21
203.49999982287139
 31
0.0
  0
LINE
  5
79
  8
1
 10
99.399999789647055
 20
203.49999982287139
 30
0.0
 11
98.899999789647069
 21
203.99999982287139
 31
0.0
  0
LINE
  5
7A
  8
1
 10
99.399999789647055
 20
203.49999982287139
 30
0.0
 11
115.3999997896469
 21
203.49999982287139
 31
0.0
  0
LINE
  5
7B
  8
1
 10
98.899999789647069
 20
218.39999982287139
 30
0.0
 11
98.899999789647069
 21
203.9999998228715
 31
0.0
  0
LINE
  5
7C
  8
1
 10
115.8999997896469
 20
203.99999982287139
 30
0.0
 11
115.8999997896469
 21
213.49999982287139
 31
0.0
  0
LINE
  5
7D
  8
1
 10
69.237533908515687
 20
216.99999982287139
 30
0.0
 11
98.899999789647069
 21
216.9999998228713
 31
0.0
1001
ACAD
1000
ASC_BOUNDS
1002
{
1070
    19
1002
}
  0
LINE
  5
7E
  8
1
 10
70.007710786863925
 20
209.99999982287139
 30
0.0
 11
98.899999789647069
 21
209.99999982287139
 31
0.0
1001
ACAD
1000
ASC_BOUNDS
1002
{
1070
    19
1002
}
  0
LINE
  5
7F
  8
1
 10
98.899999789646984
 20
303.99999982287142
 30
0.0
 11
98.899999789646984
 21
310.99999982287142
 31
0.0
  0
LINE
  5
80
  8
1
 10
106.8999997896469
 20
310.99999982287142
 30
0.0
 11
106.8999997896469
 21
303.49999982287142
 31
0.0
  0
LINE
  5
81
  8
1
 10
115.8999997896469
 20
306.49999982287142
 30
0.0
 11
115.899999789647
 21
303.99999982287142
 31
0.0
  0
LINE
  5
82
  8
1
 10
213.99999978964689
 20
292.99999982287142
 30
0.0
 11
215.19999978964691
 21
292.99999982287142
 31
0.0
1001
ACAD
1000
ASC_BOUNDS
1002
{
1070
    19
1005
0
1002
}
  0
LINE
  5
83
  8
1
 10
213.99999978964689
 20
228.49999982287139
 30
0.0
 11
214.99999978964689
 21
228.49999982287139
 31
0.0
1001
ACAD
1000
ASC_BOUNDS
1002
{
1070
    19
1005
0
1002
}
  0
LINE
  5
84
  8
1
 10
213.99999978964689
 20
181.49999982287139
 30
0.0
 11
214.99999978964689
 21
181.49999982287139
 31
0.0
1001
ACAD
1000
ASC_BOUNDS
1002
{
1070
    19
1005
0
1002
}
  0
LINE
  5
85
  8
1
  6
CENTER
 10
207.11700914753081
 20
180.49999982287139
 30
0.0
 11
207.11700914753081
 21
179.49999982287139
 31
0.0
  0
LINE
  5
86
  8
1
  6
CENTER
 10
194.11700914753081
 20
180.49999982287139
 30
0.0
 11
194.11700914753081
 21
179.49999982287139
 31
0.0
  0
LINE
  5
87
  8
1
  6
CENTER
 10
173.88299043176301
 20
180.49999982287139
 30
0.0
 11
173.88299043176301
 21
179.49999982287139
 31
0.0
  0
LINE
  5
88
  8
1
  6
CENTER
 10
160.88299043176301
 20
180.49999982287139
 30
0.0
 11
160.88299043176301
 21
179.49999982287139
 31
0.0
  0
LINE
  5
89
  8
1
 10
213.99999978964681
 20
164.49999982287201
 30
0.0
 11
213.99999978964681
 21
179.49999982287201
 31
0.0
  0
LINE
  5
8A
  8
1
 10
143.99999978964701
 20
179.49999982287139
 30
0.0
 11
143.99999978964709
 21
164.49999982287139
 31
0.0
  0
LINE
  5
8B
  8
1
 10
143.99999978964709
 20
164.49999982287139
 30
0.0
 11
213.99999978964701
 21
164.49999982287201
 31
0.0
  0
LINE
  5
8C
  8
1
 10
143.99999978964701
 20
179.49999982287139
 30
0.0
 11
213.99999978964689
 21
179.49999982287201
 31
0.0
  0
ARC
  5
8D
  8
1
 62
     9
 10
203.99999978964681
 20
291.49999982287142
 30
0.0
 40
3.0
 50
170.40593177313951
 51
9.5940682268604345
  0
ARC
  5
8E
  8
1
 10
203.99999978964681
 20
291.49999982287147
 30
0.0
 40
2.5499999999999989
 50
168.6922705658659
 51
11.307729434134041
  0
ARC
  5
8F
  8
1
 62
     9
 10
153.99999978964681
 20
291.49999982287147
 30
0.0
 40
3.0
 50
170.40593177314059
 51
9.5940682268593651
  0
LINE
  5
90
  8
1
 10
168.88299043176301
 20
298.74901586877189
 30
0.0
 11
167.38299043176309
 21
299.61504127255631
 31
0.0
  0
LINE
  5
91
  8
1
 10
167.38299043176309
 20
299.61504127255631
 30
0.0
 11
165.88299043176301
 21
298.74901586877189
 31
0.0
  0
LINE
  5
92
  8
1
 10
165.88299043176301
 20
298.74901586877189
 30
0.0
 11
165.88299043176301
 21
297.01696506120311
 31
0.0
  0
LINE
  5
93
  8
1
 10
165.88299043176301
 20
297.01696506120311
 30
0.0
 11
167.38299043176309
 21
296.15093965741858
 31
0.0
  0
LINE
  5
94
  8
1
 10
167.38299043176309
 20
296.15093965741858
 30
0.0
 11
168.88299043176301
 21
297.01696506120311
 31
0.0
  0
LINE
  5
95
  8
1
 10
168.88299043176301
 20
297.01696506120311
 30
0.0
 11
168.88299043176301
 21
298.74901586877189
 31
0.0
  0
CIRCLE
  5
96
  8
1
 10
167.38299043176309
 20
297.88299046498747
 30
0.0
 40
2.9803847577293361
  0
CIRCLE
  5
97
  8
1
 10
167.38299043176309
 20
297.88299046498747
 30
0.0
 40
3.5
  0
LINE
  5
98
  8
1
 10
202.11700914753081
 20
298.74901586877201
 30
0.0
 11
200.61700914753081
 21
299.61504127255643
 31
0.0
  0
LINE
  5
99
  8
1
 10
200.61700914753081
 20
299.61504127255643
 30
0.0
 11
199.11700914753081
 21
298.74901586877201
 31
0.0
  0
LINE
  5
9A
  8
1
 10
199.11700914753081
 20
298.74901586877201
 30
0.0
 11
199.11700914753081
 21
297.01696506120322
 31
0.0
  0
LINE
  5
9B
  8
1
 10
199.11700914753081
 20
297.01696506120322
 30
0.0
 11
200.61700914753081
 21
296.1509396574188
 31
0.0
  0
LINE
  5
9C
  8
1
 10
200.61700914753081
 20
296.1509396574188
 30
0.0
 11
202.11700914753081
 21
297.01696506120322
 31
0.0
  0
LINE
  5
9D
  8
1
 10
202.11700914753081
 20
297.01696506120322
 30
0.0
 11
202.11700914753081
 21
298.74901586877201
 31
0.0
  0
CIRCLE
  5
9E
  8
1
 10
200.61700914753081
 20
297.88299046498759
 30
0.0
 40
2.9803847577293361
  0
CIRCLE
  5
9F
  8
1
 10
200.61700914753081
 20
297.88299046498759
 30
0.0
 40
3.5
  0
ARC
  5
A0
  8
1
 10
153.99999978964681
 20
291.49999982287142
 30
0.0
 40
2.5499999999999989
 50
168.6922705658647
 51
11.30772943413529
  0
LINE
  5
A1
  8
1
 10
196.99999978964689
 20
284.49999982287181
 30
0.0
 11
213.99999978964701
 21
284.49999982287193
 31
0.0
  0
LINE
  5
A2
  8
1
 10
143.99999978964701
 20
284.4999998228713
 30
0.0
 11
170.99999978964689
 21
284.49999982287147
 31
0.0
  0
LINE
  5
A3
  8
1
  6
HIDDEN
 62
     9
 10
200.99999978964681
 20
179.4999998228719
 30
0.0
 11
200.99999978964681
 21
164.4999998228719
 31
0.0
  0
LINE
  5
A4
  8
1
  6
HIDDEN
 10
201.4499997896468
 20
179.4999998228719
 30
0.0
 11
201.4499997896468
 21
164.4999998228719
 31
0.0
  0
LINE
  5
A5
  8
1
  6
HIDDEN
 10
206.54999978964679
 20
179.4999998228719
 30
0.0
 11
206.54999978964679
 21
164.4999998228719
 31
0.0
  0
LINE
  5
A6
  8
1
  6
HIDDEN
 62
     9
 10
206.99999978964681
 20
179.4999998228719
 30
0.0
 11
206.99999978964689
 21
164.4999998228719
 31
0.0
  0
LINE
  5
A7
  8
1
  6
HIDDEN
 62
     9
 10
156.99999978964681
 20
179.4999998228715
 30
0.0
 11
156.99999978964681
 21
164.4999998228715
 31
0.0
  0
LINE
  5
A8
  8
1
  6
HIDDEN
 10
156.54999978964679
 20
179.4999998228715
 30
0.0
 11
156.54999978964679
 21
164.4999998228715
 31
0.0
  0
LINE
  5
A9
  8
1
  6
HIDDEN
 10
151.4499997896468
 20
179.4999998228715
 30
0.0
 11
151.44999978964671
 21
164.4999998228715
 31
0.0
  0
LINE
  5
AA
  8
1
  6
HIDDEN
 62
     9
 10
150.99999978964681
 20
179.4999998228715
 30
0.0
 11
150.99999978964681
 21
164.4999998228715
 31
0.0
  0
LINE
  5
AB
  8
1
 10
143.99999978964681
 20
305.49439982287151
 30
0.0
 11
148.99999978964689
 21
305.49439982287151
 31
0.0
1001
ACAD
1000
ASC_BOUNDS
1002
{
1070
    19
1002
}
  0
LINE
  5
AC
  8
1
 10
117.8999997896469
 20
306.49999982287142
 30
0.0
 11
120.99999978964691
 21
306.49999982287142
 31
0.0
  0
LINE
  5
AD
  8
1
 10
117.8999997896469
 20
310.99999982287142
 30
0.0
 11
117.8999997896469
 21
306.49999982287142
 31
0.0
  0
CIRCLE
  5
AE
  8
1
 10
200.61700914753081
 20
297.88299046498759
 30
0.0
 40
4.0
  0
LINE
  5
AF
  8
1
 10
195.19999978964691
 20
291.99999982287142
 30
0.0
 11
196.99999978964689
 21
291.99999982287142
 31
0.0
  0
LINE
  5
B0
  8
1
 10
195.99999978964689
 20
281.9999998228713
 30
0.0
 11
196.99999978964689
 21
282.9999998228713
 31
0.0
  0
LINE
  5
B1
  8
1
 10
196.99999978964689
 20
282.9999998228713
 30
0.0
 11
196.99999978964689
 21
291.99999982287142
 31
0.0
  0
LINE
  5
B2
  8
1
 10
213.99999978964689
 20
229.49999982287139
 30
0.0
 11
213.99999978964689
 21
180.49999982287139
 31
0.0
1001
ACAD
1000
ASC_BOUNDS
1002
{
1070
    19
1002
}
  0
CIRCLE
  5
B3
  8
1
 10
191.99999978964689
 20
213.49999982287139
 30
0.0
 40
1.7
  0
ARC
  5
B4
  8
1
 10
206.99999978964709
 20
189.4999998228715
 30
0.0
 40
5.0
 50
156.4218215217978
 51
23.578178478202009
  0
ARC
  5
B5
  8
1
 10
206.99999978964709
 20
193.4999998228715
 30
0.0
 40
5.0
 50
336.42182152179799
 51
203.57817847820209
  0
LINE
  5
B6
  8
1
 10
197.94028478993761
 20
180.49999982287139
 30
0.0
 11
213.99999978964689
 21
180.49999982287139
 31
0.0
1001
ACAD
1000
ASC_BOUNDS
1002
{
1070
    19
1002
}
  0
LINE
  5
B7
  8
1
 10
212.49999978964689
 20
239.49999982287139
 30
0.0
 11
212.49999978964689
 21
229.49999982287139
 31
0.0
  0
CIRCLE
  5
B8
  8
1
 10
167.38299043176309
 20
297.88299046498747
 30
0.0
 40
4.0
  0
LINE
  5
B9
  8
1
 10
170.99999978964689
 20
291.99999982287142
 30
0.0
 11
172.79999978964699
 21
291.99999982287142
 31
0.0
  0
LINE
  5
BA
  8
1
 10
170.99999978964689
 20
282.99999982287142
 30
0.0
 11
171.99999978964689
 21
281.99999982287142
 31
0.0
  0
LINE
  5
BB
  8
1
 10
170.99999978964689
 20
282.99999982287142
 30
0.0
 11
170.99999978964689
 21
291.99999982287142
 31
0.0
  0
LINE
  5
BC
  8
1
 10
148.99999978964701
 20
296.48889282394111
 30
0.0
 11
148.49999978964701
 21
295.98889282394111
 31
0.0
  0
LINE
  5
BD
  8
1
 10
148.49999978964701
 20
295.98889282394111
 30
0.0
 11
144.49999978964681
 21
295.98889282394123
 31
0.0
  0
LINE
  5
BE
  8
1
 10
144.49999978964681
 20
295.98889282394123
 30
0.0
 11
143.99999978964681
 21
296.48889282394123
 31
0.0
  0
CIRCLE
  5
BF
  8
1
 10
175.99999978964689
 20
213.49999982287139
 30
0.0
 40
1.7
  0
LINE
  5
C0
  8
1
 10
144.5999997896468
 20
229.49999982287139
 30
0.0
 11
148.49999978964689
 21
229.49999982287139
 31
0.0
  0
LINE
  5
C1
  8
1
 10
148.49999978964689
 20
229.49999982287139
 30
0.0
 11
148.99999978964689
 21
228.99999982287139
 31
0.0
  0
LINE
  5
C2
  8
1
 10
144.0999997896468
 20
228.99999982287139
 30
0.0
 11
144.5999997896468
 21
229.49999982287139
 31
0.0
  0
LINE
  5
C3
  8
1
 10
117.8999997896469
 20
221.49999982287139
 30
0.0
 11
120.99999978964691
 21
221.49999982287139
 31
0.0
  0
LINE
  5
C4
  8
1
 10
144.5999997896468
 20
197.49999982287139
 30
0.0
 11
148.49999978964689
 21
197.49999982287139
 31
0.0
  0
LINE
  5
C5
  8
1
 10
148.99999978964689
 20
197.99999982287139
 30
0.0
 11
148.49999978964689
 21
197.49999982287139
 31
0.0
  0
LINE
  5
C6
  8
1
 10
144.0999997896468
 20
197.99999982287139
 30
0.0
 11
144.5999997896468
 21
197.49999982287139
 31
0.0
  0
LINE
  5
C7
  8
1
 10
148.99999978964701
 20
190.84414988762569
 30
0.0
 11
148.99999978964701
 21
192.30414988762561
 31
0.0
  0
LINE
  5
C8
  8
1
 10
147.99999978964689
 20
192.0041498876256
 30
0.0
 11
147.99999978964701
 21
192.30414988762561
 31
0.0
  0
LINE
  5
C9
  8
1
 10
147.99999978964701
 20
192.3041498876257
 30
0.0
 11
148.99999978964681
 21
192.30414988762561
 31
0.0
  0
LINE
  5
CA
  8
1
 10
147.99999978964689
 20
192.0041498876256
 30
0.0
 11
147.99999978964689
 21
190.5041498876256
 31
0.0
  0
LINE
  5
CB
  8
1
 10
143.99999978964689
 20
191.4845346453549
 30
0.0
 11
144.29999978964699
 21
192.0041498876256
 31
0.0
  0
LINE
  5
CC
  8
1
 10
144.29999978964699
 20
192.0041498876256
 30
0.0
 11
147.99999978964689
 21
192.0041498876256
 31
0.0
  0
LINE
  5
CD
  8
1
 10
117.8999997896469
 20
205.49999982287139
 30
0.0
 11
120.99999978964691
 21
205.49999982287139
 31
0.0
  0
LINE
  5
CE
  8
1
 10
117.8999997896469
 20
205.49999982287139
 30
0.0
 11
117.8999997896469
 21
208.59999982287141
 31
0.0
  0
LINE
  5
CF
  8
1
 10
117.8999997896469
 20
208.5999998228715
 30
0.0
 11
117.8999997896469
 21
221.49999982287139
 31
0.0
  0
LINE
  5
D0
  8
1
 10
148.99999978964701
 20
184.70414988762559
 30
0.0
 11
148.99999978964701
 21
186.3441498876256
 31
0.0
  0
LINE
  5
D1
  8
1
 10
147.99999978964689
 20
186.5041498876256
 30
0.0
 11
147.99999978964689
 21
185.0041498876256
 31
0.0
  0
LINE
  5
D2
  8
1
 10
147.99999978964689
 20
184.70414988762559
 30
0.0
 11
148.99999978964681
 21
184.70414988762559
 31
0.0
  0
LINE
  5
D3
  8
1
 10
147.99999978964689
 20
185.0041498876256
 30
0.0
 11
147.99999978964689
 21
184.70414988762559
 31
0.0
  0
LINE
  5
D4
  8
1
 10
147.99999978964689
 20
188.5041498876256
 30
0.0
 11
147.99999978964689
 21
186.5041498876256
 31
0.0
  0
LINE
  5
D5
  8
1
 10
144.29999978964699
 20
185.0041498876256
 30
0.0
 11
143.99999978964689
 21
185.5237651298963
 31
0.0
  0
LINE
  5
D6
  8
1
 10
147.99999978964689
 20
185.0041498876256
 30
0.0
 11
144.29999978964699
 21
185.0041498876256
 31
0.0
  0
LINE
  5
D7
  8
1
 10
147.99999978964689
 20
190.5041498876256
 30
0.0
 11
147.99999978964689
 21
188.5041498876256
 31
0.0
  0
LINE
  5
D8
  8
1
 10
148.99999978964689
 20
184.7041498876255
 30
0.0
 11
148.99999978964689
 21
192.30414988762561
 31
0.0
  0
LINE
  5
D9
  8
1
 10
143.99999978964689
 20
191.5941498876256
 30
0.0
 11
143.99999978964689
 21
185.6138203702159
 31
0.0
  0
LINE
  5
DA
  8
1
 10
143.99999978964689
 20
185.5237651298963
 30
0.0
 11
143.99999978964689
 21
191.4845346453549
 31
0.0
  0
LINE
  5
DB
  8
1
 10
144.29999978964699
 20
185.0041498876256
 30
0.0
 11
144.29999978964699
 21
192.0041498876256
 31
0.0
  0
LINE
  5
DC
  8
1
 10
148.99999978964689
 20
229.49999982287139
 30
0.0
 11
148.99999978964689
 21
180.49999982287139
 31
0.0
1001
ACAD
1000
ASC_BOUNDS
1002
{
1070
    19
1002
}
  0
LINE
  5
DD
  8
1
 10
155.49999978964689
 20
239.49999982287139
 30
0.0
 11
155.49999978964689
 21
229.49999982287139
 31
0.0
  0
LINE
  5
DE
  8
1
 10
172.79999978964699
 20
291.99999982287142
 30
0.0
 11
195.19999978964691
 21
291.99999982287147
 31
0.0
  0
LINE
  5
DF
  8
1
 10
171.99999978964689
 20
281.99999982287142
 30
0.0
 11
195.99999978964689
 21
281.9999998228713
 31
0.0
  0
LINE
  5
E0
  8
1
 10
170.99999978964689
 20
282.99999982287142
 30
0.0
 11
196.99999978964689
 21
282.9999998228713
 31
0.0
  0
LINE
  5
E1
  8
1
 10
165.88232885765339
 20
292.49999982287147
 30
0.0
 11
202.11767072164051
 21
292.49999982287147
 31
0.0
  0
LINE
  5
E2
  8
1
 10
155.49999978964689
 20
239.49999982287139
 30
0.0
 11
212.49999978964689
 21
239.49999982287139
 31
0.0
  0
LINE
  5
E3
  8
1
 10
148.99999978964689
 20
291.99999982287142
 30
0.0
 11
213.99999978964689
 21
291.99999982287142
 31
0.0
  0
CIRCLE
  5
E4
  8
1
 10
183.99999978964689
 20
213.49999982287139
 30
0.0
 40
12.0
  0
CIRCLE
  5
E5
  8
1
 10
183.99999978964689
 20
213.49999982287139
 30
0.0
 40
13.0
  0
LINE
  5
E6
  8
1
 10
148.99999978964689
 20
180.49999982287139
 30
0.0
 11
197.94028478993761
 21
180.49999982287139
 31
0.0
1001
ACAD
1000
ASC_BOUNDS
1002
{
1070
    19
1002
}
  0
LINE
  5
E7
  8
1
 10
148.99999978964689
 20
229.49999982287139
 30
0.0
 11
213.99999978964689
 21
229.49999982287139
 31
0.0
1001
ACAD
1000
ASC_BOUNDS
1002
{
1070
    19
1002
}
  0
LINE
  5
E8
  8
1
 10
139.99999978964689
 20
307.24999982287142
 30
0.0
 11
139.99999978964689
 21
306.49999982287142
 31
0.0
  0
LINE
  5
E9
  8
1
 10
139.99999978964689
 20
301.49999982287142
 30
0.0
 11
143.99999978964689
 21
301.49999982287142
 31
0.0
  0
LINE
  5
EA
  8
1
 10
135.8999997896469
 20
303.49999982287142
 30
0.0
 11
139.99999978964689
 21
303.49999982287142
 31
0.0
  0
LINE
  5
EB
  8
1
 10
120.99999978964691
 20
301.99999982287142
 30
0.0
 11
121.99999978964691
 21
300.99999982287142
 31
0.0
  0
LINE
  5
EC
  8
1
 10
121.99999978964691
 20
300.99999982287142
 30
0.0
 11
135.99999978964701
 21
300.99999982287142
 31
0.0
  0
LINE
  5
ED
  8
1
 10
144.09999978964689
 20
226.49999982287139
 30
0.0
 11
140.09999978964689
 21
226.49999982287139
 31
0.0
  0
LINE
  5
EE
  8
1
 10
140.09999978964689
 20
224.49999982287139
 30
0.0
 11
135.99999978964689
 21
224.49999982287139
 31
0.0
  0
LINE
  5
EF
  8
1
 10
148.99999978964689
 20
223.49999982287139
 30
0.0
 11
148.99999978964689
 21
228.99999982287139
 31
0.0
  0
LINE
  5
F0
  8
1
 10
120.99999978964691
 20
225.99999982287139
 30
0.0
 11
121.99999978964691
 21
226.99999982287139
 31
0.0
  0
LINE
  5
F1
  8
1
 10
135.99999978964701
 20
226.99999982287139
 30
0.0
 11
121.99999978964691
 21
226.99999982287139
 31
0.0
  0
LINE
  5
F2
  8
1
 10
140.0999997896468
 20
206.24999982287139
 30
0.0
 11
140.09999978964689
 21
205.49999982287139
 31
0.0
  0
LINE
  5
F3
  8
1
 10
135.99999978964689
 20
202.49999982287139
 30
0.0
 11
140.09999978964689
 21
202.49999982287139
 31
0.0
  0
LINE
  5
F4
  8
1
 10
140.09999978964689
 20
200.49999982287139
 30
0.0
 11
144.09999978964689
 21
200.49999982287139
 31
0.0
  0
LINE
  5
F5
  8
1
 10
144.0999997896468
 20
206.24999982287139
 30
0.0
 11
144.0999997896468
 21
197.99999982287139
 31
0.0
  0
LINE
  5
F6
  8
1
 10
148.99999978964689
 20
197.99999982287139
 30
0.0
 11
148.99999978964689
 21
203.49999982287139
 31
0.0
  0
LINE
  5
F7
  8
1
 10
135.99999978964689
 20
206.24999982287139
 30
0.0
 11
135.99999978964689
 21
199.99999982287139
 31
0.0
  0
LINE
  5
F8
  8
1
 10
140.09999978964689
 20
205.49999982287139
 30
0.0
 11
140.09999978964689
 21
200.49999982287139
 31
0.0
  0
LINE
  5
F9
  8
1
 10
120.99999978964691
 20
208.59999982287141
 30
0.0
 11
120.99999978964691
 21
200.99999982287139
 31
0.0
  0
LINE
  5
FA
  8
1
 10
120.99999978964691
 20
200.99999982287139
 30
0.0
 11
121.99999978964691
 21
199.99999982287139
 31
0.0
  0
LINE
  5
FB
  8
1
 10
121.99999978964691
 20
199.99999982287139
 30
0.0
 11
135.99999978964701
 21
199.99999982287139
 31
0.0
  0
LINE
  5
FC
  8
1
 10
144.0999997896468
 20
228.99999982287139
 30
0.0
 11
144.0999997896468
 21
206.24999982287139
 31
0.0
  0
LINE
  5
FD
  8
1
 10
120.99999978964691
 20
225.99999982287139
 30
0.0
 11
120.99999978964691
 21
208.59999982287141
 31
0.0
  0
LINE
  5
FE
  8
1
 10
135.99999978964689
 20
226.99999982287139
 30
0.0
 11
135.99999978964689
 21
206.24999982287139
 31
0.0
  0
LINE
  5
FF
  8
1
 10
140.09999978964689
 20
226.49999982287139
 30
0.0
 11
140.0999997896468
 21
206.24999982287139
 31
0.0
  0
LINE
  5
100
  8
1
 10
148.99999978964689
 20
296.48889282394111
 30
0.0
 11
148.99999978964689
 21
304.49999982287142
 31
0.0
  0
LINE
  5
101
  8
1
 10
120.99999978964691
 20
309.5999998228715
 30
0.0
 11
120.99999978964691
 21
301.99999982287142
 31
0.0
  0
LINE
  5
102
  8
1
 10
213.99999978964689
 20
228.49999982287139
 30
0.0
 11
213.99999978964689
 21
181.49999982287139
 31
0.0
  0
LINE
  5
103
  8
1
 10
283.99999978964689
 20
292.99999982287147
 30
0.0
 11
282.7999997896469
 21
292.99999982287142
 31
0.0
1001
ACAD
1000
ASC_BOUNDS
1002
{
1070
    19
1005
0
1002
}
  0
LINE
  5
104
  8
1
 10
282.7999997896469
 20
304.28585698001712
 30
0.0
 11
282.7999997896469
 21
292.99999982287142
 31
0.0
  0
LINE
  5
105
  8
1
  6
CENTER
 10
301.49999978964689
 20
230.49999982287139
 30
0.0
 11
301.49999978964689
 21
229.49999982287139
 31
0.0
  0
LINE
  5
106
  8
1
  6
CENTER
 10
296.49999978964689
 20
230.49999982287139
 30
0.0
 11
296.49999978964689
 21
229.49999982287139
 31
0.0
  0
LINE
  5
107
  8
1
 10
283.49999978964689
 20
230.49999982287139
 30
0.0
 11
283.99999978964689
 21
230.49999982287139
 31
0.0
  0
LINE
  5
108
  8
1
 10
283.49999978964689
 20
229.49999982287139
 30
0.0
 11
283.99999978964689
 21
229.49999982287139
 31
0.0
  0
LINE
  5
109
  8
1
  6
CENTER
 10
283.49999978964689
 20
230.49999982287139
 30
0.0
 11
283.49999978964689
 21
229.49999982287139
 31
0.0
  0
LINE
  5
10A
  8
1
 10
283.99999978964689
 20
245.49999982287139
 30
0.0
 11
283.99999978964689
 21
230.49999982287139
 31
0.0
  0
LINE
  5
10B
  8
1
 10
292.49999978964689
 20
304.0566241498974
 30
0.0
 11
292.49999978964689
 21
306.94337549584549
 31
0.0
  0
LINE
  5
10C
  8
1
 10
289.99999978964689
 20
308.38675116881961
 30
0.0
 11
287.49999978964689
 21
306.94337549584549
 31
0.0
  0
LINE
  5
10D
  8
1
 10
287.49999978964689
 20
304.0566241498974
 30
0.0
 11
289.99999978964689
 21
302.61324847692327
 31
0.0
  0
LINE
  5
10E
  8
1
 10
287.49999978964689
 20
306.94337549584549
 30
0.0
 11
287.49999978964689
 21
304.0566241498974
 31
0.0
  0
LINE
  5
10F
  8
1
 10
292.49999978964689
 20
306.94337549584549
 30
0.0
 11
289.99999978964689
 21
308.38675116881961
 31
0.0
  0
LINE
  5
110
  8
1
 10
289.99999978964689
 20
302.61324847692327
 30
0.0
 11
292.49999978964689
 21
304.0566241498974
 31
0.0
  0
CIRCLE
  5
111
  8
1
 10
289.99999978964689
 20
305.49999982287142
 30
0.0
 40
4.3071796769724484
  0
CIRCLE
  5
112
  8
1
 10
289.99999978964689
 20
305.49999982287142
 30
0.0
 40
5.0
  0
ARC
  5
113
  8
1
 10
289.99999978964689
 20
305.49999982287142
 30
0.0
 40
7.0
 50
211.0027191338736
 51
148.9972808661262
  0
CIRCLE
  5
114
  8
1
 62
     9
 10
289.99999978964689
 20
291.49999982287142
 30
0.0
 40
3.0
  0
CIRCLE
  5
115
  8
1
 10
289.99999978964689
 20
291.49999982287142
 30
0.0
 40
2.5499999999999989
  0
LINE
  5
116
  8
1
  6
HIDDEN
 10
283.99999978964689
 20
291.99999982287142
 30
0.0
 11
287.499499839637
 21
291.99999982287159
 31
0.0
  0
LINE
  5
117
  8
1
  6
HIDDEN
 62
     9
 10
292.99999978964689
 20
245.4999998228715
 30
0.0
 11
292.99999978964689
 21
230.49999982287139
 31
0.0
  0
LINE
  5
118
  8
1
  6
HIDDEN
 10
292.5499997896469
 20
245.4999998228715
 30
0.0
 11
292.5499997896469
 21
230.49999982287139
 31
0.0
  0
LINE
  5
119
  8
1
  6
HIDDEN
 10
287.44999978964688
 20
245.4999998228715
 30
0.0
 11
287.44999978964688
 21
230.49999982287139
 31
0.0
  0
LINE
  5
11A
  8
1
  6
HIDDEN
 62
     9
 10
286.99999978964689
 20
245.4999998228715
 30
0.0
 11
286.99999978964689
 21
230.49999982287139
 31
0.0
  0
LINE
  5
11B
  8
1
 10
292.5004997396569
 20
291.99999982287159
 30
0.0
 11
287.499499839637
 21
291.99999982287159
 31
0.0
  0
LINE
  5
11C
  8
1
 10
283.99999978964689
 20
180.49999982287139
 30
0.0
 11
283.99999978964689
 21
229.49999982287139
 31
0.0
  0
LINE
  5
11D
  8
1
 10
282.7999997896469
 20
295.99999982287142
 30
0.0
 11
277.49999978964678
 21
295.99999982287142
 31
0.0
1001
ACAD
1000
ASC_BOUNDS
1002
{
1070
    19
1002
}
  0
LINE
  5
11E
  8
1
 10
282.7999997896469
 20
301.99999982287142
 30
0.0
 11
277.49999978964678
 21
301.99999982287142
 31
0.0
1001
ACAD
1000
ASC_BOUNDS
1002
{
1070
    19
1002
}
  0
LINE
  5
11F
  8
1
 10
282.7999997896469
 20
292.99999982287142
 30
0.0
 11
282.7999997896469
 21
290.5456317004024
 31
0.0
1001
ACAD
1000
ASC_BOUNDS
1002
{
1070
    19
1005
0
1002
}
  0
ARC
  5
120
  8
1
 10
281.79999978964679
 20
290.49862543755052
 30
0.0
 40
1.0
 50
326.50825562200822
 51
0.0
1001
ACAD
1000
ASC_BOUNDS
1002
{
1070
    19
1005
0
1002
}
  0
LINE
  5
121
  8
1
 10
282.79999978964668
 20
290.49862543755052
 30
0.0
 11
282.79999978964668
 21
282.99999982287142
 31
0.0
  0
ARC
  5
122
  8
1
 10
277.49999978964689
 20
283.99999982287142
 30
0.0
 40
1.0
 50
201.90967172484929
 51
326.50825562200822
  0
LINE
  5
123
  8
1
 10
282.63396513043563
 20
289.94680861072919
 30
0.0
 11
278.33396513043567
 21
283.44818299605021
 31
0.0
  0
LINE
  5
124
  8
1
 10
277.49999978964689
 20
282.99999982287142
 30
0.0
 11
282.79999978964668
 21
282.99999982287142
 31
0.0
  0
LINE
  5
125
  8
1
 10
277.49999978964689
 20
235.99999982287139
 30
0.0
 11
282.99999978964689
 21
235.99999982287139
 31
0.0
  0
LINE
  5
126
  8
1
 10
283.99999978964689
 20
228.49999982287139
 30
0.0
 11
282.99999978964689
 21
228.49999982287139
 31
0.0
1001
ACAD
1000
ASC_BOUNDS
1002
{
1070
    19
1005
0
1002
}
  0
LINE
  5
127
  8
1
 10
282.99999978964689
 20
225.49999982287139
 30
0.0
 11
277.49999978964689
 21
225.49999982287139
 31
0.0
1001
ACAD
1000
ASC_BOUNDS
1002
{
1070
    19
1002
}
  0
CIRCLE
  5
128
  8
1
 10
282.09999978964692
 20
215.99999982287139
 30
0.0
 40
1.0
  0
LINE
  5
129
  8
1
 10
282.99999978964689
 20
219.49999982287139
 30
0.0
 11
277.49999978964689
 21
219.49999982287139
 31
0.0
1001
ACAD
1000
ASC_BOUNDS
1002
{
1070
    19
1002
}
  0
CIRCLE
  5
12A
  8
1
 10
282.09999978964692
 20
193.99999982287139
 30
0.0
 40
1.0
  0
LINE
  5
12B
  8
1
 10
282.99999978964689
 20
190.49999982287139
 30
0.0
 11
277.49999978964689
 21
190.49999982287139
 31
0.0
1001
ACAD
1000
ASC_BOUNDS
1002
{
1070
    19
1002
}
  0
LINE
  5
12C
  8
1
 10
283.99999978964689
 20
181.49999982287139
 30
0.0
 11
282.99999978964689
 21
181.49999982287139
 31
0.0
1001
ACAD
1000
ASC_BOUNDS
1002
{
1070
    19
1005
0
1002
}
  0
LINE
  5
12D
  8
1
 10
282.99999978964689
 20
184.49999982287139
 30
0.0
 11
277.49999978964689
 21
184.49999982287139
 31
0.0
1001
ACAD
1000
ASC_BOUNDS
1002
{
1070
    19
1002
}
  0
ARC
  5
12E
  8
1
 10
277.49999978964689
 20
174.99999982287139
 30
0.0
 40
1.0
 50
201.90967172484929
 51
326.50825562200822
  0
LINE
  5
12F
  8
1
 10
282.99999978964689
 20
173.99999982287139
 30
0.0
 11
277.49999978964689
 21
173.99999982287139
 31
0.0
  0
LINE
  5
130
  8
1
 10
282.99999978964689
 20
181.49999982287139
 30
0.0
 11
278.33396513043567
 21
174.44818299605021
 31
0.0
  0
LINE
  5
131
  8
1
 10
282.99999978964689
 20
181.49999982287139
 30
0.0
 11
282.99999978964689
 21
173.99999982287139
 31
0.0
  0
LINE
  5
132
  8
1
 10
282.99999978964689
 20
228.49999982287139
 30
0.0
 11
282.99999978964689
 21
181.49999982287139
 31
0.0
  0
LINE
  5
133
  8
1
 10
283.99999978964689
 20
228.49999982287139
 30
0.0
 11
283.99999978964689
 21
181.49999982287139
 31
0.0
  0
LINE
  5
134
  8
1
 10
282.99999978964689
 20
228.49999982287139
 30
0.0
 11
278.33396513043567
 21
235.5518166496926
 31
0.0
  0
ARC
  5
135
  8
1
 10
277.49999978964689
 20
234.99999982287139
 30
0.0
 40
1.0
 50
33.491744377991687
 51
158.0903282751506
  0
LINE
  5
136
  8
1
 10
282.99999978964689
 20
235.99999982287139
 30
0.0
 11
282.99999978964689
 21
228.49999982287139
 31
0.0
  0
LINE
  5
137
  8
1
 10
277.49999978964689
 20
235.93794988769011
 30
0.0
 11
277.49999978964689
 21
174.06204975805281
 31
0.0
  0
CIRCLE
  5
138
  8
1
 10
282.09999978964692
 20
304.99999982287142
 30
0.0
 40
1.0
  0
ARC
  5
139
  8
1
 10
274.99999978964689
 20
286.99999982287142
 30
0.0
 40
0.2
 50
21.909671724854459
 51
158.0903282751525
  0
ARC
  5
13A
  8
1
 10
272.49999978964689
 20
283.99999982287142
 30
0.0
 40
1.0
 50
201.9096717248475
 51
338.09032827515068
  0
LINE
  5
13B
  8
1
 10
268.42777306870499
 20
283.6268554236562
 30
0.0
 11
269.81444513383531
 21
287.07462870271451
 31
0.0
  0
ARC
  5
13C
  8
1
 10
269.99999978964689
 20
286.99999982287142
 30
0.0
 40
0.2
 50
21.909671724847499
 51
158.09032827514531
  0
ARC
  5
13D
  8
1
 10
272.49999978964689
 20
283.99999982287142
 30
0.0
 40
1.0
 50
201.9096717248475
 51
338.0903282751525
  0
LINE
  5
13E
  8
1
 10
271.57222651058879
 20
283.6268554236562
 30
0.0
 11
270.18555444545848
 21
287.07462870271451
 31
0.0
  0
LINE
  5
13F
  8
1
 10
268.42777306870499
 20
283.6268554236562
 30
0.0
 11
269.81444513383531
 21
287.07462870271451
 31
0.0
  0
ARC
  5
140
  8
1
 10
269.99999978964689
 20
286.99999982287142
 30
0.0
 40
0.2
 50
21.909671724854459
 51
158.0903282751525
  0
LINE
  5
141
  8
1
 10
271.57222651058879
 20
283.6268554236562
 30
0.0
 11
270.18555444545848
 21
287.07462870271451
 31
0.0
  0
ARC
  5
142
  8
1
 10
267.49999978964689
 20
283.99999982287142
 30
0.0
 40
1.0
 50
201.90967172484929
 51
338.0903282751525
  0
LINE
  5
143
  8
1
 10
273.42777306870499
 20
283.6268554236562
 30
0.0
 11
274.81444513383531
 21
287.07462870271451
 31
0.0
  0
LINE
  5
144
  8
1
 10
262.49999978964689
 20
282.99999982287142
 30
0.0
 11
262.49999978964689
 21
282.99999982287142
 31
0.0
  0
LINE
  5
145
  8
1
 10
263.42777306870499
 20
283.6268554236562
 30
0.0
 11
264.81444513383531
 21
287.07462870271451
 31
0.0
  0
ARC
  5
146
  8
1
 10
264.99999978964689
 20
286.99999982287142
 30
0.0
 40
0.2
 50
21.909671724847499
 51
158.09032827514531
  0
ARC
  5
147
  8
1
 10
262.49999978964689
 20
283.99999982287142
 30
0.0
 40
1.0
 50
270.0
 51
338.09032827515068
  0
LINE
  5
148
  8
1
 10
220.49999978964681
 20
301.99999982287142
 30
0.0
 11
215.1999997896468
 21
301.99999982287142
 31
0.0
1001
ACAD
1000
ASC_BOUNDS
1002
{
1070
    19
1002
}
  0
LINE
  5
149
  8
1
 10
220.49999978964681
 20
295.99999982287142
 30
0.0
 11
215.1999997896468
 21
295.99999982287142
 31
0.0
1001
ACAD
1000
ASC_BOUNDS
1002
{
1070
    19
1002
}
  0
ARC
  5
14A
  8
1
 10
225.49999978964689
 20
283.99999982287142
 30
0.0
 40
1.0
 50
201.90967172484929
 51
270.0
  0
LINE
  5
14B
  8
1
 10
225.49999978964689
 20
282.99999982287142
 30
0.0
 11
225.49999978964689
 21
282.99999982287142
 31
0.0
  0
LINE
  5
14C
  8
1
 10
215.19999978964691
 20
292.99999982287142
 30
0.0
 11
215.19999978964691
 21
290.49862543755091
 31
0.0
1001
ACAD
1000
ASC_BOUNDS
1002
{
1070
    19
1005
0
1002
}
  0
ARC
  5
14D
  8
1
 10
216.19999978964691
 20
290.49862543755069
 30
0.0
 40
1.0
 50
180.0
 51
213.49174437799181
1001
ACAD
1000
ASC_BOUNDS
1002
{
1070
    19
1005
0
1002
}
  0
ARC
  5
14E
  8
1
 10
216.19999978964691
 20
290.49862543755091
 30
0.0
 40
1.0
 50
180.0
 51
213.49174437799181
  0
ARC
  5
14F
  8
1
 10
222.99999978964689
 20
286.99999982287142
 30
0.0
 40
0.2
 50
21.909671724854459
 51
158.0903282751525
  0
ARC
  5
150
  8
1
 10
220.49999978964689
 20
283.99999982287142
 30
0.0
 40
1.0
 50
213.49174437799181
 51
338.09032827515068
  0
LINE
  5
151
  8
1
 10
221.42777306870511
 20
283.6268554236562
 30
0.0
 11
222.81444513383531
 21
287.07462870271451
 31
0.0
  0
LINE
  5
152
  8
1
 10
220.49999978964689
 20
282.99999982287142
 30
0.0
 11
220.49999978964689
 21
282.99999982287142
 31
0.0
  0
LINE
  5
153
  8
1
 10
220.49999978964689
 20
282.99999982287142
 30
0.0
 11
215.19999978964699
 21
282.99999982287142
 31
0.0
  0
LINE
  5
154
  8
1
 10
215.3660344488581
 20
289.9468086107297
 30
0.0
 11
219.6660344488582
 21
283.44818299605021
 31
0.0
  0
LINE
  5
155
  8
1
 10
215.19999978964699
 20
290.49862543755052
 30
0.0
 11
215.19999978964699
 21
282.99999982287142
 31
0.0
  0
LINE
  5
156
  8
1
 10
224.57222651058879
 20
283.6268554236562
 30
0.0
 11
223.18555444545851
 21
287.07462870271451
 31
0.0
  0
LINE
  5
157
  8
1
 10
262.49999978964689
 20
282.99999982287142
 30
0.0
 11
225.49999978964689
 21
282.99999982287142
 31
0.0
  0
LINE
  5
158
  8
1
 10
266.57222651058879
 20
283.6268554236562
 30
0.0
 11
265.18555444545859
 21
287.07462870271451
 31
0.0
  0
LINE
  5
159
  8
1
 10
262.49999978964689
 20
235.99999982287139
 30
0.0
 11
262.49999978964689
 21
235.99999982287139
 31
0.0
  0
LINE
  5
15A
  8
1
 10
225.49999978964689
 20
235.99999982287139
 30
0.0
 11
225.49999978964689
 21
235.99999982287139
 31
0.0
  0
LINE
  5
15B
  8
1
 10
220.49999978964689
 20
235.99999982287139
 30
0.0
 11
220.49999978964689
 21
235.99999982287139
 31
0.0
  0
LINE
  5
15C
  8
1
 10
214.99999978964689
 20
235.99999982287139
 30
0.0
 11
220.49999978964689
 21
235.99999982287139
 31
0.0
  0
LINE
  5
15D
  8
1
 10
262.49999978964689
 20
235.99999982287139
 30
0.0
 11
225.49999978964689
 21
235.99999982287139
 31
0.0
  0
ARC
  5
15E
  8
1
 10
274.99999978964689
 20
231.99999982287139
 30
0.0
 40
0.2
 50
201.9096717248475
 51
338.09032827514551
  0
LINE
  5
15F
  8
1
 10
271.57222651058879
 20
235.37314422208661
 30
0.0
 11
270.18555444545848
 21
231.92537094302841
 31
0.0
  0
ARC
  5
160
  8
1
 10
269.99999978964689
 20
231.99999982287139
 30
0.0
 40
0.2
 50
201.9096717248475
 51
338.09032827514551
  0
LINE
  5
161
  8
1
 10
268.42777306870499
 20
235.37314422208661
 30
0.0
 11
269.81444513383531
 21
231.92537094302841
 31
0.0
  0
LINE
  5
162
  8
1
 10
271.57222651058879
 20
235.37314422208661
 30
0.0
 11
270.18555444545848
 21
231.92537094302841
 31
0.0
  0
ARC
  5
163
  8
1
 10
269.99999978964689
 20
231.99999982287139
 30
0.0
 40
0.2
 50
201.9096717248546
 51
338.0903282751525
  0
LINE
  5
164
  8
1
 10
268.42777306870499
 20
235.37314422208661
 30
0.0
 11
269.81444513383531
 21
231.92537094302841
 31
0.0
  0
LINE
  5
165
  8
1
 10
273.42777306870499
 20
235.37314422208661
 30
0.0
 11
274.81444513383531
 21
231.92537094302841
 31
0.0
  0
ARC
  5
166
  8
1
 10
264.99999978964689
 20
231.99999982287139
 30
0.0
 40
0.2
 50
201.9096717248546
 51
338.0903282751525
  0
LINE
  5
167
  8
1
 10
263.42777306870499
 20
235.37314422208661
 30
0.0
 11
264.81444513383531
 21
231.92537094302841
 31
0.0
  0
LINE
  5
168
  8
1
 10
221.42777306870511
 20
235.37314422208661
 30
0.0
 11
222.81444513383531
 21
231.92537094302841
 31
0.0
  0
ARC
  5
169
  8
1
 10
222.99999978964689
 20
231.99999982287139
 30
0.0
 40
0.2
 50
201.9096717248475
 51
338.09032827514551
  0
LINE
  5
16A
  8
1
 10
220.49999978964689
 20
225.49999982287139
 30
0.0
 11
214.99999978964689
 21
225.49999982287139
 31
0.0
1001
ACAD
1000
ASC_BOUNDS
1002
{
1070
    19
1002
}
  0
LINE
  5
16B
  8
1
 10
224.57222651058879
 20
235.37314422208661
 30
0.0
 11
223.18555444545851
 21
231.92537094302841
 31
0.0
  0
LINE
  5
16C
  8
1
 10
220.49999978964689
 20
219.49999982287139
 30
0.0
 11
214.99999978964689
 21
219.49999982287139
 31
0.0
1001
ACAD
1000
ASC_BOUNDS
1002
{
1070
    19
1002
}
  0
CIRCLE
  5
16D
  8
1
 10
215.8999997896469
 20
215.99999982287139
 30
0.0
 40
1.0
  0
LINE
  5
16E
  8
1
 10
220.49999978964689
 20
190.49999982287139
 30
0.0
 11
214.99999978964689
 21
190.49999982287139
 31
0.0
1001
ACAD
1000
ASC_BOUNDS
1002
{
1070
    19
1002
}
  0
CIRCLE
  5
16F
  8
1
 10
215.8999997896469
 20
193.99999982287139
 30
0.0
 40
1.0
  0
LINE
  5
170
  8
1
 10
266.57222651058879
 20
235.37314422208661
 30
0.0
 11
265.18555444545859
 21
231.92537094302841
 31
0.0
  0
ARC
  5
171
  8
1
 10
274.99999978964689
 20
177.99999982287139
 30
0.0
 40
0.2
 50
21.909671724854459
 51
158.0903282751525
  0
ARC
  5
172
  8
1
 10
269.99999978964689
 20
177.99999982287139
 30
0.0
 40
0.2
 50
21.909671724847499
 51
158.09032827514531
  0
ARC
  5
173
  8
1
 10
269.99999978964689
 20
177.99999982287139
 30
0.0
 40
0.2
 50
21.909671724854459
 51
158.0903282751525
  0
ARC
  5
174
  8
1
 10
272.49999978964689
 20
174.99999982287139
 30
0.0
 40
1.0
 50
201.9096717248475
 51
338.09032827515068
  0
ARC
  5
175
  8
1
 10
272.49999978964689
 20
174.99999982287139
 30
0.0
 40
1.0
 50
201.9096717248475
 51
338.0903282751525
  0
ARC
  5
176
  8
1
 10
267.49999978964689
 20
174.99999982287139
 30
0.0
 40
1.0
 50
201.90967172484929
 51
338.0903282751525
  0
LINE
  5
177
  8
1
 10
273.42777306870499
 20
174.6268554236562
 30
0.0
 11
274.81444513383531
 21
178.07462870271451
 31
0.0
  0
LINE
  5
178
  8
1
 10
268.42777306870499
 20
174.6268554236562
 30
0.0
 11
269.81444513383531
 21
178.07462870271451
 31
0.0
  0
LINE
  5
179
  8
1
 10
271.57222651058879
 20
174.6268554236562
 30
0.0
 11
270.18555444545848
 21
178.07462870271451
 31
0.0
  0
LINE
  5
17A
  8
1
 10
268.42777306870499
 20
174.6268554236562
 30
0.0
 11
269.81444513383531
 21
178.07462870271451
 31
0.0
  0
LINE
  5
17B
  8
1
 10
271.57222651058879
 20
174.6268554236562
 30
0.0
 11
270.18555444545848
 21
178.07462870271451
 31
0.0
  0
ARC
  5
17C
  8
1
 10
264.99999978964689
 20
177.99999982287139
 30
0.0
 40
0.2
 50
21.909671724847499
 51
158.09032827514531
  0
LINE
  5
17D
  8
1
 10
262.49999978964689
 20
173.99999982287139
 30
0.0
 11
262.49999978964689
 21
173.99999982287139
 31
0.0
  0
ARC
  5
17E
  8
1
 10
262.49999978964689
 20
174.99999982287139
 30
0.0
 40
1.0
 50
270.0
 51
338.09032827515068
  0
LINE
  5
17F
  8
1
 10
263.42777306870499
 20
174.6268554236562
 30
0.0
 11
264.81444513383531
 21
178.07462870271451
 31
0.0
  0
LINE
  5
180
  8
1
 10
220.49999978964689
 20
184.49999982287139
 30
0.0
 11
214.99999978964689
 21
184.49999982287139
 31
0.0
1001
ACAD
1000
ASC_BOUNDS
1002
{
1070
    19
1002
}
  0
ARC
  5
181
  8
1
 10
222.99999978964689
 20
177.99999982287139
 30
0.0
 40
0.2
 50
21.909671724854459
 51
158.0903282751525
  0
ARC
  5
182
  8
1
 10
225.49999978964689
 20
174.99999982287139
 30
0.0
 40
1.0
 50
201.90967172484929
 51
270.0
  0
LINE
  5
183
  8
1
 10
225.49999978964689
 20
173.99999982287139
 30
0.0
 11
225.49999978964689
 21
173.99999982287139
 31
0.0
  0
ARC
  5
184
  8
1
 10
220.49999978964689
 20
174.99999982287139
 30
0.0
 40
1.0
 50
213.49174437799181
 51
338.09032827515068
  0
LINE
  5
185
  8
1
 10
220.49999978964689
 20
173.99999982287139
 30
0.0
 11
220.49999978964689
 21
173.99999982287139
 31
0.0
  0
LINE
  5
186
  8
1
 10
220.49999978964689
 20
173.99999982287139
 30
0.0
 11
214.99999978964689
 21
173.99999982287139
 31
0.0
  0
LINE
  5
187
  8
1
 10
214.99999978964689
 20
181.49999982287139
 30
0.0
 11
219.6660344488582
 21
174.44818299605021
 31
0.0
  0
LINE
  5
188
  8
1
 10
224.57222651058879
 20
174.6268554236562
 30
0.0
 11
223.18555444545851
 21
178.07462870271451
 31
0.0
  0
LINE
  5
189
  8
1
 10
221.42777306870511
 20
174.6268554236562
 30
0.0
 11
222.81444513383531
 21
178.07462870271451
 31
0.0
  0
LINE
  5
18A
  8
1
 10
214.99999978964689
 20
173.99999982287139
 30
0.0
 11
214.99999978964689
 21
181.49999982287139
 31
0.0
  0
LINE
  5
18B
  8
1
 10
262.49999978964689
 20
173.99999982287139
 30
0.0
 11
225.49999978964689
 21
173.99999982287139
 31
0.0
  0
LINE
  5
18C
  8
1
 10
266.57222651058879
 20
174.6268554236562
 30
0.0
 11
265.18555444545859
 21
178.07462870271451
 31
0.0
  0
LINE
  5
18D
  8
1
 10
222.99999978964689
 20
231.79999982287151
 30
0.0
 11
222.99999978964689
 21
178.19999982287129
 31
0.0
  0
LINE
  5
18E
  8
1
 10
274.99999978964689
 20
231.79999982287151
 30
0.0
 11
274.99999978964689
 21
178.19999982287129
 31
0.0
  0
LINE
  5
18F
  8
1
 10
269.99999978964689
 20
231.79999982287151
 30
0.0
 11
269.99999978964689
 21
178.19999982287129
 31
0.0
  0
LINE
  5
190
  8
1
 10
264.99999978964689
 20
231.79999982287151
 30
0.0
 11
264.99999978964689
 21
178.19999982287129
 31
0.0
  0
LINE
  5
191
  8
1
 10
214.99999978964689
 20
228.49999982287139
 30
0.0
 11
214.99999978964689
 21
181.49999982287139
 31
0.0
  0
ARC
  5
192
  8
1
 10
262.49999978964689
 20
234.99999982287139
 30
0.0
 40
1.0
 50
21.909671724849321
 51
90.0
  0
ARC
  5
193
  8
1
 10
267.49999978964689
 20
234.99999982287139
 30
0.0
 40
1.0
 50
21.909671724847499
 51
158.0903282751506
  0
ARC
  5
194
  8
1
 10
272.49999978964689
 20
234.99999982287139
 30
0.0
 40
1.0
 50
21.909671724847499
 51
158.0903282751506
  0
ARC
  5
195
  8
1
 10
272.49999978964689
 20
234.99999982287139
 30
0.0
 40
1.0
 50
21.909671724849321
 51
158.0903282751525
  0
LINE
  5
196
  8
1
 10
214.99999978964689
 20
228.49999982287139
 30
0.0
 11
219.6660344488582
 21
235.5518166496926
 31
0.0
  0
ARC
  5
197
  8
1
 10
220.49999978964689
 20
234.99999982287139
 30
0.0
 40
1.0
 50
21.909671724849321
 51
146.50825562200811
  0
ARC
  5
198
  8
1
 10
225.49999978964689
 20
234.99999982287139
 30
0.0
 40
1.0
 50
90.0
 51
158.0903282751506
  0
LINE
  5
199
  8
1
 10
214.99999978964689
 20
228.49999982287139
 30
0.0
 11
214.99999978964689
 21
235.99999982287139
 31
0.0
  0
LINE
  5
19A
  8
1
 10
220.49999978964689
 20
235.93794988769011
 30
0.0
 11
220.49999978964689
 21
174.06204975805281
 31
0.0
  0
LINE
  5
19B
  8
1
 10
225.49999978964689
 20
235.99999982287139
 30
0.0
 11
225.49999978964689
 21
174.06204975805281
 31
0.0
  0
LINE
  5
19C
  8
1
 10
272.49999978964689
 20
235.93794988769011
 30
0.0
 11
272.49999978964689
 21
174.06204975805281
 31
0.0
  0
LINE
  5
19D
  8
1
 10
267.49999978964689
 20
235.93794988769011
 30
0.0
 11
267.49999978964689
 21
174.06204975805281
 31
0.0
  0
LINE
  5
19E
  8
1
 10
262.49999978964689
 20
236.0379498876901
 30
0.0
 11
262.49999978964689
 21
173.99999982287139
 31
0.0
  0
LINE
  5
19F
  8
1
 10
215.1999997896468
 20
304.28585698001717
 30
0.0
 11
215.19999978964691
 21
292.99999982287142
 31
0.0
  0
CIRCLE
  5
1A0
  8
1
 10
215.8999997896469
 20
304.99999982287142
 30
0.0
 40
1.0
  0
LINE
  5
1A1
  8
1
 10
276.57222651058879
 20
283.6268554236562
 30
0.0
 11
275.18555444545848
 21
287.07462870271451
 31
0.0
  0
LINE
  5
1A2
  8
1
 10
276.57222651058879
 20
235.37314422208661
 30
0.0
 11
275.18555444545848
 21
231.92537094302841
 31
0.0
  0
LINE
  5
1A3
  8
1
 10
276.57222651058879
 20
174.6268554236562
 30
0.0
 11
275.18555444545848
 21
178.07462870271451
 31
0.0
  0
LINE
  5
1A4
  8
1
 10
115.8999997896469
 20
317.9999998228713
 30
0.0
 11
120.99999978964691
 21
317.99999982287119
 31
0.0
1001
ACAD
1000
ASC_BOUNDS
1002
{
1070
    19
1002
}
  0
ARC
  5
1A5
  8
1
 10
116.8999997896469
 20
322.49999982287142
 30
0.0
 40
1.0
 50
180.0
 51
0.0
  0
LINE
  5
1A6
  8
1
 10
115.8999997896469
 20
324.99999982287142
 30
0.0
 11
115.3999997896469
 21
325.49999982287142
 31
0.0
  0
CIRCLE
  5
1A7
  8
1
 10
111.8999997896469
 20
322.49999982287142
 30
0.0
 40
1.0
  0
LINE
  5
1A8
  8
1
 10
115.8999997896469
 20
324.53742977281382
 30
0.0
 11
115.8999997896469
 21
322.49999982287142
 31
0.0
  0
CIRCLE
  5
1A9
  8
1
 10
111.8999997896469
 20
322.49999982287142
 30
0.0
 40
1.75
  0
LINE
  5
1AA
  8
1
 10
115.8999997896469
 20
324.99999982287142
 30
0.0
 11
115.8999997896469
 21
322.49999982287142
 31
0.0
  0
LINE
  5
1AB
  8
1
 10
99.399999789647097
 20
325.49999982287142
 30
0.0
 11
98.899999789647083
 21
324.99999982287142
 31
0.0
  0
LINE
  5
1AC
  8
1
 10
106.8999997896469
 20
317.99999982287142
 30
0.0
 11
107.8999997896469
 21
317.99999982287142
 31
0.0
  0
LINE
  5
1AD
  8
1
 10
98.89999978964704
 20
317.99999982287142
 30
0.0
 11
98.899999789647083
 21
324.99999982287142
 31
0.0
  0
LINE
  5
1AE
  8
1
 10
106.8999997896469
 20
325.49999982287142
 30
0.0
 11
106.8999997896469
 21
317.99999982287142
 31
0.0
  0
LINE
  5
1AF
  8
1
 10
115.8999997896469
 20
324.53742977281382
 30
0.0
 11
107.8999997896469
 21
324.53742977281382
 31
0.0
  0
LINE
  5
1B0
  8
1
 10
115.8999997896469
 20
319.49999982287142
 30
0.0
 11
107.8999997896469
 21
319.49999982287142
 31
0.0
  0
LINE
  5
1B1
  8
1
 10
99.399999789647097
 20
325.49999982287142
 30
0.0
 11
115.3999997896469
 21
325.49999982287142
 31
0.0
  0
LINE
  5
1B2
  8
1
 10
69.237533908515715
 20
317.99999982287142
 30
0.0
 11
107.8999997896469
 21
317.9999998228713
 31
0.0
1001
ACAD
1000
ASC_BOUNDS
1002
{
1070
    19
1002
}
  0
LINE
  5
1B3
  8
1
 10
213.99999978964689
 20
335.99999982287142
 30
0.0
 11
215.1999997896468
 21
335.99999982287142
 31
0.0
1001
ACAD
1000
ASC_BOUNDS
1002
{
1070
    19
1005
0
1002
}
  0
ARC
  5
1B4
  8
1
 62
     9
 10
203.99999978964681
 20
337.49999982287142
 30
0.0
 40
3.0
 50
350.40593177313951
 51
189.5940682268604
  0
ARC
  5
1B5
  8
1
 10
203.99999978964681
 20
337.49999982287142
 30
0.0
 40
2.5499999999999989
 50
348.69227056586459
 51
191.3077294341353
  0
LINE
  5
1B6
  8
1
 10
168.88299043176301
 20
331.98303458453972
 30
0.0
 11
167.38299043176309
 21
332.84905998832409
 31
0.0
  0
LINE
  5
1B7
  8
1
 10
167.38299043176309
 20
332.84905998832409
 30
0.0
 11
165.88299043176301
 21
331.98303458453972
 31
0.0
  0
LINE
  5
1B8
  8
1
 10
165.88299043176301
 20
331.98303458453972
 30
0.0
 11
165.88299043176301
 21
330.25098377697083
 31
0.0
  0
LINE
  5
1B9
  8
1
 10
165.88299043176301
 20
330.25098377697083
 30
0.0
 11
167.38299043176309
 21
329.38495837318641
 31
0.0
  0
LINE
  5
1BA
  8
1
 10
167.38299043176309
 20
329.38495837318641
 30
0.0
 11
168.88299043176301
 21
330.25098377697083
 31
0.0
  0
LINE
  5
1BB
  8
1
 10
168.88299043176301
 20
330.25098377697083
 30
0.0
 11
168.88299043176301
 21
331.98303458453972
 31
0.0
  0
CIRCLE
  5
1BC
  8
1
 10
167.38299043176309
 20
331.1170091807553
 30
0.0
 40
2.9803847577293361
  0
CIRCLE
  5
1BD
  8
1
 10
167.38299043176309
 20
331.1170091807553
 30
0.0
 40
3.5
  0
LINE
  5
1BE
  8
1
 10
202.11700914753069
 20
331.98303458453972
 30
0.0
 11
200.61700914753081
 21
332.84905998832409
 31
0.0
  0
LINE
  5
1BF
  8
1
 10
200.61700914753081
 20
332.84905998832409
 30
0.0
 11
199.11700914753081
 21
331.98303458453972
 31
0.0
  0
LINE
  5
1C0
  8
1
 10
199.11700914753081
 20
331.98303458453972
 30
0.0
 11
199.11700914753081
 21
330.25098377697083
 31
0.0
  0
LINE
  5
1C1
  8
1
 10
199.11700914753081
 20
330.25098377697083
 30
0.0
 11
200.61700914753081
 21
329.38495837318641
 31
0.0
  0
LINE
  5
1C2
  8
1
 10
200.61700914753081
 20
329.38495837318641
 30
0.0
 11
202.11700914753069
 21
330.25098377697083
 31
0.0
  0
LINE
  5
1C3
  8
1
 10
202.11700914753069
 20
330.25098377697083
 30
0.0
 11
202.11700914753069
 21
331.98303458453972
 31
0.0
  0
CIRCLE
  5
1C4
  8
1
 10
200.61700914753081
 20
331.1170091807553
 30
0.0
 40
2.9803847577293361
  0
CIRCLE
  5
1C5
  8
1
 10
200.61700914753081
 20
331.1170091807553
 30
0.0
 40
3.5
  0
ARC
  5
1C6
  8
1
 10
153.99999978964681
 20
337.49999982287142
 30
0.0
 40
2.5499999999999989
 50
348.69227056586459
 51
191.3077294341353
  0
ARC
  5
1C7
  8
1
 62
     9
 10
153.99999978964681
 20
337.49999982287147
 30
0.0
 40
3.0
 50
350.40593177313832
 51
189.59406822686159
  0
LINE
  5
1C8
  8
1
 10
196.99999978964689
 20
344.49999982287147
 30
0.0
 11
213.99999978964689
 21
344.49999982287142
 31
0.0
  0
LINE
  5
1C9
  8
1
 10
143.99999978964689
 20
344.4999998228717
 30
0.0
 11
170.99999978964689
 21
344.49999982287147
 31
0.0
  0
LINE
  5
1CA
  8
1
 10
195.99999978964689
 20
346.99999982287147
 30
0.0
 11
196.99999978964689
 21
345.99999982287147
 31
0.0
  0
LINE
  5
1CB
  8
1
 10
195.19999978964691
 20
336.99999982287142
 30
0.0
 11
196.99999978964689
 21
336.99999982287147
 31
0.0
  0
LINE
  5
1CC
  8
1
 10
196.99999978964689
 20
345.99999982287147
 30
0.0
 11
196.99999978964689
 21
336.99999982287147
 31
0.0
  0
CIRCLE
  5
1CD
  8
1
 10
200.61700914753081
 20
331.1170091807553
 30
0.0
 40
4.0
  0
LINE
  5
1CE
  8
1
 10
170.99999978964689
 20
345.99999982287147
 30
0.0
 11
171.99999978964689
 21
346.99999982287147
 31
0.0
  0
LINE
  5
1CF
  8
1
 10
170.99999978964689
 20
336.99999982287147
 30
0.0
 11
172.79999978964699
 21
336.99999982287147
 31
0.0
  0
LINE
  5
1D0
  8
1
 10
170.99999978964689
 20
345.99999982287147
 30
0.0
 11
170.99999978964689
 21
336.99999982287147
 31
0.0
  0
LINE
  5
1D1
  8
1
 10
148.49999978964701
 20
332.97392974338652
 30
0.0
 11
144.49999978964681
 21
332.97392974338641
 31
0.0
  0
LINE
  5
1D2
  8
1
 10
148.99999978964701
 20
332.47392974338652
 30
0.0
 11
148.49999978964701
 21
332.97392974338652
 31
0.0
  0
LINE
  5
1D3
  8
1
 10
144.49999978964681
 20
332.97392974338641
 30
0.0
 11
143.99999978964681
 21
332.47392974338641
 31
0.0
  0
LINE
  5
1D4
  8
1
 10
143.99999978964681
 20
323.50559982287137
 30
0.0
 11
148.99999978964689
 21
323.50559982287137
 31
0.0
1001
ACAD
1000
ASC_BOUNDS
1002
{
1070
    19
1002
}
  0
CIRCLE
  5
1D5
  8
1
 10
124.99999978964691
 20
314.49999982287142
 30
0.0
 40
1.0
  0
LINE
  5
1D6
  8
1
 10
117.8999997896469
 20
322.49999982287142
 30
0.0
 11
120.99999978964691
 21
322.49999982287142
 31
0.0
  0
LINE
  5
1D7
  8
1
 10
117.8999997896469
 20
322.49999982287142
 30
0.0
 11
117.8999997896469
 21
317.99999982287119
 31
0.0
  0
CIRCLE
  5
1D8
  8
1
 10
167.38299043176309
 20
331.1170091807553
 30
0.0
 40
4.0
  0
LINE
  5
1D9
  8
1
 10
172.79999978964699
 20
336.99999982287147
 30
0.0
 11
195.19999978964691
 21
336.99999982287142
 31
0.0
  0
LINE
  5
1DA
  8
1
 10
171.99999978964689
 20
346.99999982287147
 30
0.0
 11
195.99999978964689
 21
346.99999982287147
 31
0.0
  0
LINE
  5
1DB
  8
1
 10
170.99999978964689
 20
345.99999982287147
 30
0.0
 11
196.99999978964689
 21
345.99999982287147
 31
0.0
  0
LINE
  5
1DC
  8
1
 10
202.1176707216402
 20
336.49999982287142
 30
0.0
 11
165.8823288576535
 21
336.49999982287142
 31
0.0
  0
LINE
  5
1DD
  8
1
 10
213.99999978964689
 20
336.99999982287142
 30
0.0
 11
148.99999978964689
 21
336.99999982287142
 31
0.0
  0
LINE
  5
1DE
  8
1
 10
143.99999978964689
 20
327.49999982287147
 30
0.0
 11
139.99999978964689
 21
327.49999982287147
 31
0.0
  0
LINE
  5
1DF
  8
1
 10
139.99999978964689
 20
325.49999982287142
 30
0.0
 11
135.8999997896469
 21
325.49999982287142
 31
0.0
  0
LINE
  5
1E0
  8
1
 10
120.99999978964691
 20
326.99999982287142
 30
0.0
 11
121.99999978964691
 21
327.99999982287142
 31
0.0
  0
LINE
  5
1E1
  8
1
 10
135.99999978964701
 20
327.99999982287142
 30
0.0
 11
121.99999978964691
 21
327.99999982287142
 31
0.0
  0
LINE
  5
1E2
  8
1
 10
148.99999978964689
 20
324.49999982287142
 30
0.0
 11
148.99999978964689
 21
332.47392974338652
 31
0.0
  0
LINE
  5
1E3
  8
1
 10
282.7999997896469
 20
335.99999982287142
 30
0.0
 11
282.7999997896469
 21
338.50137420819237
 31
0.0
1001
ACAD
1000
ASC_BOUNDS
1002
{
1070
    19
1005
0
1002
}
  0
LINE
  5
1E4
  8
1
 10
283.99999978964689
 20
335.99999982287142
 30
0.0
 11
282.7999997896469
 21
335.99999982287142
 31
0.0
1001
ACAD
1000
ASC_BOUNDS
1002
{
1070
    19
1005
0
1002
}
  0
ARC
  5
1E5
  8
1
 10
281.79999978964679
 20
338.50137420819237
 30
0.0
 40
1.0
 50
0.0
 51
33.491744377991687
1001
ACAD
1000
ASC_BOUNDS
1002
{
1070
    19
1005
0
1002
}
  0
LINE
  5
1E6
  8
1
 10
282.7999997896469
 20
335.99999982287142
 30
0.0
 11
282.7999997896469
 21
324.71414266572577
 31
0.0
  0
LINE
  5
1E7
  8
1
 10
310.49999978964689
 20
313.0566241498974
 30
0.0
 11
310.49999978964689
 21
315.9433754958456
 31
0.0
  0
LINE
  5
1E8
  8
1
 10
307.99999978964689
 20
317.38675116881961
 30
0.0
 11
305.49999978964689
 21
315.9433754958456
 31
0.0
  0
LINE
  5
1E9
  8
1
 10
305.49999978964689
 20
315.9433754958456
 30
0.0
 11
305.49999978964689
 21
313.0566241498974
 31
0.0
  0
LINE
  5
1EA
  8
1
 10
310.49999978964689
 20
315.9433754958456
 30
0.0
 11
307.99999978964689
 21
317.38675116881961
 31
0.0
  0
LINE
  5
1EB
  8
1
 10
292.49999978964689
 20
322.05662414989729
 30
0.0
 11
292.49999978964689
 21
324.94337549584549
 31
0.0
  0
LINE
  5
1EC
  8
1
 10
289.99999978964689
 20
326.38675116881961
 30
0.0
 11
287.49999978964689
 21
324.94337549584549
 31
0.0
  0
LINE
  5
1ED
  8
1
 10
287.49999978964689
 20
322.05662414989729
 30
0.0
 11
289.99999978964689
 21
320.61324847692327
 31
0.0
  0
LINE
  5
1EE
  8
1
 10
287.49999978964689
 20
324.94337549584549
 30
0.0
 11
287.49999978964689
 21
322.05662414989729
 31
0.0
  0
LINE
  5
1EF
  8
1
 10
292.49999978964689
 20
324.94337549584549
 30
0.0
 11
289.99999978964689
 21
326.38675116881961
 31
0.0
  0
LINE
  5
1F0
  8
1
 10
289.99999978964689
 20
320.61324847692327
 30
0.0
 11
292.49999978964689
 21
322.05662414989729
 31
0.0
  0
CIRCLE
  5
1F1
  8
1
 10
289.99999978964689
 20
323.49999982287142
 30
0.0
 40
4.3071796769724484
  0
CIRCLE
  5
1F2
  8
1
 10
289.99999978964689
 20
323.49999982287142
 30
0.0
 40
5.0
  0
ARC
  5
1F3
  8
1
 10
289.99999978964689
 20
323.49999982287142
 30
0.0
 40
7.0
 50
211.0027191338736
 51
148.9972808661262
  0
CIRCLE
  5
1F4
  8
1
 62
     9
 10
289.99999978964689
 20
337.49999982287142
 30
0.0
 40
3.0
  0
CIRCLE
  5
1F5
  8
1
 10
289.99999978964689
 20
337.49999982287142
 30
0.0
 40
2.5499999999999989
  0
LINE
  5
1F6
  8
1
  6
HIDDEN
 10
287.49949983963688
 20
336.99999982287142
 30
0.0
 11
283.99999978964689
 21
336.99999982287142
 31
0.0
  0
LINE
  5
1F7
  8
1
 10
292.5004997396569
 20
336.99999982287142
 30
0.0
 11
287.49949983963688
 21
336.99999982287142
 31
0.0
  0
ARC
  5
1F8
  8
1
 10
277.49999978964689
 20
344.99999982287142
 30
0.0
 40
1.0
 50
33.491744377991687
 51
158.0903282751506
  0
LINE
  5
1F9
  8
1
 10
277.49999978964689
 20
345.99999982287142
 30
0.0
 11
282.79999978964668
 21
345.99999982287142
 31
0.0
  0
LINE
  5
1FA
  8
1
 10
282.7999997896469
 20
332.99999982287142
 30
0.0
 11
277.49999978964678
 21
332.99999982287142
 31
0.0
1001
ACAD
1000
ASC_BOUNDS
1002
{
1070
    19
1002
}
  0
LINE
  5
1FB
  8
1
 10
282.63396513043563
 20
339.0531910350137
 30
0.0
 11
278.33396513043567
 21
345.55181664969268
 31
0.0
  0
LINE
  5
1FC
  8
1
 10
282.79999978964668
 20
338.50137420819237
 30
0.0
 11
282.79999978964668
 21
345.99999982287142
 31
0.0
  0
CIRCLE
  5
1FD
  8
1
 10
282.09999978964692
 20
323.99999982287142
 30
0.0
 40
1.0
  0
LINE
  5
1FE
  8
1
 10
282.7999997896469
 20
326.99999982287147
 30
0.0
 11
277.49999978964678
 21
326.99999982287142
 31
0.0
1001
ACAD
1000
ASC_BOUNDS
1002
{
1070
    19
1002
}
  0
ARC
  5
1FF
  8
1
 10
274.99999978964689
 20
341.99999982287142
 30
0.0
 40
0.2
 50
201.9096717248475
 51
338.09032827514551
  0
LINE
  5
200
  8
1
 10
271.57222651058879
 20
345.37314422208658
 30
0.0
 11
270.18555444545848
 21
341.92537094302833
 31
0.0
  0
ARC
  5
201
  8
1
 10
269.99999978964689
 20
341.99999982287142
 30
0.0
 40
0.2
 50
201.9096717248475
 51
338.09032827514551
  0
LINE
  5
202
  8
1
 10
268.42777306870499
 20
345.37314422208658
 30
0.0
 11
269.81444513383531
 21
341.92537094302833
 31
0.0
  0
LINE
  5
203
  8
1
 10
271.57222651058879
 20
345.37314422208658
 30
0.0
 11
270.18555444545848
 21
341.92537094302833
 31
0.0
  0
ARC
  5
204
  8
1
 10
269.99999978964689
 20
341.99999982287142
 30
0.0
 40
0.2
 50
201.9096717248546
 51
338.0903282751525
  0
LINE
  5
205
  8
1
 10
268.42777306870499
 20
345.37314422208658
 30
0.0
 11
269.81444513383531
 21
341.92537094302833
 31
0.0
  0
LINE
  5
206
  8
1
 10
273.42777306870499
 20
345.37314422208658
 30
0.0
 11
274.81444513383531
 21
341.92537094302833
 31
0.0
  0
ARC
  5
207
  8
1
 10
267.49999978964689
 20
344.99999982287142
 30
0.0
 40
1.0
 50
21.909671724847499
 51
158.0903282751506
  0
ARC
  5
208
  8
1
 10
272.49999978964689
 20
344.99999982287142
 30
0.0
 40
1.0
 50
21.909671724847499
 51
158.0903282751506
  0
ARC
  5
209
  8
1
 10
272.49999978964689
 20
344.99999982287142
 30
0.0
 40
1.0
 50
21.909671724849321
 51
158.0903282751525
  0
LINE
  5
20A
  8
1
 10
262.49999978964689
 20
345.99999982287142
 30
0.0
 11
262.49999978964689
 21
345.99999982287142
 31
0.0
  0
ARC
  5
20B
  8
1
 10
264.99999978964689
 20
341.99999982287142
 30
0.0
 40
0.2
 50
201.9096717248546
 51
338.0903282751525
  0
LINE
  5
20C
  8
1
 10
263.42777306870499
 20
345.37314422208658
 30
0.0
 11
264.81444513383531
 21
341.92537094302833
 31
0.0
  0
ARC
  5
20D
  8
1
 10
262.49999978964689
 20
344.99999982287142
 30
0.0
 40
1.0
 50
21.909671724849321
 51
90.0
  0
LINE
  5
20E
  8
1
 10
225.49999978964689
 20
345.99999982287142
 30
0.0
 11
225.49999978964689
 21
345.99999982287142
 31
0.0
  0
ARC
  5
20F
  8
1
 10
225.49999978964689
 20
344.99999982287142
 30
0.0
 40
1.0
 50
90.0
 51
158.0903282751506
  0
LINE
  5
210
  8
1
 10
220.49999978964689
 20
345.99999982287142
 30
0.0
 11
220.49999978964689
 21
345.99999982287142
 31
0.0
  0
LINE
  5
211
  8
1
 10
220.49999978964689
 20
345.99999982287142
 30
0.0
 11
215.19999978964699
 21
345.99999982287142
 31
0.0
  0
LINE
  5
212
  8
1
 10
221.42777306870511
 20
345.37314422208658
 30
0.0
 11
222.81444513383531
 21
341.92537094302833
 31
0.0
  0
ARC
  5
213
  8
1
 10
222.99999978964689
 20
341.99999982287142
 30
0.0
 40
0.2
 50
201.9096717248475
 51
338.09032827514551
  0
ARC
  5
214
  8
1
 10
220.49999978964689
 20
344.99999982287142
 30
0.0
 40
1.0
 50
21.909671724849321
 51
146.50825562200811
  0
LINE
  5
215
  8
1
 10
224.57222651058879
 20
345.37314422208658
 30
0.0
 11
223.18555444545851
 21
341.92537094302833
 31
0.0
  0
LINE
  5
216
  8
1
 10
215.19999978964691
 20
335.99999982287142
 30
0.0
 11
215.19999978964691
 21
338.50137420819209
 31
0.0
1001
ACAD
1000
ASC_BOUNDS
1002
{
1070
    19
1005
0
1002
}
  0
ARC
  5
217
  8
1
 10
216.19999978964691
 20
338.50137420819209
 30
0.0
 40
1.0
 50
146.50825562200811
 51
180.0
1001
ACAD
1000
ASC_BOUNDS
1002
{
1070
    19
1005
0
1002
}
  0
LINE
  5
218
  8
1
 10
220.49999978964681
 20
332.99999982287142
 30
0.0
 11
215.1999997896468
 21
332.99999982287142
 31
0.0
1001
ACAD
1000
ASC_BOUNDS
1002
{
1070
    19
1002
}
  0
LINE
  5
219
  8
1
 10
215.36603444885819
 20
339.05319103501341
 30
0.0
 11
219.6660344488582
 21
345.55181664969268
 31
0.0
  0
LINE
  5
21A
  8
1
 10
215.19999978964699
 20
338.50137420819237
 30
0.0
 11
215.19999978964699
 21
345.99999982287142
 31
0.0
  0
LINE
  5
21B
  8
1
 10
262.49999978964689
 20
345.99999982287142
 30
0.0
 11
225.49999978964689
 21
345.99999982287142
 31
0.0
  0
LINE
  5
21C
  8
1
 10
266.57222651058879
 20
345.37314422208658
 30
0.0
 11
265.18555444545859
 21
341.92537094302833
 31
0.0
  0
CIRCLE
  5
21D
  8
1
 10
215.8999997896469
 20
323.99999982287142
 30
0.0
 40
1.0
  0
LINE
  5
21E
  8
1
 10
220.49999978964681
 20
326.99999982287147
 30
0.0
 11
215.1999997896468
 21
326.99999982287142
 31
0.0
1001
ACAD
1000
ASC_BOUNDS
1002
{
1070
    19
1002
}
  0
LINE
  5
21F
  8
1
 10
215.19999978964691
 20
335.99999982287142
 30
0.0
 11
215.19999978964691
 21
324.71414266572577
 31
0.0
  0
LINE
  5
220
  8
1
 10
276.57222651058879
 20
345.37314422208658
 30
0.0
 11
275.18555444545848
 21
341.92537094302833
 31
0.0
  0
LINE
  5
221
  8
1
 10
323.99999978964672
 20
284.49999982287142
 30
0.0
 11
323.99999978964672
 21
344.49999982287142
 31
0.0
  0
LINE
  5
222
  8
1
  6
HIDDEN
 10
313.99999978964689
 20
291.99999982287142
 30
0.0
 11
313.99999978964689
 21
336.99999982287142
 31
0.0
  0
LINE
  5
223
  8
1
 10
314.49999978964689
 20
229.49999982287139
 30
0.0
 11
313.99999978964689
 21
229.49999982287139
 31
0.0
  0
LINE
  5
224
  8
1
  6
CENTER
 10
314.49999978964689
 20
230.49999982287139
 30
0.0
 11
314.49999978964689
 21
229.49999982287139
 31
0.0
  0
LINE
  5
225
  8
1
 10
323.99999978964672
 20
245.49999982287139
 30
0.0
 11
323.99999978964672
 21
230.49999982287139
 31
0.0
  0
CIRCLE
  5
226
  8
1
 62
     9
 10
317.99999978964689
 20
291.49999982287142
 30
0.0
 40
3.0
  0
CIRCLE
  5
227
  8
1
 10
317.99999978964689
 20
291.49999982287142
 30
0.0
 40
2.5499999999999989
  0
LINE
  5
228
  8
1
  6
HIDDEN
 10
320.5499997896469
 20
245.4999998228715
 30
0.0
 11
320.5499997896469
 21
230.49999982287139
 31
0.0
  0
LINE
  5
229
  8
1
  6
HIDDEN
 62
     9
 10
320.99999978964689
 20
245.4999998228715
 30
0.0
 11
320.99999978964689
 21
230.49999982287139
 31
0.0
  0
LINE
  5
22A
  8
1
  6
HIDDEN
 10
315.44999978964688
 20
245.4999998228715
 30
0.0
 11
315.44999978964688
 21
230.49999982287139
 31
0.0
  0
LINE
  5
22B
  8
1
  6
HIDDEN
 62
     9
 10
314.99999978964689
 20
245.4999998228715
 30
0.0
 11
314.99999978964689
 21
230.49999982287139
 31
0.0
  0
LINE
  5
22C
  8
1
 10
313.99999978964689
 20
229.49999982287139
 30
0.0
 11
313.99999978964689
 21
180.49999982287139
 31
0.0
  0
CIRCLE
  5
22D
  8
1
 62
     9
 10
317.99999978964689
 20
337.49999982287142
 30
0.0
 40
3.0
  0
CIRCLE
  5
22E
  8
1
 10
317.99999978964689
 20
337.49999982287142
 30
0.0
 40
2.5499999999999989
  0
ENDSEC
  0
EOF
