  0
SECTION
  2
HEADER
  9
$ACADVER
  1
AC1015
  9
$ACADMAINTVER
 70
    20
  9
$DWGCODEPAGE
  3
ANSI_932
  9
$INSBASE
 10
0.0
 20
0.0
 30
0.0
  9
$EXTMIN
 10
32.42343365693239
 20
-13.39108769027035
 30
0.0
  9
$EXTMAX
 10
206.0305348712217
 20
74.94695730126813
 30
0.0000000000000003
  9
$LIMMIN
 10
0.0
 20
0.0
  9
$LIMMAX
 10
10000.0
 20
10000.0
  9
$ORTHOMODE
 70
     1
  9
$REGENMODE
 70
     1
  9
$FILLMODE
 70
     1
  9
$QTEXTMODE
 70
     0
  9
$MIRRTEXT
 70
     1
  9
$LTSCALE
 40
5.0
  9
$ATTMODE
 70
     1
  9
$TEXTSIZE
 40
3.5
  9
$TRACEWID
 40
1.0
  9
$TEXTSTYLE
  7
AD-STANDARD
  9
$CLAYER
  8
1
  9
$CELTYPE
  6
ByLayer
  9
$CECOLOR
 62
   256
  9
$CELTSCALE
 40
1.0
  9
$DISPSILH
 70
     0
  9
$DIMSCALE
 40
1.0
  9
$DIMASZ
 40
0.18
  9
$DIMEXO
 40
0.0625
  9
$DIMDLI
 40
0.38
  9
$DIMRND
 40
0.0
  9
$DIMDLE
 40
0.0
  9
$DIMEXE
 40
0.18
  9
$DIMTP
 40
0.0
  9
$DIMTM
 40
0.0
  9
$DIMTXT
 40
0.18
  9
$DIMCEN
 40
0.09
  9
$DIMTSZ
 40
0.0
  9
$DIMTOL
 70
     0
  9
$DIMLIM
 70
     0
  9
$DIMTIH
 70
     1
  9
$DIMTOH
 70
     1
  9
$DIMSE1
 70
     0
  9
$DIMSE2
 70
     0
  9
$DIMTAD
 70
     0
  9
$DIMZIN
 70
     0
  9
$DIMBLK
  1

  9
$DIMASO
 70
     1
  9
$DIMSHO
 70
     1
  9
$DIMPOST
  1

  9
$DIMAPOST
  1

  9
$DIMALT
 70
     0
  9
$DIMALTD
 70
     2
  9
$DIMALTF
 40
25.4
  9
$DIMLFAC
 40
1.0
  9
$DIMTOFL
 70
     0
  9
$DIMTVP
 40
0.0
  9
$DIMTIX
 70
     0
  9
$DIMSOXD
 70
     0
  9
$DIMSAH
 70
     0
  9
$DIMBLK1
  1

  9
$DIMBLK2
  1

  9
$DIMSTYLE
  2
STANDARD
  9
$DIMCLRD
 70
     0
  9
$DIMCLRE
 70
     0
  9
$DIMCLRT
 70
     0
  9
$DIMTFAC
 40
1.0
  9
$DIMGAP
 40
0.09
  9
$DIMJUST
 70
     0
  9
$DIMSD1
 70
     0
  9
$DIMSD2
 70
     0
  9
$DIMTOLJ
 70
     1
  9
$DIMTZIN
 70
     0
  9
$DIMALTZ
 70
     0
  9
$DIMALTTZ
 70
     0
  9
$DIMUPT
 70
     0
  9
$DIMDEC
 70
     4
  9
$DIMTDEC
 70
     4
  9
$DIMALTU
 70
     2
  9
$DIMALTTD
 70
     2
  9
$DIMTXSTY
  7
STANDARD
  9
$DIMAUNIT
 70
     0
  9
$DIMADEC
 70
     0
  9
$DIMALTRND
 40
0.0
  9
$DIMAZIN
 70
     0
  9
$DIMDSEP
 70
    46
  9
$DIMATFIT
 70
     3
  9
$DIMFRAC
 70
     0
  9
$DIMLDRBLK
  1

  9
$DIMLUNIT
 70
     2
  9
$DIMLWD
 70
    -2
  9
$DIMLWE
 70
    -2
  9
$DIMTMOVE
 70
     0
  9
$LUNITS
 70
     2
  9
$LUPREC
 70
     4
  9
$SKETCHINC
 40
1.0
  9
$FILLETRAD
 40
3.0
  9
$AUNITS
 70
     0
  9
$AUPREC
 70
     0
  9
$MENU
  1
.
  9
$ELEVATION
 40
0.0
  9
$PELEVATION
 40
0.0
  9
$THICKNESS
 40
0.0
  9
$LIMCHECK
 70
     0
  9
$CHAMFERA
 40
1.0
  9
$CHAMFERB
 40
1.0
  9
$CHAMFERC
 40
0.0
  9
$CHAMFERD
 40
0.0
  9
$SKPOLY
 70
     0
  9
$TDCREATE
 40
2451430.616412153
  9
$TDUCREATE
 40
2451430.241412153
  9
$TDUPDATE
 40
2457809.458246250
  9
$TDUUPDATE
 40
2457809.083246250
  9
$TDINDWG
 40
0.5353204051
  9
$TDUSRTIMER
 40
0.5353170139
  9
$USRTIMER
 70
     1
  9
$ANGBASE
 50
0.0
  9
$ANGDIR
 70
     0
  9
$PDMODE
 70
     0
  9
$PDSIZE
 40
0.0
  9
$PLINEWID
 40
0.0
  9
$SPLFRAME
 70
     0
  9
$SPLINETYPE
 70
     6
  9
$SPLINESEGS
 70
     8
  9
$HANDSEED
  5
37F5
  9
$SURFTAB1
 70
     6
  9
$SURFTAB2
 70
     6
  9
$SURFTYPE
 70
     6
  9
$SURFU
 70
     6
  9
$SURFV
 70
     6
  9
$UCSBASE
  2

  9
$UCSNAME
  2

  9
$UCSORG
 10
0.0
 20
0.0
 30
0.0
  9
$UCSXDIR
 10
1.0
 20
0.0
 30
0.0
  9
$UCSYDIR
 10
0.0
 20
1.0
 30
0.0
  9
$UCSORTHOREF
  2

  9
$UCSORTHOVIEW
 70
     0
  9
$UCSORGTOP
 10
0.0
 20
0.0
 30
0.0
  9
$UCSORGBOTTOM
 10
0.0
 20
0.0
 30
0.0
  9
$UCSORGLEFT
 10
0.0
 20
0.0
 30
0.0
  9
$UCSORGRIGHT
 10
0.0
 20
0.0
 30
0.0
  9
$UCSORGFRONT
 10
0.0
 20
0.0
 30
0.0
  9
$UCSORGBACK
 10
0.0
 20
0.0
 30
0.0
  9
$PUCSBASE
  2

  9
$PUCSNAME
  2

  9
$PUCSORG
 10
0.0
 20
0.0
 30
0.0
  9
$PUCSXDIR
 10
1.0
 20
0.0
 30
0.0
  9
$PUCSYDIR
 10
0.0
 20
1.0
 30
0.0
  9
$PUCSORTHOREF
  2

  9
$PUCSORTHOVIEW
 70
     0
  9
$PUCSORGTOP
 10
0.0
 20
0.0
 30
0.0
  9
$PUCSORGBOTTOM
 10
0.0
 20
0.0
 30
0.0
  9
$PUCSORGLEFT
 10
0.0
 20
0.0
 30
0.0
  9
$PUCSORGRIGHT
 10
0.0
 20
0.0
 30
0.0
  9
$PUCSORGFRONT
 10
0.0
 20
0.0
 30
0.0
  9
$PUCSORGBACK
 10
0.0
 20
0.0
 30
0.0
  9
$USERI1
 70
     0
  9
$USERI2
 70
     0
  9
$USERI3
 70
     0
  9
$USERI4
 70
     0
  9
$USERI5
 70
     0
  9
$USERR1
 40
0.0
  9
$USERR2
 40
0.0
  9
$USERR3
 40
0.0
  9
$USERR4
 40
0.0
  9
$USERR5
 40
0.0
  9
$WORLDVIEW
 70
     1
  9
$SHADEDGE
 70
     3
  9
$SHADEDIF
 70
    70
  9
$TILEMODE
 70
     1
  9
$MAXACTVP
 70
    16
  9
$PINSBASE
 10
0.0
 20
0.0
 30
0.0
  9
$PLIMCHECK
 70
     0
  9
$PEXTMIN
 10
19.97038015850636
 20
11.9914011242746
 30
-0.0015258207003583
  9
$PEXTMAX
 10
405.0240582606964
 20
277.0065309557604
 30
0.0000000349246037
  9
$PLIMMIN
 10
15.76430453940196
 20
7.785309397034174
  9
$PLIMMAX
 10
409.2301499879368
 20
286.0042664709998
  9
$UNITMODE
 70
     0
  9
$VISRETAIN
 70
     0
  9
$PLINEGEN
 70
     0
  9
$PSLTSCALE
 70
     1
  9
$TREEDEPTH
 70
  3020
  9
$CMLSTYLE
  2
Standard
  9
$CMLJUST
 70
     0
  9
$CMLSCALE
 40
1.0
  9
$PROXYGRAPHICS
 70
     1
  9
$MEASUREMENT
 70
     0
  9
$CELWEIGHT
370
    -1
  9
$ENDCAPS
280
     0
  9
$JOINSTYLE
280
     0
  9
$LWDISPLAY
290
     0
  9
$INSUNITS
 70
     0
  9
$HYPERLINKBASE
  1

  9
$STYLESHEET
  1

  9
$XEDIT
290
     1
  9
$CEPSNTYPE
380
     0
  9
$PSTYLEMODE
290
     1
  9
$FINGERPRINTGUID
  2
{5D974417-81C9-4A45-AA13-70551A44F738}
  9
$VERSIONGUID
  2
{AE5805F6-35B2-47FA-A5FC-C207A1C772A1}
  9
$EXTNAMES
290
     1
  9
$PSVPSCALE
 40
0.0
  9
$OLESTARTUP
290
     0
  0
ENDSEC
  0
SECTION
  2
CLASSES
  0
CLASS
  1
ACDBDICTIONARYWDFLT
  2
AcDbDictionaryWithDefault
  3
ObjectDBX Classes
 90
        0
280
     0
281
     0
  0
CLASS
  1
MATERIAL
  2
AcDbMaterial
  3
ObjectDBX Classes
 90
     1153
280
     0
281
     0
  0
CLASS
  1
VISUALSTYLE
  2
AcDbVisualStyle
  3
ObjectDBX Classes
 90
     4095
280
     0
281
     0
  0
CLASS
  1
SCALE
  2
AcDbScale
  3
ObjectDBX Classes
 90
     1153
280
     0
281
     0
  0
CLASS
  1
TABLESTYLE
  2
AcDbTableStyle
  3
ObjectDBX Classes
 90
     4095
280
     0
281
     0
  0
CLASS
  1
MLEADERSTYLE
  2
AcDbMLeaderStyle
  3
ACDB_MLEADERSTYLE_CLASS
 90
     4095
280
     0
281
     0
  0
CLASS
  1
ACDBSECTIONVIEWSTYLE
  2
AcDbSectionViewStyle
  3
ObjectDBX Classes
 90
     1025
280
     0
281
     0
  0
CLASS
  1
ACDBDETAILVIEWSTYLE
  2
AcDbDetailViewStyle
  3
ObjectDBX Classes
 90
     1025
280
     0
281
     0
  0
CLASS
  1
SORTENTSTABLE
  2
AcDbSortentsTable
  3
ObjectDBX Classes
 90
        0
280
     0
281
     0
  0
CLASS
  1
DICTIONARYVAR
  2
AcDbDictionaryVar
  3
ObjectDBX Classes
 90
        0
280
     0
281
     0
  0
CLASS
  1
CELLSTYLEMAP
  2
AcDbCellStyleMap
  3
ObjectDBX Classes
 90
     1152
280
     0
281
     0
  0
CLASS
  1
ACDBPLACEHOLDER
  2
AcDbPlaceHolder
  3
ObjectDBX Classes
 90
        0
280
     0
281
     0
  0
CLASS
  1
LAYOUT
  2
AcDbLayout
  3
ObjectDBX Classes
 90
        0
280
     0
281
     0
  0
ENDSEC
  0
SECTION
  2
TABLES
  0
TABLE
  2
VPORT
  5
35F1
330
0
100
AcDbSymbolTable
 70
     1
  0
VPORT
  5
365F
330
35F1
100
AcDbSymbolTableRecord
100
AcDbViewportTableRecord
  2
*ACTIVE
 70
     0
 10
0.0
 20
0.0
 11
1.0
 21
1.0
 12
146.4180392940358
 22
17.91126314611733
 13
0.0
 23
0.0
 14
168.0
 24
168.0
 15
0.0
 25
0.0
 16
0.0
 26
0.0
 36
1.0
 17
0.0
 27
0.0
 37
0.0
 40
250.7754149763775
 41
1.725978647686832
 42
50.0
 43
0.0
 44
0.0
 50
0.0
 51
0.0
 71
     0
 72
   100
 73
     1
 74
     0
 75
     0
 76
     0
 77
     0
 78
     1
281
     0
 65
     1
110
0.0
120
0.0
130
0.0
111
1.0
121
0.0
131
0.0
112
0.0
122
1.0
132
0.0
 79
     0
146
0.0
1001
ACAD_NAV_VCDISPLAY
1070
     3
  0
ENDTAB
  0
TABLE
  2
LTYPE
  5
35EE
330
0
100
AcDbSymbolTable
 70
     4
  0
LTYPE
  5
3643
330
35EE
100
AcDbSymbolTableRecord
100
AcDbLinetypeTableRecord
  2
ByBlock
 70
     0
  3

 72
    65
 73
     0
 40
0.0
  0
LTYPE
  5
3644
330
35EE
100
AcDbSymbolTableRecord
100
AcDbLinetypeTableRecord
  2
ByLayer
 70
     0
  3

 72
    65
 73
     0
 40
0.0
  0
LTYPE
  5
3645
330
35EE
100
AcDbSymbolTableRecord
100
AcDbLinetypeTableRecord
  2
CONTINUOUS
 70
     0
  3
Solid line
 72
    65
 73
     0
 40
0.0
  0
LTYPE
  5
3651
330
35EE
100
AcDbSymbolTableRecord
100
AcDbLinetypeTableRecord
  2
PHANTOM2
 70
     0
  3
___ _ _ ___ _ _ ___ _ _ ___ _ _
 72
    65
 73
     6
 40
1.25
 49
0.625
 74
     0
 49
-0.125
 74
     0
 49
0.125
 74
     0
 49
-0.125
 74
     0
 49
0.125
 74
     0
 49
-0.125
 74
     0
  0
LTYPE
  5
3660
330
35EE
100
AcDbSymbolTableRecord
100
AcDbLinetypeTableRecord
  2
CENTER
 70
     0
  3
____ _ ____ _ ____ _ ____ _ ____ _ ____ _ ____ 
 72
    65
 73
     4
 40
2.0
 49
1.25
 74
     0
 49
-0.25
 74
     0
 49
0.25
 74
     0
 49
-0.25
 74
     0
  0
LTYPE
  5
3661
330
35EE
100
AcDbSymbolTableRecord
100
AcDbLinetypeTableRecord
  2
HIDDEN
 70
     0
  3
__ __ __ __ __ __ __ __ __ __ __ __ __ __ __ __
 72
    65
 73
     2
 40
0.375
 49
0.25
 74
     0
 49
-0.125
 74
     0
  0
ENDTAB
  0
TABLE
  2
LAYER
  5
35EB
330
0
100
AcDbSymbolTable
 70
     4
  0
LAYER
  5
363D
102
{ACAD_XDICTIONARY
360
3717
102
}
330
35EB
100
AcDbSymbolTableRecord
100
AcDbLayerTableRecord
  2
0
 70
     0
 62
     7
  6
CONTINUOUS
370
    -3
390
35F8
  0
LAYER
  5
365D
102
{ACAD_XDICTIONARY
360
3719
102
}
330
35EB
100
AcDbSymbolTableRecord
100
AcDbLayerTableRecord
  2
1
 70
     0
 62
     7
  6
CONTINUOUS
370
    -3
390
35F8
  0
LAYER
  5
3662
330
35EB
100
AcDbSymbolTableRecord
100
AcDbLayerTableRecord
  2
DEFPOINTS
 70
     0
 62
     7
  6
CONTINUOUS
290
     0
370
    -3
390
35F8
  0
LAYER
  5
3663
102
{ACAD_XDICTIONARY
360
371B
102
}
330
35EB
100
AcDbSymbolTableRecord
100
AcDbLayerTableRecord
  2
CENTER
 70
     0
 62
     9
  6
CENTER
370
    -3
390
35F8
  0
ENDTAB
  0
TABLE
  2
STYLE
  5
35EC
330
0
100
AcDbSymbolTable
 70
     4
  0
STYLE
  5
363E
330
35EC
100
AcDbSymbolTableRecord
100
AcDbTextStyleTableRecord
  2
STANDARD
 70
     0
 40
0.0
 41
0.8
 50
0.0
 71
     0
 42
84.17508417508413
  3
TXT
  4
bigfont.shx
  0
STYLE
  5
3642
330
35EC
100
AcDbSymbolTableRecord
100
AcDbTextStyleTableRecord
  2
ANNOTATIVE
 70
     0
 40
0.0
 41
1.0
 50
0.0
 71
     0
 42
0.2
  3
txt
  4

1001
ACADANNOTATIVE
1000
AnnotativeData
1002
{
1070
     1
1070
     1
1002
}
  0
STYLE
  5
365E
330
35EC
100
AcDbSymbolTableRecord
100
AcDbTextStyleTableRecord
  2
AD-STANDARD
 70
     0
 40
0.0
 41
0.8
 50
0.0
 71
     0
 42
3.5
  3
C:\Program Files\AutoCAD LT\romans.shx
  4
bigfont.shx
  0
STYLE
  5
3664
330
35EC
100
AcDbSymbolTableRecord
100
AcDbTextStyleTableRecord
  2

 70
     1
 40
0.0
 41
1.0
 50
0.0
 71
     0
 42
3.5
  3
ltypeshp.shx
  4

  0
ENDTAB
  0
TABLE
  2
VIEW
  5
35EF
330
0
100
AcDbSymbolTable
 70
     0
  0
ENDTAB
  0
TABLE
  2
UCS
  5
35F0
330
0
100
AcDbSymbolTable
 70
     0
  0
ENDTAB
  0
TABLE
  2
APPID
  5
35F2
330
0
100
AcDbSymbolTable
 70
    13
  0
APPID
  5
363F
330
35F2
100
AcDbSymbolTableRecord
100
AcDbRegAppTableRecord
  2
ACAD
 70
     0
  0
APPID
  5
3646
330
35F2
100
AcDbSymbolTableRecord
100
AcDbRegAppTableRecord
  2
ACADANNOTATIVE
 70
     0
  0
APPID
  5
3665
330
35F2
100
AcDbSymbolTableRecord
100
AcDbRegAppTableRecord
  2
CONTENTTABDATA
 70
     0
  0
APPID
  5
3666
330
35F2
100
AcDbSymbolTableRecord
100
AcDbRegAppTableRecord
  2
CONTENTCURRENTTAB
 70
     0
  0
APPID
  5
3667
330
35F2
100
AcDbSymbolTableRecord
100
AcDbRegAppTableRecord
  2
CONTENTBLOCKDESCRIPTION
 70
     0
  0
APPID
  5
3668
330
35F2
100
AcDbSymbolTableRecord
100
AcDbRegAppTableRecord
  2
CONTENTBLOCKICON
 70
     0
  0
APPID
  5
3669
330
35F2
100
AcDbSymbolTableRecord
100
AcDbRegAppTableRecord
  2
ACAD_PSEXT
 70
     0
  0
APPID
  5
366A
330
35F2
100
AcDbSymbolTableRecord
100
AcDbRegAppTableRecord
  2
ACAD_NAV_VCDISPLAY
 70
     0
  0
APPID
  5
366B
330
35F2
100
AcDbSymbolTableRecord
100
AcDbRegAppTableRecord
  2
ACAD_DSTYLE_DIMRADIAL_EXTENSION
 70
     0
  0
APPID
  5
366C
330
35F2
100
AcDbSymbolTableRecord
100
AcDbRegAppTableRecord
  2
ACAECLAYERSTANDARD
 70
     0
  0
APPID
  5
366D
330
35F2
100
AcDbSymbolTableRecord
100
AcDbRegAppTableRecord
  2
ACCMTRANSPARENCY
 70
     0
  0
APPID
  5
366E
330
35F2
100
AcDbSymbolTableRecord
100
AcDbRegAppTableRecord
  2
ACAD_EXEMPT_FROM_CAD_STANDARDS
 70
     0
  0
APPID
  5
366F
330
35F2
100
AcDbSymbolTableRecord
100
AcDbRegAppTableRecord
  2
ACAD_MLEADERVER
 70
     0
  0
ENDTAB
  0
TABLE
  2
DIMSTYLE
  5
35F3
330
0
100
AcDbSymbolTable
 70
     3
100
AcDbDimStyleTable
 71
     1
340
3640
  0
DIMSTYLE
105
3640
330
35F3
100
AcDbSymbolTableRecord
100
AcDbDimStyleTableRecord
  2
STANDARD
 70
     0
279
     2
340
365E
  0
DIMSTYLE
105
3641
330
35F3
100
AcDbSymbolTableRecord
100
AcDbDimStyleTableRecord
  2
ANNOTATIVE
 70
     0
279
     2
340
365E
1001
ACADANNOTATIVE
1000
AnnotativeData
1002
{
1070
     1
1070
     1
1002
}
  0
DIMSTYLE
105
3670
330
35F3
100
AcDbSymbolTableRecord
100
AcDbDimStyleTableRecord
  2
AD-STANDARD
 70
     0
 41
2.5
 42
1.0
 44
2.0
 73
     0
 74
     0
 77
     1
 78
     8
140
3.5
141
-2.0
147
0.5
172
     1
176
     9
177
     9
178
     2
279
     2
340
365E
  0
ENDTAB
  0
TABLE
  2
BLOCK_RECORD
  5
35EA
330
0
100
AcDbSymbolTable
 70
    72
  0
BLOCK_RECORD
  5
3659
102
{ACAD_XDICTIONARY
360
370C
102
}
330
35EA
100
AcDbSymbolTableRecord
100
AcDbBlockTableRecord
  2
*Model_Space
340
365C
  0
BLOCK_RECORD
  5
3655
330
35EA
100
AcDbSymbolTableRecord
100
AcDbBlockTableRecord
  2
*Paper_Space
340
3658
  0
BLOCK_RECORD
  5
3675
330
35EA
100
AcDbSymbolTableRecord
100
AcDbBlockTableRecord
  2
$MODEL_SPACE
340
0
  0
BLOCK_RECORD
  5
3677
330
35EA
100
AcDbSymbolTableRecord
100
AcDbBlockTableRecord
  2
$PAPER_SPACE
340
0
  0
BLOCK_RECORD
  5
3679
330
35EA
100
AcDbSymbolTableRecord
100
AcDbBlockTableRecord
  2
*D2
340
0
  0
BLOCK_RECORD
  5
367B
330
35EA
100
AcDbSymbolTableRecord
100
AcDbBlockTableRecord
  2
*U3
340
0
102
{BLKREFS
331
2289
102
}
  0
BLOCK_RECORD
  5
367D
330
35EA
100
AcDbSymbolTableRecord
100
AcDbBlockTableRecord
  2
*D4
340
0
  0
BLOCK_RECORD
  5
367F
330
35EA
100
AcDbSymbolTableRecord
100
AcDbBlockTableRecord
  2
*U5
340
0
102
{BLKREFS
331
2295
102
}
  0
BLOCK_RECORD
  5
3681
330
35EA
100
AcDbSymbolTableRecord
100
AcDbBlockTableRecord
  2
*D6
340
0
  0
BLOCK_RECORD
  5
3683
330
35EA
100
AcDbSymbolTableRecord
100
AcDbBlockTableRecord
  2
*U7
340
0
102
{BLKREFS
331
22A1
102
}
  0
BLOCK_RECORD
  5
3685
330
35EA
100
AcDbSymbolTableRecord
100
AcDbBlockTableRecord
  2
*D8
340
0
  0
BLOCK_RECORD
  5
3687
330
35EA
100
AcDbSymbolTableRecord
100
AcDbBlockTableRecord
  2
*U9
340
0
102
{BLKREFS
331
22AD
102
}
  0
BLOCK_RECORD
  5
3689
330
35EA
100
AcDbSymbolTableRecord
100
AcDbBlockTableRecord
  2
*D10
340
0
  0
BLOCK_RECORD
  5
368B
330
35EA
100
AcDbSymbolTableRecord
100
AcDbBlockTableRecord
  2
*U11
340
0
102
{BLKREFS
331
22BB
102
}
  0
BLOCK_RECORD
  5
368D
330
35EA
100
AcDbSymbolTableRecord
100
AcDbBlockTableRecord
  2
*D12
340
0
  0
BLOCK_RECORD
  5
368F
330
35EA
100
AcDbSymbolTableRecord
100
AcDbBlockTableRecord
  2
*U13
340
0
102
{BLKREFS
331
22C4
102
}
  0
BLOCK_RECORD
  5
3691
330
35EA
100
AcDbSymbolTableRecord
100
AcDbBlockTableRecord
  2
*D14
340
0
  0
BLOCK_RECORD
  5
3693
330
35EA
100
AcDbSymbolTableRecord
100
AcDbBlockTableRecord
  2
*U15
340
0
102
{BLKREFS
331
22D0
102
}
  0
BLOCK_RECORD
  5
3695
330
35EA
100
AcDbSymbolTableRecord
100
AcDbBlockTableRecord
  2
*D16
340
0
  0
BLOCK_RECORD
  5
3697
330
35EA
100
AcDbSymbolTableRecord
100
AcDbBlockTableRecord
  2
*U17
340
0
102
{BLKREFS
331
22DC
102
}
  0
BLOCK_RECORD
  5
3699
330
35EA
100
AcDbSymbolTableRecord
100
AcDbBlockTableRecord
  2
*D18
340
0
  0
BLOCK_RECORD
  5
369B
330
35EA
100
AcDbSymbolTableRecord
100
AcDbBlockTableRecord
  2
*U19
340
0
102
{BLKREFS
331
22EB
102
}
  0
BLOCK_RECORD
  5
369D
330
35EA
100
AcDbSymbolTableRecord
100
AcDbBlockTableRecord
  2
*D20
340
0
  0
BLOCK_RECORD
  5
369F
330
35EA
100
AcDbSymbolTableRecord
100
AcDbBlockTableRecord
  2
*U21
340
0
102
{BLKREFS
331
22F7
102
}
  0
BLOCK_RECORD
  5
36A1
330
35EA
100
AcDbSymbolTableRecord
100
AcDbBlockTableRecord
  2
*D22
340
0
  0
BLOCK_RECORD
  5
36A3
330
35EA
100
AcDbSymbolTableRecord
100
AcDbBlockTableRecord
  2
*U23
340
0
102
{BLKREFS
331
2303
102
}
  0
BLOCK_RECORD
  5
36A5
330
35EA
100
AcDbSymbolTableRecord
100
AcDbBlockTableRecord
  2
*D24
340
0
  0
BLOCK_RECORD
  5
36A7
330
35EA
100
AcDbSymbolTableRecord
100
AcDbBlockTableRecord
  2
*U25
340
0
102
{BLKREFS
331
230F
102
}
  0
BLOCK_RECORD
  5
36A9
330
35EA
100
AcDbSymbolTableRecord
100
AcDbBlockTableRecord
  2
*D26
340
0
  0
BLOCK_RECORD
  5
36AB
330
35EA
100
AcDbSymbolTableRecord
100
AcDbBlockTableRecord
  2
*U27
340
0
102
{BLKREFS
331
231B
102
}
  0
BLOCK_RECORD
  5
36AD
330
35EA
100
AcDbSymbolTableRecord
100
AcDbBlockTableRecord
  2
*D28
340
0
  0
BLOCK_RECORD
  5
36AF
330
35EA
100
AcDbSymbolTableRecord
100
AcDbBlockTableRecord
  2
*U29
340
0
102
{BLKREFS
331
2327
102
}
  0
BLOCK_RECORD
  5
36B1
330
35EA
100
AcDbSymbolTableRecord
100
AcDbBlockTableRecord
  2
*D30
340
0
  0
BLOCK_RECORD
  5
36B3
330
35EA
100
AcDbSymbolTableRecord
100
AcDbBlockTableRecord
  2
*U31
340
0
102
{BLKREFS
331
232F
102
}
  0
BLOCK_RECORD
  5
36B5
330
35EA
100
AcDbSymbolTableRecord
100
AcDbBlockTableRecord
  2
*D32
340
0
  0
BLOCK_RECORD
  5
36B7
330
35EA
100
AcDbSymbolTableRecord
100
AcDbBlockTableRecord
  2
*U33
340
0
102
{BLKREFS
331
2338
102
}
  0
BLOCK_RECORD
  5
36B9
330
35EA
100
AcDbSymbolTableRecord
100
AcDbBlockTableRecord
  2
*D34
340
0
  0
BLOCK_RECORD
  5
36BB
330
35EA
100
AcDbSymbolTableRecord
100
AcDbBlockTableRecord
  2
*U35
340
0
102
{BLKREFS
331
2341
102
}
  0
BLOCK_RECORD
  5
36BD
330
35EA
100
AcDbSymbolTableRecord
100
AcDbBlockTableRecord
  2
*D36
340
0
  0
BLOCK_RECORD
  5
36BF
330
35EA
100
AcDbSymbolTableRecord
100
AcDbBlockTableRecord
  2
*U37
340
0
102
{BLKREFS
331
26BB
102
}
  0
BLOCK_RECORD
  5
36C1
330
35EA
100
AcDbSymbolTableRecord
100
AcDbBlockTableRecord
  2
*D38
340
0
  0
BLOCK_RECORD
  5
36C3
330
35EA
100
AcDbSymbolTableRecord
100
AcDbBlockTableRecord
  2
*U39
340
0
102
{BLKREFS
331
26C0
102
}
  0
BLOCK_RECORD
  5
36C5
330
35EA
100
AcDbSymbolTableRecord
100
AcDbBlockTableRecord
  2
*D40
340
0
  0
BLOCK_RECORD
  5
36C7
330
35EA
100
AcDbSymbolTableRecord
100
AcDbBlockTableRecord
  2
*U41
340
0
102
{BLKREFS
331
26C5
102
}
  0
BLOCK_RECORD
  5
36C9
330
35EA
100
AcDbSymbolTableRecord
100
AcDbBlockTableRecord
  2
*D42
340
0
  0
BLOCK_RECORD
  5
36CB
330
35EA
100
AcDbSymbolTableRecord
100
AcDbBlockTableRecord
  2
*U43
340
0
102
{BLKREFS
331
26CA
102
}
  0
BLOCK_RECORD
  5
36CD
330
35EA
100
AcDbSymbolTableRecord
100
AcDbBlockTableRecord
  2
*D44
340
0
  0
BLOCK_RECORD
  5
36CF
330
35EA
100
AcDbSymbolTableRecord
100
AcDbBlockTableRecord
  2
*U45
340
0
102
{BLKREFS
331
26D3
102
}
  0
BLOCK_RECORD
  5
36D1
330
35EA
100
AcDbSymbolTableRecord
100
AcDbBlockTableRecord
  2
*D46
340
0
  0
BLOCK_RECORD
  5
36D3
330
35EA
100
AcDbSymbolTableRecord
100
AcDbBlockTableRecord
  2
*U47
340
0
102
{BLKREFS
331
26DC
102
}
  0
BLOCK_RECORD
  5
36D5
330
35EA
100
AcDbSymbolTableRecord
100
AcDbBlockTableRecord
  2
*D48
340
0
  0
BLOCK_RECORD
  5
36D7
330
35EA
100
AcDbSymbolTableRecord
100
AcDbBlockTableRecord
  2
*U49
340
0
102
{BLKREFS
331
26E5
102
}
  0
BLOCK_RECORD
  5
36D9
330
35EA
100
AcDbSymbolTableRecord
100
AcDbBlockTableRecord
  2
*D50
340
0
  0
BLOCK_RECORD
  5
36DB
330
35EA
100
AcDbSymbolTableRecord
100
AcDbBlockTableRecord
  2
*U51
340
0
102
{BLKREFS
331
26EE
102
}
  0
BLOCK_RECORD
  5
36DD
330
35EA
100
AcDbSymbolTableRecord
100
AcDbBlockTableRecord
  2
*D52
340
0
  0
BLOCK_RECORD
  5
36DF
330
35EA
100
AcDbSymbolTableRecord
100
AcDbBlockTableRecord
  2
*U53
340
0
102
{BLKREFS
331
26F9
102
}
  0
BLOCK_RECORD
  5
36E1
330
35EA
100
AcDbSymbolTableRecord
100
AcDbBlockTableRecord
  2
*D54
340
0
  0
BLOCK_RECORD
  5
36E3
330
35EA
100
AcDbSymbolTableRecord
100
AcDbBlockTableRecord
  2
*U55
340
0
102
{BLKREFS
331
26FF
102
}
  0
BLOCK_RECORD
  5
36E5
330
35EA
100
AcDbSymbolTableRecord
100
AcDbBlockTableRecord
  2
*D56
340
0
  0
BLOCK_RECORD
  5
36E7
330
35EA
100
AcDbSymbolTableRecord
100
AcDbBlockTableRecord
  2
*U57
340
0
102
{BLKREFS
331
2707
102
}
  0
BLOCK_RECORD
  5
36E9
330
35EA
100
AcDbSymbolTableRecord
100
AcDbBlockTableRecord
  2
*D58
340
0
  0
BLOCK_RECORD
  5
36EB
330
35EA
100
AcDbSymbolTableRecord
100
AcDbBlockTableRecord
  2
*U59
340
0
102
{BLKREFS
331
270F
102
}
  0
BLOCK_RECORD
  5
36ED
330
35EA
100
AcDbSymbolTableRecord
100
AcDbBlockTableRecord
  2
*D60
340
0
  0
BLOCK_RECORD
  5
36EF
330
35EA
100
AcDbSymbolTableRecord
100
AcDbBlockTableRecord
  2
*U61
340
0
102
{BLKREFS
331
271A
102
}
  0
BLOCK_RECORD
  5
36F1
330
35EA
100
AcDbSymbolTableRecord
100
AcDbBlockTableRecord
  2
*D62
340
0
  0
BLOCK_RECORD
  5
36F3
330
35EA
100
AcDbSymbolTableRecord
100
AcDbBlockTableRecord
  2
*U63
340
0
102
{BLKREFS
331
2723
102
}
  0
BLOCK_RECORD
  5
36F5
330
35EA
100
AcDbSymbolTableRecord
100
AcDbBlockTableRecord
  2
*D64
340
0
  0
BLOCK_RECORD
  5
36F7
330
35EA
100
AcDbSymbolTableRecord
100
AcDbBlockTableRecord
  2
*U65
340
0
102
{BLKREFS
331
272C
102
}
  0
BLOCK_RECORD
  5
36F9
330
35EA
100
AcDbSymbolTableRecord
100
AcDbBlockTableRecord
  2
*D66
340
0
  0
BLOCK_RECORD
  5
36FB
330
35EA
100
AcDbSymbolTableRecord
100
AcDbBlockTableRecord
  2
*U67
340
0
102
{BLKREFS
331
2735
102
}
  0
BLOCK_RECORD
  5
36FD
330
35EA
100
AcDbSymbolTableRecord
100
AcDbBlockTableRecord
  2
*D68
340
0
  0
BLOCK_RECORD
  5
36FF
330
35EA
100
AcDbSymbolTableRecord
100
AcDbBlockTableRecord
  2
*U69
340
0
102
{BLKREFS
331
273E
102
}
  0
BLOCK_RECORD
  5
3701
330
35EA
100
AcDbSymbolTableRecord
100
AcDbBlockTableRecord
  2
*U70
340
0
  0
BLOCK_RECORD
  5
3703
330
35EA
100
AcDbSymbolTableRecord
100
AcDbBlockTableRecord
  2
*U71
340
0
  0
ENDTAB
  0
ENDSEC
  0
SECTION
  2
BLOCKS
  0
BLOCK
  5
365A
330
3659
100
AcDbEntity
  8
0
100
AcDbBlockBegin
  2
*Model_Space
 70
     0
 10
0.0
 20
0.0
 30
0.0
  3
*Model_Space
  1

  0
ENDBLK
  5
365B
330
3659
100
AcDbEntity
  8
0
100
AcDbBlockEnd
  0
BLOCK
  5
3656
330
3655
100
AcDbEntity
 67
     1
  8
0
100
AcDbBlockBegin
  2
*Paper_Space
 70
     0
 10
0.0
 20
0.0
 30
0.0
  3
*Paper_Space
  1

  0
ENDBLK
  5
3657
330
3655
100
AcDbEntity
 67
     1
  8
0
100
AcDbBlockEnd
  0
BLOCK
  5
3676
330
3675
100
AcDbEntity
  8
0
100
AcDbBlockBegin
  2
$MODEL_SPACE
 70
     0
 10
0.0
 20
0.0
 30
0.0
  3
$MODEL_SPACE
  1

  0
ENDBLK
  5
34B8
330
3675
100
AcDbEntity
  8
0
100
AcDbBlockEnd
  0
BLOCK
  5
3678
330
3677
100
AcDbEntity
  8
0
100
AcDbBlockBegin
  2
$PAPER_SPACE
 70
     0
 10
0.0
 20
0.0
 30
0.0
  3
$PAPER_SPACE
  1

  0
ENDBLK
  5
34B4
330
3677
100
AcDbEntity
  8
0
100
AcDbBlockEnd
  0
BLOCK
  5
367A
330
3679
100
AcDbEntity
  8
0
 62
     6
100
AcDbBlockBegin
  2
*D2
 70
     1
 10
0.0
 20
0.0
 30
0.0
  3
*D2
  1

  0
INSERT
  5
2289
330
3679
100
AcDbEntity
  8
1
100
AcDbBlockReference
  2
*U3
 10
0.0
 20
0.0
 30
0.0
  0
POINT
  5
228A
330
3679
100
AcDbEntity
  8
DEFPOINTS
 62
     0
100
AcDbPoint
 10
4812.140158459465
 20
5544.495558821481
 30
0.0
  0
POINT
  5
228B
330
3679
100
AcDbEntity
  8
DEFPOINTS
 62
     0
100
AcDbPoint
 10
5022.140158459465
 20
5544.495558821481
 30
0.0
  0
POINT
  5
228C
330
3679
100
AcDbEntity
  8
DEFPOINTS
 62
     0
100
AcDbPoint
 10
5022.140158459465
 20
5576.633191854546
 30
0.0
  0
ENDBLK
  5
228D
330
3679
100
AcDbEntity
  8
0
 62
     6
100
AcDbBlockEnd
  0
BLOCK
  5
367C
330
367B
100
AcDbEntity
  8
0
100
AcDbBlockBegin
  2
*U3
 70
     1
 10
0.0
 20
0.0
 30
0.0
  3
*U3
  1

  0
ENDBLK
  5
28E7
330
367B
100
AcDbEntity
  8
0
100
AcDbBlockEnd
  0
BLOCK
  5
367E
330
367D
100
AcDbEntity
  8
0
 62
     6
100
AcDbBlockBegin
  2
*D4
 70
     1
 10
0.0
 20
0.0
 30
0.0
  3
*D4
  1

  0
INSERT
  5
2295
330
367D
100
AcDbEntity
  8
1
100
AcDbBlockReference
  2
*U5
 10
0.0
 20
0.0
 30
0.0
  0
POINT
  5
2296
330
367D
100
AcDbEntity
  8
DEFPOINTS
 62
     0
100
AcDbPoint
 10
4812.140158459465
 20
5544.495558821481
 30
0.0
  0
POINT
  5
2297
330
367D
100
AcDbEntity
  8
DEFPOINTS
 62
     0
100
AcDbPoint
 10
4827.140158459464
 20
5544.495558821481
 30
0.0
  0
POINT
  5
2298
330
367D
100
AcDbEntity
  8
DEFPOINTS
 62
     0
100
AcDbPoint
 10
4827.140158459464
 20
5563.220935454669
 30
0.0
  0
ENDBLK
  5
2299
330
367D
100
AcDbEntity
  8
0
 62
     6
100
AcDbBlockEnd
  0
BLOCK
  5
3680
330
367F
100
AcDbEntity
  8
0
100
AcDbBlockBegin
  2
*U5
 70
     1
 10
0.0
 20
0.0
 30
0.0
  3
*U5
  1

  0
ENDBLK
  5
28EB
330
367F
100
AcDbEntity
  8
0
100
AcDbBlockEnd
  0
BLOCK
  5
3682
330
3681
100
AcDbEntity
  8
0
 62
     6
100
AcDbBlockBegin
  2
*D6
 70
     1
 10
0.0
 20
0.0
 30
0.0
  3
*D6
  1

  0
INSERT
  5
22A1
330
3681
100
AcDbEntity
  8
1
100
AcDbBlockReference
  2
*U7
 10
0.0
 20
0.0
 30
0.0
  0
POINT
  5
22A2
330
3681
100
AcDbEntity
  8
DEFPOINTS
 62
     0
100
AcDbPoint
 10
4862.140158459465
 20
5531.995558821481
 30
0.0
  0
POINT
  5
22A3
330
3681
100
AcDbEntity
  8
DEFPOINTS
 62
     0
100
AcDbPoint
 10
4827.140158459465
 20
5531.995558821481
 30
0.0
  0
POINT
  5
22A4
330
3681
100
AcDbEntity
  8
DEFPOINTS
 62
     0
100
AcDbPoint
 10
4827.140158459465
 20
5563.154934183245
 30
0.0
  0
ENDBLK
  5
22A5
330
3681
100
AcDbEntity
  8
0
 62
     6
100
AcDbBlockEnd
  0
BLOCK
  5
3684
330
3683
100
AcDbEntity
  8
0
100
AcDbBlockBegin
  2
*U7
 70
     1
 10
0.0
 20
0.0
 30
0.0
  3
*U7
  1

  0
ENDBLK
  5
28EF
330
3683
100
AcDbEntity
  8
0
100
AcDbBlockEnd
  0
BLOCK
  5
3686
330
3685
100
AcDbEntity
  8
0
 62
     6
100
AcDbBlockBegin
  2
*D8
 70
     1
 10
0.0
 20
0.0
 30
0.0
  3
*D8
  1

  0
INSERT
  5
22AD
330
3685
100
AcDbEntity
  8
1
100
AcDbBlockReference
  2
*U9
 10
0.0
 20
0.0
 30
0.0
  0
POINT
  5
22AE
330
3685
100
AcDbEntity
  8
DEFPOINTS
 62
     0
100
AcDbPoint
 10
4827.140158459465
 20
5531.995558821481
 30
0.0
  0
POINT
  5
22AF
330
3685
100
AcDbEntity
  8
DEFPOINTS
 62
     0
100
AcDbPoint
 10
4827.140158459465
 20
5506.995558821481
 30
0.0
  0
POINT
  5
22B0
330
3685
100
AcDbEntity
  8
DEFPOINTS
 62
     0
100
AcDbPoint
 10
4802.917073806253
 20
5506.995558821481
 30
0.0
  0
ENDBLK
  5
22B1
330
3685
100
AcDbEntity
  8
0
 62
     6
100
AcDbBlockEnd
  0
BLOCK
  5
3688
330
3687
100
AcDbEntity
  8
0
100
AcDbBlockBegin
  2
*U9
 70
     1
 10
0.0
 20
0.0
 30
0.0
  3
*U9
  1

  0
ENDBLK
  5
28F3
330
3687
100
AcDbEntity
  8
0
100
AcDbBlockEnd
  0
BLOCK
  5
368A
330
3689
100
AcDbEntity
  8
0
 62
     6
100
AcDbBlockBegin
  2
*D10
 70
     1
 10
0.0
 20
0.0
 30
0.0
  3
*D10
  1

  0
INSERT
  5
22BB
330
3689
100
AcDbEntity
  8
1
100
AcDbBlockReference
  2
*U11
 10
0.0
 20
0.0
 30
0.0
  0
POINT
  5
22BC
330
3689
100
AcDbEntity
  8
DEFPOINTS
 62
     0
100
AcDbPoint
 10
4864.872840014959
 20
5488.49555882148
 30
0.0
  0
POINT
  5
22BD
330
3689
100
AcDbEntity
  8
DEFPOINTS
 62
     0
100
AcDbPoint
 10
4864.872840014959
 20
5494.495558821481
 30
0.0
  0
POINT
  5
22BE
330
3689
100
AcDbEntity
  8
DEFPOINTS
 62
     0
100
AcDbPoint
 10
4854.996830392662
 20
5494.495558821481
 30
0.0
  0
ENDBLK
  5
22BF
330
3689
100
AcDbEntity
  8
0
 62
     6
100
AcDbBlockEnd
  0
BLOCK
  5
368C
330
368B
100
AcDbEntity
  8
0
100
AcDbBlockBegin
  2
*U11
 70
     1
 10
0.0
 20
0.0
 30
0.0
  3
*U11
  1

  0
ENDBLK
  5
28F7
330
368B
100
AcDbEntity
  8
0
100
AcDbBlockEnd
  0
BLOCK
  5
368E
330
368D
100
AcDbEntity
  8
0
 62
     6
100
AcDbBlockBegin
  2
*D12
 70
     1
 10
0.0
 20
0.0
 30
0.0
  3
*D12
  1

  0
INSERT
  5
22C4
330
368D
100
AcDbEntity
  8
1
100
AcDbBlockReference
  2
*U13
 10
0.0
 20
0.0
 30
0.0
  0
POINT
  5
22C9
330
368D
100
AcDbEntity
  8
DEFPOINTS
 62
     0
100
AcDbPoint
 10
4831.139448437369
 20
5531.920195218592
 30
0.0
  0
POINT
  5
22CA
330
368D
100
AcDbEntity
  8
DEFPOINTS
 62
     0
100
AcDbPoint
 10
4823.140868481563
 20
5532.070922424371
 30
0.0
  0
ENDBLK
  5
22CB
330
368D
100
AcDbEntity
  8
0
 62
     6
100
AcDbBlockEnd
  0
BLOCK
  5
3690
330
368F
100
AcDbEntity
  8
0
100
AcDbBlockBegin
  2
*U13
 70
     1
 10
0.0
 20
0.0
 30
0.0
  3
*U13
  1

  0
ENDBLK
  5
28FB
330
368F
100
AcDbEntity
  8
0
100
AcDbBlockEnd
  0
BLOCK
  5
3692
330
3691
100
AcDbEntity
  8
0
 62
     6
100
AcDbBlockBegin
  2
*D14
 70
     1
 10
0.0
 20
0.0
 30
0.0
  3
*D14
  1

  0
INSERT
  5
22D0
330
3691
100
AcDbEntity
  8
1
100
AcDbBlockReference
  2
*U15
 10
0.0
 20
0.0
 30
0.0
  0
POINT
  5
22D5
330
3691
100
AcDbEntity
  8
DEFPOINTS
 62
     0
100
AcDbPoint
 10
4858.140451858588
 20
5531.947111872192
 30
0.0
  0
POINT
  5
22D6
330
3691
100
AcDbEntity
  8
DEFPOINTS
 62
     0
100
AcDbPoint
 10
4866.139865060343
 20
5532.044005770771
 30
0.0
  0
ENDBLK
  5
22D7
330
3691
100
AcDbEntity
  8
0
 62
     6
100
AcDbBlockEnd
  0
BLOCK
  5
3694
330
3693
100
AcDbEntity
  8
0
100
AcDbBlockBegin
  2
*U15
 70
     1
 10
0.0
 20
0.0
 30
0.0
  3
*U15
  1

  0
ENDBLK
  5
28FF
330
3693
100
AcDbEntity
  8
0
100
AcDbBlockEnd
  0
BLOCK
  5
3696
330
3695
100
AcDbEntity
  8
0
 62
     6
100
AcDbBlockBegin
  2
*D16
 70
     1
 10
0.0
 20
0.0
 30
0.0
  3
*D16
  1

  0
INSERT
  5
22DC
330
3695
100
AcDbEntity
  8
1
100
AcDbBlockReference
  2
*U17
 10
0.0
 20
0.0
 30
0.0
  0
POINT
  5
22E1
330
3695
100
AcDbEntity
  8
DEFPOINTS
 62
     0
100
AcDbPoint
 10
4858.140158459465
 20
5506.995558821481
 30
0.0
  0
POINT
  5
22E2
330
3695
100
AcDbEntity
  8
DEFPOINTS
 62
     0
100
AcDbPoint
 10
4866.140158459465
 20
5506.995558821481
 30
0.0
  0
ENDBLK
  5
22E3
330
3695
100
AcDbEntity
  8
0
 62
     6
100
AcDbBlockEnd
  0
BLOCK
  5
3698
330
3697
100
AcDbEntity
  8
0
100
AcDbBlockBegin
  2
*U17
 70
     1
 10
0.0
 20
0.0
 30
0.0
  3
*U17
  1

  0
ENDBLK
  5
2903
330
3697
100
AcDbEntity
  8
0
100
AcDbBlockEnd
  0
BLOCK
  5
369A
330
3699
100
AcDbEntity
  8
0
 62
     6
100
AcDbBlockBegin
  2
*D18
 70
     1
 10
0.0
 20
0.0
 30
0.0
  3
*D18
  1

  0
INSERT
  5
22EB
330
3699
100
AcDbEntity
  8
1
100
AcDbBlockReference
  2
*U19
 10
0.0
 20
0.0
 30
0.0
  0
POINT
  5
22EC
330
3699
100
AcDbEntity
  8
DEFPOINTS
 62
     0
100
AcDbPoint
 10
5022.140158459465
 20
5544.495558821481
 30
0.0
  0
POINT
  5
22ED
330
3699
100
AcDbEntity
  8
DEFPOINTS
 62
     0
100
AcDbPoint
 10
5022.140158459465
 20
5494.495558821481
 30
0.0
  0
POINT
  5
22EE
330
3699
100
AcDbEntity
  8
DEFPOINTS
 62
     0
100
AcDbPoint
 10
5045.855803551244
 20
5494.495558821481
 30
0.0
  0
ENDBLK
  5
22EF
330
3699
100
AcDbEntity
  8
0
 62
     6
100
AcDbBlockEnd
  0
BLOCK
  5
369C
330
369B
100
AcDbEntity
  8
0
100
AcDbBlockBegin
  2
*U19
 70
     1
 10
0.0
 20
0.0
 30
0.0
  3
*U19
  1

  0
ENDBLK
  5
2907
330
369B
100
AcDbEntity
  8
0
100
AcDbBlockEnd
  0
BLOCK
  5
369E
330
369D
100
AcDbEntity
  8
0
 62
     6
100
AcDbBlockBegin
  2
*D20
 70
     1
 10
0.0
 20
0.0
 30
0.0
  3
*D20
  1

  0
INSERT
  5
22F7
330
369D
100
AcDbEntity
  8
1
100
AcDbBlockReference
  2
*U21
 10
0.0
 20
0.0
 30
0.0
  0
POINT
  5
22F8
330
369D
100
AcDbEntity
  8
DEFPOINTS
 62
     0
100
AcDbPoint
 10
4992.149759304941
 20
5531.995558821481
 30
0.0
  0
POINT
  5
22F9
330
369D
100
AcDbEntity
  8
DEFPOINTS
 62
     0
100
AcDbPoint
 10
4992.13055761399
 20
5506.995558821481
 30
0.0
  0
POINT
  5
22FA
330
369D
100
AcDbEntity
  8
DEFPOINTS
 62
     0
100
AcDbPoint
 10
5037.220022058642
 20
5506.995558821481
 30
0.0
  0
ENDBLK
  5
22FB
330
369D
100
AcDbEntity
  8
0
 62
     6
100
AcDbBlockEnd
  0
BLOCK
  5
36A0
330
369F
100
AcDbEntity
  8
0
100
AcDbBlockBegin
  2
*U21
 70
     1
 10
0.0
 20
0.0
 30
0.0
  3
*U21
  1

  0
ENDBLK
  5
290B
330
369F
100
AcDbEntity
  8
0
100
AcDbBlockEnd
  0
BLOCK
  5
36A2
330
36A1
100
AcDbEntity
  8
0
 62
     6
100
AcDbBlockBegin
  2
*D22
 70
     1
 10
0.0
 20
0.0
 30
0.0
  3
*D22
  1

  0
INSERT
  5
2303
330
36A1
100
AcDbEntity
  8
1
100
AcDbBlockReference
  2
*U23
 10
0.0
 20
0.0
 30
0.0
  0
POINT
  5
2304
330
36A1
100
AcDbEntity
  8
DEFPOINTS
 62
     0
100
AcDbPoint
 10
5022.140158459465
 20
5544.495558821481
 30
0.0
  0
POINT
  5
2305
330
36A1
100
AcDbEntity
  8
DEFPOINTS
 62
     0
100
AcDbPoint
 10
5010.440158459465
 20
5544.495558821481
 30
0.0
  0
POINT
  5
2306
330
36A1
100
AcDbEntity
  8
DEFPOINTS
 62
     0
100
AcDbPoint
 10
5010.440158459465
 20
5553.440451654863
 30
0.0
  0
ENDBLK
  5
2307
330
36A1
100
AcDbEntity
  8
0
 62
     6
100
AcDbBlockEnd
  0
BLOCK
  5
36A4
330
36A3
100
AcDbEntity
  8
0
100
AcDbBlockBegin
  2
*U23
 70
     1
 10
0.0
 20
0.0
 30
0.0
  3
*U23
  1

  0
ENDBLK
  5
290F
330
36A3
100
AcDbEntity
  8
0
100
AcDbBlockEnd
  0
BLOCK
  5
36A6
330
36A5
100
AcDbEntity
  8
0
 62
     6
100
AcDbBlockBegin
  2
*D24
 70
     1
 10
0.0
 20
0.0
 30
0.0
  3
*D24
  1

  0
INSERT
  5
230F
330
36A5
100
AcDbEntity
  8
1
100
AcDbBlockReference
  2
*U25
 10
0.0
 20
0.0
 30
0.0
  0
POINT
  5
2310
330
36A5
100
AcDbEntity
  8
DEFPOINTS
 62
     0
100
AcDbPoint
 10
4992.140158459466
 20
5531.995558821481
 30
0.0
  0
POINT
  5
2311
330
36A5
100
AcDbEntity
  8
DEFPOINTS
 62
     0
100
AcDbPoint
 10
5010.440158459465
 20
5519.495558821481
 30
0.0
  0
POINT
  5
2312
330
36A5
100
AcDbEntity
  8
DEFPOINTS
 62
     0
100
AcDbPoint
 10
5010.440158459465
 20
5553.339097201423
 30
0.0
  0
ENDBLK
  5
2313
330
36A5
100
AcDbEntity
  8
0
 62
     6
100
AcDbBlockEnd
  0
BLOCK
  5
36A8
330
36A7
100
AcDbEntity
  8
0
100
AcDbBlockBegin
  2
*U25
 70
     1
 10
0.0
 20
0.0
 30
0.0
  3
*U25
  1

  0
ENDBLK
  5
2913
330
36A7
100
AcDbEntity
  8
0
100
AcDbBlockEnd
  0
BLOCK
  5
36AA
330
36A9
100
AcDbEntity
  8
0
 62
     6
100
AcDbBlockBegin
  2
*D26
 70
     1
 10
0.0
 20
0.0
 30
0.0
  3
*D26
  1

  0
INSERT
  5
231B
330
36A9
100
AcDbEntity
  8
1
100
AcDbBlockReference
  2
*U27
 10
0.0
 20
0.0
 30
0.0
  0
POINT
  5
231C
330
36A9
100
AcDbEntity
  8
DEFPOINTS
 62
     0
100
AcDbPoint
 10
5022.140158459465
 20
5433.755720214318
 30
0.0
  0
POINT
  5
231D
330
36A9
100
AcDbEntity
  8
DEFPOINTS
 62
     0
100
AcDbPoint
 10
5022.140158459465
 20
5388.755720214318
 30
0.0
  0
POINT
  5
231E
330
36A9
100
AcDbEntity
  8
DEFPOINTS
 62
     0
100
AcDbPoint
 10
5043.019621942665
 20
5388.755720214318
 30
0.0
  0
ENDBLK
  5
231F
330
36A9
100
AcDbEntity
  8
0
 62
     6
100
AcDbBlockEnd
  0
BLOCK
  5
36AC
330
36AB
100
AcDbEntity
  8
0
100
AcDbBlockBegin
  2
*U27
 70
     1
 10
0.0
 20
0.0
 30
0.0
  3
*U27
  1

  0
ENDBLK
  5
2917
330
36AB
100
AcDbEntity
  8
0
100
AcDbBlockEnd
  0
BLOCK
  5
36AE
330
36AD
100
AcDbEntity
  8
0
 62
     6
100
AcDbBlockBegin
  2
*D28
 70
     1
 10
0.0
 20
0.0
 30
0.0
  3
*D28
  1

  0
INSERT
  5
2327
330
36AD
100
AcDbEntity
  8
1
100
AcDbBlockReference
  2
*U29
 10
0.0
 20
0.0
 30
0.0
  0
POINT
  5
2328
330
36AD
100
AcDbEntity
  8
DEFPOINTS
 62
     0
100
AcDbPoint
 10
4971.165158459466
 20
5436.755703886631
 30
0.0
  0
POINT
  5
2329
330
36AD
100
AcDbEntity
  8
DEFPOINTS
 62
     0
100
AcDbPoint
 10
4971.165158459466
 20
5385.755736542005
 30
0.0
  0
POINT
  5
232A
330
36AD
100
AcDbEntity
  8
DEFPOINTS
 62
     0
100
AcDbPoint
 10
5048.129499455441
 20
5385.755736542005
 30
0.0
  0
ENDBLK
  5
232B
330
36AD
100
AcDbEntity
  8
0
 62
     6
100
AcDbBlockEnd
  0
BLOCK
  5
36B0
330
36AF
100
AcDbEntity
  8
0
100
AcDbBlockBegin
  2
*U29
 70
     1
 10
0.0
 20
0.0
 30
0.0
  3
*U29
  1

  0
ENDBLK
  5
291B
330
36AF
100
AcDbEntity
  8
0
100
AcDbBlockEnd
  0
BLOCK
  5
36B2
330
36B1
100
AcDbEntity
  8
0
 62
     6
100
AcDbBlockBegin
  2
*D30
 70
     1
 10
0.0
 20
0.0
 30
0.0
  3
*D30
  1

  0
INSERT
  5
232F
330
36B1
100
AcDbEntity
  8
1
100
AcDbBlockReference
  2
*U31
 10
0.0
 20
0.0
 30
0.0
  0
POINT
  5
2332
330
36B1
100
AcDbEntity
  8
DEFPOINTS
 62
     0
100
AcDbPoint
 10
4996.12095676851
 20
5531.995558821481
 30
0.0
  0
POINT
  5
2333
330
36B1
100
AcDbEntity
  8
DEFPOINTS
 62
     0
100
AcDbPoint
 10
4988.12095676851
 20
5531.995558821481
 30
0.0
  0
ENDBLK
  5
2334
330
36B1
100
AcDbEntity
  8
0
 62
     6
100
AcDbBlockEnd
  0
BLOCK
  5
36B4
330
36B3
100
AcDbEntity
  8
0
100
AcDbBlockBegin
  2
*U31
 70
     1
 10
0.0
 20
0.0
 30
0.0
  3
*U31
  1

  0
ENDBLK
  5
291F
330
36B3
100
AcDbEntity
  8
0
100
AcDbBlockEnd
  0
BLOCK
  5
36B6
330
36B5
100
AcDbEntity
  8
0
 62
     6
100
AcDbBlockBegin
  2
*D32
 70
     1
 10
0.0
 20
0.0
 30
0.0
  3
*D32
  1

  0
INSERT
  5
2338
330
36B5
100
AcDbEntity
  8
1
100
AcDbBlockReference
  2
*U33
 10
0.0
 20
0.0
 30
0.0
  0
POINT
  5
233B
330
36B5
100
AcDbEntity
  8
DEFPOINTS
 62
     0
100
AcDbPoint
 10
5006.440593071829
 20
5519.55452245452
 30
0.0
  0
POINT
  5
233C
330
36B5
100
AcDbEntity
  8
DEFPOINTS
 62
     0
100
AcDbPoint
 10
5014.439723847102
 20
5519.436595188442
 30
0.0
  0
ENDBLK
  5
233D
330
36B5
100
AcDbEntity
  8
0
 62
     6
100
AcDbBlockEnd
  0
BLOCK
  5
36B8
330
36B7
100
AcDbEntity
  8
0
100
AcDbBlockBegin
  2
*U33
 70
     1
 10
0.0
 20
0.0
 30
0.0
  3
*U33
  1

  0
ENDBLK
  5
2923
330
36B7
100
AcDbEntity
  8
0
100
AcDbBlockEnd
  0
BLOCK
  5
36BA
330
36B9
100
AcDbEntity
  8
0
 62
     6
100
AcDbBlockBegin
  2
*D34
 70
     1
 10
0.0
 20
0.0
 30
0.0
  3
*D34
  1

  0
INSERT
  5
2341
330
36B9
100
AcDbEntity
  8
1
100
AcDbBlockReference
  2
*U35
 10
0.0
 20
0.0
 30
0.0
  0
POINT
  5
2344
330
36B9
100
AcDbEntity
  8
DEFPOINTS
 62
     0
100
AcDbPoint
 10
4996.12095676851
 20
5506.995558821481
 30
0.0
  0
POINT
  5
2345
330
36B9
100
AcDbEntity
  8
DEFPOINTS
 62
     0
100
AcDbPoint
 10
4988.12095676851
 20
5506.995558821481
 30
0.0
  0
ENDBLK
  5
2346
330
36B9
100
AcDbEntity
  8
0
 62
     6
100
AcDbBlockEnd
  0
BLOCK
  5
36BC
330
36BB
100
AcDbEntity
  8
0
100
AcDbBlockBegin
  2
*U35
 70
     1
 10
0.0
 20
0.0
 30
0.0
  3
*U35
  1

  0
ENDBLK
  5
2927
330
36BB
100
AcDbEntity
  8
0
100
AcDbBlockEnd
  0
BLOCK
  5
36BE
330
36BD
100
AcDbEntity
  8
0
100
AcDbBlockBegin
  2
*D36
 70
     1
 10
0.0
 20
0.0
 30
0.0
  3
*D36
  1

  0
INSERT
  5
26BB
330
36BD
100
AcDbEntity
  8
1
100
AcDbBlockReference
  2
*U37
 10
0.0
 20
0.0
 30
0.0
  0
POINT
  5
26BC
330
36BD
100
AcDbEntity
  8
DEFPOINTS
 62
     0
100
AcDbPoint
 10
167.3134557146101
 20
259.4272179712236
 30
0.0
  0
POINT
  5
26BD
330
36BD
100
AcDbEntity
  8
DEFPOINTS
 62
     0
100
AcDbPoint
 10
167.3134557146101
 20
208.4272506265981
 30
0.0
  0
POINT
  5
26BE
330
36BD
100
AcDbEntity
  8
DEFPOINTS
 62
     0
100
AcDbPoint
 10
244.2777967105854
 20
208.4272506265981
 30
0.0
  0
ENDBLK
  5
25F9
330
36BD
100
AcDbEntity
  8
0
100
AcDbBlockEnd
  0
BLOCK
  5
36C0
330
36BF
100
AcDbEntity
  8
0
100
AcDbBlockBegin
  2
*U37
 70
     1
 10
0.0
 20
0.0
 30
0.0
  3
*U37
  1

  0
ENDBLK
  5
2972
330
36BF
100
AcDbEntity
  8
0
100
AcDbBlockEnd
  0
BLOCK
  5
36C2
330
36C1
100
AcDbEntity
  8
0
100
AcDbBlockBegin
  2
*D38
 70
     1
 10
0.0
 20
0.0
 30
0.0
  3
*D38
  1

  0
INSERT
  5
26C0
330
36C1
100
AcDbEntity
  8
1
100
AcDbBlockReference
  2
*U39
 10
0.0
 20
0.0
 30
0.0
  0
POINT
  5
26C2
330
36C1
100
AcDbEntity
  8
DEFPOINTS
 62
     0
100
AcDbPoint
 10
192.2692540236545
 20
354.6670729060736
 30
0.0
  0
POINT
  5
26C3
330
36C1
100
AcDbEntity
  8
DEFPOINTS
 62
     0
100
AcDbPoint
 10
184.2692540236545
 20
354.6670729060736
 30
0.0
  0
ENDBLK
  5
2605
330
36C1
100
AcDbEntity
  8
0
100
AcDbBlockEnd
  0
BLOCK
  5
36C4
330
36C3
100
AcDbEntity
  8
0
100
AcDbBlockBegin
  2
*U39
 70
     1
 10
0.0
 20
0.0
 30
0.0
  3
*U39
  1

  0
ENDBLK
  5
2976
330
36C3
100
AcDbEntity
  8
0
100
AcDbBlockEnd
  0
BLOCK
  5
36C6
330
36C5
100
AcDbEntity
  8
0
100
AcDbBlockBegin
  2
*D40
 70
     1
 10
0.0
 20
0.0
 30
0.0
  3
*D40
  1

  0
INSERT
  5
26C5
330
36C5
100
AcDbEntity
  8
1
100
AcDbBlockReference
  2
*U41
 10
0.0
 20
0.0
 30
0.0
  0
POINT
  5
26C7
330
36C5
100
AcDbEntity
  8
DEFPOINTS
 62
     0
100
AcDbPoint
 10
202.588890326974
 20
342.2260365391123
 30
0.0
  0
POINT
  5
26C8
330
36C5
100
AcDbEntity
  8
DEFPOINTS
 62
     0
100
AcDbPoint
 10
210.5880211022465
 20
342.1081092730349
 30
0.0
  0
ENDBLK
  5
260D
330
36C5
100
AcDbEntity
  8
0
100
AcDbBlockEnd
  0
BLOCK
  5
36C8
330
36C7
100
AcDbEntity
  8
0
100
AcDbBlockBegin
  2
*U41
 70
     1
 10
0.0
 20
0.0
 30
0.0
  3
*U41
  1

  0
ENDBLK
  5
297A
330
36C7
100
AcDbEntity
  8
0
100
AcDbBlockEnd
  0
BLOCK
  5
36CA
330
36C9
100
AcDbEntity
  8
0
100
AcDbBlockBegin
  2
*D42
 70
     1
 10
0.0
 20
0.0
 30
0.0
  3
*D42
  1

  0
INSERT
  5
26CA
330
36C9
100
AcDbEntity
  8
1
100
AcDbBlockReference
  2
*U43
 10
0.0
 20
0.0
 30
0.0
  0
POINT
  5
26CC
330
36C9
100
AcDbEntity
  8
DEFPOINTS
 62
     0
100
AcDbPoint
 10
192.2692540236545
 20
329.6670729060736
 30
0.0
  0
POINT
  5
26CD
330
36C9
100
AcDbEntity
  8
DEFPOINTS
 62
     0
100
AcDbPoint
 10
184.2692540236545
 20
329.6670729060736
 30
0.0
  0
ENDBLK
  5
2615
330
36C9
100
AcDbEntity
  8
0
100
AcDbBlockEnd
  0
BLOCK
  5
36CC
330
36CB
100
AcDbEntity
  8
0
100
AcDbBlockBegin
  2
*U43
 70
     1
 10
0.0
 20
0.0
 30
0.0
  3
*U43
  1

  0
ENDBLK
  5
297E
330
36CB
100
AcDbEntity
  8
0
100
AcDbBlockEnd
  0
BLOCK
  5
36CE
330
36CD
100
AcDbEntity
  8
0
100
AcDbBlockBegin
  2
*D44
 70
     1
 10
0.0
 20
0.0
 30
0.0
  3
*D44
  1

  0
INSERT
  5
26D3
330
36CD
100
AcDbEntity
  8
1
100
AcDbBlockReference
  2
*U45
 10
0.0
 20
0.0
 30
0.0
  0
POINT
  5
26D4
330
36CD
100
AcDbEntity
  8
DEFPOINTS
 62
     0
100
AcDbPoint
 10
8.288455714609536
 20
367.1670729060736
 30
0.0
  0
POINT
  5
26D5
330
36CD
100
AcDbEntity
  8
DEFPOINTS
 62
     0
100
AcDbPoint
 10
218.2884557146095
 20
367.1670729060736
 30
0.0
  0
POINT
  5
26D6
330
36CD
100
AcDbEntity
  8
DEFPOINTS
 62
     0
100
AcDbPoint
 10
218.2884557146095
 20
399.3047059391395
 30
0.0
  0
ENDBLK
  5
261D
330
36CD
100
AcDbEntity
  8
0
100
AcDbBlockEnd
  0
BLOCK
  5
36D0
330
36CF
100
AcDbEntity
  8
0
100
AcDbBlockBegin
  2
*U45
 70
     1
 10
0.0
 20
0.0
 30
0.0
  3
*U45
  1

  0
ENDBLK
  5
2982
330
36CF
100
AcDbEntity
  8
0
100
AcDbBlockEnd
  0
BLOCK
  5
36D2
330
36D1
100
AcDbEntity
  8
0
100
AcDbBlockBegin
  2
*D46
 70
     1
 10
0.0
 20
0.0
 30
0.0
  3
*D46
  1

  0
INSERT
  5
26DC
330
36D1
100
AcDbEntity
  8
1
100
AcDbBlockReference
  2
*U47
 10
0.0
 20
0.0
 30
0.0
  0
POINT
  5
26DD
330
36D1
100
AcDbEntity
  8
DEFPOINTS
 62
     0
100
AcDbPoint
 10
8.288455714609536
 20
367.1670729060736
 30
0.0
  0
POINT
  5
26DE
330
36D1
100
AcDbEntity
  8
DEFPOINTS
 62
     0
100
AcDbPoint
 10
23.28845571460863
 20
367.1670729060736
 30
0.0
  0
POINT
  5
26DF
330
36D1
100
AcDbEntity
  8
DEFPOINTS
 62
     0
100
AcDbPoint
 10
23.28845571460863
 20
385.8924495392623
 30
0.0
  0
ENDBLK
  5
2629
330
36D1
100
AcDbEntity
  8
0
100
AcDbBlockEnd
  0
BLOCK
  5
36D4
330
36D3
100
AcDbEntity
  8
0
100
AcDbBlockBegin
  2
*U47
 70
     1
 10
0.0
 20
0.0
 30
0.0
  3
*U47
  1

  0
ENDBLK
  5
2986
330
36D3
100
AcDbEntity
  8
0
100
AcDbBlockEnd
  0
BLOCK
  5
36D6
330
36D5
100
AcDbEntity
  8
0
100
AcDbBlockBegin
  2
*D48
 70
     1
 10
0.0
 20
0.0
 30
0.0
  3
*D48
  1

  0
INSERT
  5
26E5
330
36D5
100
AcDbEntity
  8
1
100
AcDbBlockReference
  2
*U49
 10
0.0
 20
0.0
 30
0.0
  0
POINT
  5
26E6
330
36D5
100
AcDbEntity
  8
DEFPOINTS
 62
     0
100
AcDbPoint
 10
58.28845571460954
 20
354.6670729060736
 30
0.0
  0
POINT
  5
26E7
330
36D5
100
AcDbEntity
  8
DEFPOINTS
 62
     0
100
AcDbPoint
 10
23.28845571460954
 20
354.6670729060736
 30
0.0
  0
POINT
  5
26E8
330
36D5
100
AcDbEntity
  8
DEFPOINTS
 62
     0
100
AcDbPoint
 10
23.28845571460954
 20
385.8264482678371
 30
0.0
  0
ENDBLK
  5
2635
330
36D5
100
AcDbEntity
  8
0
100
AcDbBlockEnd
  0
BLOCK
  5
36D8
330
36D7
100
AcDbEntity
  8
0
100
AcDbBlockBegin
  2
*U49
 70
     1
 10
0.0
 20
0.0
 30
0.0
  3
*U49
  1

  0
ENDBLK
  5
298A
330
36D7
100
AcDbEntity
  8
0
100
AcDbBlockEnd
  0
BLOCK
  5
36DA
330
36D9
100
AcDbEntity
  8
0
100
AcDbBlockBegin
  2
*D50
 70
     1
 10
0.0
 20
0.0
 30
0.0
  3
*D50
  1

  0
INSERT
  5
26EE
330
36D9
100
AcDbEntity
  8
1
100
AcDbBlockReference
  2
*U51
 10
0.0
 20
0.0
 30
0.0
  0
POINT
  5
26EF
330
36D9
100
AcDbEntity
  8
DEFPOINTS
 62
     0
100
AcDbPoint
 10
23.28845571460954
 20
354.6670729060736
 30
0.0
  0
POINT
  5
26F0
330
36D9
100
AcDbEntity
  8
DEFPOINTS
 62
     0
100
AcDbPoint
 10
23.28845571460954
 20
329.6670729060736
 30
0.0
  0
POINT
  5
26F1
330
36D9
100
AcDbEntity
  8
DEFPOINTS
 62
     0
100
AcDbPoint
 10
-0.9346289386024864
 20
329.6670729060736
 30
0.0
  0
ENDBLK
  5
2641
330
36D9
100
AcDbEntity
  8
0
100
AcDbBlockEnd
  0
BLOCK
  5
36DC
330
36DB
100
AcDbEntity
  8
0
100
AcDbBlockBegin
  2
*U51
 70
     1
 10
0.0
 20
0.0
 30
0.0
  3
*U51
  1

  0
ENDBLK
  5
298E
330
36DB
100
AcDbEntity
  8
0
100
AcDbBlockEnd
  0
BLOCK
  5
36DE
330
36DD
100
AcDbEntity
  8
0
100
AcDbBlockBegin
  2
*D52
 70
     1
 10
0.0
 20
0.0
 30
0.0
  3
*D52
  1

  0
INSERT
  5
26F9
330
36DD
100
AcDbEntity
  8
1
100
AcDbBlockReference
  2
*U53
 10
0.0
 20
0.0
 30
0.0
  0
POINT
  5
26FA
330
36DD
100
AcDbEntity
  8
DEFPOINTS
 62
     0
100
AcDbPoint
 10
61.02113727010475
 20
311.1670729060736
 30
0.0
  0
POINT
  5
26FB
330
36DD
100
AcDbEntity
  8
DEFPOINTS
 62
     0
100
AcDbPoint
 10
61.02113727010475
 20
317.1670729060736
 30
0.0
  0
POINT
  5
26FC
330
36DD
100
AcDbEntity
  8
DEFPOINTS
 62
     0
100
AcDbPoint
 10
51.14512764780613
 20
317.1670729060736
 30
0.0
  0
ENDBLK
  5
264D
330
36DD
100
AcDbEntity
  8
0
100
AcDbBlockEnd
  0
BLOCK
  5
36E0
330
36DF
100
AcDbEntity
  8
0
100
AcDbBlockBegin
  2
*U53
 70
     1
 10
0.0
 20
0.0
 30
0.0
  3
*U53
  1

  0
ENDBLK
  5
2992
330
36DF
100
AcDbEntity
  8
0
100
AcDbBlockEnd
  0
BLOCK
  5
36E2
330
36E1
100
AcDbEntity
  8
0
100
AcDbBlockBegin
  2
*D54
 70
     1
 10
0.0
 20
0.0
 30
0.0
  3
*D54
  1

  0
INSERT
  5
26FF
330
36E1
100
AcDbEntity
  8
1
100
AcDbBlockReference
  2
*U55
 10
0.0
 20
0.0
 30
0.0
  0
POINT
  5
2703
330
36E1
100
AcDbEntity
  8
DEFPOINTS
 62
     0
100
AcDbPoint
 10
27.28774569251311
 20
354.5917093031851
 30
0.0
  0
POINT
  5
2704
330
36E1
100
AcDbEntity
  8
DEFPOINTS
 62
     0
100
AcDbPoint
 10
19.28916573670779
 20
354.7424365089639
 30
0.0
  0
ENDBLK
  5
265B
330
36E1
100
AcDbEntity
  8
0
100
AcDbBlockEnd
  0
BLOCK
  5
36E4
330
36E3
100
AcDbEntity
  8
0
100
AcDbBlockBegin
  2
*U55
 70
     1
 10
0.0
 20
0.0
 30
0.0
  3
*U55
  1

  0
ENDBLK
  5
2996
330
36E3
100
AcDbEntity
  8
0
100
AcDbBlockEnd
  0
BLOCK
  5
36E6
330
36E5
100
AcDbEntity
  8
0
100
AcDbBlockBegin
  2
*D56
 70
     1
 10
0.0
 20
0.0
 30
0.0
  3
*D56
  1

  0
INSERT
  5
2707
330
36E5
100
AcDbEntity
  8
1
100
AcDbBlockReference
  2
*U57
 10
0.0
 20
0.0
 30
0.0
  0
POINT
  5
270B
330
36E5
100
AcDbEntity
  8
DEFPOINTS
 62
     0
100
AcDbPoint
 10
54.28874911373224
 20
354.6186259567832
 30
0.0
  0
POINT
  5
270C
330
36E5
100
AcDbEntity
  8
DEFPOINTS
 62
     0
100
AcDbPoint
 10
62.28816231548774
 20
354.7155198553638
 30
0.0
  0
ENDBLK
  5
2666
330
36E5
100
AcDbEntity
  8
0
100
AcDbBlockEnd
  0
BLOCK
  5
36E8
330
36E7
100
AcDbEntity
  8
0
100
AcDbBlockBegin
  2
*U57
 70
     1
 10
0.0
 20
0.0
 30
0.0
  3
*U57
  1

  0
ENDBLK
  5
299A
330
36E7
100
AcDbEntity
  8
0
100
AcDbBlockEnd
  0
BLOCK
  5
36EA
330
36E9
100
AcDbEntity
  8
0
100
AcDbBlockBegin
  2
*D58
 70
     1
 10
0.0
 20
0.0
 30
0.0
  3
*D58
  1

  0
INSERT
  5
270F
330
36E9
100
AcDbEntity
  8
1
100
AcDbBlockReference
  2
*U59
 10
0.0
 20
0.0
 30
0.0
  0
POINT
  5
2713
330
36E9
100
AcDbEntity
  8
DEFPOINTS
 62
     0
100
AcDbPoint
 10
54.28845571460954
 20
329.6670729060736
 30
0.0
  0
POINT
  5
2714
330
36E9
100
AcDbEntity
  8
DEFPOINTS
 62
     0
100
AcDbPoint
 10
62.28845571460954
 20
329.6670729060736
 30
0.0
  0
ENDBLK
  5
2671
330
36E9
100
AcDbEntity
  8
0
100
AcDbBlockEnd
  0
BLOCK
  5
36EC
330
36EB
100
AcDbEntity
  8
0
100
AcDbBlockBegin
  2
*U59
 70
     1
 10
0.0
 20
0.0
 30
0.0
  3
*U59
  1

  0
ENDBLK
  5
299E
330
36EB
100
AcDbEntity
  8
0
100
AcDbBlockEnd
  0
BLOCK
  5
36EE
330
36ED
100
AcDbEntity
  8
0
100
AcDbBlockBegin
  2
*D60
 70
     1
 10
0.0
 20
0.0
 30
0.0
  3
*D60
  1

  0
INSERT
  5
271A
330
36ED
100
AcDbEntity
  8
1
100
AcDbBlockReference
  2
*U61
 10
0.0
 20
0.0
 30
0.0
  0
POINT
  5
271B
330
36ED
100
AcDbEntity
  8
DEFPOINTS
 62
     0
100
AcDbPoint
 10
218.2884557146095
 20
367.1670729060736
 30
0.0
  0
POINT
  5
271C
330
36ED
100
AcDbEntity
  8
DEFPOINTS
 62
     0
100
AcDbPoint
 10
218.2884557146095
 20
317.1670729060736
 30
0.0
  0
POINT
  5
271D
330
36ED
100
AcDbEntity
  8
DEFPOINTS
 62
     0
100
AcDbPoint
 10
242.0041008063878
 20
317.1670729060736
 30
0.0
  0
ENDBLK
  5
267C
330
36ED
100
AcDbEntity
  8
0
100
AcDbBlockEnd
  0
BLOCK
  5
36F0
330
36EF
100
AcDbEntity
  8
0
100
AcDbBlockBegin
  2
*U61
 70
     1
 10
0.0
 20
0.0
 30
0.0
  3
*U61
  1

  0
ENDBLK
  5
29A2
330
36EF
100
AcDbEntity
  8
0
100
AcDbBlockEnd
  0
BLOCK
  5
36F2
330
36F1
100
AcDbEntity
  8
0
100
AcDbBlockBegin
  2
*D62
 70
     1
 10
0.0
 20
0.0
 30
0.0
  3
*D62
  1

  0
INSERT
  5
2723
330
36F1
100
AcDbEntity
  8
1
100
AcDbBlockReference
  2
*U63
 10
0.0
 20
0.0
 30
0.0
  0
POINT
  5
2724
330
36F1
100
AcDbEntity
  8
DEFPOINTS
 62
     0
100
AcDbPoint
 10
188.2980565600868
 20
354.6670729060736
 30
0.0
  0
POINT
  5
2725
330
36F1
100
AcDbEntity
  8
DEFPOINTS
 62
     0
100
AcDbPoint
 10
188.278854869132
 20
329.6670729060736
 30
0.0
  0
POINT
  5
2726
330
36F1
100
AcDbEntity
  8
DEFPOINTS
 62
     0
100
AcDbPoint
 10
233.3683193137864
 20
329.6670729060736
 30
0.0
  0
ENDBLK
  5
2688
330
36F1
100
AcDbEntity
  8
0
100
AcDbBlockEnd
  0
BLOCK
  5
36F4
330
36F3
100
AcDbEntity
  8
0
100
AcDbBlockBegin
  2
*U63
 70
     1
 10
0.0
 20
0.0
 30
0.0
  3
*U63
  1

  0
ENDBLK
  5
29A6
330
36F3
100
AcDbEntity
  8
0
100
AcDbBlockEnd
  0
BLOCK
  5
36F6
330
36F5
100
AcDbEntity
  8
0
100
AcDbBlockBegin
  2
*D64
 70
     1
 10
0.0
 20
0.0
 30
0.0
  3
*D64
  1

  0
INSERT
  5
272C
330
36F5
100
AcDbEntity
  8
1
100
AcDbBlockReference
  2
*U65
 10
0.0
 20
0.0
 30
0.0
  0
POINT
  5
272D
330
36F5
100
AcDbEntity
  8
DEFPOINTS
 62
     0
100
AcDbPoint
 10
218.2884557146095
 20
367.1670729060736
 30
0.0
  0
POINT
  5
272E
330
36F5
100
AcDbEntity
  8
DEFPOINTS
 62
     0
100
AcDbPoint
 10
206.5884557146088
 20
367.1670729060736
 30
0.0
  0
POINT
  5
272F
330
36F5
100
AcDbEntity
  8
DEFPOINTS
 62
     0
100
AcDbPoint
 10
206.5884557146088
 20
376.111965739456
 30
0.0
  0
ENDBLK
  5
2694
330
36F5
100
AcDbEntity
  8
0
100
AcDbBlockEnd
  0
BLOCK
  5
36F8
330
36F7
100
AcDbEntity
  8
0
100
AcDbBlockBegin
  2
*U65
 70
     1
 10
0.0
 20
0.0
 30
0.0
  3
*U65
  1

  0
ENDBLK
  5
29AA
330
36F7
100
AcDbEntity
  8
0
100
AcDbBlockEnd
  0
BLOCK
  5
36FA
330
36F9
100
AcDbEntity
  8
0
100
AcDbBlockBegin
  2
*D66
 70
     1
 10
0.0
 20
0.0
 30
0.0
  3
*D66
  1

  0
INSERT
  5
2735
330
36F9
100
AcDbEntity
  8
1
100
AcDbBlockReference
  2
*U67
 10
0.0
 20
0.0
 30
0.0
  0
POINT
  5
2736
330
36F9
100
AcDbEntity
  8
DEFPOINTS
 62
     0
100
AcDbPoint
 10
188.2884557146095
 20
354.6670729060736
 30
0.0
  0
POINT
  5
2737
330
36F9
100
AcDbEntity
  8
DEFPOINTS
 62
     0
100
AcDbPoint
 10
206.5884557146097
 20
342.1670729060736
 30
0.0
  0
POINT
  5
2738
330
36F9
100
AcDbEntity
  8
DEFPOINTS
 62
     0
100
AcDbPoint
 10
206.5884557146097
 20
376.0106112860142
 30
0.0
  0
ENDBLK
  5
26A0
330
36F9
100
AcDbEntity
  8
0
100
AcDbBlockEnd
  0
BLOCK
  5
36FC
330
36FB
100
AcDbEntity
  8
0
100
AcDbBlockBegin
  2
*U67
 70
     1
 10
0.0
 20
0.0
 30
0.0
  3
*U67
  1

  0
ENDBLK
  5
29AE
330
36FB
100
AcDbEntity
  8
0
100
AcDbBlockEnd
  0
BLOCK
  5
36FE
330
36FD
100
AcDbEntity
  8
0
100
AcDbBlockBegin
  2
*D68
 70
     1
 10
0.0
 20
0.0
 30
0.0
  3
*D68
  1

  0
INSERT
  5
273E
330
36FD
100
AcDbEntity
  8
1
100
AcDbBlockReference
  2
*U69
 10
0.0
 20
0.0
 30
0.0
  0
POINT
  5
273F
330
36FD
100
AcDbEntity
  8
DEFPOINTS
 62
     0
100
AcDbPoint
 10
218.2884557146095
 20
256.4272342989109
 30
0.0
  0
POINT
  5
2740
330
36FD
100
AcDbEntity
  8
DEFPOINTS
 62
     0
100
AcDbPoint
 10
218.2884557146095
 20
211.4272342989109
 30
0.0
  0
POINT
  5
2741
330
36FD
100
AcDbEntity
  8
DEFPOINTS
 62
     0
100
AcDbPoint
 10
239.1679191978097
 20
211.4272342989109
 30
0.0
  0
ENDBLK
  5
26AC
330
36FD
100
AcDbEntity
  8
0
100
AcDbBlockEnd
  0
BLOCK
  5
3700
330
36FF
100
AcDbEntity
  8
0
100
AcDbBlockBegin
  2
*U69
 70
     1
 10
0.0
 20
0.0
 30
0.0
  3
*U69
  1

  0
ENDBLK
  5
29B2
330
36FF
100
AcDbEntity
  8
0
100
AcDbBlockEnd
  0
BLOCK
  5
3702
330
3701
100
AcDbEntity
  8
0
100
AcDbBlockBegin
  2
*U70
 70
     1
 10
0.0
 20
0.0
 30
0.0
  3
*U70
  1

  0
ENDBLK
  5
2950
330
3701
100
AcDbEntity
  8
0
100
AcDbBlockEnd
  0
BLOCK
  5
3704
330
3703
100
AcDbEntity
  8
0
100
AcDbBlockBegin
  2
*U71
 70
     1
 10
0.0
 20
0.0
 30
0.0
  3
*U71
  1

  0
ENDBLK
  5
2955
330
3703
100
AcDbEntity
  8
0
100
AcDbBlockEnd
  0
ENDSEC
  0
SECTION
  2
ENTITIES
  0
LWPOLYLINE
  5
2FD0
330
3659
100
AcDbEntity
  8
1
100
AcDbPolyline
 90
        4
 70
     0
 43
0.0
 10
194.907433579602
 20
68.94695730126722
 10
199.907433579602
 20
68.94695730126722
 10
199.907433579602
 20
38.94695730126722
 10
179.9074335796021
 20
38.94695730126722
  0
LWPOLYLINE
  5
2FD1
330
3659
100
AcDbEntity
  8
1
100
AcDbPolyline
 90
        3
 70
     0
 43
0.0
 10
81.90743357960299
 20
38.94695730126722
 10
79.90743357960205
 20
38.94695730126722
 10
79.90743357960205
 20
43.84332759044729
  0
LINE
  5
2FD2
330
3659
100
AcDbEntity
  8
1
100
AcDbLine
 10
88.40743357960207
 20
65.94695730126722
 30
0.0000000000000003
 11
98.40743357960207
 21
65.94695730126722
 31
0.0000000000000003
  0
LINE
  5
2FD3
330
3659
100
AcDbEntity
  8
1
100
AcDbLine
 10
81.90743357960206
 20
74.94695730126813
 30
0.0
 11
194.907433579602
 21
74.94695730126813
 31
0.0
  0
LINE
  5
2FD4
330
3659
100
AcDbEntity
  8
1
100
AcDbLine
 10
194.907433579602
 20
74.94695730126813
 30
0.0
 11
194.907433579602
 21
42.94695730126721
 31
0.0
  0
LINE
  5
2FD5
330
3659
100
AcDbEntity
  8
1
100
AcDbLine
 10
192.907433579602
 20
40.94695730126722
 30
0.0
 11
179.9074335796021
 21
40.9469573012681
 31
0.0
  0
LINE
  5
2FD6
330
3659
100
AcDbEntity
  8
1
100
AcDbLine
 10
194.907433579602
 20
42.94695730126721
 30
0.0
 11
192.907433579602
 21
40.94695730126722
 31
0.0
  0
LINE
  5
2FD7
330
3659
100
AcDbEntity
  8
1
100
AcDbLine
 10
179.9074335796021
 20
40.9469573012681
 30
0.0
 11
179.9074335796021
 21
32.94695730126813
 31
0.0
  0
LINE
  5
2FD8
330
3659
100
AcDbEntity
  8
1
100
AcDbLine
 10
179.9074335796021
 20
32.94695730126813
 30
0.0
 11
81.90743357960299
 21
32.94695730126721
 31
0.0
  0
LINE
  5
2FD9
330
3659
100
AcDbEntity
  8
1
100
AcDbLine
 10
81.90743357960299
 20
32.94695730126721
 30
0.0
 11
81.90743357960299
 21
44.99802812882689
 31
0.0
  0
LINE
  5
2FDA
330
3659
100
AcDbEntity
  8
1
100
AcDbLine
 10
81.90743357960299
 20
49.61683028234592
 30
0.0
 11
81.90743357960299
 21
51.84695730126684
 31
0.0
  0
LINE
  5
2FDB
330
3659
100
AcDbEntity
  8
CENTER
100
AcDbLine
 10
79.03516136337102
 20
53.94695730126723
 30
0.0
 11
206.0305348712217
 21
53.94695730126723
 31
0.0
  0
LINE
  5
2FDC
330
3659
100
AcDbEntity
  8
1
100
AcDbLine
 10
81.90743357960299
 20
69.9469573012672
 30
0.0
 11
98.90743357960298
 21
69.9469573012672
 31
0.0
  0
LINE
  5
2FDD
330
3659
100
AcDbEntity
  8
1
100
AcDbLine
 10
104.9074335796028
 20
63.94695730126723
 30
0.0
 11
104.9074335796028
 21
43.94695730126723
 31
0.0
  0
ARC
  5
2FDE
330
3659
100
AcDbEntity
  8
1
100
AcDbCircle
 10
98.90743357960298
 20
63.94695730126723
 30
0.0
 40
6.0
100
AcDbArc
 50
0.0
 51
90.0
  0
LINE
  5
2FDF
330
3659
100
AcDbEntity
  8
1
100
AcDbLine
 10
98.90743357960298
 20
37.94695730126722
 30
0.0
 11
81.90743357960206
 21
37.94695730126722
 31
0.0
  0
ARC
  5
2FE0
330
3659
100
AcDbEntity
  8
1
100
AcDbCircle
 10
98.90743357960298
 20
43.94695730126723
 30
0.0
 40
6.0
100
AcDbArc
 50
270.0
 51
0.0
  0
LINE
  5
2FE1
330
3659
100
AcDbEntity
  8
1
100
AcDbLine
 10
81.90743357960299
 20
65.94695730126722
 30
0.0
 11
98.90743357960298
 21
65.94695730126722
 31
0.0
  0
LINE
  5
2FE2
330
3659
100
AcDbEntity
  8
1
100
AcDbLine
 10
100.907433579603
 20
63.94695730126723
 30
0.0
 11
100.907433579603
 21
43.94695730126723
 31
0.0
  0
ARC
  5
2FE3
330
3659
100
AcDbEntity
  8
1
100
AcDbCircle
 10
98.90743357960298
 20
63.94695730126723
 30
0.0
 40
2.0
100
AcDbArc
 50
0.0
 51
90.0
  0
LINE
  5
2FE4
330
3659
100
AcDbEntity
  8
1
100
AcDbLine
 10
98.90743357960298
 20
41.94695730126722
 30
0.0
 11
81.90743357960206
 21
41.94695730126722
 31
0.0
  0
ARC
  5
2FE5
330
3659
100
AcDbEntity
  8
1
100
AcDbCircle
 10
98.90743357960298
 20
43.94695730126723
 30
0.0
 40
2.0
100
AcDbArc
 50
270.0
 51
0.0
  0
LINE
  5
2FE6
330
3659
100
AcDbEntity
  8
1
100
AcDbLine
 10
81.90743357960299
 20
56.04695730126667
 30
0.0
 11
93.80743357960259
 21
56.04695730126667
 31
0.0
  0
LINE
  5
2FE7
330
3659
100
AcDbEntity
  8
1
100
AcDbLine
 10
95.90743357960295
 20
53.94695730126631
 30
0.0
 11
95.90743357960295
 21
53.94695730126723
 31
0.0
  0
ARC
  5
2FE8
330
3659
100
AcDbEntity
  8
1
100
AcDbCircle
 10
93.80743357960259
 20
53.94695730126631
 30
0.0
 40
2.1
100
AcDbArc
 50
0.0
 51
90.0
  0
LINE
  5
2FE9
330
3659
100
AcDbEntity
  8
1
100
AcDbLine
 10
93.80743357960259
 20
51.84695730126685
 30
0.0
 11
93.770126883708
 21
51.84695730126685
 31
0.0
  0
LINE
  5
2FEA
330
3659
100
AcDbEntity
  8
1
100
AcDbLine
 10
85.77012688370713
 20
51.84695730126595
 30
0.0
 11
81.90743357960206
 21
51.84695730126685
 31
0.0
  0
ARC
  5
2FEB
330
3659
100
AcDbEntity
  8
1
100
AcDbCircle
 10
93.80743357960259
 20
53.94695730126723
 30
0.0
 40
2.1
100
AcDbArc
 50
270.0
 51
0.0
  0
CIRCLE
  5
2FEC
330
3659
100
AcDbEntity
  8
1
100
AcDbCircle
 10
93.40743357960207
 20
60.94695730126723
 30
0.0
 40
2.75
  0
LINE
  5
2FED
330
3659
100
AcDbEntity
  8
1
100
AcDbLine
 10
93.00743357960151
 20
62.74695730126739
 30
0.0
 11
93.00743357960243
 21
61.94695730126722
 31
0.0
  0
LINE
  5
2FEE
330
3659
100
AcDbEntity
  8
1
100
AcDbLine
 10
93.00743357960243
 20
59.94695730126631
 30
0.0
 11
93.00743357960151
 21
59.14695730126704
 31
0.0
  0
ARC
  5
2FEF
330
3659
100
AcDbEntity
  8
1
100
AcDbCircle
 10
92.40743357960207
 20
59.94695730126631
 30
0.0
 40
0.6
100
AcDbArc
 50
359.9999999999479
 51
90.0
  0
LINE
  5
2FF0
330
3659
100
AcDbEntity
  8
1
100
AcDbLine
 10
93.8074335796017
 20
59.94695730126631
 30
0.0
 11
93.8074335796017
 21
59.14695730126704
 31
0.0
  0
ARC
  5
2FF1
330
3659
100
AcDbEntity
  8
1
100
AcDbCircle
 10
94.40743357960206
 20
59.94695730126631
 30
0.0
 40
0.6
100
AcDbArc
 50
90.0
 51
180.0
  0
LINE
  5
2FF2
330
3659
100
AcDbEntity
  8
1
100
AcDbLine
 10
93.8074335796017
 20
62.74695730126739
 30
0.0
 11
93.8074335796017
 21
61.94695730126722
 31
0.0
  0
LINE
  5
2FF3
330
3659
100
AcDbEntity
  8
1
100
AcDbLine
 10
91.60743357960191
 20
61.34695730126686
 30
0.0
 11
92.40743357960207
 21
61.34695730126686
 31
0.0
  0
ARC
  5
2FF4
330
3659
100
AcDbEntity
  8
1
100
AcDbCircle
 10
92.40743357960207
 20
61.94695730126722
 30
0.0
 40
0.6
100
AcDbArc
 50
270.0
 51
0.0000000000521102
  0
LINE
  5
2FF5
330
3659
100
AcDbEntity
  8
1
100
AcDbLine
 10
94.40743357960206
 20
61.34695730126686
 30
0.0
 11
95.20743357960226
 21
61.34695730126686
 31
0.0
  0
ARC
  5
2FF6
330
3659
100
AcDbEntity
  8
1
100
AcDbCircle
 10
94.40743357960206
 20
61.94695730126722
 30
0.0
 40
0.6
100
AcDbArc
 50
180.0
 51
270.0
  0
LINE
  5
2FF7
330
3659
100
AcDbEntity
  8
1
100
AcDbLine
 10
91.60743357960191
 20
60.54695730126667
 30
0.0
 11
92.40743357960207
 21
60.54695730126667
 31
0.0
  0
LINE
  5
2FF8
330
3659
100
AcDbEntity
  8
1
100
AcDbLine
 10
94.40743357960206
 20
60.54695730126667
 30
0.0
 11
95.20743357960226
 21
60.54695730126667
 31
0.0
  0
LINE
  5
2FF9
330
3659
100
AcDbEntity
  8
1
100
AcDbLine
 10
91.60743357960191
 20
61.34695730126686
 30
0.0
 11
91.60743357960191
 21
60.54695730126667
 31
0.0
  0
LINE
  5
2FFA
330
3659
100
AcDbEntity
  8
1
100
AcDbLine
 10
93.00743357960151
 20
62.74695730126739
 30
0.0
 11
93.8074335796017
 21
62.74695730126739
 31
0.0
  0
LINE
  5
2FFB
330
3659
100
AcDbEntity
  8
1
100
AcDbLine
 10
95.20743357960226
 20
61.34695730126686
 30
0.0
 11
95.20743357960226
 21
60.54695730126667
 31
0.0
  0
LINE
  5
2FFC
330
3659
100
AcDbEntity
  8
1
100
AcDbLine
 10
93.00743357960151
 20
59.14695730126704
 30
0.0
 11
93.8074335796017
 21
59.14695730126704
 31
0.0
  0
CIRCLE
  5
2FFD
330
3659
100
AcDbEntity
  8
1
100
AcDbCircle
 10
93.40743357960207
 20
46.94695730126722
 30
0.0
 40
2.75
  0
LINE
  5
2FFE
330
3659
100
AcDbEntity
  8
1
100
AcDbLine
 10
93.00743357960151
 20
48.74695730126739
 30
0.0
 11
93.00743357960243
 21
47.94695730126721
 31
0.0
  0
LINE
  5
2FFF
330
3659
100
AcDbEntity
  8
1
100
AcDbLine
 10
93.00743357960243
 20
45.9469573012663
 30
0.0
 11
93.00743357960151
 21
45.14695730126702
 31
0.0
  0
ARC
  5
3000
330
3659
100
AcDbEntity
  8
1
100
AcDbCircle
 10
92.40743357960207
 20
45.9469573012663
 30
0.0
 40
0.6
100
AcDbArc
 50
359.9999999999479
 51
90.0
  0
LINE
  5
3001
330
3659
100
AcDbEntity
  8
1
100
AcDbLine
 10
93.8074335796017
 20
45.9469573012663
 30
0.0
 11
93.8074335796017
 21
45.14695730126702
 31
0.0
  0
ARC
  5
3002
330
3659
100
AcDbEntity
  8
1
100
AcDbCircle
 10
94.40743357960206
 20
45.9469573012663
 30
0.0
 40
0.6
100
AcDbArc
 50
90.0
 51
180.0
  0
LINE
  5
3003
330
3659
100
AcDbEntity
  8
1
100
AcDbLine
 10
93.8074335796017
 20
48.74695730126739
 30
0.0
 11
93.8074335796017
 21
47.94695730126721
 31
0.0
  0
LINE
  5
3004
330
3659
100
AcDbEntity
  8
1
100
AcDbLine
 10
91.60743357960191
 20
47.34695730126685
 30
0.0
 11
92.40743357960207
 21
47.34695730126685
 31
0.0
  0
ARC
  5
3005
330
3659
100
AcDbEntity
  8
1
100
AcDbCircle
 10
92.40743357960207
 20
47.94695730126721
 30
0.0
 40
0.6
100
AcDbArc
 50
270.0
 51
0.0000000000521102
  0
LINE
  5
3006
330
3659
100
AcDbEntity
  8
1
100
AcDbLine
 10
94.40743357960206
 20
47.34695730126685
 30
0.0
 11
95.20743357960226
 21
47.34695730126685
 31
0.0
  0
ARC
  5
3007
330
3659
100
AcDbEntity
  8
1
100
AcDbCircle
 10
94.40743357960206
 20
47.94695730126721
 30
0.0
 40
0.6
100
AcDbArc
 50
180.0
 51
270.0
  0
LINE
  5
3008
330
3659
100
AcDbEntity
  8
1
100
AcDbLine
 10
91.60743357960191
 20
46.54695730126667
 30
0.0
 11
92.40743357960207
 21
46.54695730126667
 31
0.0
  0
LINE
  5
3009
330
3659
100
AcDbEntity
  8
1
100
AcDbLine
 10
94.40743357960206
 20
46.54695730126667
 30
0.0
 11
95.20743357960226
 21
46.54695730126667
 31
0.0
  0
LINE
  5
300A
330
3659
100
AcDbEntity
  8
1
100
AcDbLine
 10
91.60743357960191
 20
47.34695730126685
 30
0.0
 11
91.60743357960191
 21
46.54695730126667
 31
0.0
  0
LINE
  5
300B
330
3659
100
AcDbEntity
  8
1
100
AcDbLine
 10
93.00743357960151
 20
48.74695730126739
 30
0.0
 11
93.8074335796017
 21
48.74695730126739
 31
0.0
  0
LINE
  5
300C
330
3659
100
AcDbEntity
  8
1
100
AcDbLine
 10
95.20743357960226
 20
47.34695730126685
 30
0.0
 11
95.20743357960226
 21
46.54695730126667
 31
0.0
  0
LINE
  5
300D
330
3659
100
AcDbEntity
  8
1
100
AcDbLine
 10
93.00743357960151
 20
45.14695730126702
 30
0.0
 11
93.8074335796017
 21
45.14695730126702
 31
0.0
  0
ARC
  5
300E
330
3659
100
AcDbEntity
  8
1
100
AcDbCircle
 10
93.40743357960207
 20
53.94695730126723
 30
0.0
 40
2.0
100
AcDbArc
 50
300.0000000000096
 51
119.9999999999834
  0
LINE
  5
300F
330
3659
100
AcDbEntity
  8
1
100
AcDbLine
 10
92.40743357960207
 20
55.67900810883536
 30
0.0
 11
77.62107400942557
 21
47.14209943065967
 31
0.0
  0
LINE
  5
3010
330
3659
100
AcDbEntity
  8
1
100
AcDbLine
 10
94.40743357960206
 20
52.21490649369724
 30
0.0
 11
77.62107400942557
 21
42.52329727714157
 31
0.0
  0
POLYLINE
  5
312E
330
3659
100
AcDbEntity
  8
1
100
AcDb3dPolyline
 66
     1
 10
0.0
 20
0.0
 30
0.0
 70
     8
  0
VERTEX
  5
312F
330
312E
100
AcDbEntity
  8
1
100
AcDbVertex
100
AcDb3dPolylineVertex
 10
77.62109999999998
 20
47.1421
 30
0.0
 70
    32
  0
VERTEX
  5
3130
330
312E
100
AcDbEntity
  8
1
100
AcDbVertex
100
AcDb3dPolylineVertex
 10
77.6178
 20
47.1174
 30
0.0
 70
    32
  0
VERTEX
  5
3131
330
312E
100
AcDbEntity
  8
1
100
AcDbVertex
100
AcDb3dPolylineVertex
 10
77.6143
 20
47.0931
 30
0.0
 70
    32
  0
VERTEX
  5
3132
330
312E
100
AcDbEntity
  8
1
100
AcDbVertex
100
AcDb3dPolylineVertex
 10
77.61079999999998
 20
47.0692
 30
0.0
 70
    32
  0
VERTEX
  5
3133
330
312E
100
AcDbEntity
  8
1
100
AcDbVertex
100
AcDb3dPolylineVertex
 10
77.6072
 20
47.04569999999999
 30
0.0
 70
    32
  0
VERTEX
  5
3134
330
312E
100
AcDbEntity
  8
1
100
AcDbVertex
100
AcDb3dPolylineVertex
 10
77.60349999999998
 20
47.0225
 30
0.0
 70
    32
  0
VERTEX
  5
3135
330
312E
100
AcDbEntity
  8
1
100
AcDbVertex
100
AcDb3dPolylineVertex
 10
77.59959999999998
 20
46.99969999999999
 30
0.0
 70
    32
  0
VERTEX
  5
3136
330
312E
100
AcDbEntity
  8
1
100
AcDbVertex
100
AcDb3dPolylineVertex
 10
77.59579999999998
 20
46.97729999999999
 30
0.0
 70
    32
  0
VERTEX
  5
3137
330
312E
100
AcDbEntity
  8
1
100
AcDbVertex
100
AcDb3dPolylineVertex
 10
77.5918
 20
46.9551
 30
0.0
 70
    32
  0
VERTEX
  5
3138
330
312E
100
AcDbEntity
  8
1
100
AcDbVertex
100
AcDb3dPolylineVertex
 10
77.5877
 20
46.9334
 30
0.0
 70
    32
  0
VERTEX
  5
3139
330
312E
100
AcDbEntity
  8
1
100
AcDbVertex
100
AcDb3dPolylineVertex
 10
77.5836
 20
46.9119
 30
0.0
 70
    32
  0
VERTEX
  5
313A
330
312E
100
AcDbEntity
  8
1
100
AcDbVertex
100
AcDb3dPolylineVertex
 10
77.57949999999998
 20
46.8907
 30
0.0
 70
    32
  0
VERTEX
  5
313B
330
312E
100
AcDbEntity
  8
1
100
AcDbVertex
100
AcDb3dPolylineVertex
 10
77.57519999999998
 20
46.8699
 30
0.0
 70
    32
  0
VERTEX
  5
313C
330
312E
100
AcDbEntity
  8
1
100
AcDbVertex
100
AcDb3dPolylineVertex
 10
77.57089999999998
 20
46.8493
 30
0.0
 70
    32
  0
VERTEX
  5
313D
330
312E
100
AcDbEntity
  8
1
100
AcDbVertex
100
AcDb3dPolylineVertex
 10
77.56659999999998
 20
46.82909999999998
 30
0.0
 70
    32
  0
VERTEX
  5
313E
330
312E
100
AcDbEntity
  8
1
100
AcDbVertex
100
AcDb3dPolylineVertex
 10
77.5622
 20
46.80909999999999
 30
0.0
 70
    32
  0
VERTEX
  5
313F
330
312E
100
AcDbEntity
  8
1
100
AcDbVertex
100
AcDb3dPolylineVertex
 10
77.5578
 20
46.7893
 30
0.0
 70
    32
  0
VERTEX
  5
3140
330
312E
100
AcDbEntity
  8
1
100
AcDbVertex
100
AcDb3dPolylineVertex
 10
77.55329999999998
 20
46.76989999999999
 30
0.0
 70
    32
  0
VERTEX
  5
3141
330
312E
100
AcDbEntity
  8
1
100
AcDbVertex
100
AcDb3dPolylineVertex
 10
77.54879999999999
 20
46.7506
 30
0.0
 70
    32
  0
VERTEX
  5
3142
330
312E
100
AcDbEntity
  8
1
100
AcDbVertex
100
AcDb3dPolylineVertex
 10
77.54430000000002
 20
46.73169999999998
 30
0.0
 70
    32
  0
VERTEX
  5
3143
330
312E
100
AcDbEntity
  8
1
100
AcDbVertex
100
AcDb3dPolylineVertex
 10
77.53969999999998
 20
46.71289999999999
 30
0.0
 70
    32
  0
VERTEX
  5
3144
330
312E
100
AcDbEntity
  8
1
100
AcDbVertex
100
AcDb3dPolylineVertex
 10
77.5352
 20
46.6944
 30
0.0
 70
    32
  0
VERTEX
  5
3145
330
312E
100
AcDbEntity
  8
1
100
AcDbVertex
100
AcDb3dPolylineVertex
 10
77.53060000000002
 20
46.67609999999998
 30
0.0
 70
    32
  0
VERTEX
  5
3146
330
312E
100
AcDbEntity
  8
1
100
AcDbVertex
100
AcDb3dPolylineVertex
 10
77.52599999999998
 20
46.65799999999999
 30
0.0
 70
    32
  0
VERTEX
  5
3147
330
312E
100
AcDbEntity
  8
1
100
AcDbVertex
100
AcDb3dPolylineVertex
 10
77.5215
 20
46.6401
 30
0.0
 70
    32
  0
VERTEX
  5
3148
330
312E
100
AcDbEntity
  8
1
100
AcDbVertex
100
AcDb3dPolylineVertex
 10
77.5169
 20
46.6223
 30
0.0
 70
    32
  0
VERTEX
  5
3149
330
312E
100
AcDbEntity
  8
1
100
AcDbVertex
100
AcDb3dPolylineVertex
 10
77.51229999999998
 20
46.60479999999998
 30
0.0
 70
    32
  0
VERTEX
  5
314A
330
312E
100
AcDbEntity
  8
1
100
AcDbVertex
100
AcDb3dPolylineVertex
 10
77.5078
 20
46.5874
 30
0.0
 70
    32
  0
VERTEX
  5
314B
330
312E
100
AcDbEntity
  8
1
100
AcDbVertex
100
AcDb3dPolylineVertex
 10
77.50320000000002
 20
46.5702
 30
0.0
 70
    32
  0
VERTEX
  5
314C
330
312E
100
AcDbEntity
  8
1
100
AcDbVertex
100
AcDb3dPolylineVertex
 10
77.4987
 20
46.5531
 30
0.0
 70
    32
  0
VERTEX
  5
314D
330
312E
100
AcDbEntity
  8
1
100
AcDbVertex
100
AcDb3dPolylineVertex
 10
77.4942
 20
46.5362
 30
0.0
 70
    32
  0
VERTEX
  5
314E
330
312E
100
AcDbEntity
  8
1
100
AcDbVertex
100
AcDb3dPolylineVertex
 10
77.48969999999999
 20
46.51939999999998
 30
0.0
 70
    32
  0
VERTEX
  5
314F
330
312E
100
AcDbEntity
  8
1
100
AcDbVertex
100
AcDb3dPolylineVertex
 10
77.48529999999998
 20
46.50269999999999
 30
0.0
 70
    32
  0
VERTEX
  5
3150
330
312E
100
AcDbEntity
  8
1
100
AcDbVertex
100
AcDb3dPolylineVertex
 10
77.48090000000002
 20
46.4861
 30
0.0
 70
    32
  0
VERTEX
  5
3151
330
312E
100
AcDbEntity
  8
1
100
AcDbVertex
100
AcDb3dPolylineVertex
 10
77.4766
 20
46.4697
 30
0.0
 70
    32
  0
VERTEX
  5
3152
330
312E
100
AcDbEntity
  8
1
100
AcDbVertex
100
AcDb3dPolylineVertex
 10
77.4723
 20
46.4533
 30
0.0
 70
    32
  0
VERTEX
  5
3153
330
312E
100
AcDbEntity
  8
1
100
AcDbVertex
100
AcDb3dPolylineVertex
 10
77.4681
 20
46.43699999999999
 30
0.0
 70
    32
  0
VERTEX
  5
3154
330
312E
100
AcDbEntity
  8
1
100
AcDbVertex
100
AcDb3dPolylineVertex
 10
77.46389999999998
 20
46.42079999999999
 30
0.0
 70
    32
  0
VERTEX
  5
3155
330
312E
100
AcDbEntity
  8
1
100
AcDbVertex
100
AcDb3dPolylineVertex
 10
77.4598
 20
46.40469999999999
 30
0.0
 70
    32
  0
VERTEX
  5
3156
330
312E
100
AcDbEntity
  8
1
100
AcDbVertex
100
AcDb3dPolylineVertex
 10
77.45579999999998
 20
46.3886
 30
0.0
 70
    32
  0
VERTEX
  5
3157
330
312E
100
AcDbEntity
  8
1
100
AcDbVertex
100
AcDb3dPolylineVertex
 10
77.45180000000002
 20
46.3726
 30
0.0
 70
    32
  0
VERTEX
  5
3158
330
312E
100
AcDbEntity
  8
1
100
AcDbVertex
100
AcDb3dPolylineVertex
 10
77.4479
 20
46.3566
 30
0.0
 70
    32
  0
VERTEX
  5
3159
330
312E
100
AcDbEntity
  8
1
100
AcDbVertex
100
AcDb3dPolylineVertex
 10
77.44410000000002
 20
46.3407
 30
0.0
 70
    32
  0
VERTEX
  5
315A
330
312E
100
AcDbEntity
  8
1
100
AcDbVertex
100
AcDb3dPolylineVertex
 10
77.44039999999998
 20
46.3248
 30
0.0
 70
    32
  0
VERTEX
  5
315B
330
312E
100
AcDbEntity
  8
1
100
AcDbVertex
100
AcDb3dPolylineVertex
 10
77.43680000000002
 20
46.30889999999999
 30
0.0
 70
    32
  0
VERTEX
  5
315C
330
312E
100
AcDbEntity
  8
1
100
AcDbVertex
100
AcDb3dPolylineVertex
 10
77.4333
 20
46.29299999999999
 30
0.0
 70
    32
  0
VERTEX
  5
315D
330
312E
100
AcDbEntity
  8
1
100
AcDbVertex
100
AcDb3dPolylineVertex
 10
77.4299
 20
46.27709999999999
 30
0.0
 70
    32
  0
VERTEX
  5
315E
330
312E
100
AcDbEntity
  8
1
100
AcDbVertex
100
AcDb3dPolylineVertex
 10
77.42659999999998
 20
46.2612
 30
0.0
 70
    32
  0
VERTEX
  5
315F
330
312E
100
AcDbEntity
  8
1
100
AcDbVertex
100
AcDb3dPolylineVertex
 10
77.4234
 20
46.24519999999999
 30
0.0
 70
    32
  0
VERTEX
  5
3160
330
312E
100
AcDbEntity
  8
1
100
AcDbVertex
100
AcDb3dPolylineVertex
 10
77.42029999999998
 20
46.2293
 30
0.0
 70
    32
  0
VERTEX
  5
3161
330
312E
100
AcDbEntity
  8
1
100
AcDbVertex
100
AcDb3dPolylineVertex
 10
77.41729999999998
 20
46.21329999999999
 30
0.0
 70
    32
  0
VERTEX
  5
3162
330
312E
100
AcDbEntity
  8
1
100
AcDbVertex
100
AcDb3dPolylineVertex
 10
77.4145
 20
46.1972
 30
0.0
 70
    32
  0
VERTEX
  5
3163
330
312E
100
AcDbEntity
  8
1
100
AcDbVertex
100
AcDb3dPolylineVertex
 10
77.41179999999999
 20
46.1811
 30
0.0
 70
    32
  0
VERTEX
  5
3164
330
312E
100
AcDbEntity
  8
1
100
AcDbVertex
100
AcDb3dPolylineVertex
 10
77.4093
 20
46.1649
 30
0.0
 70
    32
  0
VERTEX
  5
3165
330
312E
100
AcDbEntity
  8
1
100
AcDbVertex
100
AcDb3dPolylineVertex
 10
77.40689999999998
 20
46.14869999999998
 30
0.0
 70
    32
  0
VERTEX
  5
3166
330
312E
100
AcDbEntity
  8
1
100
AcDbVertex
100
AcDb3dPolylineVertex
 10
77.4046
 20
46.1323
 30
0.0
 70
    32
  0
VERTEX
  5
3167
330
312E
100
AcDbEntity
  8
1
100
AcDbVertex
100
AcDb3dPolylineVertex
 10
77.4025
 20
46.1159
 30
0.0
 70
    32
  0
VERTEX
  5
3168
330
312E
100
AcDbEntity
  8
1
100
AcDbVertex
100
AcDb3dPolylineVertex
 10
77.40049999999998
 20
46.0994
 30
0.0
 70
    32
  0
VERTEX
  5
3169
330
312E
100
AcDbEntity
  8
1
100
AcDbVertex
100
AcDb3dPolylineVertex
 10
77.3987
 20
46.0827
 30
0.0
 70
    32
  0
VERTEX
  5
316A
330
312E
100
AcDbEntity
  8
1
100
AcDbVertex
100
AcDb3dPolylineVertex
 10
77.39709999999998
 20
46.066
 30
0.0
 70
    32
  0
VERTEX
  5
316B
330
312E
100
AcDbEntity
  8
1
100
AcDbVertex
100
AcDb3dPolylineVertex
 10
77.3956
 20
46.0491
 30
0.0
 70
    32
  0
VERTEX
  5
316C
330
312E
100
AcDbEntity
  8
1
100
AcDbVertex
100
AcDb3dPolylineVertex
 10
77.3943
 20
46.032
 30
0.0
 70
    32
  0
VERTEX
  5
316D
330
312E
100
AcDbEntity
  8
1
100
AcDbVertex
100
AcDb3dPolylineVertex
 10
77.39319999999998
 20
46.0148
 30
0.0
 70
    32
  0
VERTEX
  5
316E
330
312E
100
AcDbEntity
  8
1
100
AcDbVertex
100
AcDb3dPolylineVertex
 10
77.3923
 20
45.9975
 30
0.0
 70
    32
  0
VERTEX
  5
316F
330
312E
100
AcDbEntity
  8
1
100
AcDbVertex
100
AcDb3dPolylineVertex
 10
77.39159999999998
 20
45.97999999999998
 30
0.0
 70
    32
  0
VERTEX
  5
3170
330
312E
100
AcDbEntity
  8
1
100
AcDbVertex
100
AcDb3dPolylineVertex
 10
77.391
 20
45.9623
 30
0.0
 70
    32
  0
VERTEX
  5
3171
330
312E
100
AcDbEntity
  8
1
100
AcDbVertex
100
AcDb3dPolylineVertex
 10
77.39069999999998
 20
45.9445
 30
0.0
 70
    32
  0
VERTEX
  5
3172
330
312E
100
AcDbEntity
  8
1
100
AcDbVertex
100
AcDb3dPolylineVertex
 10
77.3905
 20
45.9264
 30
0.0
 70
    32
  0
VERTEX
  5
3173
330
312E
100
AcDbEntity
  8
1
100
AcDbVertex
100
AcDb3dPolylineVertex
 10
77.39060000000002
 20
45.90819999999999
 30
0.0
 70
    32
  0
VERTEX
  5
3174
330
312E
100
AcDbEntity
  8
1
100
AcDbVertex
100
AcDb3dPolylineVertex
 10
77.3909
 20
45.88969999999998
 30
0.0
 70
    32
  0
VERTEX
  5
3175
330
312E
100
AcDbEntity
  8
1
100
AcDbVertex
100
AcDb3dPolylineVertex
 10
77.3914
 20
45.871
 30
0.0
 70
    32
  0
VERTEX
  5
3176
330
312E
100
AcDbEntity
  8
1
100
AcDbVertex
100
AcDb3dPolylineVertex
 10
77.39209999999999
 20
45.8521
 30
0.0
 70
    32
  0
VERTEX
  5
3177
330
312E
100
AcDbEntity
  8
1
100
AcDbVertex
100
AcDb3dPolylineVertex
 10
77.3931
 20
45.8329
 30
0.0
 70
    32
  0
VERTEX
  5
3178
330
312E
100
AcDbEntity
  8
1
100
AcDbVertex
100
AcDb3dPolylineVertex
 10
77.3943
 20
45.81349999999999
 30
0.0
 70
    32
  0
VERTEX
  5
3179
330
312E
100
AcDbEntity
  8
1
100
AcDbVertex
100
AcDb3dPolylineVertex
 10
77.3957
 20
45.7939
 30
0.0
 70
    32
  0
VERTEX
  5
317A
330
312E
100
AcDbEntity
  8
1
100
AcDbVertex
100
AcDb3dPolylineVertex
 10
77.3973
 20
45.77399999999999
 30
0.0
 70
    32
  0
VERTEX
  5
317B
330
312E
100
AcDbEntity
  8
1
100
AcDbVertex
100
AcDb3dPolylineVertex
 10
77.39929999999998
 20
45.7538
 30
0.0
 70
    32
  0
VERTEX
  5
317C
330
312E
100
AcDbEntity
  8
1
100
AcDbVertex
100
AcDb3dPolylineVertex
 10
77.40139999999998
 20
45.7333
 30
0.0
 70
    32
  0
VERTEX
  5
317D
330
312E
100
AcDbEntity
  8
1
100
AcDbVertex
100
AcDb3dPolylineVertex
 10
77.4038
 20
45.7125
 30
0.0
 70
    32
  0
VERTEX
  5
317E
330
312E
100
AcDbEntity
  8
1
100
AcDbVertex
100
AcDb3dPolylineVertex
 10
77.40649999999998
 20
45.69149999999999
 30
0.0
 70
    32
  0
VERTEX
  5
317F
330
312E
100
AcDbEntity
  8
1
100
AcDbVertex
100
AcDb3dPolylineVertex
 10
77.40949999999997
 20
45.67009999999998
 30
0.0
 70
    32
  0
VERTEX
  5
3180
330
312E
100
AcDbEntity
  8
1
100
AcDbVertex
100
AcDb3dPolylineVertex
 10
77.4127
 20
45.6484
 30
0.0
 70
    32
  0
VERTEX
  5
3181
330
312E
100
AcDbEntity
  8
1
100
AcDbVertex
100
AcDb3dPolylineVertex
 10
77.41620000000001
 20
45.6264
 30
0.0
 70
    32
  0
VERTEX
  5
3182
330
312E
100
AcDbEntity
  8
1
100
AcDbVertex
100
AcDb3dPolylineVertex
 10
77.42
 20
45.604
 30
0.0
 70
    32
  0
VERTEX
  5
3183
330
312E
100
AcDbEntity
  8
1
100
AcDbVertex
100
AcDb3dPolylineVertex
 10
77.42399999999999
 20
45.5813
 30
0.0
 70
    32
  0
VERTEX
  5
3184
330
312E
100
AcDbEntity
  8
1
100
AcDbVertex
100
AcDb3dPolylineVertex
 10
77.42839999999998
 20
45.55819999999999
 30
0.0
 70
    32
  0
VERTEX
  5
3185
330
312E
100
AcDbEntity
  8
1
100
AcDbVertex
100
AcDb3dPolylineVertex
 10
77.43300000000002
 20
45.53479999999999
 30
0.0
 70
    32
  0
VERTEX
  5
3186
330
312E
100
AcDbEntity
  8
1
100
AcDbVertex
100
AcDb3dPolylineVertex
 10
77.438
 20
45.511
 30
0.0
 70
    32
  0
VERTEX
  5
3187
330
312E
100
AcDbEntity
  8
1
100
AcDbVertex
100
AcDb3dPolylineVertex
 10
77.4432
 20
45.4868
 30
0.0
 70
    32
  0
VERTEX
  5
3188
330
312E
100
AcDbEntity
  8
1
100
AcDbVertex
100
AcDb3dPolylineVertex
 10
77.44880000000001
 20
45.4622
 30
0.0
 70
    32
  0
VERTEX
  5
3189
330
312E
100
AcDbEntity
  8
1
100
AcDbVertex
100
AcDb3dPolylineVertex
 10
77.4547
 20
45.4373
 30
0.0
 70
    32
  0
VERTEX
  5
318A
330
312E
100
AcDbEntity
  8
1
100
AcDbVertex
100
AcDb3dPolylineVertex
 10
77.46089999999998
 20
45.4119
 30
0.0
 70
    32
  0
VERTEX
  5
318B
330
312E
100
AcDbEntity
  8
1
100
AcDbVertex
100
AcDb3dPolylineVertex
 10
77.46739999999999
 20
45.3861
 30
0.0
 70
    32
  0
VERTEX
  5
318C
330
312E
100
AcDbEntity
  8
1
100
AcDbVertex
100
AcDb3dPolylineVertex
 10
77.47419999999998
 20
45.3598
 30
0.0
 70
    32
  0
VERTEX
  5
318D
330
312E
100
AcDbEntity
  8
1
100
AcDbVertex
100
AcDb3dPolylineVertex
 10
77.48139999999998
 20
45.33319999999998
 30
0.0
 70
    32
  0
VERTEX
  5
318E
330
312E
100
AcDbEntity
  8
1
100
AcDbVertex
100
AcDb3dPolylineVertex
 10
77.4889
 20
45.3061
 30
0.0
 70
    32
  0
VERTEX
  5
318F
330
312E
100
AcDbEntity
  8
1
100
AcDbVertex
100
AcDb3dPolylineVertex
 10
77.4967
 20
45.27849999999999
 30
0.0
 70
    32
  0
VERTEX
  5
3190
330
312E
100
AcDbEntity
  8
1
100
AcDbVertex
100
AcDb3dPolylineVertex
 10
77.5049
 20
45.25059999999998
 30
0.0
 70
    32
  0
VERTEX
  5
3191
330
312E
100
AcDbEntity
  8
1
100
AcDbVertex
100
AcDb3dPolylineVertex
 10
77.5133
 20
45.22229999999999
 30
0.0
 70
    32
  0
VERTEX
  5
3192
330
312E
100
AcDbEntity
  8
1
100
AcDbVertex
100
AcDb3dPolylineVertex
 10
77.52200000000001
 20
45.1935
 30
0.0
 70
    32
  0
VERTEX
  5
3193
330
312E
100
AcDbEntity
  8
1
100
AcDbVertex
100
AcDb3dPolylineVertex
 10
77.5309
 20
45.16449999999998
 30
0.0
 70
    32
  0
VERTEX
  5
3194
330
312E
100
AcDbEntity
  8
1
100
AcDbVertex
100
AcDb3dPolylineVertex
 10
77.54000000000002
 20
45.13499999999999
 30
0.0
 70
    32
  0
VERTEX
  5
3195
330
312E
100
AcDbEntity
  8
1
100
AcDbVertex
100
AcDb3dPolylineVertex
 10
77.54940000000002
 20
45.1052
 30
0.0
 70
    32
  0
VERTEX
  5
3196
330
312E
100
AcDbEntity
  8
1
100
AcDbVertex
100
AcDb3dPolylineVertex
 10
77.55889999999998
 20
45.07509999999999
 30
0.0
 70
    32
  0
VERTEX
  5
3197
330
312E
100
AcDbEntity
  8
1
100
AcDbVertex
100
AcDb3dPolylineVertex
 10
77.56870000000002
 20
45.0447
 30
0.0
 70
    32
  0
VERTEX
  5
3198
330
312E
100
AcDbEntity
  8
1
100
AcDbVertex
100
AcDb3dPolylineVertex
 10
77.57859999999998
 20
45.01399999999999
 30
0.0
 70
    32
  0
VERTEX
  5
3199
330
312E
100
AcDbEntity
  8
1
100
AcDbVertex
100
AcDb3dPolylineVertex
 10
77.5886
 20
44.98299999999999
 30
0.0
 70
    32
  0
VERTEX
  5
319A
330
312E
100
AcDbEntity
  8
1
100
AcDbVertex
100
AcDb3dPolylineVertex
 10
77.59879999999999
 20
44.9518
 30
0.0
 70
    32
  0
VERTEX
  5
319B
330
312E
100
AcDbEntity
  8
1
100
AcDbVertex
100
AcDb3dPolylineVertex
 10
77.60899999999998
 20
44.92029999999998
 30
0.0
 70
    32
  0
VERTEX
  5
319C
330
312E
100
AcDbEntity
  8
1
100
AcDbVertex
100
AcDb3dPolylineVertex
 10
77.6194
 20
44.88859999999998
 30
0.0
 70
    32
  0
VERTEX
  5
319D
330
312E
100
AcDbEntity
  8
1
100
AcDbVertex
100
AcDb3dPolylineVertex
 10
77.6298
 20
44.8566
 30
0.0
 70
    32
  0
VERTEX
  5
319E
330
312E
100
AcDbEntity
  8
1
100
AcDbVertex
100
AcDb3dPolylineVertex
 10
77.64029999999998
 20
44.8245
 30
0.0
 70
    32
  0
VERTEX
  5
319F
330
312E
100
AcDbEntity
  8
1
100
AcDbVertex
100
AcDb3dPolylineVertex
 10
77.65080000000001
 20
44.7921
 30
0.0
 70
    32
  0
VERTEX
  5
31A0
330
312E
100
AcDbEntity
  8
1
100
AcDbVertex
100
AcDb3dPolylineVertex
 10
77.6614
 20
44.75959999999999
 30
0.0
 70
    32
  0
VERTEX
  5
31A1
330
312E
100
AcDbEntity
  8
1
100
AcDbVertex
100
AcDb3dPolylineVertex
 10
77.67189999999998
 20
44.7269
 30
0.0
 70
    32
  0
VERTEX
  5
31A2
330
312E
100
AcDbEntity
  8
1
100
AcDbVertex
100
AcDb3dPolylineVertex
 10
77.6824
 20
44.69409999999998
 30
0.0
 70
    32
  0
VERTEX
  5
31A3
330
312E
100
AcDbEntity
  8
1
100
AcDbVertex
100
AcDb3dPolylineVertex
 10
77.69289999999998
 20
44.66109999999999
 30
0.0
 70
    32
  0
VERTEX
  5
31A4
330
312E
100
AcDbEntity
  8
1
100
AcDbVertex
100
AcDb3dPolylineVertex
 10
77.7034
 20
44.6281
 30
0.0
 70
    32
  0
VERTEX
  5
31A5
330
312E
100
AcDbEntity
  8
1
100
AcDbVertex
100
AcDb3dPolylineVertex
 10
77.7138
 20
44.5949
 30
0.0
 70
    32
  0
VERTEX
  5
31A6
330
312E
100
AcDbEntity
  8
1
100
AcDbVertex
100
AcDb3dPolylineVertex
 10
77.7241
 20
44.56159999999999
 30
0.0
 70
    32
  0
VERTEX
  5
31A7
330
312E
100
AcDbEntity
  8
1
100
AcDbVertex
100
AcDb3dPolylineVertex
 10
77.73430000000002
 20
44.5283
 30
0.0
 70
    32
  0
VERTEX
  5
31A8
330
312E
100
AcDbEntity
  8
1
100
AcDbVertex
100
AcDb3dPolylineVertex
 10
77.74429999999998
 20
44.49489999999999
 30
0.0
 70
    32
  0
VERTEX
  5
31A9
330
312E
100
AcDbEntity
  8
1
100
AcDbVertex
100
AcDb3dPolylineVertex
 10
77.7543
 20
44.4615
 30
0.0
 70
    32
  0
VERTEX
  5
31AA
330
312E
100
AcDbEntity
  8
1
100
AcDbVertex
100
AcDb3dPolylineVertex
 10
77.7641
 20
44.428
 30
0.0
 70
    32
  0
VERTEX
  5
31AB
330
312E
100
AcDbEntity
  8
1
100
AcDbVertex
100
AcDb3dPolylineVertex
 10
77.77370000000002
 20
44.39449999999999
 30
0.0
 70
    32
  0
VERTEX
  5
31AC
330
312E
100
AcDbEntity
  8
1
100
AcDbVertex
100
AcDb3dPolylineVertex
 10
77.78310000000002
 20
44.3611
 30
0.0
 70
    32
  0
VERTEX
  5
31AD
330
312E
100
AcDbEntity
  8
1
100
AcDbVertex
100
AcDb3dPolylineVertex
 10
77.79229999999998
 20
44.3276
 30
0.0
 70
    32
  0
VERTEX
  5
31AE
330
312E
100
AcDbEntity
  8
1
100
AcDbVertex
100
AcDb3dPolylineVertex
 10
77.80129999999998
 20
44.29419999999999
 30
0.0
 70
    32
  0
VERTEX
  5
31AF
330
312E
100
AcDbEntity
  8
1
100
AcDbVertex
100
AcDb3dPolylineVertex
 10
77.81010000000001
 20
44.2608
 30
0.0
 70
    32
  0
VERTEX
  5
31B0
330
312E
100
AcDbEntity
  8
1
100
AcDbVertex
100
AcDb3dPolylineVertex
 10
77.8186
 20
44.22749999999999
 30
0.0
 70
    32
  0
VERTEX
  5
31B1
330
312E
100
AcDbEntity
  8
1
100
AcDbVertex
100
AcDb3dPolylineVertex
 10
77.8268
 20
44.1942
 30
0.0
 70
    32
  0
VERTEX
  5
31B2
330
312E
100
AcDbEntity
  8
1
100
AcDbVertex
100
AcDb3dPolylineVertex
 10
77.8347
 20
44.16109999999998
 30
0.0
 70
    32
  0
VERTEX
  5
31B3
330
312E
100
AcDbEntity
  8
1
100
AcDbVertex
100
AcDb3dPolylineVertex
 10
77.84229999999998
 20
44.12799999999999
 30
0.0
 70
    32
  0
VERTEX
  5
31B4
330
312E
100
AcDbEntity
  8
1
100
AcDbVertex
100
AcDb3dPolylineVertex
 10
77.84959999999998
 20
44.0951
 30
0.0
 70
    32
  0
VERTEX
  5
31B5
330
312E
100
AcDbEntity
  8
1
100
AcDbVertex
100
AcDb3dPolylineVertex
 10
77.85649999999998
 20
44.06229999999999
 30
0.0
 70
    32
  0
VERTEX
  5
31B6
330
312E
100
AcDbEntity
  8
1
100
AcDbVertex
100
AcDb3dPolylineVertex
 10
77.8631
 20
44.0296
 30
0.0
 70
    32
  0
VERTEX
  5
31B7
330
312E
100
AcDbEntity
  8
1
100
AcDbVertex
100
AcDb3dPolylineVertex
 10
77.86929999999998
 20
43.9971
 30
0.0
 70
    32
  0
VERTEX
  5
31B8
330
312E
100
AcDbEntity
  8
1
100
AcDbVertex
100
AcDb3dPolylineVertex
 10
77.87510000000001
 20
43.96479999999999
 30
0.0
 70
    32
  0
VERTEX
  5
31B9
330
312E
100
AcDbEntity
  8
1
100
AcDbVertex
100
AcDb3dPolylineVertex
 10
77.8805
 20
43.9327
 30
0.0
 70
    32
  0
VERTEX
  5
31BA
330
312E
100
AcDbEntity
  8
1
100
AcDbVertex
100
AcDb3dPolylineVertex
 10
77.88540000000002
 20
43.9008
 30
0.0
 70
    32
  0
VERTEX
  5
31BB
330
312E
100
AcDbEntity
  8
1
100
AcDbVertex
100
AcDb3dPolylineVertex
 10
77.88989999999998
 20
43.8691
 30
0.0
 70
    32
  0
VERTEX
  5
31BC
330
312E
100
AcDbEntity
  8
1
100
AcDbVertex
100
AcDb3dPolylineVertex
 10
77.8939
 20
43.8377
 30
0.0
 70
    32
  0
VERTEX
  5
31BD
330
312E
100
AcDbEntity
  8
1
100
AcDbVertex
100
AcDb3dPolylineVertex
 10
77.89749999999997
 20
43.8065
 30
0.0
 70
    32
  0
VERTEX
  5
31BE
330
312E
100
AcDbEntity
  8
1
100
AcDbVertex
100
AcDb3dPolylineVertex
 10
77.90049999999998
 20
43.7755
 30
0.0
 70
    32
  0
VERTEX
  5
31BF
330
312E
100
AcDbEntity
  8
1
100
AcDbVertex
100
AcDb3dPolylineVertex
 10
77.90300000000002
 20
43.7449
 30
0.0
 70
    32
  0
VERTEX
  5
31C0
330
312E
100
AcDbEntity
  8
1
100
AcDbVertex
100
AcDb3dPolylineVertex
 10
77.905
 20
43.7145
 30
0.0
 70
    32
  0
VERTEX
  5
31C1
330
312E
100
AcDbEntity
  8
1
100
AcDbVertex
100
AcDb3dPolylineVertex
 10
77.90649999999998
 20
43.68439999999998
 30
0.0
 70
    32
  0
VERTEX
  5
31C2
330
312E
100
AcDbEntity
  8
1
100
AcDbVertex
100
AcDb3dPolylineVertex
 10
77.90739999999998
 20
43.6546
 30
0.0
 70
    32
  0
VERTEX
  5
31C3
330
312E
100
AcDbEntity
  8
1
100
AcDbVertex
100
AcDb3dPolylineVertex
 10
77.9079
 20
43.6251
 30
0.0
 70
    32
  0
VERTEX
  5
31C4
330
312E
100
AcDbEntity
  8
1
100
AcDbVertex
100
AcDb3dPolylineVertex
 10
77.9079
 20
43.5958
 30
0.0
 70
    32
  0
VERTEX
  5
31C5
330
312E
100
AcDbEntity
  8
1
100
AcDbVertex
100
AcDb3dPolylineVertex
 10
77.90739999999998
 20
43.56679999999999
 30
0.0
 70
    32
  0
VERTEX
  5
31C6
330
312E
100
AcDbEntity
  8
1
100
AcDbVertex
100
AcDb3dPolylineVertex
 10
77.90649999999998
 20
43.5381
 30
0.0
 70
    32
  0
VERTEX
  5
31C7
330
312E
100
AcDbEntity
  8
1
100
AcDbVertex
100
AcDb3dPolylineVertex
 10
77.90510000000002
 20
43.50959999999999
 30
0.0
 70
    32
  0
VERTEX
  5
31C8
330
312E
100
AcDbEntity
  8
1
100
AcDbVertex
100
AcDb3dPolylineVertex
 10
77.9033
 20
43.4813
 30
0.0
 70
    32
  0
VERTEX
  5
31C9
330
312E
100
AcDbEntity
  8
1
100
AcDbVertex
100
AcDb3dPolylineVertex
 10
77.9011
 20
43.4532
 30
0.0
 70
    32
  0
VERTEX
  5
31CA
330
312E
100
AcDbEntity
  8
1
100
AcDbVertex
100
AcDb3dPolylineVertex
 10
77.89839999999998
 20
43.4254
 30
0.0
 70
    32
  0
VERTEX
  5
31CB
330
312E
100
AcDbEntity
  8
1
100
AcDbVertex
100
AcDb3dPolylineVertex
 10
77.8953
 20
43.3978
 30
0.0
 70
    32
  0
VERTEX
  5
31CC
330
312E
100
AcDbEntity
  8
1
100
AcDbVertex
100
AcDb3dPolylineVertex
 10
77.89190000000002
 20
43.3704
 30
0.0
 70
    32
  0
VERTEX
  5
31CD
330
312E
100
AcDbEntity
  8
1
100
AcDbVertex
100
AcDb3dPolylineVertex
 10
77.88809999999998
 20
43.3433
 30
0.0
 70
    32
  0
VERTEX
  5
31CE
330
312E
100
AcDbEntity
  8
1
100
AcDbVertex
100
AcDb3dPolylineVertex
 10
77.88379999999998
 20
43.31629999999999
 30
0.0
 70
    32
  0
VERTEX
  5
31CF
330
312E
100
AcDbEntity
  8
1
100
AcDbVertex
100
AcDb3dPolylineVertex
 10
77.8793
 20
43.28949999999998
 30
0.0
 70
    32
  0
VERTEX
  5
31D0
330
312E
100
AcDbEntity
  8
1
100
AcDbVertex
100
AcDb3dPolylineVertex
 10
77.87439999999998
 20
43.2629
 30
0.0
 70
    32
  0
VERTEX
  5
31D1
330
312E
100
AcDbEntity
  8
1
100
AcDbVertex
100
AcDb3dPolylineVertex
 10
77.8691
 20
43.23649999999999
 30
0.0
 70
    32
  0
VERTEX
  5
31D2
330
312E
100
AcDbEntity
  8
1
100
AcDbVertex
100
AcDb3dPolylineVertex
 10
77.8635
 20
43.21029999999999
 30
0.0
 70
    32
  0
VERTEX
  5
31D3
330
312E
100
AcDbEntity
  8
1
100
AcDbVertex
100
AcDb3dPolylineVertex
 10
77.85769999999998
 20
43.18419999999998
 30
0.0
 70
    32
  0
VERTEX
  5
31D4
330
312E
100
AcDbEntity
  8
1
100
AcDbVertex
100
AcDb3dPolylineVertex
 10
77.8515
 20
43.1584
 30
0.0
 70
    32
  0
VERTEX
  5
31D5
330
312E
100
AcDbEntity
  8
1
100
AcDbVertex
100
AcDb3dPolylineVertex
 10
77.845
 20
43.13259999999998
 30
0.0
 70
    32
  0
VERTEX
  5
31D6
330
312E
100
AcDbEntity
  8
1
100
AcDbVertex
100
AcDb3dPolylineVertex
 10
77.8382
 20
43.1071
 30
0.0
 70
    32
  0
VERTEX
  5
31D7
330
312E
100
AcDbEntity
  8
1
100
AcDbVertex
100
AcDb3dPolylineVertex
 10
77.83119999999998
 20
43.08159999999999
 30
0.0
 70
    32
  0
VERTEX
  5
31D8
330
312E
100
AcDbEntity
  8
1
100
AcDbVertex
100
AcDb3dPolylineVertex
 10
77.82389999999998
 20
43.05629999999999
 30
0.0
 70
    32
  0
VERTEX
  5
31D9
330
312E
100
AcDbEntity
  8
1
100
AcDbVertex
100
AcDb3dPolylineVertex
 10
77.8164
 20
43.03119999999998
 30
0.0
 70
    32
  0
VERTEX
  5
31DA
330
312E
100
AcDbEntity
  8
1
100
AcDbVertex
100
AcDb3dPolylineVertex
 10
77.8086
 20
43.0062
 30
0.0
 70
    32
  0
VERTEX
  5
31DB
330
312E
100
AcDbEntity
  8
1
100
AcDbVertex
100
AcDb3dPolylineVertex
 10
77.8006
 20
42.98129999999999
 30
0.0
 70
    32
  0
VERTEX
  5
31DC
330
312E
100
AcDbEntity
  8
1
100
AcDbVertex
100
AcDb3dPolylineVertex
 10
77.7924
 20
42.9565
 30
0.0
 70
    32
  0
VERTEX
  5
31DD
330
312E
100
AcDbEntity
  8
1
100
AcDbVertex
100
AcDb3dPolylineVertex
 10
77.78400000000002
 20
42.9318
 30
0.0
 70
    32
  0
VERTEX
  5
31DE
330
312E
100
AcDbEntity
  8
1
100
AcDbVertex
100
AcDb3dPolylineVertex
 10
77.77540000000001
 20
42.9072
 30
0.0
 70
    32
  0
VERTEX
  5
31DF
330
312E
100
AcDbEntity
  8
1
100
AcDbVertex
100
AcDb3dPolylineVertex
 10
77.76659999999998
 20
42.8828
 30
0.0
 70
    32
  0
VERTEX
  5
31E0
330
312E
100
AcDbEntity
  8
1
100
AcDbVertex
100
AcDb3dPolylineVertex
 10
77.7577
 20
42.8584
 30
0.0
 70
    32
  0
VERTEX
  5
31E1
330
312E
100
AcDbEntity
  8
1
100
AcDbVertex
100
AcDb3dPolylineVertex
 10
77.74859999999998
 20
42.83409999999999
 30
0.0
 70
    32
  0
VERTEX
  5
31E2
330
312E
100
AcDbEntity
  8
1
100
AcDbVertex
100
AcDb3dPolylineVertex
 10
77.7393
 20
42.8099
 30
0.0
 70
    32
  0
VERTEX
  5
31E3
330
312E
100
AcDbEntity
  8
1
100
AcDbVertex
100
AcDb3dPolylineVertex
 10
77.73
 20
42.7857
 30
0.0
 70
    32
  0
VERTEX
  5
31E4
330
312E
100
AcDbEntity
  8
1
100
AcDbVertex
100
AcDb3dPolylineVertex
 10
77.7204
 20
42.76169999999999
 30
0.0
 70
    32
  0
VERTEX
  5
31E5
330
312E
100
AcDbEntity
  8
1
100
AcDbVertex
100
AcDb3dPolylineVertex
 10
77.71080000000002
 20
42.73769999999998
 30
0.0
 70
    32
  0
VERTEX
  5
31E6
330
312E
100
AcDbEntity
  8
1
100
AcDbVertex
100
AcDb3dPolylineVertex
 10
77.70109999999998
 20
42.7137
 30
0.0
 70
    32
  0
VERTEX
  5
31E7
330
312E
100
AcDbEntity
  8
1
100
AcDbVertex
100
AcDb3dPolylineVertex
 10
77.6913
 20
42.68979999999999
 30
0.0
 70
    32
  0
VERTEX
  5
31E8
330
312E
100
AcDbEntity
  8
1
100
AcDbVertex
100
AcDb3dPolylineVertex
 10
77.68139999999998
 20
42.66589999999999
 30
0.0
 70
    32
  0
VERTEX
  5
31E9
330
312E
100
AcDbEntity
  8
1
100
AcDbVertex
100
AcDb3dPolylineVertex
 10
77.67149999999998
 20
42.6421
 30
0.0
 70
    32
  0
VERTEX
  5
31EA
330
312E
100
AcDbEntity
  8
1
100
AcDbVertex
100
AcDb3dPolylineVertex
 10
77.6615
 20
42.61829999999998
 30
0.0
 70
    32
  0
VERTEX
  5
31EB
330
312E
100
AcDbEntity
  8
1
100
AcDbVertex
100
AcDb3dPolylineVertex
 10
77.65139999999998
 20
42.5945
 30
0.0
 70
    32
  0
VERTEX
  5
31EC
330
312E
100
AcDbEntity
  8
1
100
AcDbVertex
100
AcDb3dPolylineVertex
 10
77.6413
 20
42.5708
 30
0.0
 70
    32
  0
VERTEX
  5
31ED
330
312E
100
AcDbEntity
  8
1
100
AcDbVertex
100
AcDb3dPolylineVertex
 10
77.6312
 20
42.54699999999997
 30
0.0
 70
    32
  0
VERTEX
  5
31EE
330
312E
100
AcDbEntity
  8
1
100
AcDbVertex
100
AcDb3dPolylineVertex
 10
77.62109999999998
 20
42.52329999999999
 30
0.0
 70
    32
  0
SEQEND
  5
31EF
330
312E
100
AcDbEntity
  8
1
  0
LWPOLYLINE
  5
3012
330
3659
100
AcDbEntity
  8
1
100
AcDbPolyline
 90
        4
 70
     1
 43
0.0
 10
39.19286025144799
 20
38.94695730126722
 10
52.19286025144799
 20
38.94695730126722
 10
52.19286025144799
 20
68.94695730126722
 10
39.19286025144799
 20
68.94695730126722
  0
LINE
  5
3013
330
3659
100
AcDbEntity
  8
CENTER
100
AcDbLine
 10
40.69286025144799
 20
64.9469573012672
 30
0.0
 11
50.692860251448
 21
64.9469573012672
 31
0.0
  0
LINE
  5
3014
330
3659
100
AcDbEntity
  8
CENTER
100
AcDbLine
 10
32.57402874410843
 20
53.94695730126723
 30
0.0
 11
58.81169175878754
 21
53.94695730126723
 31
0.0
  0
LINE
  5
3015
330
3659
100
AcDbEntity
  8
CENTER
100
AcDbLine
 10
40.69286025144799
 20
42.94695730126721
 30
0.0
 11
50.692860251448
 21
42.94695730126721
 31
0.0
  0
LINE
  5
3016
330
3659
100
AcDbEntity
  8
CENTER
100
AcDbLine
 10
45.69286025144799
 20
71.65446552125984
 30
0.0
 11
45.69286025144799
 21
36.19002674651864
 31
0.0
  0
CIRCLE
  5
3017
330
3659
100
AcDbEntity
  8
1
100
AcDbCircle
 10
45.69286025144799
 20
64.9469573012672
 30
0.0
 40
1.649999999999999
  0
CIRCLE
  5
3018
330
3659
100
AcDbEntity
  8
1
100
AcDbCircle
 10
45.69286025144799
 20
64.9469573012672
 30
0.0
 40
2.0
  0
CIRCLE
  5
3019
330
3659
100
AcDbEntity
  8
1
100
AcDbCircle
 10
45.69286025144799
 20
42.94695730126721
 30
0.0
 40
1.649999999999999
  0
CIRCLE
  5
301A
330
3659
100
AcDbEntity
  8
1
100
AcDbCircle
 10
45.69286025144799
 20
42.94695730126721
 30
0.0
 40
2.0
  0
CIRCLE
  5
301B
330
3659
100
AcDbEntity
  8
1
100
AcDbCircle
 10
45.69286025144799
 20
53.94695730126723
 30
0.0
 40
1.649999999999999
  0
CIRCLE
  5
301C
330
3659
100
AcDbEntity
  8
1
100
AcDbCircle
 10
45.69286025144799
 20
53.94695730126723
 30
0.0
 40
2.0
  0
LINE
  5
301D
330
3659
100
AcDbEntity
  8
1
100
AcDbLine
 10
34.19286025144799
 20
74.94695730126813
 30
0.0
 11
34.19286025144799
 21
32.94695730126813
 31
0.0
  0
LINE
  5
301E
330
3659
100
AcDbEntity
  8
1
100
AcDbLine
 10
34.19286025144799
 20
32.94695730126813
 30
0.0
 11
57.19286025144799
 21
32.94695730126813
 31
0.0
  0
LINE
  5
301F
330
3659
100
AcDbEntity
  8
1
100
AcDbLine
 10
57.19286025144799
 20
74.94695730126813
 30
0.0
 11
34.19286025144799
 21
74.94695730126813
 31
0.0
  0
LINE
  5
3020
330
3659
100
AcDbEntity
  8
1
100
AcDbLine
 10
53.19286025144799
 20
65.94695730126722
 30
0.0
 11
53.19286025144799
 21
56.04695730126667
 31
0.0
  0
LINE
  5
3021
330
3659
100
AcDbEntity
  8
1
100
AcDbLine
 10
57.19286025144799
 20
74.94695730126813
 30
0.0
 11
57.19286025144799
 21
69.94695730126813
 31
0.0
  0
LINE
  5
3022
330
3659
100
AcDbEntity
  8
1
100
AcDbLine
 10
57.19286025144799
 20
69.94695730126813
 30
0.0
 11
53.19286025144799
 21
65.94695730126722
 31
0.0
  0
LINE
  5
3023
330
3659
100
AcDbEntity
  8
1
100
AcDbLine
 10
57.19286025144799
 20
32.94695730126813
 30
0.0
 11
57.19286025144799
 21
37.94695730126815
 31
0.0
  0
LINE
  5
3024
330
3659
100
AcDbEntity
  8
1
100
AcDbLine
 10
57.19286025144799
 20
37.94695730126815
 30
0.0
 11
53.19286025144799
 21
41.94695730126722
 31
0.0
  0
LINE
  5
3025
330
3659
100
AcDbEntity
  8
1
100
AcDbLine
 10
35.19286025144799
 20
73.94695730126811
 30
0.0
 11
35.19286025144799
 21
33.94695730126813
 31
0.0
  0
LINE
  5
3026
330
3659
100
AcDbEntity
  8
1
100
AcDbLine
 10
35.19286025144799
 20
73.94695730126811
 30
0.0
 11
56.19286025144798
 21
73.94695730126811
 31
0.0
  0
LINE
  5
3027
330
3659
100
AcDbEntity
  8
1
100
AcDbLine
 10
56.19286025144798
 20
73.94695730126811
 30
0.0
 11
56.19286025144798
 21
70.36117086364055
 31
0.0
  0
LINE
  5
3028
330
3659
100
AcDbEntity
  8
1
100
AcDbLine
 10
52.19286025144799
 20
66.36117086363964
 30
0.0
 11
52.19286025144799
 21
41.53274373889202
 31
0.0
  0
LINE
  5
3029
330
3659
100
AcDbEntity
  8
1
100
AcDbLine
 10
56.1928602514489
 20
70.36117086364146
 30
0.0
 11
52.19286025144799
 21
66.36117086363964
 31
0.0
  0
LINE
  5
302A
330
3659
100
AcDbEntity
  8
1
100
AcDbLine
 10
54.48575347026222
 20
39.23985052008055
 30
0.0
 11
56.19286025144798
 21
37.53274373889571
 31
0.0
  0
LINE
  5
302B
330
3659
100
AcDbEntity
  8
1
100
AcDbLine
 10
54.48575347026222
 20
39.23985052008055
 30
0.0
 11
52.19286025144799
 21
41.53274373889202
 31
0.0
  0
LINE
  5
302C
330
3659
100
AcDbEntity
  8
1
100
AcDbLine
 10
35.19286025144799
 20
33.94695730126813
 30
0.0
 11
56.19286025144798
 21
33.94695730126813
 31
0.0
  0
LINE
  5
302D
330
3659
100
AcDbEntity
  8
1
100
AcDbLine
 10
56.19286025144798
 20
33.94695730126813
 30
0.0
 11
56.19286025144708
 21
37.53274373889571
 31
0.0
  0
LINE
  5
302E
330
3659
100
AcDbEntity
  8
1
100
AcDbLine
 10
57.19286025144799
 20
69.94695730126813
 30
0.0
 11
57.19286025144799
 21
55.94695730126723
 31
0.0
  0
LINE
  5
302F
330
3659
100
AcDbEntity
  8
1
100
AcDbLine
 10
57.19286025144799
 20
51.94695730126722
 30
0.0
 11
57.19286025144799
 21
37.94695730126815
 31
0.0
  0
LWPOLYLINE
  5
3030
330
3659
100
AcDbEntity
  8
1
100
AcDbPolyline
 90
        4
 70
     1
 43
0.0
 10
53.19286025144799
 20
63.94695730126723
 10
53.69286025144798
 20
63.94695730126723
 10
53.69286025144798
 20
57.94695730126722
 10
53.19286025144799
 20
57.94695730126722
  0
LWPOLYLINE
  5
3031
330
3659
100
AcDbEntity
  8
1
100
AcDbPolyline
 90
        4
 70
     1
 43
0.0
 10
53.19286025144799
 20
49.94695730126721
 10
53.69286025144798
 20
49.94695730126721
 10
53.69286025144798
 20
43.94695730126723
 10
53.19286025144799
 20
43.94695730126723
  0
ARC
  5
3032
330
3659
100
AcDbEntity
  8
1
100
AcDbCircle
 10
54.69286025144799
 20
59.19695730126722
 30
0.0
 40
1.0
100
AcDbArc
 50
270.0
 51
0.0
  0
LINE
  5
3033
330
3659
100
AcDbEntity
  8
1
100
AcDbLine
 10
54.69286025144799
 20
58.19695730126722
 30
0.0
 11
53.69286025144798
 21
58.19695730126722
 31
0.0
  0
LINE
  5
3034
330
3659
100
AcDbEntity
  8
1
100
AcDbLine
 10
53.69286025144798
 20
58.19695730126722
 30
0.0
 11
53.69286025144798
 21
63.69695730126721
 31
0.0
  0
LINE
  5
3035
330
3659
100
AcDbEntity
  8
1
100
AcDbLine
 10
53.69286025144798
 20
63.69695730126721
 30
0.0
 11
54.69286025144799
 21
63.69695730126721
 31
0.0
  0
ARC
  5
3036
330
3659
100
AcDbEntity
  8
1
100
AcDbCircle
 10
54.69286025144799
 20
62.69695730126723
 30
0.0
 40
1.0
100
AcDbArc
 50
0.0
 51
90.0
  0
ARC
  5
3037
330
3659
100
AcDbEntity
  8
1
100
AcDbCircle
 10
48.91504823774345
 20
60.94695730126723
 30
0.0
 40
7.000088263237648
100
AcDbArc
 50
345.5226743460277
 51
14.47732565397229
  0
ARC
  5
3038
330
3659
100
AcDbEntity
  8
1
100
AcDbCircle
 10
54.69286025144799
 20
45.19695730126723
 30
0.0
 40
1.0
100
AcDbArc
 50
270.0
 51
0.0
  0
LINE
  5
3039
330
3659
100
AcDbEntity
  8
1
100
AcDbLine
 10
54.69286025144799
 20
44.19695730126721
 30
0.0
 11
53.69286025144798
 21
44.19695730126721
 31
0.0
  0
LINE
  5
303A
330
3659
100
AcDbEntity
  8
1
100
AcDbLine
 10
53.69286025144798
 20
44.19695730126721
 30
0.0
 11
53.69286025144798
 21
49.69695730126723
 31
0.0
  0
LINE
  5
303B
330
3659
100
AcDbEntity
  8
1
100
AcDbLine
 10
53.69286025144798
 20
49.69695730126723
 30
0.0
 11
54.69286025144799
 21
49.69695730126723
 31
0.0
  0
ARC
  5
303C
330
3659
100
AcDbEntity
  8
1
100
AcDbCircle
 10
54.69286025144799
 20
48.69695730126721
 30
0.0
 40
1.0
100
AcDbArc
 50
0.0
 51
90.0
  0
ARC
  5
303D
330
3659
100
AcDbEntity
  8
1
100
AcDbCircle
 10
48.91504823774345
 20
46.94695730126722
 30
0.0
 40
7.000088263237648
100
AcDbArc
 50
345.5226743460277
 51
14.47732565397229
  0
LINE
  5
303E
330
3659
100
AcDbEntity
  8
1
100
AcDbLine
 10
52.19286025144799
 20
51.94695730126722
 30
0.0
 11
57.19286025144799
 21
51.94695730126722
 31
0.0
  0
LINE
  5
303F
330
3659
100
AcDbEntity
  8
1
100
AcDbLine
 10
59.19286025144799
 20
49.94695730126721
 30
0.0
 11
59.19286025144799
 21
43.98264884990175
 31
0.0
  0
POLYLINE
  5
31F0
330
3659
100
AcDbEntity
  8
1
100
AcDb3dPolyline
 66
     1
 10
0.0
 20
0.0
 30
0.0
 70
     8
  0
VERTEX
  5
31F1
330
31F0
100
AcDbEntity
  8
1
100
AcDbVertex
100
AcDb3dPolylineVertex
 10
59.1929
 20
43.98259999999999
 30
0.0
 70
    32
  0
VERTEX
  5
31F2
330
31F0
100
AcDbEntity
  8
1
100
AcDbVertex
100
AcDb3dPolylineVertex
 10
59.217
 20
43.9773
 30
0.0
 70
    32
  0
VERTEX
  5
31F3
330
31F0
100
AcDbEntity
  8
1
100
AcDbVertex
100
AcDb3dPolylineVertex
 10
59.2408
 20
43.9719
 30
0.0
 70
    32
  0
VERTEX
  5
31F4
330
31F0
100
AcDbEntity
  8
1
100
AcDbVertex
100
AcDb3dPolylineVertex
 10
59.26429999999999
 20
43.9664
 30
0.0
 70
    32
  0
VERTEX
  5
31F5
330
31F0
100
AcDbEntity
  8
1
100
AcDbVertex
100
AcDb3dPolylineVertex
 10
59.2873
 20
43.96099999999999
 30
0.0
 70
    32
  0
VERTEX
  5
31F6
330
31F0
100
AcDbEntity
  8
1
100
AcDbVertex
100
AcDb3dPolylineVertex
 10
59.3101
 20
43.9555
 30
0.0
 70
    32
  0
VERTEX
  5
31F7
330
31F0
100
AcDbEntity
  8
1
100
AcDbVertex
100
AcDb3dPolylineVertex
 10
59.33250000000001
 20
43.94989999999999
 30
0.0
 70
    32
  0
VERTEX
  5
31F8
330
31F0
100
AcDbEntity
  8
1
100
AcDbVertex
100
AcDb3dPolylineVertex
 10
59.3545
 20
43.9444
 30
0.0
 70
    32
  0
VERTEX
  5
31F9
330
31F0
100
AcDbEntity
  8
1
100
AcDbVertex
100
AcDb3dPolylineVertex
 10
59.37619999999999
 20
43.93889999999998
 30
0.0
 70
    32
  0
VERTEX
  5
31FA
330
31F0
100
AcDbEntity
  8
1
100
AcDbVertex
100
AcDb3dPolylineVertex
 10
59.3977
 20
43.9333
 30
0.0
 70
    32
  0
VERTEX
  5
31FB
330
31F0
100
AcDbEntity
  8
1
100
AcDbVertex
100
AcDb3dPolylineVertex
 10
59.4188
 20
43.9277
 30
0.0
 70
    32
  0
VERTEX
  5
31FC
330
31F0
100
AcDbEntity
  8
1
100
AcDbVertex
100
AcDb3dPolylineVertex
 10
59.4396
 20
43.9222
 30
0.0
 70
    32
  0
VERTEX
  5
31FD
330
31F0
100
AcDbEntity
  8
1
100
AcDbVertex
100
AcDb3dPolylineVertex
 10
59.4601
 20
43.9166
 30
0.0
 70
    32
  0
VERTEX
  5
31FE
330
31F0
100
AcDbEntity
  8
1
100
AcDbVertex
100
AcDb3dPolylineVertex
 10
59.4803
 20
43.911
 30
0.0
 70
    32
  0
VERTEX
  5
31FF
330
31F0
100
AcDbEntity
  8
1
100
AcDbVertex
100
AcDb3dPolylineVertex
 10
59.5003
 20
43.9054
 30
0.0
 70
    32
  0
VERTEX
  5
3200
330
31F0
100
AcDbEntity
  8
1
100
AcDbVertex
100
AcDb3dPolylineVertex
 10
59.52
 20
43.8999
 30
0.0
 70
    32
  0
VERTEX
  5
3201
330
31F0
100
AcDbEntity
  8
1
100
AcDbVertex
100
AcDb3dPolylineVertex
 10
59.53949999999998
 20
43.89429999999999
 30
0.0
 70
    32
  0
VERTEX
  5
3202
330
31F0
100
AcDbEntity
  8
1
100
AcDbVertex
100
AcDb3dPolylineVertex
 10
59.5587
 20
43.8888
 30
0.0
 70
    32
  0
VERTEX
  5
3203
330
31F0
100
AcDbEntity
  8
1
100
AcDbVertex
100
AcDb3dPolylineVertex
 10
59.5776
 20
43.8832
 30
0.0
 70
    32
  0
VERTEX
  5
3204
330
31F0
100
AcDbEntity
  8
1
100
AcDbVertex
100
AcDb3dPolylineVertex
 10
59.5964
 20
43.87769999999998
 30
0.0
 70
    32
  0
VERTEX
  5
3205
330
31F0
100
AcDbEntity
  8
1
100
AcDbVertex
100
AcDb3dPolylineVertex
 10
59.6149
 20
43.8723
 30
0.0
 70
    32
  0
VERTEX
  5
3206
330
31F0
100
AcDbEntity
  8
1
100
AcDbVertex
100
AcDb3dPolylineVertex
 10
59.6332
 20
43.8668
 30
0.0
 70
    32
  0
VERTEX
  5
3207
330
31F0
100
AcDbEntity
  8
1
100
AcDbVertex
100
AcDb3dPolylineVertex
 10
59.6513
 20
43.8614
 30
0.0
 70
    32
  0
VERTEX
  5
3208
330
31F0
100
AcDbEntity
  8
1
100
AcDbVertex
100
AcDb3dPolylineVertex
 10
59.6692
 20
43.856
 30
0.0
 70
    32
  0
VERTEX
  5
3209
330
31F0
100
AcDbEntity
  8
1
100
AcDbVertex
100
AcDb3dPolylineVertex
 10
59.687
 20
43.8507
 30
0.0
 70
    32
  0
VERTEX
  5
320A
330
31F0
100
AcDbEntity
  8
1
100
AcDbVertex
100
AcDb3dPolylineVertex
 10
59.7045
 20
43.8454
 30
0.0
 70
    32
  0
VERTEX
  5
320B
330
31F0
100
AcDbEntity
  8
1
100
AcDbVertex
100
AcDb3dPolylineVertex
 10
59.7219
 20
43.84009999999999
 30
0.0
 70
    32
  0
VERTEX
  5
320C
330
31F0
100
AcDbEntity
  8
1
100
AcDbVertex
100
AcDb3dPolylineVertex
 10
59.7391
 20
43.8349
 30
0.0
 70
    32
  0
VERTEX
  5
320D
330
31F0
100
AcDbEntity
  8
1
100
AcDbVertex
100
AcDb3dPolylineVertex
 10
59.7562
 20
43.8297
 30
0.0
 70
    32
  0
VERTEX
  5
320E
330
31F0
100
AcDbEntity
  8
1
100
AcDbVertex
100
AcDb3dPolylineVertex
 10
59.7732
 20
43.8246
 30
0.0
 70
    32
  0
VERTEX
  5
320F
330
31F0
100
AcDbEntity
  8
1
100
AcDbVertex
100
AcDb3dPolylineVertex
 10
59.79
 20
43.8196
 30
0.0
 70
    32
  0
VERTEX
  5
3210
330
31F0
100
AcDbEntity
  8
1
100
AcDbVertex
100
AcDb3dPolylineVertex
 10
59.80669999999999
 20
43.81459999999999
 30
0.0
 70
    32
  0
VERTEX
  5
3211
330
31F0
100
AcDbEntity
  8
1
100
AcDbVertex
100
AcDb3dPolylineVertex
 10
59.8232
 20
43.8096
 30
0.0
 70
    32
  0
VERTEX
  5
3212
330
31F0
100
AcDbEntity
  8
1
100
AcDbVertex
100
AcDb3dPolylineVertex
 10
59.8397
 20
43.8048
 30
0.0
 70
    32
  0
VERTEX
  5
3213
330
31F0
100
AcDbEntity
  8
1
100
AcDbVertex
100
AcDb3dPolylineVertex
 10
59.856
 20
43.79999999999999
 30
0.0
 70
    32
  0
VERTEX
  5
3214
330
31F0
100
AcDbEntity
  8
1
100
AcDbVertex
100
AcDb3dPolylineVertex
 10
59.8723
 20
43.79529999999999
 30
0.0
 70
    32
  0
VERTEX
  5
3215
330
31F0
100
AcDbEntity
  8
1
100
AcDbVertex
100
AcDb3dPolylineVertex
 10
59.8885
 20
43.79059999999999
 30
0.0
 70
    32
  0
VERTEX
  5
3216
330
31F0
100
AcDbEntity
  8
1
100
AcDbVertex
100
AcDb3dPolylineVertex
 10
59.9046
 20
43.7861
 30
0.0
 70
    32
  0
VERTEX
  5
3217
330
31F0
100
AcDbEntity
  8
1
100
AcDbVertex
100
AcDb3dPolylineVertex
 10
59.9207
 20
43.7816
 30
0.0
 70
    32
  0
VERTEX
  5
3218
330
31F0
100
AcDbEntity
  8
1
100
AcDbVertex
100
AcDb3dPolylineVertex
 10
59.9367
 20
43.7772
 30
0.0
 70
    32
  0
VERTEX
  5
3219
330
31F0
100
AcDbEntity
  8
1
100
AcDbVertex
100
AcDb3dPolylineVertex
 10
59.9527
 20
43.7729
 30
0.0
 70
    32
  0
VERTEX
  5
321A
330
31F0
100
AcDbEntity
  8
1
100
AcDbVertex
100
AcDb3dPolylineVertex
 10
59.9686
 20
43.7687
 30
0.0
 70
    32
  0
VERTEX
  5
321B
330
31F0
100
AcDbEntity
  8
1
100
AcDbVertex
100
AcDb3dPolylineVertex
 10
59.9845
 20
43.7646
 30
0.0
 70
    32
  0
VERTEX
  5
321C
330
31F0
100
AcDbEntity
  8
1
100
AcDbVertex
100
AcDb3dPolylineVertex
 10
60.0003
 20
43.76059999999998
 30
0.0
 70
    32
  0
VERTEX
  5
321D
330
31F0
100
AcDbEntity
  8
1
100
AcDbVertex
100
AcDb3dPolylineVertex
 10
60.01619999999999
 20
43.7567
 30
0.0
 70
    32
  0
VERTEX
  5
321E
330
31F0
100
AcDbEntity
  8
1
100
AcDbVertex
100
AcDb3dPolylineVertex
 10
60.0321
 20
43.75289999999998
 30
0.0
 70
    32
  0
VERTEX
  5
321F
330
31F0
100
AcDbEntity
  8
1
100
AcDbVertex
100
AcDb3dPolylineVertex
 10
60.04789999999999
 20
43.7492
 30
0.0
 70
    32
  0
VERTEX
  5
3220
330
31F0
100
AcDbEntity
  8
1
100
AcDbVertex
100
AcDb3dPolylineVertex
 10
60.0638
 20
43.7457
 30
0.0
 70
    32
  0
VERTEX
  5
3221
330
31F0
100
AcDbEntity
  8
1
100
AcDbVertex
100
AcDb3dPolylineVertex
 10
60.0797
 20
43.7422
 30
0.0
 70
    32
  0
VERTEX
  5
3222
330
31F0
100
AcDbEntity
  8
1
100
AcDbVertex
100
AcDb3dPolylineVertex
 10
60.0957
 20
43.7389
 30
0.0
 70
    32
  0
VERTEX
  5
3223
330
31F0
100
AcDbEntity
  8
1
100
AcDbVertex
100
AcDb3dPolylineVertex
 10
60.1116
 20
43.73569999999999
 30
0.0
 70
    32
  0
VERTEX
  5
3224
330
31F0
100
AcDbEntity
  8
1
100
AcDbVertex
100
AcDb3dPolylineVertex
 10
60.12769999999999
 20
43.7326
 30
0.0
 70
    32
  0
VERTEX
  5
3225
330
31F0
100
AcDbEntity
  8
1
100
AcDbVertex
100
AcDb3dPolylineVertex
 10
60.1438
 20
43.72959999999999
 30
0.0
 70
    32
  0
VERTEX
  5
3226
330
31F0
100
AcDbEntity
  8
1
100
AcDbVertex
100
AcDb3dPolylineVertex
 10
60.1599
 20
43.72679999999999
 30
0.0
 70
    32
  0
VERTEX
  5
3227
330
31F0
100
AcDbEntity
  8
1
100
AcDbVertex
100
AcDb3dPolylineVertex
 10
60.1761
 20
43.7241
 30
0.0
 70
    32
  0
VERTEX
  5
3228
330
31F0
100
AcDbEntity
  8
1
100
AcDbVertex
100
AcDb3dPolylineVertex
 10
60.1925
 20
43.7216
 30
0.0
 70
    32
  0
VERTEX
  5
3229
330
31F0
100
AcDbEntity
  8
1
100
AcDbVertex
100
AcDb3dPolylineVertex
 10
60.2089
 20
43.7192
 30
0.0
 70
    32
  0
VERTEX
  5
322A
330
31F0
100
AcDbEntity
  8
1
100
AcDbVertex
100
AcDb3dPolylineVertex
 10
60.2254
 20
43.71699999999999
 30
0.0
 70
    32
  0
VERTEX
  5
322B
330
31F0
100
AcDbEntity
  8
1
100
AcDbVertex
100
AcDb3dPolylineVertex
 10
60.242
 20
43.7149
 30
0.0
 70
    32
  0
VERTEX
  5
322C
330
31F0
100
AcDbEntity
  8
1
100
AcDbVertex
100
AcDb3dPolylineVertex
 10
60.2587
 20
43.7129
 30
0.0
 70
    32
  0
VERTEX
  5
322D
330
31F0
100
AcDbEntity
  8
1
100
AcDbVertex
100
AcDb3dPolylineVertex
 10
60.2756
 20
43.7111
 30
0.0
 70
    32
  0
VERTEX
  5
322E
330
31F0
100
AcDbEntity
  8
1
100
AcDbVertex
100
AcDb3dPolylineVertex
 10
60.2926
 20
43.70949999999999
 30
0.0
 70
    32
  0
VERTEX
  5
322F
330
31F0
100
AcDbEntity
  8
1
100
AcDbVertex
100
AcDb3dPolylineVertex
 10
60.3098
 20
43.708
 30
0.0
 70
    32
  0
VERTEX
  5
3230
330
31F0
100
AcDbEntity
  8
1
100
AcDbVertex
100
AcDb3dPolylineVertex
 10
60.3271
 20
43.70669999999999
 30
0.0
 70
    32
  0
VERTEX
  5
3231
330
31F0
100
AcDbEntity
  8
1
100
AcDbVertex
100
AcDb3dPolylineVertex
 10
60.34449999999999
 20
43.7056
 30
0.0
 70
    32
  0
VERTEX
  5
3232
330
31F0
100
AcDbEntity
  8
1
100
AcDbVertex
100
AcDb3dPolylineVertex
 10
60.3622
 20
43.7046
 30
0.0
 70
    32
  0
VERTEX
  5
3233
330
31F0
100
AcDbEntity
  8
1
100
AcDbVertex
100
AcDb3dPolylineVertex
 10
60.38
 20
43.70389999999999
 30
0.0
 70
    32
  0
VERTEX
  5
3234
330
31F0
100
AcDbEntity
  8
1
100
AcDbVertex
100
AcDb3dPolylineVertex
 10
60.398
 20
43.7033
 30
0.0
 70
    32
  0
VERTEX
  5
3235
330
31F0
100
AcDbEntity
  8
1
100
AcDbVertex
100
AcDb3dPolylineVertex
 10
60.4162
 20
43.7028
 30
0.0
 70
    32
  0
VERTEX
  5
3236
330
31F0
100
AcDbEntity
  8
1
100
AcDbVertex
100
AcDb3dPolylineVertex
 10
60.4346
 20
43.7026
 30
0.0
 70
    32
  0
VERTEX
  5
3237
330
31F0
100
AcDbEntity
  8
1
100
AcDbVertex
100
AcDb3dPolylineVertex
 10
60.4532
 20
43.7026
 30
0.0
 70
    32
  0
VERTEX
  5
3238
330
31F0
100
AcDbEntity
  8
1
100
AcDbVertex
100
AcDb3dPolylineVertex
 10
60.47209999999999
 20
43.7027
 30
0.0
 70
    32
  0
VERTEX
  5
3239
330
31F0
100
AcDbEntity
  8
1
100
AcDbVertex
100
AcDb3dPolylineVertex
 10
60.4912
 20
43.70309999999999
 30
0.0
 70
    32
  0
VERTEX
  5
323A
330
31F0
100
AcDbEntity
  8
1
100
AcDbVertex
100
AcDb3dPolylineVertex
 10
60.5105
 20
43.7036
 30
0.0
 70
    32
  0
VERTEX
  5
323B
330
31F0
100
AcDbEntity
  8
1
100
AcDbVertex
100
AcDb3dPolylineVertex
 10
60.5301
 20
43.7044
 30
0.0
 70
    32
  0
VERTEX
  5
323C
330
31F0
100
AcDbEntity
  8
1
100
AcDbVertex
100
AcDb3dPolylineVertex
 10
60.5499
 20
43.7053
 30
0.0
 70
    32
  0
VERTEX
  5
323D
330
31F0
100
AcDbEntity
  8
1
100
AcDbVertex
100
AcDb3dPolylineVertex
 10
60.57
 20
43.7065
 30
0.0
 70
    32
  0
VERTEX
  5
323E
330
31F0
100
AcDbEntity
  8
1
100
AcDbVertex
100
AcDb3dPolylineVertex
 10
60.5904
 20
43.7079
 30
0.0
 70
    32
  0
VERTEX
  5
323F
330
31F0
100
AcDbEntity
  8
1
100
AcDbVertex
100
AcDb3dPolylineVertex
 10
60.61099999999999
 20
43.70949999999999
 30
0.0
 70
    32
  0
VERTEX
  5
3240
330
31F0
100
AcDbEntity
  8
1
100
AcDbVertex
100
AcDb3dPolylineVertex
 10
60.632
 20
43.71129999999999
 30
0.0
 70
    32
  0
VERTEX
  5
3241
330
31F0
100
AcDbEntity
  8
1
100
AcDbVertex
100
AcDb3dPolylineVertex
 10
60.65319999999999
 20
43.7134
 30
0.0
 70
    32
  0
VERTEX
  5
3242
330
31F0
100
AcDbEntity
  8
1
100
AcDbVertex
100
AcDb3dPolylineVertex
 10
60.67479999999999
 20
43.7156
 30
0.0
 70
    32
  0
VERTEX
  5
3243
330
31F0
100
AcDbEntity
  8
1
100
AcDbVertex
100
AcDb3dPolylineVertex
 10
60.6967
 20
43.71809999999999
 30
0.0
 70
    32
  0
VERTEX
  5
3244
330
31F0
100
AcDbEntity
  8
1
100
AcDbVertex
100
AcDb3dPolylineVertex
 10
60.71889999999999
 20
43.7209
 30
0.0
 70
    32
  0
VERTEX
  5
3245
330
31F0
100
AcDbEntity
  8
1
100
AcDbVertex
100
AcDb3dPolylineVertex
 10
60.74139999999999
 20
43.72379999999998
 30
0.0
 70
    32
  0
VERTEX
  5
3246
330
31F0
100
AcDbEntity
  8
1
100
AcDbVertex
100
AcDb3dPolylineVertex
 10
60.7643
 20
43.727
 30
0.0
 70
    32
  0
VERTEX
  5
3247
330
31F0
100
AcDbEntity
  8
1
100
AcDbVertex
100
AcDb3dPolylineVertex
 10
60.7875
 20
43.7305
 30
0.0
 70
    32
  0
VERTEX
  5
3248
330
31F0
100
AcDbEntity
  8
1
100
AcDbVertex
100
AcDb3dPolylineVertex
 10
60.8111
 20
43.7342
 30
0.0
 70
    32
  0
VERTEX
  5
3249
330
31F0
100
AcDbEntity
  8
1
100
AcDbVertex
100
AcDb3dPolylineVertex
 10
60.8351
 20
43.7381
 30
0.0
 70
    32
  0
VERTEX
  5
324A
330
31F0
100
AcDbEntity
  8
1
100
AcDbVertex
100
AcDb3dPolylineVertex
 10
60.8595
 20
43.74229999999999
 30
0.0
 70
    32
  0
VERTEX
  5
324B
330
31F0
100
AcDbEntity
  8
1
100
AcDbVertex
100
AcDb3dPolylineVertex
 10
60.8842
 20
43.7468
 30
0.0
 70
    32
  0
VERTEX
  5
324C
330
31F0
100
AcDbEntity
  8
1
100
AcDbVertex
100
AcDb3dPolylineVertex
 10
60.90939999999999
 20
43.7515
 30
0.0
 70
    32
  0
VERTEX
  5
324D
330
31F0
100
AcDbEntity
  8
1
100
AcDbVertex
100
AcDb3dPolylineVertex
 10
60.9349
 20
43.7565
 30
0.0
 70
    32
  0
VERTEX
  5
324E
330
31F0
100
AcDbEntity
  8
1
100
AcDbVertex
100
AcDb3dPolylineVertex
 10
60.9609
 20
43.7617
 30
0.0
 70
    32
  0
VERTEX
  5
324F
330
31F0
100
AcDbEntity
  8
1
100
AcDbVertex
100
AcDb3dPolylineVertex
 10
60.98729999999999
 20
43.7672
 30
0.0
 70
    32
  0
VERTEX
  5
3250
330
31F0
100
AcDbEntity
  8
1
100
AcDbVertex
100
AcDb3dPolylineVertex
 10
61.0141
 20
43.773
 30
0.0
 70
    32
  0
VERTEX
  5
3251
330
31F0
100
AcDbEntity
  8
1
100
AcDbVertex
100
AcDb3dPolylineVertex
 10
61.0413
 20
43.77899999999999
 30
0.0
 70
    32
  0
VERTEX
  5
3252
330
31F0
100
AcDbEntity
  8
1
100
AcDbVertex
100
AcDb3dPolylineVertex
 10
61.06889999999999
 20
43.7853
 30
0.0
 70
    32
  0
VERTEX
  5
3253
330
31F0
100
AcDbEntity
  8
1
100
AcDbVertex
100
AcDb3dPolylineVertex
 10
61.0969
 20
43.7918
 30
0.0
 70
    32
  0
VERTEX
  5
3254
330
31F0
100
AcDbEntity
  8
1
100
AcDbVertex
100
AcDb3dPolylineVertex
 10
61.12519999999999
 20
43.79859999999999
 30
0.0
 70
    32
  0
VERTEX
  5
3255
330
31F0
100
AcDbEntity
  8
1
100
AcDbVertex
100
AcDb3dPolylineVertex
 10
61.1538
 20
43.8055
 30
0.0
 70
    32
  0
VERTEX
  5
3256
330
31F0
100
AcDbEntity
  8
1
100
AcDbVertex
100
AcDb3dPolylineVertex
 10
61.18269999999998
 20
43.81269999999999
 30
0.0
 70
    32
  0
VERTEX
  5
3257
330
31F0
100
AcDbEntity
  8
1
100
AcDbVertex
100
AcDb3dPolylineVertex
 10
61.2119
 20
43.82
 30
0.0
 70
    32
  0
VERTEX
  5
3258
330
31F0
100
AcDbEntity
  8
1
100
AcDbVertex
100
AcDb3dPolylineVertex
 10
61.2414
 20
43.8275
 30
0.0
 70
    32
  0
VERTEX
  5
3259
330
31F0
100
AcDbEntity
  8
1
100
AcDbVertex
100
AcDb3dPolylineVertex
 10
61.271
 20
43.83519999999999
 30
0.0
 70
    32
  0
VERTEX
  5
325A
330
31F0
100
AcDbEntity
  8
1
100
AcDbVertex
100
AcDb3dPolylineVertex
 10
61.301
 20
43.843
 30
0.0
 70
    32
  0
VERTEX
  5
325B
330
31F0
100
AcDbEntity
  8
1
100
AcDbVertex
100
AcDb3dPolylineVertex
 10
61.331
 20
43.8509
 30
0.0
 70
    32
  0
VERTEX
  5
325C
330
31F0
100
AcDbEntity
  8
1
100
AcDbVertex
100
AcDb3dPolylineVertex
 10
61.3613
 20
43.85899999999999
 30
0.0
 70
    32
  0
VERTEX
  5
325D
330
31F0
100
AcDbEntity
  8
1
100
AcDbVertex
100
AcDb3dPolylineVertex
 10
61.3917
 20
43.86719999999999
 30
0.0
 70
    32
  0
VERTEX
  5
325E
330
31F0
100
AcDbEntity
  8
1
100
AcDbVertex
100
AcDb3dPolylineVertex
 10
61.4223
 20
43.8755
 30
0.0
 70
    32
  0
VERTEX
  5
325F
330
31F0
100
AcDbEntity
  8
1
100
AcDbVertex
100
AcDb3dPolylineVertex
 10
61.4529
 20
43.8839
 30
0.0
 70
    32
  0
VERTEX
  5
3260
330
31F0
100
AcDbEntity
  8
1
100
AcDbVertex
100
AcDb3dPolylineVertex
 10
61.48369999999999
 20
43.8923
 30
0.0
 70
    32
  0
VERTEX
  5
3261
330
31F0
100
AcDbEntity
  8
1
100
AcDbVertex
100
AcDb3dPolylineVertex
 10
61.5145
 20
43.90089999999999
 30
0.0
 70
    32
  0
VERTEX
  5
3262
330
31F0
100
AcDbEntity
  8
1
100
AcDbVertex
100
AcDb3dPolylineVertex
 10
61.5453
 20
43.90939999999999
 30
0.0
 70
    32
  0
VERTEX
  5
3263
330
31F0
100
AcDbEntity
  8
1
100
AcDbVertex
100
AcDb3dPolylineVertex
 10
61.5762
 20
43.9181
 30
0.0
 70
    32
  0
VERTEX
  5
3264
330
31F0
100
AcDbEntity
  8
1
100
AcDbVertex
100
AcDb3dPolylineVertex
 10
61.6071
 20
43.92669999999998
 30
0.0
 70
    32
  0
VERTEX
  5
3265
330
31F0
100
AcDbEntity
  8
1
100
AcDbVertex
100
AcDb3dPolylineVertex
 10
61.6379
 20
43.9354
 30
0.0
 70
    32
  0
VERTEX
  5
3266
330
31F0
100
AcDbEntity
  8
1
100
AcDbVertex
100
AcDb3dPolylineVertex
 10
61.6687
 20
43.944
 30
0.0
 70
    32
  0
VERTEX
  5
3267
330
31F0
100
AcDbEntity
  8
1
100
AcDbVertex
100
AcDb3dPolylineVertex
 10
61.6995
 20
43.9527
 30
0.0
 70
    32
  0
VERTEX
  5
3268
330
31F0
100
AcDbEntity
  8
1
100
AcDbVertex
100
AcDb3dPolylineVertex
 10
61.7301
 20
43.9613
 30
0.0
 70
    32
  0
VERTEX
  5
3269
330
31F0
100
AcDbEntity
  8
1
100
AcDbVertex
100
AcDb3dPolylineVertex
 10
61.7607
 20
43.9699
 30
0.0
 70
    32
  0
VERTEX
  5
326A
330
31F0
100
AcDbEntity
  8
1
100
AcDbVertex
100
AcDb3dPolylineVertex
 10
61.7911
 20
43.9785
 30
0.0
 70
    32
  0
VERTEX
  5
326B
330
31F0
100
AcDbEntity
  8
1
100
AcDbVertex
100
AcDb3dPolylineVertex
 10
61.8214
 20
43.98699999999999
 30
0.0
 70
    32
  0
VERTEX
  5
326C
330
31F0
100
AcDbEntity
  8
1
100
AcDbVertex
100
AcDb3dPolylineVertex
 10
61.8515
 20
43.9954
 30
0.0
 70
    32
  0
VERTEX
  5
326D
330
31F0
100
AcDbEntity
  8
1
100
AcDbVertex
100
AcDb3dPolylineVertex
 10
61.8814
 20
44.0038
 30
0.0
 70
    32
  0
VERTEX
  5
326E
330
31F0
100
AcDbEntity
  8
1
100
AcDbVertex
100
AcDb3dPolylineVertex
 10
61.9111
 20
44.012
 30
0.0
 70
    32
  0
VERTEX
  5
326F
330
31F0
100
AcDbEntity
  8
1
100
AcDbVertex
100
AcDb3dPolylineVertex
 10
61.9406
 20
44.0202
 30
0.0
 70
    32
  0
VERTEX
  5
3270
330
31F0
100
AcDbEntity
  8
1
100
AcDbVertex
100
AcDb3dPolylineVertex
 10
61.96979999999999
 20
44.0282
 30
0.0
 70
    32
  0
VERTEX
  5
3271
330
31F0
100
AcDbEntity
  8
1
100
AcDbVertex
100
AcDb3dPolylineVertex
 10
61.9988
 20
44.0362
 30
0.0
 70
    32
  0
VERTEX
  5
3272
330
31F0
100
AcDbEntity
  8
1
100
AcDbVertex
100
AcDb3dPolylineVertex
 10
62.0274
 20
44.0439
 30
0.0
 70
    32
  0
VERTEX
  5
3273
330
31F0
100
AcDbEntity
  8
1
100
AcDbVertex
100
AcDb3dPolylineVertex
 10
62.0557
 20
44.0516
 30
0.0
 70
    32
  0
VERTEX
  5
3274
330
31F0
100
AcDbEntity
  8
1
100
AcDbVertex
100
AcDb3dPolylineVertex
 10
62.0837
 20
44.05899999999999
 30
0.0
 70
    32
  0
VERTEX
  5
3275
330
31F0
100
AcDbEntity
  8
1
100
AcDbVertex
100
AcDb3dPolylineVertex
 10
62.1113
 20
44.06629999999998
 30
0.0
 70
    32
  0
VERTEX
  5
3276
330
31F0
100
AcDbEntity
  8
1
100
AcDbVertex
100
AcDb3dPolylineVertex
 10
62.1386
 20
44.0734
 30
0.0
 70
    32
  0
VERTEX
  5
3277
330
31F0
100
AcDbEntity
  8
1
100
AcDbVertex
100
AcDb3dPolylineVertex
 10
62.1654
 20
44.0803
 30
0.0
 70
    32
  0
VERTEX
  5
3278
330
31F0
100
AcDbEntity
  8
1
100
AcDbVertex
100
AcDb3dPolylineVertex
 10
62.1918
 20
44.08689999999999
 30
0.0
 70
    32
  0
VERTEX
  5
3279
330
31F0
100
AcDbEntity
  8
1
100
AcDbVertex
100
AcDb3dPolylineVertex
 10
62.21779999999998
 20
44.0934
 30
0.0
 70
    32
  0
VERTEX
  5
327A
330
31F0
100
AcDbEntity
  8
1
100
AcDbVertex
100
AcDb3dPolylineVertex
 10
62.2433
 20
44.0996
 30
0.0
 70
    32
  0
VERTEX
  5
327B
330
31F0
100
AcDbEntity
  8
1
100
AcDbVertex
100
AcDb3dPolylineVertex
 10
62.2683
 20
44.1056
 30
0.0
 70
    32
  0
VERTEX
  5
327C
330
31F0
100
AcDbEntity
  8
1
100
AcDbVertex
100
AcDb3dPolylineVertex
 10
62.2928
 20
44.11129999999999
 30
0.0
 70
    32
  0
VERTEX
  5
327D
330
31F0
100
AcDbEntity
  8
1
100
AcDbVertex
100
AcDb3dPolylineVertex
 10
62.3168
 20
44.11669999999999
 30
0.0
 70
    32
  0
VERTEX
  5
327E
330
31F0
100
AcDbEntity
  8
1
100
AcDbVertex
100
AcDb3dPolylineVertex
 10
62.34020000000001
 20
44.1218
 30
0.0
 70
    32
  0
VERTEX
  5
327F
330
31F0
100
AcDbEntity
  8
1
100
AcDbVertex
100
AcDb3dPolylineVertex
 10
62.36299999999999
 20
44.1267
 30
0.0
 70
    32
  0
VERTEX
  5
3280
330
31F0
100
AcDbEntity
  8
1
100
AcDbVertex
100
AcDb3dPolylineVertex
 10
62.3853
 20
44.1312
 30
0.0
 70
    32
  0
VERTEX
  5
3281
330
31F0
100
AcDbEntity
  8
1
100
AcDbVertex
100
AcDb3dPolylineVertex
 10
62.4069
 20
44.1354
 30
0.0
 70
    32
  0
VERTEX
  5
3282
330
31F0
100
AcDbEntity
  8
1
100
AcDbVertex
100
AcDb3dPolylineVertex
 10
62.4279
 20
44.13929999999999
 30
0.0
 70
    32
  0
VERTEX
  5
3283
330
31F0
100
AcDbEntity
  8
1
100
AcDbVertex
100
AcDb3dPolylineVertex
 10
62.4483
 20
44.1429
 30
0.0
 70
    32
  0
VERTEX
  5
3284
330
31F0
100
AcDbEntity
  8
1
100
AcDbVertex
100
AcDb3dPolylineVertex
 10
62.4682
 20
44.14609999999998
 30
0.0
 70
    32
  0
VERTEX
  5
3285
330
31F0
100
AcDbEntity
  8
1
100
AcDbVertex
100
AcDb3dPolylineVertex
 10
62.4875
 20
44.14899999999999
 30
0.0
 70
    32
  0
VERTEX
  5
3286
330
31F0
100
AcDbEntity
  8
1
100
AcDbVertex
100
AcDb3dPolylineVertex
 10
62.50630000000001
 20
44.1516
 30
0.0
 70
    32
  0
VERTEX
  5
3287
330
31F0
100
AcDbEntity
  8
1
100
AcDbVertex
100
AcDb3dPolylineVertex
 10
62.5247
 20
44.15379999999998
 30
0.0
 70
    32
  0
VERTEX
  5
3288
330
31F0
100
AcDbEntity
  8
1
100
AcDbVertex
100
AcDb3dPolylineVertex
 10
62.54249999999998
 20
44.1558
 30
0.0
 70
    32
  0
VERTEX
  5
3289
330
31F0
100
AcDbEntity
  8
1
100
AcDbVertex
100
AcDb3dPolylineVertex
 10
62.56
 20
44.1574
 30
0.0
 70
    32
  0
VERTEX
  5
328A
330
31F0
100
AcDbEntity
  8
1
100
AcDbVertex
100
AcDb3dPolylineVertex
 10
62.57699999999999
 20
44.1587
 30
0.0
 70
    32
  0
VERTEX
  5
328B
330
31F0
100
AcDbEntity
  8
1
100
AcDbVertex
100
AcDb3dPolylineVertex
 10
62.5937
 20
44.1597
 30
0.0
 70
    32
  0
VERTEX
  5
328C
330
31F0
100
AcDbEntity
  8
1
100
AcDbVertex
100
AcDb3dPolylineVertex
 10
62.61
 20
44.1603
 30
0.0
 70
    32
  0
VERTEX
  5
328D
330
31F0
100
AcDbEntity
  8
1
100
AcDbVertex
100
AcDb3dPolylineVertex
 10
62.62599999999999
 20
44.1607
 30
0.0
 70
    32
  0
VERTEX
  5
328E
330
31F0
100
AcDbEntity
  8
1
100
AcDbVertex
100
AcDb3dPolylineVertex
 10
62.6416
 20
44.1607
 30
0.0
 70
    32
  0
VERTEX
  5
328F
330
31F0
100
AcDbEntity
  8
1
100
AcDbVertex
100
AcDb3dPolylineVertex
 10
62.6571
 20
44.1604
 30
0.0
 70
    32
  0
VERTEX
  5
3290
330
31F0
100
AcDbEntity
  8
1
100
AcDbVertex
100
AcDb3dPolylineVertex
 10
62.6723
 20
44.1598
 30
0.0
 70
    32
  0
VERTEX
  5
3291
330
31F0
100
AcDbEntity
  8
1
100
AcDbVertex
100
AcDb3dPolylineVertex
 10
62.6872
 20
44.1589
 30
0.0
 70
    32
  0
VERTEX
  5
3292
330
31F0
100
AcDbEntity
  8
1
100
AcDbVertex
100
AcDb3dPolylineVertex
 10
62.70199999999999
 20
44.1577
 30
0.0
 70
    32
  0
VERTEX
  5
3293
330
31F0
100
AcDbEntity
  8
1
100
AcDbVertex
100
AcDb3dPolylineVertex
 10
62.7166
 20
44.15619999999999
 30
0.0
 70
    32
  0
VERTEX
  5
3294
330
31F0
100
AcDbEntity
  8
1
100
AcDbVertex
100
AcDb3dPolylineVertex
 10
62.73109999999999
 20
44.15429999999999
 30
0.0
 70
    32
  0
VERTEX
  5
3295
330
31F0
100
AcDbEntity
  8
1
100
AcDbVertex
100
AcDb3dPolylineVertex
 10
62.7455
 20
44.1522
 30
0.0
 70
    32
  0
VERTEX
  5
3296
330
31F0
100
AcDbEntity
  8
1
100
AcDbVertex
100
AcDb3dPolylineVertex
 10
62.7598
 20
44.1497
 30
0.0
 70
    32
  0
VERTEX
  5
3297
330
31F0
100
AcDbEntity
  8
1
100
AcDbVertex
100
AcDb3dPolylineVertex
 10
62.77409999999999
 20
44.14699999999998
 30
0.0
 70
    32
  0
VERTEX
  5
3298
330
31F0
100
AcDbEntity
  8
1
100
AcDbVertex
100
AcDb3dPolylineVertex
 10
62.7883
 20
44.1439
 30
0.0
 70
    32
  0
VERTEX
  5
3299
330
31F0
100
AcDbEntity
  8
1
100
AcDbVertex
100
AcDb3dPolylineVertex
 10
62.8026
 20
44.1406
 30
0.0
 70
    32
  0
VERTEX
  5
329A
330
31F0
100
AcDbEntity
  8
1
100
AcDbVertex
100
AcDb3dPolylineVertex
 10
62.8168
 20
44.13689999999999
 30
0.0
 70
    32
  0
VERTEX
  5
329B
330
31F0
100
AcDbEntity
  8
1
100
AcDbVertex
100
AcDb3dPolylineVertex
 10
62.8312
 20
44.133
 30
0.0
 70
    32
  0
VERTEX
  5
329C
330
31F0
100
AcDbEntity
  8
1
100
AcDbVertex
100
AcDb3dPolylineVertex
 10
62.84559999999999
 20
44.1287
 30
0.0
 70
    32
  0
VERTEX
  5
329D
330
31F0
100
AcDbEntity
  8
1
100
AcDbVertex
100
AcDb3dPolylineVertex
 10
62.8601
 20
44.1242
 30
0.0
 70
    32
  0
VERTEX
  5
329E
330
31F0
100
AcDbEntity
  8
1
100
AcDbVertex
100
AcDb3dPolylineVertex
 10
62.87469999999999
 20
44.1193
 30
0.0
 70
    32
  0
VERTEX
  5
329F
330
31F0
100
AcDbEntity
  8
1
100
AcDbVertex
100
AcDb3dPolylineVertex
 10
62.8896
 20
44.11419999999998
 30
0.0
 70
    32
  0
VERTEX
  5
32A0
330
31F0
100
AcDbEntity
  8
1
100
AcDbVertex
100
AcDb3dPolylineVertex
 10
62.9046
 20
44.1087
 30
0.0
 70
    32
  0
VERTEX
  5
32A1
330
31F0
100
AcDbEntity
  8
1
100
AcDbVertex
100
AcDb3dPolylineVertex
 10
62.9198
 20
44.103
 30
0.0
 70
    32
  0
VERTEX
  5
32A2
330
31F0
100
AcDbEntity
  8
1
100
AcDbVertex
100
AcDb3dPolylineVertex
 10
62.9353
 20
44.09699999999999
 30
0.0
 70
    32
  0
VERTEX
  5
32A3
330
31F0
100
AcDbEntity
  8
1
100
AcDbVertex
100
AcDb3dPolylineVertex
 10
62.951
 20
44.09069999999998
 30
0.0
 70
    32
  0
VERTEX
  5
32A4
330
31F0
100
AcDbEntity
  8
1
100
AcDbVertex
100
AcDb3dPolylineVertex
 10
62.9671
 20
44.08399999999999
 30
0.0
 70
    32
  0
VERTEX
  5
32A5
330
31F0
100
AcDbEntity
  8
1
100
AcDbVertex
100
AcDb3dPolylineVertex
 10
62.9835
 20
44.0772
 30
0.0
 70
    32
  0
VERTEX
  5
32A6
330
31F0
100
AcDbEntity
  8
1
100
AcDbVertex
100
AcDb3dPolylineVertex
 10
63.00019999999999
 20
44.07
 30
0.0
 70
    32
  0
VERTEX
  5
32A7
330
31F0
100
AcDbEntity
  8
1
100
AcDbVertex
100
AcDb3dPolylineVertex
 10
63.0173
 20
44.0625
 30
0.0
 70
    32
  0
VERTEX
  5
32A8
330
31F0
100
AcDbEntity
  8
1
100
AcDbVertex
100
AcDb3dPolylineVertex
 10
63.0348
 20
44.05479999999999
 30
0.0
 70
    32
  0
VERTEX
  5
32A9
330
31F0
100
AcDbEntity
  8
1
100
AcDbVertex
100
AcDb3dPolylineVertex
 10
63.05279999999999
 20
44.0467
 30
0.0
 70
    32
  0
VERTEX
  5
32AA
330
31F0
100
AcDbEntity
  8
1
100
AcDbVertex
100
AcDb3dPolylineVertex
 10
63.0712
 20
44.0384
 30
0.0
 70
    32
  0
VERTEX
  5
32AB
330
31F0
100
AcDbEntity
  8
1
100
AcDbVertex
100
AcDb3dPolylineVertex
 10
63.0901
 20
44.0298
 30
0.0
 70
    32
  0
VERTEX
  5
32AC
330
31F0
100
AcDbEntity
  8
1
100
AcDbVertex
100
AcDb3dPolylineVertex
 10
63.1095
 20
44.0209
 30
0.0
 70
    32
  0
VERTEX
  5
32AD
330
31F0
100
AcDbEntity
  8
1
100
AcDbVertex
100
AcDb3dPolylineVertex
 10
63.1295
 20
44.0118
 30
0.0
 70
    32
  0
VERTEX
  5
32AE
330
31F0
100
AcDbEntity
  8
1
100
AcDbVertex
100
AcDb3dPolylineVertex
 10
63.15
 20
44.00229999999999
 30
0.0
 70
    32
  0
VERTEX
  5
32AF
330
31F0
100
AcDbEntity
  8
1
100
AcDbVertex
100
AcDb3dPolylineVertex
 10
63.1711
 20
43.9926
 30
0.0
 70
    32
  0
VERTEX
  5
32B0
330
31F0
100
AcDbEntity
  8
1
100
AcDbVertex
100
AcDb3dPolylineVertex
 10
63.1929
 20
43.98259999999999
 30
0.0
 70
    32
  0
SEQEND
  5
32B1
330
31F0
100
AcDbEntity
  8
1
  0
LINE
  5
3041
330
3659
100
AcDbEntity
  8
1
100
AcDbLine
 10
63.19286025144799
 20
43.98264884990266
 30
0.0
 11
63.19286025144799
 21
49.98264884990266
 31
0.0
  0
ARC
  5
3042
330
3659
100
AcDbEntity
  8
1
100
AcDbCircle
 10
57.19286025144799
 20
49.98264884990266
 30
0.0
 40
6.0
100
AcDbArc
 50
0.0
 51
90.0
  0
LINE
  5
3043
330
3659
100
AcDbEntity
  8
1
100
AcDbLine
 10
57.19286025144799
 20
55.98264884990266
 30
0.0
 11
52.19286025144799
 21
55.98264884990266
 31
0.0
  0
LINE
  5
3044
330
3659
100
AcDbEntity
  8
1
100
AcDbLine
 10
57.19286025144799
 20
51.94695730126722
 30
0.0
 11
57.19286025144707
 21
51.94695730126722
 31
0.0
  0
LINE
  5
3045
330
3659
100
AcDbEntity
  8
1
100
AcDbLine
 10
59.19286025144799
 20
49.94695730126631
 30
0.0
 11
59.19286025144799
 21
49.94695730126721
 31
0.0
  0
ARC
  5
3046
330
3659
100
AcDbEntity
  8
1
100
AcDbCircle
 10
57.19286025144799
 20
49.94695730126721
 30
0.0
 40
2.0
100
AcDbArc
 50
359.9999999999479
 51
90.0
  0
LWPOLYLINE
  5
3047
330
3659
100
AcDbEntity
  8
1
100
AcDbPolyline
 90
        4
 70
     0
 43
0.0
 10
179.9074335796021
 20
4.608912309729643
 10
199.907433579602
 20
4.608912309729643
 10
199.907433579602
 20
-8.391087690270351
 10
179.9074335796021
 20
-8.391087690270351
  0
LWPOLYLINE
  5
3048
330
3659
100
AcDbEntity
  8
1
100
AcDbPolyline
 90
        4
 70
     0
 43
0.0
 10
81.90743357960206
 20
-8.391087690270351
 10
79.90743357960205
 20
-8.391087690270351
 10
79.90743357960205
 20
4.608912309729643
 10
81.90743357960206
 20
4.608912309729643
  0
LINE
  5
3049
330
3659
100
AcDbEntity
  8
CENTER
100
AcDbLine
 10
76.22586630238115
 20
-1.89108769027035
 30
0.0
 11
203.1683571870261
 21
-1.89108769027035
 31
0.0
  0
LINE
  5
304A
330
3659
100
AcDbEntity
  8
1
100
AcDbLine
 10
81.90743357960206
 20
9.608912309729646
 30
0.0
 11
81.90743357960206
 21
-13.39108769027035
 31
0.0
  0
LINE
  5
304B
330
3659
100
AcDbEntity
  8
1
100
AcDbLine
 10
81.90743357960206
 20
-13.39108769027035
 30
0.0
 11
194.907433579602
 21
-13.39108769027035
 31
0.0
  0
LINE
  5
304C
330
3659
100
AcDbEntity
  8
1
100
AcDbLine
 10
194.907433579602
 20
-13.39108769027035
 30
0.0
 11
194.907433579602
 21
-8.391087690270351
 31
0.0
  0
LINE
  5
304D
330
3659
100
AcDbEntity
  8
1
100
AcDbLine
 10
194.907433579602
 20
9.608912309729646
 30
0.0
 11
179.9074335796021
 21
9.608912309729646
 31
0.0
  0
LINE
  5
304E
330
3659
100
AcDbEntity
  8
1
100
AcDbLine
 10
179.9074335796021
 20
9.608912309729646
 30
0.0
 11
179.9074335796021
 21
-0.8910876902703535
 31
0.0
  0
LINE
  5
304F
330
3659
100
AcDbEntity
  8
1
100
AcDbLine
 10
179.9074335796021
 20
-0.8910876902703535
 30
0.0
 11
174.9074335796021
 21
-0.8910876902703535
 31
0.0
  0
LINE
  5
3050
330
3659
100
AcDbEntity
  8
1
100
AcDbLine
 10
174.9074335796021
 20
-0.8910876902703535
 30
0.0
 11
174.9074335796021
 21
-2.891087690270351
 31
0.0
  0
LINE
  5
3051
330
3659
100
AcDbEntity
  8
1
100
AcDbLine
 10
81.90743357960206
 20
9.608912309729646
 30
0.0
 11
179.9074335796021
 21
9.608912309729646
 31
0.0
  0
LINE
  5
3052
330
3659
100
AcDbEntity
  8
1
100
AcDbLine
 10
81.90743357960206
 20
-0.8910876902703535
 30
0.0
 11
86.90743357960206
 21
-0.8910876902703535
 31
0.0
  0
LINE
  5
3053
330
3659
100
AcDbEntity
  8
1
100
AcDbLine
 10
86.90743357960206
 20
-0.8910876902703535
 30
0.0
 11
86.90743357960206
 21
-2.891087690270351
 31
0.0
  0
LINE
  5
3054
330
3659
100
AcDbEntity
  8
1
100
AcDbLine
 10
86.90743357960206
 20
-2.891087690270351
 30
0.0
 11
174.9074335796021
 21
-2.891087690270351
 31
0.0
  0
LINE
  5
3055
330
3659
100
AcDbEntity
  8
1
100
AcDbLine
 10
179.9074335796021
 20
-0.8910876902703535
 30
0.0
 11
179.9074335796021
 21
-13.39108769027035
 31
0.0
  0
LINE
  5
3056
330
3659
100
AcDbEntity
  8
1
100
AcDbLine
 10
86.90743357960206
 20
-0.8910876902703535
 30
0.0
 11
174.9074335796021
 21
-0.8910876902703535
 31
0.0
  0
LINE
  5
3057
330
3659
100
AcDbEntity
  8
1
100
AcDbLine
 10
194.907433579602
 20
8.608912309729646
 30
0.0
 11
179.9074335796021
 21
8.608912309729646
 31
0.0
  0
LINE
  5
3058
330
3659
100
AcDbEntity
  8
1
100
AcDbLine
 10
194.907433579602
 20
-12.39108769027035
 30
0.0
 11
179.9074335796021
 21
-12.39108769027035
 31
0.0
  0
LINE
  5
3059
330
3659
100
AcDbEntity
  8
1
100
AcDbLine
 10
192.907433579602
 20
9.608912309729646
 30
0.0
 11
192.907433579602
 21
8.608912309729646
 31
0.0
  0
LINE
  5
305A
330
3659
100
AcDbEntity
  8
1
100
AcDbLine
 10
192.907433579602
 20
-12.39108769027035
 30
0.0
 11
192.907433579602
 21
-13.39108769027035
 31
0.0
  0
LINE
  5
305B
330
3659
100
AcDbEntity
  8
1
100
AcDbLine
 10
91.37174203096659
 20
9.608912309729646
 30
0.0
 11
91.37174203096659
 21
13.60891230972965
 31
0.0
  0
LINE
  5
305C
330
3659
100
AcDbEntity
  8
1
100
AcDbLine
 10
89.37174203096665
 20
15.60891230972965
 30
0.0
 11
83.40743357960116
 21
15.60891230972965
 31
0.0
  0
LINE
  5
305D
330
3659
100
AcDbEntity
  8
1
100
AcDbLine
 10
83.05784290950475
 20
19.60891230972783
 30
0.0
 11
89.40743357960206
 21
19.60891230972965
 31
0.0
  0
ARC
  5
305E
330
3659
100
AcDbEntity
  8
1
100
AcDbCircle
 10
89.40743357960206
 20
13.60891230972965
 30
0.0
 40
6.0
100
AcDbArc
 50
0.0
 51
90.0
  0
LINE
  5
305F
330
3659
100
AcDbEntity
  8
1
100
AcDbLine
 10
95.40743357960208
 20
13.60891230972965
 30
0.0
 11
95.40743357960208
 21
9.608912309729646
 31
0.0
  0
LINE
  5
3060
330
3659
100
AcDbEntity
  8
1
100
AcDbLine
 10
89.37174203096573
 20
15.60891230972965
 30
0.0
 11
89.37174203096665
 21
15.60891230972965
 31
0.0
  0
ARC
  5
3061
330
3659
100
AcDbEntity
  8
1
100
AcDbCircle
 10
89.37174203096665
 20
13.60891230972965
 30
0.0
 40
2.0
100
AcDbArc
 50
0.0
 51
90.0
  0
LINE
  5
3062
330
3659
100
AcDbEntity
  8
1
100
AcDbLine
 10
83.34578804036105
 20
20.58592228044624
 30
0.0
 11
81.72419373335186
 21
15.08378441932808
 31
0.0
  0
LINE
  5
3063
330
3659
100
AcDbEntity
  8
1
100
AcDbLine
 10
82.91905795277205
 20
20.58592228044624
 30
0.0
 11
81.29746364576282
 21
15.08378441932808
 31
0.0
  0
LINE
  5
3064
330
3659
100
AcDbEntity
  8
1
100
AcDbLine
 10
81.8789598295533
 20
15.60891230972965
 30
0.0
 11
83.40743357960116
 21
15.60891230972965
 31
0.0
  0
LINE
  5
3065
330
3659
100
AcDbEntity
  8
1
100
AcDbLine
 10
82.63111282191573
 20
19.60891230972783
 30
0.0
 11
76.81031065884861
 21
19.60891230972601
 31
0.0
  0
LINE
  5
3066
330
3659
100
AcDbEntity
  8
1
100
AcDbLine
 10
81.45222974196427
 20
15.60891230972965
 30
0.0
 11
76.81031065884861
 21
15.60891230972965
 31
0.0
  0
LINE
  5
3067
330
3659
100
AcDbEntity
  8
1
100
AcDbLine
 10
76.81031065884861
 20
19.60891230972601
 30
0.0
 11
76.81031065884861
 21
15.60891230972965
 31
0.0
  0
LINE
  5
3068
330
3659
100
AcDbEntity
  8
1
100
AcDbLine
 10
76.81031065884861
 20
19.55946765967626
 30
0.0
 11
72.80518363992618
 21
21.87182882218775
 31
0.0
  0
LINE
  5
3069
330
3659
100
AcDbEntity
  8
1
100
AcDbLine
 10
72.80518363992618
 20
21.87182882218775
 30
0.0
 11
72.48018363992638
 21
21.30891230972765
 31
0.0
  0
LINE
  5
306A
330
3659
100
AcDbEntity
  8
1
100
AcDbLine
 10
72.1489139067188
 20
19.93085932232651
 30
0.0
 11
76.8103106588495
 21
18.68184182699195
 31
0.0
  0
LINE
  5
306B
330
3659
100
AcDbEntity
  8
1
100
AcDbLine
 10
76.81031065884861
 20
18.80891230972764
 30
0.0
 11
72.48018363992638
 21
21.30891230972765
 31
0.0
  0
LINE
  5
306C
330
3659
100
AcDbEntity
  8
1
100
AcDbLine
 10
72.1489139067197
 20
19.93085932232651
 30
0.0
 11
71.98068152740315
 21
19.30300753523869
 31
0.0
  0
LINE
  5
306D
330
3659
100
AcDbEntity
  8
1
100
AcDbLine
 10
71.81031065884861
 20
17.93391230972764
 30
0.0
 11
76.8103106588477
 21
17.93391230972672
 31
0.0
  0
LINE
  5
306E
330
3659
100
AcDbEntity
  8
1
100
AcDbLine
 10
76.8103106588477
 20
18.00891230972655
 30
0.0
 11
71.98068152740315
 21
19.3030075352396
 31
0.0
  0
LINE
  5
306F
330
3659
100
AcDbEntity
  8
1
100
AcDbLine
 10
71.8103106588477
 20
17.93391230972764
 30
0.0
 11
71.8103106588477
 21
17.283912309728
 31
0.0
  0
LINE
  5
3070
330
3659
100
AcDbEntity
  8
1
100
AcDbLine
 10
76.8103106588477
 20
17.283912309728
 30
0.0
 11
71.8103106588477
 21
17.283912309728
 31
0.0
  0
LINE
  5
3071
330
3659
100
AcDbEntity
  8
1
100
AcDbLine
 10
76.8103106588477
 20
16.40891230972619
 30
0.0
 11
76.8103106588477
 21
17.20891230972637
 31
0.0
  0
LINE
  5
3072
330
3659
100
AcDbEntity
  8
1
100
AcDbLine
 10
76.8103106588477
 20
15.60891230972601
 30
0.0
 11
76.8103106588477
 21
16.40891230972619
 31
0.0
  0
LINE
  5
3073
330
3659
100
AcDbEntity
  8
1
100
AcDbLine
 10
76.81031065884861
 20
15.65835695977938
 30
0.0
 11
72.80518363992618
 21
13.3459957972679
 31
0.0
  0
LINE
  5
3074
330
3659
100
AcDbEntity
  8
1
100
AcDbLine
 10
72.80518363992618
 20
13.3459957972679
 30
0.0
 11
72.48018363992638
 21
13.908912309728
 31
0.0
  0
LINE
  5
3075
330
3659
100
AcDbEntity
  8
1
100
AcDbLine
 10
72.1489139067188
 20
15.28696529712914
 30
0.0
 11
76.8103106588495
 21
16.5359827924637
 31
0.0
  0
LINE
  5
3076
330
3659
100
AcDbEntity
  8
1
100
AcDbLine
 10
76.81031065884861
 20
16.408912309728
 30
0.0
 11
72.48018363992638
 21
13.908912309728
 31
0.0
  0
LINE
  5
3077
330
3659
100
AcDbEntity
  8
1
100
AcDbLine
 10
72.1489139067197
 20
15.28696529712914
 30
0.0
 11
71.98068152740315
 21
15.91481708421696
 31
0.0
  0
LINE
  5
3078
330
3659
100
AcDbEntity
  8
1
100
AcDbLine
 10
76.8103106588477
 20
17.2089123097291
 30
0.0
 11
71.98068152740315
 21
15.91481708421605
 31
0.0
  0
LINE
  5
3079
330
3659
100
AcDbEntity
  8
1
100
AcDbLine
 10
72.64268363992677
 20
21.59037056595725
 30
0.0
 11
70.91063283235768
 21
22.59037056595634
 31
0.0
  0
LINE
  5
307A
330
3659
100
AcDbEntity
  8
1
100
AcDbLine
 10
71.8103106588477
 20
17.60891230972783
 30
0.0
 11
69.8103106588477
 21
17.60891230972783
 31
0.0
  0
LINE
  5
307B
330
3659
100
AcDbEntity
  8
1
100
AcDbLine
 10
72.06479771706189
 20
15.6008911906726
 30
0.0
 11
70.13294606448368
 21
15.08325310046774
 31
0.0
  0
LINE
  5
307C
330
3659
100
AcDbEntity
  8
1
100
AcDbLine
 10
72.64268363992677
 20
13.62745405349841
 30
0.0
 11
70.91063283235768
 21
12.62745405349932
 31
0.0
  0
LINE
  5
307D
330
3659
100
AcDbEntity
  8
1
100
AcDbLine
 10
72.06479771706189
 20
19.61693342878304
 30
0.0
 11
70.13294606448278
 21
20.13457151898609
 31
0.0
  0
CIRCLE
  5
307E
330
3659
100
AcDbEntity
  8
1
100
AcDbCircle
 10
93.40743357960207
 20
60.94695730126723
 30
0.0
 40
3.0
  0
CIRCLE
  5
307F
330
3659
100
AcDbEntity
  8
1
100
AcDbCircle
 10
93.40743357960207
 20
46.94695730126722
 30
0.0
 40
3.0
  0
LINE
  5
356E
330
3659
100
AcDbEntity
  8
1
100
AcDbLine
 10
194.907433579602
 20
4.608912309729642
 30
0.0
 11
194.907433579602
 21
9.608912309729646
 31
0.0
  0
LWPOLYLINE
  5
3571
330
3659
100
AcDbEntity
  8
1
100
AcDbPolyline
 90
        3
 70
     0
 43
0.0
 10
79.90743357960205
 20
48.4621297439653
 10
79.90743357960205
 20
68.94695730126722
 10
81.90743357960299
 20
68.94695730126722
  0
LINE
  5
370B
330
3659
100
AcDbEntity
  8
1
100
AcDbLine
 10
81.90743357960297
 20
56.04695730126667
 30
0.0
 11
81.90743357960299
 21
74.94695730126813
 31
0.0
  0
LINE
  5
3714
330
3659
100
AcDbEntity
  8
1
100
AcDbLine
 10
53.19286025144799
 20
51.84695730126684
 30
0.0
 11
53.19286025144799
 21
41.94695730126722
 31
0.0
  0
LINE
  5
3715
330
3659
100
AcDbEntity
  8
1
100
AcDbLine
 10
53.19286025144799
 20
56.04695730126667
 30
0.0
 11
52.19286025144799
 21
56.04695730126667
 31
0.0
  0
LINE
  5
3716
330
3659
100
AcDbEntity
  8
1
100
AcDbLine
 10
53.19286025144799
 20
51.84695730126685
 30
0.0
 11
52.19286025144799
 21
51.84695730126685
 31
0.0
  0
VIEWPORT
  5
1403
102
{ACAD_XDICTIONARY
360
37BA
102
}
330
3655
100
AcDbEntity
 67
     1
  8
0
100
AcDbViewport
 10
211.1125709216453
 20
189.2350006964817
 30
0.0
 40
520.6974082514512
 41
424.034607335028
 68
     1
 69
     1
 12
211.1125709216453
 22
189.2350006964817
 13
0.0
 23
0.0
 14
1.0
 24
1.0
 15
10.0
 25
10.0
 16
0.0
 26
0.0
 36
1.0
 17
0.0
 27
0.0
 37
0.0
 42
50.0
 43
0.0
 44
0.0
 45
424.034607335028
 50
0.0
 51
0.0
 72
   100
 90
   557056
  1

281
     0
 71
     0
 74
     0
110
0.0
120
0.0
130
0.0
111
1.0
121
0.0
131
0.0
112
0.0
122
1.0
132
0.0
 79
     0
146
0.0
  0
VIEWPORT
  5
1404
102
{ACAD_XDICTIONARY
360
37BC
102
}
330
3655
100
AcDbEntity
 67
     1
  8
DEFPOINTS
100
AcDbViewport
 10
212.5
 20
144.4999999999998
 30
0.0
 40
385.0
 41
264.9999999999999
 68
     2
 69
     2
 12
5000.0
 22
5000.0
 13
0.0
 23
0.0
 14
168.0
 24
168.0
 15
0.0
 25
0.0
 16
0.0
 26
0.0
 36
1.0
 17
0.0
 27
0.0
 37
0.0
 42
50.0
 43
0.0
 44
0.0
 45
264.9999999999999
 50
0.0
 51
0.0
 72
   100
 90
   561152
  1

281
     0
 71
     0
 74
     0
110
0.0
120
0.0
130
0.0
111
1.0
121
0.0
131
0.0
112
0.0
122
1.0
132
0.0
 79
     0
146
0.0
  0
VIEWPORT
  5
1462
102
{ACAD_XDICTIONARY
360
37BE
102
}
330
3655
100
AcDbEntity
 67
     1
  8
DEFPOINTS
100
AcDbViewport
 10
212.4999999999999
 20
144.4999999999998
 30
0.0
 40
384.9999999999998
 41
265.0
 68
     3
 69
     3
 12
120.6987180836561
 22
92.31834577678851
 13
0.0
 23
0.0
 14
168.0
 24
168.0
 15
0.0
 25
0.0
 16
0.0
 26
0.0
 36
1.0
 17
0.0
 27
0.0
 37
0.0
 42
50.0
 43
0.0
 44
0.0
 45
215.2989965031114
 50
0.0
 51
0.0
 72
   100
 90
   561152
  1

281
     0
 71
     0
 74
     0
110
0.0
120
0.0
130
0.0
111
1.0
121
0.0
131
0.0
112
0.0
122
1.0
132
0.0
 79
     0
146
0.0
  0
ENDSEC
  0
SECTION
  2
OBJECTS
  0
DICTIONARY
  5
35F5
330
0
100
AcDbDictionary
281
     1
  3
ACAD_CIP_PREVIOUS_PRODUCT_INFO
350
370A
  3
ACAD_COLOR
350
364B
  3
ACAD_DETAILVIEWSTYLE
350
3653
  3
ACAD_GROUP
350
35F6
  3
ACAD_LAYOUT
350
364A
  3
ACAD_MATERIAL
350
35F9
  3
ACAD_MLEADERSTYLE
350
364E
  3
ACAD_MLINESTYLE
350
3647
  3
ACAD_PLOTSETTINGS
350
3649
  3
ACAD_PLOTSTYLENAME
350
35F7
  3
ACAD_SCALELIST
350
362B
  3
ACAD_SECTIONVIEWSTYLE
350
3650
  3
ACAD_TABLESTYLE
350
364C
  3
ACAD_VISUALSTYLE
350
3612
  3
ACDB_RECOMPOSE_DATA
350
37B8
  3
AcDbVariableDictionary
350
371D
  3
DWGPROPS
350
37B9
  0
DICTIONARY
  5
3717
330
363D
100
AcDbDictionary
280
     1
281
     1
  3
ADSK_XREC_LAYER_RECONCILED
360
3718
  0
DICTIONARY
  5
3719
330
365D
100
AcDbDictionary
280
     1
281
     1
  3
ADSK_XREC_LAYER_RECONCILED
360
371A
  0
DICTIONARY
  5
371B
330
3663
100
AcDbDictionary
280
     1
281
     1
  3
ADSK_XREC_LAYER_RECONCILED
360
371C
  0
DICTIONARY
  5
370C
330
3659
100
AcDbDictionary
280
     1
281
     1
  3
ACAD_SORTENTS
360
370D
  0
DICTIONARY
  5
37BA
330
1403
100
AcDbDictionary
280
     1
281
     1
  3
ACAD_XREC_ROUNDTRIP
360
37BB
  0
DICTIONARY
  5
37BC
330
1404
100
AcDbDictionary
280
     1
281
     1
  3
ACAD_XREC_ROUNDTRIP
360
37BD
  0
DICTIONARY
  5
37BE
330
1462
100
AcDbDictionary
280
     1
281
     1
  3
ACAD_XREC_ROUNDTRIP
360
37BF
  0
XRECORD
  5
370A
102
{ACAD_REACTORS
330
35F5
102
}
330
35F5
100
AcDbXrecord
280
     1
300
ACDLT
300
2013
300
INVLTS_F_S
  0
DICTIONARY
  5
364B
102
{ACAD_REACTORS
330
35F5
102
}
330
35F5
100
AcDbDictionary
281
     1
  0
DICTIONARY
  5
3653
102
{ACAD_REACTORS
330
35F5
102
}
330
35F5
100
AcDbDictionary
281
     1
  3
Imperial24
350
3654
  0
DICTIONARY
  5
35F6
102
{ACAD_REACTORS
330
35F5
102
}
330
35F5
100
AcDbDictionary
281
     1
  0
DICTIONARY
  5
364A
102
{ACAD_REACTORS
330
35F5
102
}
330
35F5
100
AcDbDictionary
281
     1
  3
Model
350
365C
  3
レイアウト1
350
3658
  0
DICTIONARY
  5
35F9
102
{ACAD_REACTORS
330
35F5
102
}
330
35F5
100
AcDbDictionary
281
     1
  3
ByBlock
350
3602
  3
ByLayer
350
35FA
  3
Global
350
360A
  0
DICTIONARY
  5
364E
102
{ACAD_REACTORS
330
35F5
102
}
330
35F5
100
AcDbDictionary
281
     1
  3
Standard
350
364F
  0
DICTIONARY
  5
3647
102
{ACAD_REACTORS
330
35F5
102
}
330
35F5
100
AcDbDictionary
281
     1
  3
Standard
350
3648
  0
DICTIONARY
  5
3649
102
{ACAD_REACTORS
330
35F5
102
}
330
35F5
100
AcDbDictionary
281
     1
  0
ACDBDICTIONARYWDFLT
  5
35F7
102
{ACAD_REACTORS
330
35F5
102
}
330
35F5
100
AcDbDictionary
281
     1
  3
Normal
350
35F8
100
AcDbDictionaryWithDefault
340
35F8
  0
DICTIONARY
  5
362B
102
{ACAD_REACTORS
330
35F5
102
}
330
35F5
100
AcDbDictionary
281
     1
  3
A0
350
362C
  3
A1
350
362D
  3
A2
350
362E
  3
A3
350
362F
  3
A4
350
3630
  3
A5
350
3631
  3
A6
350
3632
  3
A7
350
3633
  3
A8
350
3634
  3
A9
350
3635
  3
B0
350
3636
  3
B1
350
3637
  3
B2
350
3638
  3
B3
350
3639
  3
B4
350
363A
  3
B5
350
363B
  3
B6
350
363C
  0
DICTIONARY
  5
3650
102
{ACAD_REACTORS
330
35F5
102
}
330
35F5
100
AcDbDictionary
281
     1
  3
Imperial24
350
3652
  0
DICTIONARY
  5
364C
102
{ACAD_REACTORS
330
35F5
102
}
330
35F5
100
AcDbDictionary
281
     1
  3
Standard
350
364D
  0
DICTIONARY
  5
3612
102
{ACAD_REACTORS
330
35F5
102
}
330
35F5
100
AcDbDictionary
281
     1
  3
2dWireframe
350
3618
  3
Basic
350
3617
  3
Brighten
350
361E
  3
ColorChange
350
3622
  3
Conceptual
350
361B
  3
Dim
350
361D
  3
EdgeColorOff
350
362A
  3
Facepattern
350
3621
  3
Flat
350
3613
  3
FlatWithEdges
350
3614
  3
Gouraud
350
3615
  3
GouraudWithEdges
350
3616
  3
Hidden
350
361A
  3
JitterOff
350
3628
  3
Linepattern
350
3620
  3
OverhangOff
350
3629
  3
Realistic
350
361C
  3
Shaded
350
3627
  3
Shaded with edges
350
3626
  3
Shades of Gray
350
3623
  3
Sketchy
350
3624
  3
Thicken
350
361F
  3
Wireframe
350
3619
  3
X-Ray
350
3625
  0
XRECORD
  5
37B8
102
{ACAD_REACTORS
330
35F5
102
}
330
35F5
100
AcDbXrecord
280
     1
 90
        1
330
364D
  0
DICTIONARY
  5
371D
102
{ACAD_REACTORS
330
35F5
102
}
330
35F5
100
AcDbDictionary
281
     1
  3
CANNOSCALE
350
3722
  3
CMLEADERSTYLE
350
371F
  3
CTABLESTYLE
350
371E
  3
CVIEWDETAILSTYLE
350
3720
  3
CVIEWSECTIONSTYLE
350
3721
  3
DIMASSOC
350
3725
  3
INDEXCTL
350
3724
  3
SORTENTS
350
3723
  3
XCLIPFRAME
350
37B6
  0
XRECORD
  5
37B9
102
{ACAD_REACTORS
330
35F5
102
}
330
35F5
100
AcDbXrecord
280
     1
  1
DWGPROPS COOKIE
  2

  3

  4

  6

  7

  8
SIKI-1610
  9

300
=
301
=
302
=
303
=
304
=
305
=
306
=
307
=
308
=
309
=
 40
0.5353196875
 41
2451430.616412153
 42
2457809.45824625
  1

 90
        0
  0
XRECORD
  5
3718
102
{ACAD_REACTORS
330
3717
102
}
330
3717
100
AcDbXrecord
280
     1
290
     1
  0
XRECORD
  5
371A
102
{ACAD_REACTORS
330
3719
102
}
330
3719
100
AcDbXrecord
280
     1
290
     1
  0
XRECORD
  5
371C
102
{ACAD_REACTORS
330
371B
102
}
330
371B
100
AcDbXrecord
280
     1
290
     1
  0
SORTENTSTABLE
  5
370D
102
{ACAD_REACTORS
330
370C
102
}
330
370C
100
AcDbSortentsTable
330
3659
331
307C
  5
307E
331
3078
  5
307A
331
3074
  5
3076
331
3070
  5
3072
331
2FDE
  5
2FDF
331
2FDA
  5
2FDA
331
2FD6
  5
2FD6
331
3015
  5
3016
331
2FD2
  5
2FD2
331
31F0
  5
3571
331
303C
  5
303E
331
3038
  5
303A
331
306C
  5
306E
331
3068
  5
306A
331
3064
  5
3066
331
3060
  5
3062
331
300D
  5
300E
331
3009
  5
300A
331
3005
  5
3006
331
3001
  5
3002
331
3034
  5
3036
331
3030
  5
3032
331
302C
  5
302E
331
3028
  5
302A
331
305C
  5
305E
331
3058
  5
305A
331
3054
  5
3056
331
3050
  5
3052
331
2FFD
  5
2FFE
331
2FF9
  5
2FFA
331
2FF5
  5
2FF6
331
2FF1
  5
2FF2
331
3024
  5
3026
331
3020
  5
3021
331
301C
  5
301D
331
304C
  5
304E
331
3018
  5
3019
331
3048
  5
304A
331
3044
  5
3046
331
2FED
  5
2FEE
331
2FE9
  5
2FEA
331
2FE5
  5
2FE6
331
2FE1
  5
2FE2
331
307F
  5
31F0
331
307B
  5
307D
331
3077
  5
3079
331
3073
  5
3075
331
2FDD
  5
2FDE
331
2FD9
  5
2FD9
331
2FD5
  5
2FD5
331
3014
  5
3015
331
3010
  5
3012
331
2FD1
  5
2FD1
331
303F
  5
3042
331
306F
  5
3071
331
303B
  5
303D
331
306B
  5
306D
331
3067
  5
3069
331
3063
  5
3065
331
300C
  5
300D
331
3008
  5
3009
331
3004
  5
3005
331
3000
  5
3001
331
3037
  5
3039
331
3033
  5
3035
331
302F
  5
3031
331
305F
  5
3061
331
302B
  5
302D
331
305B
  5
305D
331
3057
  5
3059
331
3053
  5
3055
331
2FFC
  5
2FFD
331
2FF8
  5
2FF9
331
2FF4
  5
2FF5
331
2FF0
  5
2FF1
331
3027
  5
3029
331
3023
  5
3025
331
301F
  5
3020
331
304F
  5
3051
331
301B
  5
301C
331
304B
  5
304D
331
356E
  5
370B
331
3047
  5
3049
331
3043
  5
3045
331
2FEC
  5
2FED
331
2FE8
  5
2FE9
331
312E
  5
356E
331
2FE4
  5
2FE5
331
2FE0
  5
2FE1
331
307E
  5
312E
331
307A
  5
307C
331
3076
  5
3078
331
3072
  5
3074
331
2FDC
  5
2FDD
331
2FD8
  5
2FD8
331
3017
  5
3018
331
2FD4
  5
2FD4
331
3013
  5
3014
331
2FD0
  5
2FD0
331
303E
  5
3041
331
306E
  5
3070
331
303A
  5
303C
331
306A
  5
306C
331
3066
  5
3068
331
3062
  5
3064
331
300F
  5
3010
331
300B
  5
300C
331
3007
  5
3008
331
3003
  5
3004
331
3036
  5
3038
331
3032
  5
3034
331
302E
  5
3030
331
305E
  5
3060
331
302A
  5
302C
331
305A
  5
305C
331
3056
  5
3058
331
3052
  5
3054
331
370B
  5
2FDB
331
2FFF
  5
3000
331
2FFB
  5
2FFC
331
2FF7
  5
2FF8
331
2FF3
  5
2FF4
331
3026
  5
3028
331
3022
  5
3024
331
301E
  5
301F
331
304E
  5
3050
331
301A
  5
301B
331
304A
  5
304C
331
3571
  5
3714
331
3046
  5
3048
331
3042
  5
3044
331
3714
  5
3022
331
2FEF
  5
2FF0
331
2FEB
  5
2FEC
331
2FE7
  5
2FE8
331
2FE3
  5
2FE4
331
307D
  5
307F
331
3079
  5
307B
331
3075
  5
3077
331
3071
  5
3073
331
2FDF
  5
2FE0
331
2FDB
  5
2FDC
331
2FD7
  5
2FD7
331
3016
  5
3017
331
3012
  5
3013
331
2FD3
  5
2FD3
331
303D
  5
303F
331
3039
  5
303B
331
306D
  5
306F
331
3069
  5
306B
331
3065
  5
3067
331
3061
  5
3063
331
300E
  5
300F
331
300A
  5
300B
331
3006
  5
3007
331
3002
  5
3003
331
3035
  5
3037
331
3031
  5
3033
331
302D
  5
302F
331
305D
  5
305F
331
3029
  5
302B
331
3059
  5
305B
331
3055
  5
3057
331
3051
  5
3053
331
2FFE
  5
2FFF
331
2FFA
  5
2FFB
331
2FF6
  5
2FF7
331
2FF2
  5
2FF3
331
3025
  5
3027
331
3021
  5
3023
331
301D
  5
301E
331
304D
  5
304F
331
3019
  5
301A
331
3049
  5
304B
331
3045
  5
3047
331
3041
  5
3043
331
2FEE
  5
2FEF
331
2FEA
  5
2FEB
331
2FE6
  5
2FE7
331
2FE2
  5
2FE3
  0
XRECORD
  5
37BB
102
{ACAD_REACTORS
330
37BA
102
}
330
37BA
100
AcDbXrecord
280
     1
102
SHADEPLOT
 70
     0
  0
XRECORD
  5
37BD
102
{ACAD_REACTORS
330
37BC
102
}
330
37BC
100
AcDbXrecord
280
     1
102
SHADEPLOT
 70
     0
  0
XRECORD
  5
37BF
102
{ACAD_REACTORS
330
37BE
102
}
330
37BE
100
AcDbXrecord
280
     1
102
SHADEPLOT
 70
     0
  0
ACDBDETAILVIEWSTYLE
  5
3654
102
{ACAD_REACTORS
330
3653
102
}
330
3653
100
AcDbModelDocViewStyle
 70
     0
  3
Imperial24
290
     0
100
AcDbDetailViewStyle
 70
     0
 71
     0
 90
        3
 71
     1
340
363E
 40
0.24
340
0
 40
0.24
300

 40
0.36
280
     3
 71
     2
340
3645
 90
       25
 71
     3
340
363E
 40
0.24
 90
        1
 40
0.75
 90
        1
300
%<\AcVar ViewType \f "%tc1">% %<\AcVar ViewDetailId>%\PSCALE %<\AcVar ViewScale \f "%sn">%
 71
     4
340
3645
 90
       25
340
3645
 90
       25
280
     0
  0
LAYOUT
  5
365C
102
{ACAD_XDICTIONARY
360
37F3
102
}
102
{ACAD_REACTORS
330
364A
102
}
330
364A
100
AcDbPlotSettings
  1

  2
いきなりPDF 7
  4

  6

 40
0.0
 41
0.0
 42
0.0
 43
0.0
 44
0.0
 45
0.0
 46
0.0
 47
0.0
 48
0.0
 49
0.0
140
0.0
141
0.0
142
1.0
143
1.0
 70
  1712
 72
     0
 73
     0
 74
     0
  7

 75
     0
147
1.0
148
0.0
149
0.0
100
AcDbLayout
  1
Model
 70
     1
 71
     0
 10
0.0
 20
0.0
 11
12.0
 21
9.0
 12
0.0
 22
0.0
 32
0.0
 14
0.0
 24
0.0
 34
0.0
 15
0.0
 25
0.0
 35
0.0
146
0.0
 13
0.0
 23
0.0
 33
0.0
 16
1.0
 26
0.0
 36
0.0
 17
0.0
 27
1.0
 37
0.0
 76
     0
330
3659
331
365F
  0
LAYOUT
  5
3658
102
{ACAD_XDICTIONARY
360
37F1
102
}
102
{ACAD_REACTORS
330
364A
102
}
330
364A
100
AcDbPlotSettings
  1

  2
いきなりPDF 7
  4

  6

 40
0.0
 41
0.0
 42
0.0
 43
0.0
 44
0.0
 45
0.0
 46
0.0
 47
0.0
 48
0.0
 49
0.0
140
0.0
141
0.0
142
1.0
143
1.0
 70
   688
 72
     0
 73
     0
 74
     5
  7

 75
    16
147
1.0
148
0.0
149
0.0
100
AcDbLayout
  1
レイアウト1
 70
     1
 71
     1
 10
15.76430453940196
 20
7.785309397034174
 11
409.2301499879368
 21
286.0042664709998
 12
0.0
 22
0.0
 32
0.0
 14
19.97038015850636
 24
11.9914011242746
 34
-0.0015258207003583
 15
405.0240582606964
 25
277.0065309557604
 35
0.0000000349246037
146
0.0
 13
0.0
 23
0.0
 33
0.0
 16
1.0
 26
0.0
 36
0.0
 17
0.0
 27
1.0
 37
0.0
 76
     0
330
3655
331
1403
  0
MATERIAL
  5
3602
102
{ACAD_XDICTIONARY
360
3603
102
}
102
{ACAD_REACTORS
330
35F9
102
}
330
35F9
100
AcDbMaterial
  1
ByBlock
 72
     0
 43
0.0208333333333333
 43
0.0
 43
0.0
 43
0.0
 43
0.0
 43
0.0208333333333333
 43
0.0
 43
0.0
 43
0.0
 43
0.0
 43
1.0
 43
0.0
 43
0.0
 43
0.0
 43
0.0
 43
1.0
 77
     0
 47
0.0208333333333333
 47
0.0
 47
0.0
 47
0.0
 47
0.0
 47
0.0208333333333333
 47
0.0
 47
0.0
 47
0.0
 47
0.0
 47
1.0
 47
0.0
 47
0.0
 47
0.0
 47
0.0
 47
1.0
171
     0
 49
0.0208333333333333
 49
0.0
 49
0.0
 49
0.0
 49
0.0
 49
0.0208333333333333
 49
0.0
 49
0.0
 49
0.0
 49
0.0
 49
1.0
 49
0.0
 49
0.0
 49
0.0
 49
0.0
 49
1.0
175
     0
142
0.0208333333333333
142
0.0
142
0.0
142
0.0
142
0.0
142
0.0208333333333333
142
0.0
142
0.0
142
0.0
142
0.0
142
1.0
142
0.0
142
0.0
142
0.0
142
0.0
142
1.0
179
     0
144
0.0208333333333333
144
0.0
144
0.0
144
0.0
144
0.0
144
0.0208333333333333
144
0.0
144
0.0
144
0.0
144
0.0
144
1.0
144
0.0
144
0.0
144
0.0
144
0.0
144
1.0
147
0.0208333333333333
147
0.0
147
0.0
147
0.0
147
0.0
147
0.0208333333333333
147
0.0
147
0.0
147
0.0
147
0.0
147
1.0
147
0.0
147
0.0
147
0.0
147
0.0
147
1.0
  0
MATERIAL
  5
35FA
102
{ACAD_XDICTIONARY
360
35FB
102
}
102
{ACAD_REACTORS
330
35F9
102
}
330
35F9
100
AcDbMaterial
  1
ByLayer
 72
     0
 43
0.0208333333333333
 43
0.0
 43
0.0
 43
0.0
 43
0.0
 43
0.0208333333333333
 43
0.0
 43
0.0
 43
0.0
 43
0.0
 43
1.0
 43
0.0
 43
0.0
 43
0.0
 43
0.0
 43
1.0
 77
     0
 47
0.0208333333333333
 47
0.0
 47
0.0
 47
0.0
 47
0.0
 47
0.0208333333333333
 47
0.0
 47
0.0
 47
0.0
 47
0.0
 47
1.0
 47
0.0
 47
0.0
 47
0.0
 47
0.0
 47
1.0
171
     0
 49
0.0208333333333333
 49
0.0
 49
0.0
 49
0.0
 49
0.0
 49
0.0208333333333333
 49
0.0
 49
0.0
 49
0.0
 49
0.0
 49
1.0
 49
0.0
 49
0.0
 49
0.0
 49
0.0
 49
1.0
175
     0
142
0.0208333333333333
142
0.0
142
0.0
142
0.0
142
0.0
142
0.0208333333333333
142
0.0
142
0.0
142
0.0
142
0.0
142
1.0
142
0.0
142
0.0
142
0.0
142
0.0
142
1.0
179
     0
144
0.0208333333333333
144
0.0
144
0.0
144
0.0
144
0.0
144
0.0208333333333333
144
0.0
144
0.0
144
0.0
144
0.0
144
1.0
144
0.0
144
0.0
144
0.0
144
0.0
144
1.0
147
0.0208333333333333
147
0.0
147
0.0
147
0.0
147
0.0
147
0.0208333333333333
147
0.0
147
0.0
147
0.0
147
0.0
147
1.0
147
0.0
147
0.0
147
0.0
147
0.0
147
1.0
  0
MATERIAL
  5
360A
102
{ACAD_XDICTIONARY
360
360B
102
}
102
{ACAD_REACTORS
330
35F9
102
}
330
35F9
100
AcDbMaterial
  1
Global
 72
     0
 43
0.0208333333333333
 43
0.0
 43
0.0
 43
0.0
 43
0.0
 43
0.0208333333333333
 43
0.0
 43
0.0
 43
0.0
 43
0.0
 43
1.0
 43
0.0
 43
0.0
 43
0.0
 43
0.0
 43
1.0
 77
     0
 47
0.0208333333333333
 47
0.0
 47
0.0
 47
0.0
 47
0.0
 47
0.0208333333333333
 47
0.0
 47
0.0
 47
0.0
 47
0.0
 47
1.0
 47
0.0
 47
0.0
 47
0.0
 47
0.0
 47
1.0
171
     0
 49
0.0208333333333333
 49
0.0
 49
0.0
 49
0.0
 49
0.0
 49
0.0208333333333333
 49
0.0
 49
0.0
 49
0.0
 49
0.0
 49
1.0
 49
0.0
 49
0.0
 49
0.0
 49
0.0
 49
1.0
175
     0
142
0.0208333333333333
142
0.0
142
0.0
142
0.0
142
0.0
142
0.0208333333333333
142
0.0
142
0.0
142
0.0
142
0.0
142
1.0
142
0.0
142
0.0
142
0.0
142
0.0
142
1.0
179
     0
144
0.0208333333333333
144
0.0
144
0.0
144
0.0
144
0.0
144
0.0208333333333333
144
0.0
144
0.0
144
0.0
144
0.0
144
1.0
144
0.0
144
0.0
144
0.0
144
0.0
144
1.0
147
0.0208333333333333
147
0.0
147
0.0
147
0.0
147
0.0
147
0.0208333333333333
147
0.0
147
0.0
147
0.0
147
0.0
147
1.0
147
0.0
147
0.0
147
0.0
147
0.0
147
1.0
  0
MLEADERSTYLE
  5
364F
102
{ACAD_REACTORS
330
364E
102
}
330
364E
100
AcDbMLeaderStyle
170
     2
171
     1
172
     0
 90
        2
 40
0.0
 41
0.0
173
     1
 91
-1056964608
340
3643
 92
       -2
290
     1
 42
0.09
291
     1
 43
0.36
  3
Standard
 44
0.18
300

342
363E
174
     1
178
     6
175
     1
176
     0
 93
-1056964608
 45
0.18
292
     0
297
     0
 46
0.18
 94
-1056964608
 47
1.0
 49
1.0
140
1.0
293
     1
141
0.0
294
     1
177
     0
142
1.0
295
     0
296
     0
143
0.125
1001
ACAD_MLEADERVER
1070
     2
  0
MLINESTYLE
  5
3648
102
{ACAD_REACTORS
330
3647
102
}
330
3647
100
AcDbMlineStyle
  2
STANDARD
 70
     0
  3

 62
   256
 51
90.0
 52
90.0
 71
     2
 49
0.5
 62
   256
  6
BYLAYER
 49
-0.5
 62
   256
  6
BYLAYER
  0
ACDBPLACEHOLDER
  5
35F8
102
{ACAD_REACTORS
330
35F7
102
}
330
35F7
  0
SCALE
  5
362C
102
{ACAD_REACTORS
330
362B
102
}
330
362B
100
AcDbScale
 70
     0
300
1:1
140
1.0
141
1.0
290
     1
  0
SCALE
  5
362D
102
{ACAD_REACTORS
330
362B
102
}
330
362B
100
AcDbScale
 70
     0
300
1/128" = 1'-0"
140
0.0078125
141
12.0
290
     0
  0
SCALE
  5
362E
102
{ACAD_REACTORS
330
362B
102
}
330
362B
100
AcDbScale
 70
     0
300
1/64" = 1'-0"
140
0.015625
141
12.0
290
     0
  0
SCALE
  5
362F
102
{ACAD_REACTORS
330
362B
102
}
330
362B
100
AcDbScale
 70
     0
300
1/32" = 1'-0"
140
0.03125
141
12.0
290
     0
  0
SCALE
  5
3630
102
{ACAD_REACTORS
330
362B
102
}
330
362B
100
AcDbScale
 70
     0
300
1/16" = 1'-0"
140
0.0625
141
12.0
290
     0
  0
SCALE
  5
3631
102
{ACAD_REACTORS
330
362B
102
}
330
362B
100
AcDbScale
 70
     0
300
3/32" = 1'-0"
140
0.09375
141
12.0
290
     0
  0
SCALE
  5
3632
102
{ACAD_REACTORS
330
362B
102
}
330
362B
100
AcDbScale
 70
     0
300
1/8" = 1'-0"
140
0.125
141
12.0
290
     0
  0
SCALE
  5
3633
102
{ACAD_REACTORS
330
362B
102
}
330
362B
100
AcDbScale
 70
     0
300
3/16" = 1'-0"
140
0.1875
141
12.0
290
     0
  0
SCALE
  5
3634
102
{ACAD_REACTORS
330
362B
102
}
330
362B
100
AcDbScale
 70
     0
300
1/4" = 1'-0"
140
0.25
141
12.0
290
     0
  0
SCALE
  5
3635
102
{ACAD_REACTORS
330
362B
102
}
330
362B
100
AcDbScale
 70
     0
300
3/8" = 1'-0"
140
0.375
141
12.0
290
     0
  0
SCALE
  5
3636
102
{ACAD_REACTORS
330
362B
102
}
330
362B
100
AcDbScale
 70
     0
300
1/2" = 1'-0"
140
0.5
141
12.0
290
     0
  0
SCALE
  5
3637
102
{ACAD_REACTORS
330
362B
102
}
330
362B
100
AcDbScale
 70
     0
300
3/4" = 1'-0"
140
0.75
141
12.0
290
     0
  0
SCALE
  5
3638
102
{ACAD_REACTORS
330
362B
102
}
330
362B
100
AcDbScale
 70
     0
300
1" = 1'-0"
140
1.0
141
12.0
290
     0
  0
SCALE
  5
3639
102
{ACAD_REACTORS
330
362B
102
}
330
362B
100
AcDbScale
 70
     0
300
1-1/2" = 1'-0"
140
1.5
141
12.0
290
     0
  0
SCALE
  5
363A
102
{ACAD_REACTORS
330
362B
102
}
330
362B
100
AcDbScale
 70
     0
300
3" = 1'-0"
140
3.0
141
12.0
290
     0
  0
SCALE
  5
363B
102
{ACAD_REACTORS
330
362B
102
}
330
362B
100
AcDbScale
 70
     0
300
6" = 1'-0"
140
6.0
141
12.0
290
     0
  0
SCALE
  5
363C
102
{ACAD_REACTORS
330
362B
102
}
330
362B
100
AcDbScale
 70
     0
300
1'-0" = 1'-0"
140
12.0
141
12.0
290
     0
  0
ACDBSECTIONVIEWSTYLE
  5
3652
102
{ACAD_REACTORS
330
3650
102
}
330
3650
100
AcDbModelDocViewStyle
 70
     0
  3
Imperial24
290
     0
100
AcDbSectionViewStyle
 70
     0
 71
     0
 90
       78
 71
     1
340
363E
 40
0.24
340
0
340
0
 40
0.24
300
I, O, Q, S, X, Z
 40
0.48
 90
        3
 40
0.18
 90
        1
 71
     2
340
3651
 90
       25
340
3645
 90
       50
 40
0.24
 40
0.0
 40
0.24
 71
     3
340
363E
 40
0.24
 90
        1
 40
0.75
 90
        1
300
%<\AcVar ViewType \f "%tc1">% %<\AcVar ViewSectionStartId>%-%<\AcVar ViewSectionEndId>%\PSCALE %<\AcVar ViewScale \f "%sn">%
 71
     4
300
ANSI31
 40
1.0
 90
        0
290
     0
290
     0
 90
        6
 40
0.0
 40
1.570796326794896
 40
0.2617993877991494
 40
1.308996938995747
 40
-0.2617993877991494
 40
1.832595714594045
  0
TABLESTYLE
  5
364D
102
{ACAD_XDICTIONARY
360
3769
102
}
102
{ACAD_REACTORS
330
364C
102
}
330
364C
100
AcDbTableStyle
  3
Standard
 70
     0
 71
     0
 40
0.06
 41
0.06
280
     0
281
     0
  7
STANDARD
140
0.18
170
     2
 62
     0
 63
     7
283
     0
274
    -2
284
     1
 64
     0
275
    -2
285
     1
 65
     0
276
    -2
286
     1
 66
     0
277
    -2
287
     1
 67
     0
278
    -2
288
     1
 68
     0
279
    -2
289
     1
 69
     0
  7
STANDARD
140
0.25
170
     5
 62
     0
 63
     7
283
     0
274
    -2
284
     1
 64
     0
275
    -2
285
     1
 65
     0
276
    -2
286
     1
 66
     0
277
    -2
287
     1
 67
     0
278
    -2
288
     1
 68
     0
279
    -2
289
     1
 69
     0
  7
STANDARD
140
0.18
170
     5
 62
     0
 63
     7
283
     0
274
    -2
284
     1
 64
     0
275
    -2
285
     1
 65
     0
276
    -2
286
     1
 66
     0
277
    -2
287
     1
 67
     0
278
    -2
288
     1
 68
     0
279
    -2
289
     1
 69
     0
  0
VISUALSTYLE
  5
3618
102
{ACAD_XDICTIONARY
360
37CA
102
}
102
{ACAD_REACTORS
330
3612
102
}
330
3612
100
AcDbVisualStyle
  2

 70
     4
 71
     0
 72
     2
 73
     0
 90
        0
 40
-0.6
 41
-30.0
 62
     5
 63
     7
 74
     1
 91
        4
 64
     7
 65
   257
 75
     1
175
     1
 42
1.0
 92
        0
 66
   257
 43
1.0
 76
     1
 77
     6
 78
     2
 67
     7
 79
     5
170
     0
171
     0
290
     0
174
     0
 93
        1
 44
0.0
173
     0
291
     0
 45
0.0
1001
ACAD
1000
AcDbSavedByObjectVersion
1070
     0
  0
VISUALSTYLE
  5
3617
102
{ACAD_XDICTIONARY
360
37C8
102
}
102
{ACAD_REACTORS
330
3612
102
}
330
3612
100
AcDbVisualStyle
  2

 70
     7
 71
     1
 72
     0
 73
     1
 90
        0
 40
-0.6
 41
-30.0
 62
     5
 63
     7
 74
     0
 91
        4
 64
     7
 65
   257
 75
     1
175
     1
 42
1.0
 92
        8
 66
     7
 43
1.0
 76
     1
 77
     6
 78
     2
 67
     7
 79
     5
170
     0
171
     0
290
     0
174
     0
 93
        1
 44
0.0
173
     0
291
     1
 45
0.0
1001
ACAD
1000
AcDbSavedByObjectVersion
1070
     0
  0
VISUALSTYLE
  5
361E
102
{ACAD_XDICTIONARY
360
37D6
102
}
102
{ACAD_REACTORS
330
3612
102
}
330
3612
100
AcDbVisualStyle
  2

 70
    12
 71
     2
 72
     2
 73
     0
 90
        0
 40
-0.6
 41
-30.0
 62
     5
 63
     7
 74
     1
 91
        4
 64
     7
 65
   257
 75
     1
175
     1
 42
1.0
 92
        8
 66
     7
 43
1.0
 76
     1
 77
     6
 78
     2
 67
     7
 79
     5
170
     0
171
     0
290
     0
174
     0
 93
        1
 44
50.0
173
     0
291
     1
 45
0.0
1001
ACAD
1000
AcDbSavedByObjectVersion
1070
     0
  0
VISUALSTYLE
  5
3622
102
{ACAD_XDICTIONARY
360
37DE
102
}
102
{ACAD_REACTORS
330
3612
102
}
330
3612
100
AcDbVisualStyle
  2

 70
    16
 71
     2
 72
     2
 73
     3
 90
        0
 40
-0.6
 41
-30.0
 62
     5
 63
     8
 74
     1
 91
        4
 64
     7
 65
   257
 75
     1
175
     1
 42
1.0
 92
        8
 66
     8
 43
1.0
 76
     1
 77
     6
 78
     2
 67
     7
 79
     5
170
     0
171
     0
290
     0
174
     0
 93
        1
 44
0.0
173
     0
291
     1
 45
0.0
1001
ACAD
1000
AcDbSavedByObjectVersion
1070
     0
  0
VISUALSTYLE
  5
361B
102
{ACAD_XDICTIONARY
360
37D0
102
}
102
{ACAD_REACTORS
330
3612
102
}
330
3612
100
AcDbVisualStyle
  2

 70
     9
 71
     3
 72
     2
 73
     0
 90
        0
 40
-0.6
 41
-30.0
 62
     5
 63
     7
 74
     2
 91
        2
 64
     7
 65
   257
 75
     1
175
     1
 42
179.0
 92
        8
 66
     7
 43
1.0
 76
     1
 77
     6
 78
     2
 67
     7
 79
     3
170
     0
171
     0
290
     0
174
     0
 93
        1
 44
0.0
173
     0
291
     0
 45
0.0
1001
ACAD
1000
AcDbSavedByObjectVersion
1070
     0
  0
VISUALSTYLE
  5
361D
102
{ACAD_XDICTIONARY
360
37D4
102
}
102
{ACAD_REACTORS
330
3612
102
}
330
3612
100
AcDbVisualStyle
  2

 70
    11
 71
     2
 72
     2
 73
     0
 90
        0
 40
-0.6
 41
-30.0
 62
     5
 63
     7
 74
     1
 91
        4
 64
     7
 65
   257
 75
     1
175
     1
 42
1.0
 92
        8
 66
     7
 43
1.0
 76
     1
 77
     6
 78
     2
 67
     7
 79
     5
170
     0
171
     0
290
     0
174
     0
 93
        1
 44
-50.0
173
     0
291
     1
 45
0.0
1001
ACAD
1000
AcDbSavedByObjectVersion
1070
     0
  0
VISUALSTYLE
  5
362A
102
{ACAD_XDICTIONARY
360
37EE
102
}
102
{ACAD_REACTORS
330
3612
102
}
330
3612
100
AcDbVisualStyle
  2

 70
    22
 71
     2
 72
     2
 73
     0
 90
        0
 40
-0.6
 41
-30.0
 62
     5
 63
     7
 74
     1
 91
        4
 64
     7
 65
   257
 75
     1
175
     1
 42
1.0
 92
        8
 66
     7
 43
1.0
 76
     1
 77
     6
 78
     2
 67
     7
 79
     5
170
     0
171
     0
290
     0
174
     0
 93
        1
 44
0.0
173
     0
291
     1
 45
0.0
1001
ACAD
1000
AcDbSavedByObjectVersion
1070
     0
  0
VISUALSTYLE
  5
3621
102
{ACAD_XDICTIONARY
360
37DC
102
}
102
{ACAD_REACTORS
330
3612
102
}
330
3612
100
AcDbVisualStyle
  2

 70
    15
 71
     2
 72
     2
 73
     0
 90
        0
 40
-0.6
 41
-30.0
 62
     5
 63
     7
 74
     1
 91
        4
 64
     7
 65
   257
 75
     1
175
     1
 42
1.0
 92
        8
 66
     7
 43
1.0
 76
     1
 77
     6
 78
     2
 67
     7
 79
     5
170
     0
171
     0
290
     0
174
     0
 93
        1
 44
0.0
173
     0
291
     1
 45
0.0
1001
ACAD
1000
AcDbSavedByObjectVersion
1070
     0
  0
VISUALSTYLE
  5
3613
102
{ACAD_XDICTIONARY
360
37C0
102
}
102
{ACAD_REACTORS
330
3612
102
}
330
3612
100
AcDbVisualStyle
  2

 70
     0
 71
     2
 72
     1
 73
     1
 90
        2
 40
-0.6
 41
30.0
 62
     5
 63
     7
 74
     0
 91
        0
 64
     7
 65
   257
 75
     1
175
     1
 42
1.0
 92
        8
 66
     7
 43
1.0
 76
     1
 77
     6
 78
     2
 67
     7
 79
     5
170
     0
171
     0
290
     0
174
     0
 93
       13
 44
0.0
173
     0
291
     1
 45
0.0
1001
ACAD
1000
AcDbSavedByObjectVersion
1070
     0
  0
VISUALSTYLE
  5
3614
102
{ACAD_XDICTIONARY
360
37C2
102
}
102
{ACAD_REACTORS
330
3612
102
}
330
3612
100
AcDbVisualStyle
  2

 70
     1
 71
     2
 72
     1
 73
     1
 90
        2
 40
-0.6
 41
30.0
 62
     5
 63
     7
 74
     1
 91
        0
 64
     7
 65
   257
 75
     1
175
     1
 42
1.0
 92
        0
 66
   257
 43
1.0
 76
     1
 77
     6
 78
     2
 67
     7
 79
     5
170
     0
171
     0
290
     0
174
     0
 93
       13
 44
0.0
173
     0
291
     1
 45
0.0
1001
ACAD
1000
AcDbSavedByObjectVersion
1070
     0
  0
VISUALSTYLE
  5
3615
102
{ACAD_XDICTIONARY
360
37C4
102
}
102
{ACAD_REACTORS
330
3612
102
}
330
3612
100
AcDbVisualStyle
  2

 70
     2
 71
     2
 72
     2
 73
     1
 90
        2
 40
-0.6
 41
30.0
 62
     5
 63
     7
 74
     0
 91
        0
 64
     7
 65
   257
 75
     1
175
     1
 42
1.0
 92
        0
 66
     7
 43
1.0
 76
     1
 77
     6
 78
     2
 67
     7
 79
     5
170
     0
171
     0
290
     0
174
     0
 93
       13
 44
0.0
173
     0
291
     1
 45
0.0
1001
ACAD
1000
AcDbSavedByObjectVersion
1070
     0
  0
VISUALSTYLE
  5
3616
102
{ACAD_XDICTIONARY
360
37C6
102
}
102
{ACAD_REACTORS
330
3612
102
}
330
3612
100
AcDbVisualStyle
  2

 70
     3
 71
     2
 72
     2
 73
     1
 90
        2
 40
-0.6
 41
30.0
 62
     5
 63
     7
 74
     1
 91
        0
 64
     7
 65
   257
 75
     1
175
     1
 42
1.0
 92
        0
 66
   257
 43
1.0
 76
     1
 77
     6
 78
     2
 67
     7
 79
     5
170
     0
171
     0
290
     0
174
     0
 93
       13
 44
0.0
173
     0
291
     1
 45
0.0
1001
ACAD
1000
AcDbSavedByObjectVersion
1070
     0
  0
VISUALSTYLE
  5
361A
102
{ACAD_XDICTIONARY
360
37CE
102
}
102
{ACAD_REACTORS
330
3612
102
}
330
3612
100
AcDbVisualStyle
  2

 70
     6
 71
     1
 72
     2
 73
     2
 90
        0
 40
-0.6
 41
-30.0
 62
     5
 63
     7
 74
     2
 91
        2
 64
     7
 65
   257
 75
     2
175
     1
 42
40.0
 92
        0
 66
   257
 43
1.0
 76
     1
 77
     6
 78
     2
 67
     7
 79
     3
170
     0
171
     0
290
     0
174
     0
 93
        1
 44
0.0
173
     0
291
     0
 45
0.0
1001
ACAD
1000
AcDbSavedByObjectVersion
1070
     0
  0
VISUALSTYLE
  5
3628
102
{ACAD_XDICTIONARY
360
37EA
102
}
102
{ACAD_REACTORS
330
3612
102
}
330
3612
100
AcDbVisualStyle
  2

 70
    20
 71
     2
 72
     2
 73
     0
 90
        0
 40
-0.6
 41
-30.0
 62
     5
 63
     7
 74
     1
 91
        4
 64
     7
 65
   257
 75
     1
175
     1
 42
1.0
 92
       10
 66
     7
 43
1.0
 76
     1
 77
     6
 78
     2
 67
     7
 79
     5
170
     0
171
     0
290
     0
174
     0
 93
        1
 44
0.0
173
     0
291
     1
 45
0.0
1001
ACAD
1000
AcDbSavedByObjectVersion
1070
     0
  0
VISUALSTYLE
  5
3620
102
{ACAD_XDICTIONARY
360
37DA
102
}
102
{ACAD_REACTORS
330
3612
102
}
330
3612
100
AcDbVisualStyle
  2

 70
    14
 71
     2
 72
     2
 73
     0
 90
        0
 40
-0.6
 41
-30.0
 62
     5
 63
     7
 74
     1
 91
        4
 64
     7
 65
   257
 75
     7
175
     7
 42
1.0
 92
        8
 66
     7
 43
1.0
 76
     1
 77
     6
 78
     2
 67
     7
 79
     5
170
     0
171
     0
290
     0
174
     0
 93
        1
 44
0.0
173
     0
291
     1
 45
0.0
1001
ACAD
1000
AcDbSavedByObjectVersion
1070
     0
  0
VISUALSTYLE
  5
3629
102
{ACAD_XDICTIONARY
360
37EC
102
}
102
{ACAD_REACTORS
330
3612
102
}
330
3612
100
AcDbVisualStyle
  2

 70
    21
 71
     2
 72
     2
 73
     0
 90
        0
 40
-0.6
 41
-30.0
 62
     5
 63
     7
 74
     1
 91
        4
 64
     7
 65
   257
 75
     1
175
     1
 42
1.0
 92
        9
 66
     7
 43
1.0
 76
     1
 77
     6
 78
     2
 67
     7
 79
     5
170
     0
171
     0
290
     0
174
     0
 93
        1
 44
0.0
173
     0
291
     1
 45
0.0
1001
ACAD
1000
AcDbSavedByObjectVersion
1070
     0
  0
VISUALSTYLE
  5
361C
102
{ACAD_XDICTIONARY
360
37D2
102
}
102
{ACAD_REACTORS
330
3612
102
}
330
3612
100
AcDbVisualStyle
  2

 70
     8
 71
     2
 72
     3
 73
     0
 90
        2
 40
-0.6
 41
30.0
 62
     5
 63
     7
 74
     0
 91
        0
 64
     7
 65
   257
 75
     1
175
     1
 42
1.0
 92
        8
 66
   257
 43
1.0
 76
     1
 77
     6
 78
     2
 67
     7
 79
     3
170
     0
171
     0
290
     0
174
     0
 93
       13
 44
0.0
173
     0
291
     0
 45
0.0
1001
ACAD
1000
AcDbSavedByObjectVersion
1070
     0
  0
VISUALSTYLE
  5
3627
102
{ACAD_XDICTIONARY
360
37E8
102
}
102
{ACAD_REACTORS
330
3612
102
}
330
3612
100
AcDbVisualStyle
  2

 70
    27
 71
     2
 72
     2
 73
     1
 90
        2
 40
-0.6
 41
30.0
 62
     5
 63
     7
 74
     0
 91
        4
 64
     7
 65
   257
 75
     1
175
     1
 42
1.0
 92
        8
 66
   257
 43
1.0
 76
     1
 77
     6
 78
     2
 67
     8
 79
     3
170
     0
171
     0
290
     0
174
     0
 93
        5
 44
0.0
173
     0
291
     0
 45
0.0
1001
ACAD
1000
AcDbSavedByObjectVersion
1070
     0
  0
VISUALSTYLE
  5
3626
102
{ACAD_XDICTIONARY
360
37E6
102
}
102
{ACAD_REACTORS
330
3612
102
}
330
3612
100
AcDbVisualStyle
  2

 70
    26
 71
     2
 72
     2
 73
     1
 90
        2
 40
-0.6
 41
30.0
 62
     5
 63
     7
 74
     1
 91
       10
 64
     7
 65
   257
 75
     2
175
     1
 42
1.0
 92
        8
 66
   257
 43
1.0
 76
     1
 77
     6
 78
     2
 67
     7
 79
     3
170
     0
171
     0
290
     0
174
     0
 93
        5
 44
0.0
173
     0
291
     0
 45
0.0
1001
ACAD
1000
AcDbSavedByObjectVersion
1070
     0
  0
VISUALSTYLE
  5
3623
102
{ACAD_XDICTIONARY
360
37E0
102
}
102
{ACAD_REACTORS
330
3612
102
}
330
3612
100
AcDbVisualStyle
  2

 70
    23
 71
     2
 72
     2
 73
     3
 90
        0
 40
-0.6
 41
-30.0
 62
     5
 63
     7
 74
     2
 91
        2
 64
     7
 65
     7
 75
     1
175
     1
 42
40.0
 92
        8
 66
     7
 43
1.0
 76
     1
 77
     6
 78
     2
 67
     7
 79
     3
170
     0
171
     0
290
     0
174
     0
 93
        1
 44
0.0
173
     0
291
     0
 45
0.0
1001
ACAD
1000
AcDbSavedByObjectVersion
1070
     0
  0
VISUALSTYLE
  5
3624
102
{ACAD_XDICTIONARY
360
37E2
102
}
102
{ACAD_REACTORS
330
3612
102
}
330
3612
100
AcDbVisualStyle
  2

 70
    24
 71
     1
 72
     2
 73
     2
 90
        0
 40
-0.6
 41
-30.0
 62
     5
 63
     7
 74
     2
 91
        2
 64
     7
 65
     7
 75
     1
175
     1
 42
40.0
 92
       11
 66
     7
 43
1.0
 76
     1
 77
     6
 78
     2
 67
     7
 79
     6
170
     0
171
     0
290
     0
174
     0
 93
        1
 44
0.0
173
     0
291
     0
 45
0.0
1001
ACAD
1000
AcDbSavedByObjectVersion
1070
     0
  0
VISUALSTYLE
  5
361F
102
{ACAD_XDICTIONARY
360
37D8
102
}
102
{ACAD_REACTORS
330
3612
102
}
330
3612
100
AcDbVisualStyle
  2

 70
    13
 71
     2
 72
     2
 73
     0
 90
        0
 40
-0.6
 41
-30.0
 62
     5
 63
     7
 74
     1
 91
        4
 64
     7
 65
   257
 75
     1
175
     1
 42
1.0
 92
       12
 66
     7
 43
1.0
 76
     1
 77
     6
 78
     2
 67
     7
 79
     5
170
     0
171
     0
290
     0
174
     0
 93
        1
 44
0.0
173
     0
291
     1
 45
0.0
1001
ACAD
1000
AcDbSavedByObjectVersion
1070
     0
  0
VISUALSTYLE
  5
3619
102
{ACAD_XDICTIONARY
360
37CC
102
}
102
{ACAD_REACTORS
330
3612
102
}
330
3612
100
AcDbVisualStyle
  2

 70
     5
 71
     0
 72
     2
 73
     0
 90
        0
 40
-0.6
 41
-30.0
 62
     5
 63
     7
 74
     1
 91
        4
 64
     7
 65
   257
 75
     1
175
     1
 42
1.0
 92
        0
 66
   257
 43
1.0
 76
     1
 77
     6
 78
     2
 67
     7
 79
     3
170
     0
171
     0
290
     0
174
     0
 93
        1
 44
0.0
173
     0
291
     0
 45
0.0
1001
ACAD
1000
AcDbSavedByObjectVersion
1070
     0
  0
VISUALSTYLE
  5
3625
102
{ACAD_XDICTIONARY
360
37E4
102
}
102
{ACAD_REACTORS
330
3612
102
}
330
3612
100
AcDbVisualStyle
  2

 70
    25
 71
     2
 72
     2
 73
     1
 90
        1
 40
0.5
 41
-30.0
 62
     5
 63
     7
 74
     1
 91
        0
 64
     7
 65
   257
 75
     1
175
     1
 42
1.0
 92
        8
 66
     7
 43
1.0
 76
     1
 77
     6
 78
     2
 67
     7
 79
     3
170
     0
171
     0
290
     0
174
     0
 93
       13
 44
0.0
173
     0
291
     0
 45
0.0
1001
ACAD
1000
AcDbSavedByObjectVersion
1070
     0
  0
DICTIONARYVAR
  5
3722
102
{ACAD_REACTORS
330
371D
102
}
330
371D
100
DictionaryVariables
280
     0
  1
1:1
  0
DICTIONARYVAR
  5
371F
102
{ACAD_REACTORS
330
371D
102
}
330
371D
100
DictionaryVariables
280
     0
  1
STANDARD
  0
DICTIONARYVAR
  5
371E
102
{ACAD_REACTORS
330
371D
102
}
330
371D
100
DictionaryVariables
280
     0
  1
STANDARD
  0
DICTIONARYVAR
  5
3720
102
{ACAD_REACTORS
330
371D
102
}
330
371D
100
DictionaryVariables
280
     0
  1
Imperial24
  0
DICTIONARYVAR
  5
3721
102
{ACAD_REACTORS
330
371D
102
}
330
371D
100
DictionaryVariables
280
     0
  1
Imperial24
  0
DICTIONARYVAR
  5
3725
102
{ACAD_REACTORS
330
371D
102
}
330
371D
100
DictionaryVariables
280
     0
  1
1
  0
DICTIONARYVAR
  5
3724
102
{ACAD_REACTORS
330
371D
102
}
330
371D
100
DictionaryVariables
280
     0
  1
0
  0
DICTIONARYVAR
  5
3723
102
{ACAD_REACTORS
330
371D
102
}
330
371D
100
DictionaryVariables
280
     0
  1
127
  0
DICTIONARYVAR
  5
37B6
102
{ACAD_REACTORS
330
371D
102
}
330
371D
100
DictionaryVariables
280
     0
  1
2
  0
DICTIONARY
  5
37F3
330
365C
100
AcDbDictionary
280
     1
281
     1
  3
ACAD_XREC_ROUNDTRIP
360
37F4
  0
DICTIONARY
  5
37F1
330
3658
100
AcDbDictionary
280
     1
281
     1
  3
ACAD_XREC_ROUNDTRIP
360
37F2
  0
DICTIONARY
  5
3603
330
3602
100
AcDbDictionary
280
     1
281
     1
  3
ACAD_XREC_ROUNDTRIP
360
3774
  3
BUMPTILE
360
3605
  3
DIFFUSETILE
360
3604
  3
OPACITYTILE
360
3608
  3
REFLECTIONTILE
360
3607
  3
REFRACTIONTILE
360
3609
  3
SPECULARTILE
360
3606
  0
DICTIONARY
  5
35FB
330
35FA
100
AcDbDictionary
280
     1
281
     1
  3
ACAD_XREC_ROUNDTRIP
360
3773
  3
BUMPTILE
360
35FD
  3
DIFFUSETILE
360
35FC
  3
OPACITYTILE
360
3600
  3
REFLECTIONTILE
360
35FF
  3
REFRACTIONTILE
360
3601
  3
SPECULARTILE
360
35FE
  0
DICTIONARY
  5
360B
330
360A
100
AcDbDictionary
280
     1
281
     1
  3
ACAD_XREC_ROUNDTRIP
360
3775
  3
BUMPTILE
360
360D
  3
DIFFUSETILE
360
360C
  3
OPACITYTILE
360
3610
  3
REFLECTIONTILE
360
360F
  3
REFRACTIONTILE
360
3611
  3
SPECULARTILE
360
360E
  0
DICTIONARY
  5
3769
330
364D
100
AcDbDictionary
280
     1
281
     1
  3
ACAD_ROUNDTRIP_2008_TABLESTYLE_CELLSTYLEMAP
360
37B7
  3
ACAD_XREC_ROUNDTRIP
360
37F0
  0
DICTIONARY
  5
37CA
330
3618
100
AcDbDictionary
280
     1
281
     1
  3
ACAD_XREC_ROUNDTRIP
360
37CB
  0
DICTIONARY
  5
37C8
330
3617
100
AcDbDictionary
280
     1
281
     1
  3
ACAD_XREC_ROUNDTRIP
360
37C9
  0
DICTIONARY
  5
37D6
330
361E
100
AcDbDictionary
280
     1
281
     1
  3
ACAD_XREC_ROUNDTRIP
360
37D7
  0
DICTIONARY
  5
37DE
330
3622
100
AcDbDictionary
280
     1
281
     1
  3
ACAD_XREC_ROUNDTRIP
360
37DF
  0
DICTIONARY
  5
37D0
330
361B
100
AcDbDictionary
280
     1
281
     1
  3
ACAD_XREC_ROUNDTRIP
360
37D1
  0
DICTIONARY
  5
37D4
330
361D
100
AcDbDictionary
280
     1
281
     1
  3
ACAD_XREC_ROUNDTRIP
360
37D5
  0
DICTIONARY
  5
37EE
330
362A
100
AcDbDictionary
280
     1
281
     1
  3
ACAD_XREC_ROUNDTRIP
360
37EF
  0
DICTIONARY
  5
37DC
330
3621
100
AcDbDictionary
280
     1
281
     1
  3
ACAD_XREC_ROUNDTRIP
360
37DD
  0
DICTIONARY
  5
37C0
330
3613
100
AcDbDictionary
280
     1
281
     1
  3
ACAD_XREC_ROUNDTRIP
360
37C1
  0
DICTIONARY
  5
37C2
330
3614
100
AcDbDictionary
280
     1
281
     1
  3
ACAD_XREC_ROUNDTRIP
360
37C3
  0
DICTIONARY
  5
37C4
330
3615
100
AcDbDictionary
280
     1
281
     1
  3
ACAD_XREC_ROUNDTRIP
360
37C5
  0
DICTIONARY
  5
37C6
330
3616
100
AcDbDictionary
280
     1
281
     1
  3
ACAD_XREC_ROUNDTRIP
360
37C7
  0
DICTIONARY
  5
37CE
330
361A
100
AcDbDictionary
280
     1
281
     1
  3
ACAD_XREC_ROUNDTRIP
360
37CF
  0
DICTIONARY
  5
37EA
330
3628
100
AcDbDictionary
280
     1
281
     1
  3
ACAD_XREC_ROUNDTRIP
360
37EB
  0
DICTIONARY
  5
37DA
330
3620
100
AcDbDictionary
280
     1
281
     1
  3
ACAD_XREC_ROUNDTRIP
360
37DB
  0
DICTIONARY
  5
37EC
330
3629
100
AcDbDictionary
280
     1
281
     1
  3
ACAD_XREC_ROUNDTRIP
360
37ED
  0
DICTIONARY
  5
37D2
330
361C
100
AcDbDictionary
280
     1
281
     1
  3
ACAD_XREC_ROUNDTRIP
360
37D3
  0
DICTIONARY
  5
37E8
330
3627
100
AcDbDictionary
280
     1
281
     1
  3
ACAD_XREC_ROUNDTRIP
360
37E9
  0
DICTIONARY
  5
37E6
330
3626
100
AcDbDictionary
280
     1
281
     1
  3
ACAD_XREC_ROUNDTRIP
360
37E7
  0
DICTIONARY
  5
37E0
330
3623
100
AcDbDictionary
280
     1
281
     1
  3
ACAD_XREC_ROUNDTRIP
360
37E1
  0
DICTIONARY
  5
37E2
330
3624
100
AcDbDictionary
280
     1
281
     1
  3
ACAD_XREC_ROUNDTRIP
360
37E3
  0
DICTIONARY
  5
37D8
330
361F
100
AcDbDictionary
280
     1
281
     1
  3
ACAD_XREC_ROUNDTRIP
360
37D9
  0
DICTIONARY
  5
37CC
330
3619
100
AcDbDictionary
280
     1
281
     1
  3
ACAD_XREC_ROUNDTRIP
360
37CD
  0
DICTIONARY
  5
37E4
330
3625
100
AcDbDictionary
280
     1
281
     1
  3
ACAD_XREC_ROUNDTRIP
360
37E5
  0
XRECORD
  5
37F4
102
{ACAD_REACTORS
330
37F3
102
}
330
37F3
100
AcDbXrecord
280
     1
102
SHADEPLOT
 70
     0
102
SHADEPLOTRESLEVEL
 70
     2
102
SHADEPLOTCUSTOMDPI
 70
   300
  0
XRECORD
  5
37F2
102
{ACAD_REACTORS
330
37F1
102
}
330
37F1
100
AcDbXrecord
280
     1
102
SHADEPLOT
 70
     0
102
SHADEPLOTRESLEVEL
 70
     2
102
SHADEPLOTCUSTOMDPI
 70
   300
  0
XRECORD
  5
3774
102
{ACAD_REACTORS
330
3603
102
}
330
3603
100
AcDbXrecord
280
     1
102
MATERIAL
148
0.0
149
0.0
149
0.0
 93
        0
 94
      127
282
     0
 72
     0
 77
     0
171
     0
175
     0
179
     0
273
     0
  0
XRECORD
  5
3605
102
{ACAD_REACTORS
330
3603
102
}
330
3603
100
AcDbXrecord
280
     1
270
     1
271
     1
  0
XRECORD
  5
3604
102
{ACAD_REACTORS
330
3603
102
}
330
3603
100
AcDbXrecord
280
     1
270
     1
271
     1
  0
XRECORD
  5
3608
102
{ACAD_REACTORS
330
3603
102
}
330
3603
100
AcDbXrecord
280
     1
270
     1
271
     1
  0
XRECORD
  5
3607
102
{ACAD_REACTORS
330
3603
102
}
330
3603
100
AcDbXrecord
280
     1
270
     1
271
     1
  0
XRECORD
  5
3609
102
{ACAD_REACTORS
330
3603
102
}
330
3603
100
AcDbXrecord
280
     1
270
     1
271
     1
  0
XRECORD
  5
3606
102
{ACAD_REACTORS
330
3603
102
}
330
3603
100
AcDbXrecord
280
     1
270
     1
271
     1
  0
XRECORD
  5
3773
102
{ACAD_REACTORS
330
35FB
102
}
330
35FB
100
AcDbXrecord
280
     1
102
MATERIAL
148
0.0
149
0.0
149
0.0
 93
        0
 94
      127
282
     0
 72
     0
 77
     0
171
     0
175
     0
179
     0
273
     0
  0
XRECORD
  5
35FD
102
{ACAD_REACTORS
330
35FB
102
}
330
35FB
100
AcDbXrecord
280
     1
270
     1
271
     1
  0
XRECORD
  5
35FC
102
{ACAD_REACTORS
330
35FB
102
}
330
35FB
100
AcDbXrecord
280
     1
270
     1
271
     1
  0
XRECORD
  5
3600
102
{ACAD_REACTORS
330
35FB
102
}
330
35FB
100
AcDbXrecord
280
     1
270
     1
271
     1
  0
XRECORD
  5
35FF
102
{ACAD_REACTORS
330
35FB
102
}
330
35FB
100
AcDbXrecord
280
     1
270
     1
271
     1
  0
XRECORD
  5
3601
102
{ACAD_REACTORS
330
35FB
102
}
330
35FB
100
AcDbXrecord
280
     1
270
     1
271
     1
  0
XRECORD
  5
35FE
102
{ACAD_REACTORS
330
35FB
102
}
330
35FB
100
AcDbXrecord
280
     1
270
     1
271
     1
  0
XRECORD
  5
3775
102
{ACAD_REACTORS
330
360B
102
}
330
360B
100
AcDbXrecord
280
     1
102
MATERIAL
148
0.0
149
0.0
149
0.0
 93
        0
 94
      127
282
     0
 72
     0
 77
     0
171
     0
175
     0
179
     0
273
     0
  0
XRECORD
  5
360D
102
{ACAD_REACTORS
330
360B
102
}
330
360B
100
AcDbXrecord
280
     1
270
     1
271
     1
  0
XRECORD
  5
360C
102
{ACAD_REACTORS
330
360B
102
}
330
360B
100
AcDbXrecord
280
     1
270
     1
271
     1
  0
XRECORD
  5
3610
102
{ACAD_REACTORS
330
360B
102
}
330
360B
100
AcDbXrecord
280
     1
270
     1
271
     1
  0
XRECORD
  5
360F
102
{ACAD_REACTORS
330
360B
102
}
330
360B
100
AcDbXrecord
280
     1
270
     1
271
     1
  0
XRECORD
  5
3611
102
{ACAD_REACTORS
330
360B
102
}
330
360B
100
AcDbXrecord
280
     1
270
     1
271
     1
  0
XRECORD
  5
360E
102
{ACAD_REACTORS
330
360B
102
}
330
360B
100
AcDbXrecord
280
     1
270
     1
271
     1
  0
CELLSTYLEMAP
  5
37B7
102
{ACAD_REACTORS
330
3769
102
}
330
3769
100
AcDbCellStyleMap
 90
        3
300
CELLSTYLE
  1
TABLEFORMAT_BEGIN
 90
        5
170
     1
 91
        0
 92
    32768
 62
   257
 93
        1
300
CONTENTFORMAT
  1
CONTENTFORMAT_BEGIN
 90
        0
 91
        0
 92
      512
 93
        0
300

 40
0.0
140
1.0
 94
        5
 62
     0
340
363E
144
0.25
309
CONTENTFORMAT_END
171
     1
301
MARGIN
  1
CELLMARGIN_BEGIN
 40
0.06
 40
0.06
 40
0.06
 40
0.06
 40
0.18
 40
0.18
309
CELLMARGIN_END
 94
        6
 95
        1
302
GRIDFORMAT
  1
GRIDFORMAT_BEGIN
 90
        0
 91
        1
 62
     0
 92
       -2
340
0
 93
        0
 40
0.045
309
GRIDFORMAT_END
 95
        2
302
GRIDFORMAT
  1
GRIDFORMAT_BEGIN
 90
        0
 91
        1
 62
     0
 92
       -2
340
0
 93
        0
 40
0.045
309
GRIDFORMAT_END
 95
        4
302
GRIDFORMAT
  1
GRIDFORMAT_BEGIN
 90
        0
 91
        1
 62
     0
 92
       -2
340
0
 93
        0
 40
0.045
309
GRIDFORMAT_END
 95
        8
302
GRIDFORMAT
  1
GRIDFORMAT_BEGIN
 90
        0
 91
        1
 62
     0
 92
       -2
340
0
 93
        0
 40
0.045
309
GRIDFORMAT_END
 95
       16
302
GRIDFORMAT
  1
GRIDFORMAT_BEGIN
 90
        0
 91
        1
 62
     0
 92
       -2
340
0
 93
        0
 40
0.045
309
GRIDFORMAT_END
 95
       32
302
GRIDFORMAT
  1
GRIDFORMAT_BEGIN
 90
        0
 91
        1
 62
     0
 92
       -2
340
0
 93
        0
 40
0.045
309
GRIDFORMAT_END
309
TABLEFORMAT_END
  1
CELLSTYLE_BEGIN
 90
        1
 91
        1
300
_TITLE
309
CELLSTYLE_END
300
CELLSTYLE
  1
TABLEFORMAT_BEGIN
 90
        5
170
     1
 91
        0
 92
        0
 62
   257
 93
        1
300
CONTENTFORMAT
  1
CONTENTFORMAT_BEGIN
 90
        0
 91
        0
 92
      512
 93
        0
300

 40
0.0
140
1.0
 94
        5
 62
     0
340
363E
144
0.18
309
CONTENTFORMAT_END
171
     1
301
MARGIN
  1
CELLMARGIN_BEGIN
 40
0.06
 40
0.06
 40
0.06
 40
0.06
 40
0.18
 40
0.18
309
CELLMARGIN_END
 94
        6
 95
        1
302
GRIDFORMAT
  1
GRIDFORMAT_BEGIN
 90
        0
 91
        1
 62
     0
 92
       -2
340
0
 93
        0
 40
0.045
309
GRIDFORMAT_END
 95
        2
302
GRIDFORMAT
  1
GRIDFORMAT_BEGIN
 90
        0
 91
        1
 62
     0
 92
       -2
340
0
 93
        0
 40
0.045
309
GRIDFORMAT_END
 95
        4
302
GRIDFORMAT
  1
GRIDFORMAT_BEGIN
 90
        0
 91
        1
 62
     0
 92
       -2
340
0
 93
        0
 40
0.045
309
GRIDFORMAT_END
 95
        8
302
GRIDFORMAT
  1
GRIDFORMAT_BEGIN
 90
        0
 91
        1
 62
     0
 92
       -2
340
0
 93
        0
 40
0.045
309
GRIDFORMAT_END
 95
       16
302
GRIDFORMAT
  1
GRIDFORMAT_BEGIN
 90
        0
 91
        1
 62
     0
 92
       -2
340
0
 93
        0
 40
0.045
309
GRIDFORMAT_END
 95
       32
302
GRIDFORMAT
  1
GRIDFORMAT_BEGIN
 90
        0
 91
        1
 62
     0
 92
       -2
340
0
 93
        0
 40
0.045
309
GRIDFORMAT_END
309
TABLEFORMAT_END
  1
CELLSTYLE_BEGIN
 90
        2
 91
        1
300
_HEADER
309
CELLSTYLE_END
300
CELLSTYLE
  1
TABLEFORMAT_BEGIN
 90
        5
170
     1
 91
        0
 92
        0
 62
   257
 93
        1
300
CONTENTFORMAT
  1
CONTENTFORMAT_BEGIN
 90
        0
 91
        0
 92
      512
 93
        0
300

 40
0.0
140
1.0
 94
        2
 62
     0
340
363E
144
0.18
309
CONTENTFORMAT_END
171
     1
301
MARGIN
  1
CELLMARGIN_BEGIN
 40
0.06
 40
0.06
 40
0.06
 40
0.06
 40
0.18
 40
0.18
309
CELLMARGIN_END
 94
        6
 95
        1
302
GRIDFORMAT
  1
GRIDFORMAT_BEGIN
 90
        0
 91
        1
 62
     0
 92
       -2
340
0
 93
        0
 40
0.045
309
GRIDFORMAT_END
 95
        2
302
GRIDFORMAT
  1
GRIDFORMAT_BEGIN
 90
        0
 91
        1
 62
     0
 92
       -2
340
0
 93
        0
 40
0.045
309
GRIDFORMAT_END
 95
        4
302
GRIDFORMAT
  1
GRIDFORMAT_BEGIN
 90
        0
 91
        1
 62
     0
 92
       -2
340
0
 93
        0
 40
0.045
309
GRIDFORMAT_END
 95
        8
302
GRIDFORMAT
  1
GRIDFORMAT_BEGIN
 90
        0
 91
        1
 62
     0
 92
       -2
340
0
 93
        0
 40
0.045
309
GRIDFORMAT_END
 95
       16
302
GRIDFORMAT
  1
GRIDFORMAT_BEGIN
 90
        0
 91
        1
 62
     0
 92
       -2
340
0
 93
        0
 40
0.045
309
GRIDFORMAT_END
 95
       32
302
GRIDFORMAT
  1
GRIDFORMAT_BEGIN
 90
        0
 91
        1
 62
     0
 92
       -2
340
0
 93
        0
 40
0.045
309
GRIDFORMAT_END
309
TABLEFORMAT_END
  1
CELLSTYLE_BEGIN
 90
        3
 91
        2
300
_DATA
309
CELLSTYLE_END
  0
XRECORD
  5
37F0
102
{ACAD_REACTORS
330
3769
102
}
330
3769
100
AcDbXrecord
280
     1
102
ACAD_ROUNDTRIP_PRE2007_TABLESTYLE
 90
      512
 91
        0
  1

 92
      512
 93
        0
  2

 94
      512
 95
        0
  3

  0
XRECORD
  5
37CB
102
{ACAD_REACTORS
330
37CA
102
}
330
37CA
100
AcDbXrecord
280
     1
102
RTVSPost2010Prop28
280
     1
102
RTVSPost2010PropOp28
 70
     1
102
RTVSPost2010Prop29
280
     1
102
RTVSPost2010PropOp29
 70
     1
102
RTVSPost2010Prop30
280
     0
102
RTVSPost2010PropOp30
 70
     1
102
RTVSPost2010Prop31
280
     0
102
RTVSPost2010PropOp31
 70
     1
102
RTVSPost2010Prop32
280
     0
102
RTVSPost2010PropOp32
 70
     1
102
RTVSPost2010Prop33
280
     0
102
RTVSPost2010PropOp33
 70
     1
102
RTVSPost2010Prop34
280
     0
102
RTVSPost2010PropOp34
 70
     1
102
RTVSPost2010Prop35
280
     0
102
RTVSPost2010PropOp35
 70
     1
102
RTVSPost2010Prop36
280
     0
102
RTVSPost2010PropOp36
 70
     1
102
RTVSPost2010Prop37
 90
       50
102
RTVSPost2010PropOp37
 70
     1
102
RTVSPost2010Prop38
140
0.0
102
RTVSPost2010PropOp38
 70
     1
102
RTVSPost2010Prop39
140
1.0
102
RTVSPost2010PropOp39
 70
     1
102
RTVSPost2010Prop40
 90
        0
102
RTVSPost2010PropOp40
 70
     1
102
RTVSPost2010Prop41ColorIndex
 90
       18
102
RTVSPost2010Prop41ColorRGB
 90
        0
102
RTVSPost2010PropOp41
 70
     1
102
RTVSPost2010Prop42
 90
       50
102
RTVSPost2010PropOp42
 70
     1
102
RTVSPost2010Prop43
 90
        3
102
RTVSPost2010PropOp43
 70
     1
102
RTVSPost2010Prop44ColorIndex
 90
        5
102
RTVSPost2010Prop44ColorRGB
 90
      255
102
RTVSPost2010PropOp44
 70
     1
102
RTVSPost2010Prop45
280
     0
102
RTVSPost2010PropOp45
 70
     1
102
RTVSPost2010Prop46
 90
       50
102
RTVSPost2010PropOp46
 70
     1
102
RTVSPost2010Prop47
 90
       50
102
RTVSPost2010PropOp47
 70
     1
102
RTVSPost2010Prop48
 90
       50
102
RTVSPost2010PropOp48
 70
     1
102
RTVSPost2010Prop49
280
     0
102
RTVSPost2010PropOp49
 70
     1
102
RTVSPost2010Prop50
 90
       50
102
RTVSPost2010PropOp50
 70
     1
102
RTVSPost2010Prop51ColorIndex
 90
      256
102
RTVSPost2010Prop51ColorRGB
 90
-16777216
102
RTVSPost2010PropOp51
 70
     0
102
RTVSPost2010Prop52
140
1.0
102
RTVSPost2010PropOp52
 70
     0
102
RTVSPost2010Prop53
 90
        2
102
RTVSPost2010PropOp53
 70
     1
102
RTVSPost2010Prop54
  1
strokes_ogs.tif
102
RTVSPost2010PropOp54
 70
     1
102
RTVSPost2010Prop55
280
     0
102
RTVSPost2010PropOp55
 70
     1
102
RTVSPost2010Prop56
140
1.0
102
RTVSPost2010PropOp56
 70
     1
102
RTVSPost2010Prop57
140
1.0
102
RTVSPost2010PropOp57
 70
     1
102
RTVSPropertyOp0
 70
     1
102
RTVSPropertyOp1
 70
     1
102
RTVSPropertyOp2
 70
     1
102
RTVSPropertyOp3
 70
     1
102
RTVSPropertyOp4
 70
     1
102
RTVSPropertyOp5
 70
     1
102
RTVSPropertyOp6
 70
     1
102
RTVSPropertyOp7
 70
     1
102
RTVSPropertyOp8
 70
     1
102
RTVSPropertyOp9
 70
     1
102
RTVSPropertyOp10
 70
     1
102
RTVSPropertyOp11
 70
     1
102
RTVSPropertyOp12
 70
     1
102
RTVSPropertyOp13
 70
     1
102
RTVSPropertyOp14
 70
     1
102
RTVSPropertyOp15
 70
     1
102
RTVSPropertyOp16
 70
     1
102
RTVSPropertyOp17
 70
     1
102
RTVSPropertyOp18
 70
     1
102
RTVSPropertyOp19
 70
     1
102
RTVSPropertyOp20
 70
     1
102
RTVSPropertyOp21
 70
     1
102
RTVSPropertyOp22
 70
     1
102
RTVSPropertyOp23
 70
     1
102
RTVSPropertyOp24
 70
     1
102
RTVSPropertyOp25
 70
     1
102
RTVSPropertyOp26
 70
     1
102
RTVSPropertyOp27
 70
     1
102
RTVSPropertyOp28
 70
     1
102
RTVSPropertyOp29
 70
     1
102
RTVSPropertyOp30
 70
     1
102
RTVSPropertyOp31
 70
     1
102
RTVSPropertyOp32
 70
     1
102
RTVSPropertyOp33
 70
     1
102
RTVSPropertyOp34
 70
     1
102
RTVSPropertyOp35
 70
     1
102
RTVSPropertyOp36
 70
     1
102
RTVSPropertyOp37
 70
     1
102
RTVSPropertyOp38
 70
     1
102
RTVSPropertyOp39
 70
     1
102
RTVSPropertyOp40
 70
     1
102
RTVSPropertyOp41
 70
     1
102
RTVSPropertyOp42
 70
     1
102
RTVSPropertyOp43
 70
     1
102
RTVSPropertyOp44
 70
     1
102
RTVSPropertyOp45
 70
     1
102
RTVSPropertyOp46
 70
     1
102
RTVSPropertyOp47
 70
     1
102
RTVSPropertyOp48
 70
     1
102
RTVSPropertyOp49
 70
     1
102
RTVSPropertyOp50
 70
     1
102
RTVSPropertyOp51
 70
     0
102
RTVSPropertyOp52
 70
     0
102
RTVSPropertyOp53
 70
     1
102
RTVSPropertyOp54
 70
     1
102
RTVSPropertyOp55
 70
     1
102
RTVSPropertyOp56
 70
     1
102
RTVSPropertyOp57
 70
     1
102
RTVSPropertyOp58
 70
     1
102
RTVSPropertyOp59
 70
     1
102
RTVSPropertyOp60
 70
     1
102
RTVSPropertyOp61
 70
     1
102
RTVSPropertyOp62
 70
     1
  0
XRECORD
  5
37C9
102
{ACAD_REACTORS
330
37C8
102
}
330
37C8
100
AcDbXrecord
280
     1
102
RTVSPost2010Prop28
280
     0
102
RTVSPost2010PropOp28
 70
     1
102
RTVSPost2010Prop29
280
     1
102
RTVSPost2010PropOp29
 70
     1
102
RTVSPost2010Prop30
280
     1
102
RTVSPost2010PropOp30
 70
     1
102
RTVSPost2010Prop31
280
     0
102
RTVSPost2010PropOp31
 70
     1
102
RTVSPost2010Prop32
280
     0
102
RTVSPost2010PropOp32
 70
     1
102
RTVSPost2010Prop33
280
     0
102
RTVSPost2010PropOp33
 70
     1
102
RTVSPost2010Prop34
280
     0
102
RTVSPost2010PropOp34
 70
     1
102
RTVSPost2010Prop35
280
     0
102
RTVSPost2010PropOp35
 70
     1
102
RTVSPost2010Prop36
280
     0
102
RTVSPost2010PropOp36
 70
     1
102
RTVSPost2010Prop37
 90
       50
102
RTVSPost2010PropOp37
 70
     1
102
RTVSPost2010Prop38
140
0.0
102
RTVSPost2010PropOp38
 70
     1
102
RTVSPost2010Prop39
140
1.0
102
RTVSPost2010PropOp39
 70
     1
102
RTVSPost2010Prop40
 90
        0
102
RTVSPost2010PropOp40
 70
     1
102
RTVSPost2010Prop41ColorIndex
 90
       18
102
RTVSPost2010Prop41ColorRGB
 90
        0
102
RTVSPost2010PropOp41
 70
     1
102
RTVSPost2010Prop42
 90
       50
102
RTVSPost2010PropOp42
 70
     1
102
RTVSPost2010Prop43
 90
        3
102
RTVSPost2010PropOp43
 70
     1
102
RTVSPost2010Prop44ColorIndex
 90
        5
102
RTVSPost2010Prop44ColorRGB
 90
      255
102
RTVSPost2010PropOp44
 70
     1
102
RTVSPost2010Prop45
280
     0
102
RTVSPost2010PropOp45
 70
     1
102
RTVSPost2010Prop46
 90
       50
102
RTVSPost2010PropOp46
 70
     1
102
RTVSPost2010Prop47
 90
       50
102
RTVSPost2010PropOp47
 70
     1
102
RTVSPost2010Prop48
 90
       50
102
RTVSPost2010PropOp48
 70
     1
102
RTVSPost2010Prop49
280
     0
102
RTVSPost2010PropOp49
 70
     1
102
RTVSPost2010Prop50
 90
       50
102
RTVSPost2010PropOp50
 70
     1
102
RTVSPost2010Prop51ColorIndex
 90
      256
102
RTVSPost2010Prop51ColorRGB
 90
-16777216
102
RTVSPost2010PropOp51
 70
     0
102
RTVSPost2010Prop52
140
1.0
102
RTVSPost2010PropOp52
 70
     0
102
RTVSPost2010Prop53
 90
        2
102
RTVSPost2010PropOp53
 70
     1
102
RTVSPost2010Prop54
  1
strokes_ogs.tif
102
RTVSPost2010PropOp54
 70
     1
102
RTVSPost2010Prop55
280
     0
102
RTVSPost2010PropOp55
 70
     1
102
RTVSPost2010Prop56
140
1.0
102
RTVSPost2010PropOp56
 70
     1
102
RTVSPost2010Prop57
140
1.0
102
RTVSPost2010PropOp57
 70
     1
102
RTVSPropertyOp0
 70
     1
102
RTVSPropertyOp1
 70
     1
102
RTVSPropertyOp2
 70
     1
102
RTVSPropertyOp3
 70
     1
102
RTVSPropertyOp4
 70
     1
102
RTVSPropertyOp5
 70
     1
102
RTVSPropertyOp6
 70
     1
102
RTVSPropertyOp7
 70
     1
102
RTVSPropertyOp8
 70
     1
102
RTVSPropertyOp9
 70
     1
102
RTVSPropertyOp10
 70
     1
102
RTVSPropertyOp11
 70
     1
102
RTVSPropertyOp12
 70
     1
102
RTVSPropertyOp13
 70
     1
102
RTVSPropertyOp14
 70
     1
102
RTVSPropertyOp15
 70
     1
102
RTVSPropertyOp16
 70
     1
102
RTVSPropertyOp17
 70
     1
102
RTVSPropertyOp18
 70
     1
102
RTVSPropertyOp19
 70
     1
102
RTVSPropertyOp20
 70
     1
102
RTVSPropertyOp21
 70
     1
102
RTVSPropertyOp22
 70
     1
102
RTVSPropertyOp23
 70
     1
102
RTVSPropertyOp24
 70
     1
102
RTVSPropertyOp25
 70
     1
102
RTVSPropertyOp26
 70
     1
102
RTVSPropertyOp27
 70
     1
102
RTVSPropertyOp28
 70
     1
102
RTVSPropertyOp29
 70
     1
102
RTVSPropertyOp30
 70
     1
102
RTVSPropertyOp31
 70
     1
102
RTVSPropertyOp32
 70
     1
102
RTVSPropertyOp33
 70
     1
102
RTVSPropertyOp34
 70
     1
102
RTVSPropertyOp35
 70
     1
102
RTVSPropertyOp36
 70
     1
102
RTVSPropertyOp37
 70
     1
102
RTVSPropertyOp38
 70
     1
102
RTVSPropertyOp39
 70
     1
102
RTVSPropertyOp40
 70
     1
102
RTVSPropertyOp41
 70
     1
102
RTVSPropertyOp42
 70
     1
102
RTVSPropertyOp43
 70
     1
102
RTVSPropertyOp44
 70
     1
102
RTVSPropertyOp45
 70
     1
102
RTVSPropertyOp46
 70
     1
102
RTVSPropertyOp47
 70
     1
102
RTVSPropertyOp48
 70
     1
102
RTVSPropertyOp49
 70
     1
102
RTVSPropertyOp50
 70
     1
102
RTVSPropertyOp51
 70
     0
102
RTVSPropertyOp52
 70
     0
102
RTVSPropertyOp53
 70
     1
102
RTVSPropertyOp54
 70
     1
102
RTVSPropertyOp55
 70
     1
102
RTVSPropertyOp56
 70
     1
102
RTVSPropertyOp57
 70
     1
102
RTVSPropertyOp58
 70
     1
102
RTVSPropertyOp59
 70
     1
102
RTVSPropertyOp60
 70
     1
102
RTVSPropertyOp61
 70
     1
102
RTVSPropertyOp62
 70
     1
  0
XRECORD
  5
37D7
102
{ACAD_REACTORS
330
37D6
102
}
330
37D6
100
AcDbXrecord
280
     1
102
RTVSPost2010Prop28
280
     0
102
RTVSPost2010PropOp28
 70
     1
102
RTVSPost2010Prop29
280
     1
102
RTVSPost2010PropOp29
 70
     1
102
RTVSPost2010Prop30
280
     1
102
RTVSPost2010PropOp30
 70
     1
102
RTVSPost2010Prop31
280
     0
102
RTVSPost2010PropOp31
 70
     1
102
RTVSPost2010Prop32
280
     0
102
RTVSPost2010PropOp32
 70
     1
102
RTVSPost2010Prop33
280
     0
102
RTVSPost2010PropOp33
 70
     1
102
RTVSPost2010Prop34
280
     0
102
RTVSPost2010PropOp34
 70
     1
102
RTVSPost2010Prop35
280
     0
102
RTVSPost2010PropOp35
 70
     1
102
RTVSPost2010Prop36
280
     0
102
RTVSPost2010PropOp36
 70
     1
102
RTVSPost2010Prop37
 90
       50
102
RTVSPost2010PropOp37
 70
     1
102
RTVSPost2010Prop38
140
0.0
102
RTVSPost2010PropOp38
 70
     1
102
RTVSPost2010Prop39
140
1.0
102
RTVSPost2010PropOp39
 70
     1
102
RTVSPost2010Prop40
 90
        0
102
RTVSPost2010PropOp40
 70
     1
102
RTVSPost2010Prop41ColorIndex
 90
       18
102
RTVSPost2010Prop41ColorRGB
 90
        0
102
RTVSPost2010PropOp41
 70
     1
102
RTVSPost2010Prop42
 90
       50
102
RTVSPost2010PropOp42
 70
     1
102
RTVSPost2010Prop43
 90
        3
102
RTVSPost2010PropOp43
 70
     1
102
RTVSPost2010Prop44ColorIndex
 90
        5
102
RTVSPost2010Prop44ColorRGB
 90
      255
102
RTVSPost2010PropOp44
 70
     1
102
RTVSPost2010Prop45
280
     0
102
RTVSPost2010PropOp45
 70
     1
102
RTVSPost2010Prop46
 90
       50
102
RTVSPost2010PropOp46
 70
     1
102
RTVSPost2010Prop47
 90
       50
102
RTVSPost2010PropOp47
 70
     1
102
RTVSPost2010Prop48
 90
       50
102
RTVSPost2010PropOp48
 70
     1
102
RTVSPost2010Prop49
280
     0
102
RTVSPost2010PropOp49
 70
     1
102
RTVSPost2010Prop50
 90
       50
102
RTVSPost2010PropOp50
 70
     1
102
RTVSPost2010Prop51ColorIndex
 90
      256
102
RTVSPost2010Prop51ColorRGB
 90
-16777216
102
RTVSPost2010PropOp51
 70
     0
102
RTVSPost2010Prop52
140
1.0
102
RTVSPost2010PropOp52
 70
     0
102
RTVSPost2010Prop53
 90
        2
102
RTVSPost2010PropOp53
 70
     1
102
RTVSPost2010Prop54
  1
strokes_ogs.tif
102
RTVSPost2010PropOp54
 70
     1
102
RTVSPost2010Prop55
280
     0
102
RTVSPost2010PropOp55
 70
     1
102
RTVSPost2010Prop56
140
1.0
102
RTVSPost2010PropOp56
 70
     1
102
RTVSPost2010Prop57
140
1.0
102
RTVSPost2010PropOp57
 70
     1
102
RTVSPropertyOp0
 70
     1
102
RTVSPropertyOp1
 70
     1
102
RTVSPropertyOp2
 70
     1
102
RTVSPropertyOp3
 70
     1
102
RTVSPropertyOp4
 70
     1
102
RTVSPropertyOp5
 70
     1
102
RTVSPropertyOp6
 70
     1
102
RTVSPropertyOp7
 70
     1
102
RTVSPropertyOp8
 70
     1
102
RTVSPropertyOp9
 70
     1
102
RTVSPropertyOp10
 70
     1
102
RTVSPropertyOp11
 70
     1
102
RTVSPropertyOp12
 70
     1
102
RTVSPropertyOp13
 70
     1
102
RTVSPropertyOp14
 70
     1
102
RTVSPropertyOp15
 70
     1
102
RTVSPropertyOp16
 70
     1
102
RTVSPropertyOp17
 70
     1
102
RTVSPropertyOp18
 70
     1
102
RTVSPropertyOp19
 70
     1
102
RTVSPropertyOp20
 70
     1
102
RTVSPropertyOp21
 70
     1
102
RTVSPropertyOp22
 70
     1
102
RTVSPropertyOp23
 70
     1
102
RTVSPropertyOp24
 70
     1
102
RTVSPropertyOp25
 70
     1
102
RTVSPropertyOp26
 70
     1
102
RTVSPropertyOp27
 70
     1
102
RTVSPropertyOp28
 70
     1
102
RTVSPropertyOp29
 70
     1
102
RTVSPropertyOp30
 70
     1
102
RTVSPropertyOp31
 70
     1
102
RTVSPropertyOp32
 70
     1
102
RTVSPropertyOp33
 70
     1
102
RTVSPropertyOp34
 70
     1
102
RTVSPropertyOp35
 70
     1
102
RTVSPropertyOp36
 70
     1
102
RTVSPropertyOp37
 70
     1
102
RTVSPropertyOp38
 70
     1
102
RTVSPropertyOp39
 70
     1
102
RTVSPropertyOp40
 70
     1
102
RTVSPropertyOp41
 70
     1
102
RTVSPropertyOp42
 70
     1
102
RTVSPropertyOp43
 70
     1
102
RTVSPropertyOp44
 70
     1
102
RTVSPropertyOp45
 70
     1
102
RTVSPropertyOp46
 70
     1
102
RTVSPropertyOp47
 70
     1
102
RTVSPropertyOp48
 70
     1
102
RTVSPropertyOp49
 70
     1
102
RTVSPropertyOp50
 70
     1
102
RTVSPropertyOp51
 70
     0
102
RTVSPropertyOp52
 70
     0
102
RTVSPropertyOp53
 70
     1
102
RTVSPropertyOp54
 70
     1
102
RTVSPropertyOp55
 70
     1
102
RTVSPropertyOp56
 70
     1
102
RTVSPropertyOp57
 70
     1
102
RTVSPropertyOp58
 70
     1
102
RTVSPropertyOp59
 70
     1
102
RTVSPropertyOp60
 70
     1
102
RTVSPropertyOp61
 70
     1
102
RTVSPropertyOp62
 70
     1
  0
XRECORD
  5
37DF
102
{ACAD_REACTORS
330
37DE
102
}
330
37DE
100
AcDbXrecord
280
     1
102
RTVSPost2010Prop28
280
     0
102
RTVSPost2010PropOp28
 70
     1
102
RTVSPost2010Prop29
280
     1
102
RTVSPost2010PropOp29
 70
     1
102
RTVSPost2010Prop30
280
     1
102
RTVSPost2010PropOp30
 70
     1
102
RTVSPost2010Prop31
280
     0
102
RTVSPost2010PropOp31
 70
     1
102
RTVSPost2010Prop32
280
     0
102
RTVSPost2010PropOp32
 70
     1
102
RTVSPost2010Prop33
280
     0
102
RTVSPost2010PropOp33
 70
     1
102
RTVSPost2010Prop34
280
     0
102
RTVSPost2010PropOp34
 70
     1
102
RTVSPost2010Prop35
280
     0
102
RTVSPost2010PropOp35
 70
     1
102
RTVSPost2010Prop36
280
     0
102
RTVSPost2010PropOp36
 70
     1
102
RTVSPost2010Prop37
 90
       50
102
RTVSPost2010PropOp37
 70
     1
102
RTVSPost2010Prop38
140
0.0
102
RTVSPost2010PropOp38
 70
     1
102
RTVSPost2010Prop39
140
1.0
102
RTVSPost2010PropOp39
 70
     1
102
RTVSPost2010Prop40
 90
        0
102
RTVSPost2010PropOp40
 70
     1
102
RTVSPost2010Prop41ColorIndex
 90
       18
102
RTVSPost2010Prop41ColorRGB
 90
        0
102
RTVSPost2010PropOp41
 70
     1
102
RTVSPost2010Prop42
 90
       50
102
RTVSPost2010PropOp42
 70
     1
102
RTVSPost2010Prop43
 90
        3
102
RTVSPost2010PropOp43
 70
     1
102
RTVSPost2010Prop44ColorIndex
 90
        5
102
RTVSPost2010Prop44ColorRGB
 90
      255
102
RTVSPost2010PropOp44
 70
     1
102
RTVSPost2010Prop45
280
     0
102
RTVSPost2010PropOp45
 70
     1
102
RTVSPost2010Prop46
 90
       50
102
RTVSPost2010PropOp46
 70
     1
102
RTVSPost2010Prop47
 90
       50
102
RTVSPost2010PropOp47
 70
     1
102
RTVSPost2010Prop48
 90
       50
102
RTVSPost2010PropOp48
 70
     1
102
RTVSPost2010Prop49
280
     0
102
RTVSPost2010PropOp49
 70
     1
102
RTVSPost2010Prop50
 90
       50
102
RTVSPost2010PropOp50
 70
     1
102
RTVSPost2010Prop51ColorIndex
 90
      256
102
RTVSPost2010Prop51ColorRGB
 90
-16777216
102
RTVSPost2010PropOp51
 70
     0
102
RTVSPost2010Prop52
140
1.0
102
RTVSPost2010PropOp52
 70
     0
102
RTVSPost2010Prop53
 90
        2
102
RTVSPost2010PropOp53
 70
     1
102
RTVSPost2010Prop54
  1
strokes_ogs.tif
102
RTVSPost2010PropOp54
 70
     1
102
RTVSPost2010Prop55
280
     0
102
RTVSPost2010PropOp55
 70
     1
102
RTVSPost2010Prop56
140
1.0
102
RTVSPost2010PropOp56
 70
     1
102
RTVSPost2010Prop57
140
1.0
102
RTVSPost2010PropOp57
 70
     1
102
RTVSPropertyOp0
 70
     1
102
RTVSPropertyOp1
 70
     1
102
RTVSPropertyOp2
 70
     1
102
RTVSPropertyOp3
 70
     1
102
RTVSPropertyOp4
 70
     1
102
RTVSPropertyOp5
 70
     1
102
RTVSPropertyOp6
 70
     1
102
RTVSPropertyOp7
 70
     1
102
RTVSPropertyOp8
 70
     1
102
RTVSPropertyOp9
 70
     1
102
RTVSPropertyOp10
 70
     1
102
RTVSPropertyOp11
 70
     1
102
RTVSPropertyOp12
 70
     1
102
RTVSPropertyOp13
 70
     1
102
RTVSPropertyOp14
 70
     1
102
RTVSPropertyOp15
 70
     1
102
RTVSPropertyOp16
 70
     1
102
RTVSPropertyOp17
 70
     1
102
RTVSPropertyOp18
 70
     1
102
RTVSPropertyOp19
 70
     1
102
RTVSPropertyOp20
 70
     1
102
RTVSPropertyOp21
 70
     1
102
RTVSPropertyOp22
 70
     1
102
RTVSPropertyOp23
 70
     1
102
RTVSPropertyOp24
 70
     1
102
RTVSPropertyOp25
 70
     1
102
RTVSPropertyOp26
 70
     1
102
RTVSPropertyOp27
 70
     1
102
RTVSPropertyOp28
 70
     1
102
RTVSPropertyOp29
 70
     1
102
RTVSPropertyOp30
 70
     1
102
RTVSPropertyOp31
 70
     1
102
RTVSPropertyOp32
 70
     1
102
RTVSPropertyOp33
 70
     1
102
RTVSPropertyOp34
 70
     1
102
RTVSPropertyOp35
 70
     1
102
RTVSPropertyOp36
 70
     1
102
RTVSPropertyOp37
 70
     1
102
RTVSPropertyOp38
 70
     1
102
RTVSPropertyOp39
 70
     1
102
RTVSPropertyOp40
 70
     1
102
RTVSPropertyOp41
 70
     1
102
RTVSPropertyOp42
 70
     1
102
RTVSPropertyOp43
 70
     1
102
RTVSPropertyOp44
 70
     1
102
RTVSPropertyOp45
 70
     1
102
RTVSPropertyOp46
 70
     1
102
RTVSPropertyOp47
 70
     1
102
RTVSPropertyOp48
 70
     1
102
RTVSPropertyOp49
 70
     1
102
RTVSPropertyOp50
 70
     1
102
RTVSPropertyOp51
 70
     0
102
RTVSPropertyOp52
 70
     0
102
RTVSPropertyOp53
 70
     1
102
RTVSPropertyOp54
 70
     1
102
RTVSPropertyOp55
 70
     1
102
RTVSPropertyOp56
 70
     1
102
RTVSPropertyOp57
 70
     1
102
RTVSPropertyOp58
 70
     1
102
RTVSPropertyOp59
 70
     1
102
RTVSPropertyOp60
 70
     1
102
RTVSPropertyOp61
 70
     1
102
RTVSPropertyOp62
 70
     1
  0
XRECORD
  5
37D1
102
{ACAD_REACTORS
330
37D0
102
}
330
37D0
100
AcDbXrecord
280
     1
102
RTVSPost2010Prop28
280
     0
102
RTVSPost2010PropOp28
 70
     1
102
RTVSPost2010Prop29
280
     1
102
RTVSPost2010PropOp29
 70
     1
102
RTVSPost2010Prop30
280
     1
102
RTVSPost2010PropOp30
 70
     1
102
RTVSPost2010Prop31
280
     0
102
RTVSPost2010PropOp31
 70
     1
102
RTVSPost2010Prop32
280
     0
102
RTVSPost2010PropOp32
 70
     1
102
RTVSPost2010Prop33
280
     0
102
RTVSPost2010PropOp33
 70
     1
102
RTVSPost2010Prop34
280
     0
102
RTVSPost2010PropOp34
 70
     1
102
RTVSPost2010Prop35
280
     0
102
RTVSPost2010PropOp35
 70
     1
102
RTVSPost2010Prop36
280
     0
102
RTVSPost2010PropOp36
 70
     1
102
RTVSPost2010Prop37
 90
       50
102
RTVSPost2010PropOp37
 70
     1
102
RTVSPost2010Prop38
140
0.0
102
RTVSPost2010PropOp38
 70
     1
102
RTVSPost2010Prop39
140
1.0
102
RTVSPost2010PropOp39
 70
     1
102
RTVSPost2010Prop40
 90
        0
102
RTVSPost2010PropOp40
 70
     1
102
RTVSPost2010Prop41ColorIndex
 90
       18
102
RTVSPost2010Prop41ColorRGB
 90
        0
102
RTVSPost2010PropOp41
 70
     1
102
RTVSPost2010Prop42
 90
       50
102
RTVSPost2010PropOp42
 70
     1
102
RTVSPost2010Prop43
 90
        3
102
RTVSPost2010PropOp43
 70
     1
102
RTVSPost2010Prop44ColorIndex
 90
        5
102
RTVSPost2010Prop44ColorRGB
 90
      255
102
RTVSPost2010PropOp44
 70
     1
102
RTVSPost2010Prop45
280
     0
102
RTVSPost2010PropOp45
 70
     1
102
RTVSPost2010Prop46
 90
       50
102
RTVSPost2010PropOp46
 70
     1
102
RTVSPost2010Prop47
 90
       50
102
RTVSPost2010PropOp47
 70
     1
102
RTVSPost2010Prop48
 90
       50
102
RTVSPost2010PropOp48
 70
     1
102
RTVSPost2010Prop49
280
     0
102
RTVSPost2010PropOp49
 70
     1
102
RTVSPost2010Prop50
 90
       50
102
RTVSPost2010PropOp50
 70
     1
102
RTVSPost2010Prop51ColorIndex
 90
      256
102
RTVSPost2010Prop51ColorRGB
 90
-16777216
102
RTVSPost2010PropOp51
 70
     0
102
RTVSPost2010Prop52
140
1.0
102
RTVSPost2010PropOp52
 70
     0
102
RTVSPost2010Prop53
 90
        2
102
RTVSPost2010PropOp53
 70
     1
102
RTVSPost2010Prop54
  1
strokes_ogs.tif
102
RTVSPost2010PropOp54
 70
     1
102
RTVSPost2010Prop55
280
     0
102
RTVSPost2010PropOp55
 70
     1
102
RTVSPost2010Prop56
140
1.0
102
RTVSPost2010PropOp56
 70
     1
102
RTVSPost2010Prop57
140
1.0
102
RTVSPost2010PropOp57
 70
     1
102
RTVSPropertyOp0
 70
     1
102
RTVSPropertyOp1
 70
     1
102
RTVSPropertyOp2
 70
     1
102
RTVSPropertyOp3
 70
     1
102
RTVSPropertyOp4
 70
     1
102
RTVSPropertyOp5
 70
     1
102
RTVSPropertyOp6
 70
     1
102
RTVSPropertyOp7
 70
     1
102
RTVSPropertyOp8
 70
     1
102
RTVSPropertyOp9
 70
     1
102
RTVSPropertyOp10
 70
     1
102
RTVSPropertyOp11
 70
     1
102
RTVSPropertyOp12
 70
     1
102
RTVSPropertyOp13
 70
     1
102
RTVSPropertyOp14
 70
     1
102
RTVSPropertyOp15
 70
     1
102
RTVSPropertyOp16
 70
     1
102
RTVSPropertyOp17
 70
     1
102
RTVSPropertyOp18
 70
     1
102
RTVSPropertyOp19
 70
     1
102
RTVSPropertyOp20
 70
     1
102
RTVSPropertyOp21
 70
     1
102
RTVSPropertyOp22
 70
     1
102
RTVSPropertyOp23
 70
     1
102
RTVSPropertyOp24
 70
     1
102
RTVSPropertyOp25
 70
     1
102
RTVSPropertyOp26
 70
     1
102
RTVSPropertyOp27
 70
     1
102
RTVSPropertyOp28
 70
     1
102
RTVSPropertyOp29
 70
     1
102
RTVSPropertyOp30
 70
     1
102
RTVSPropertyOp31
 70
     1
102
RTVSPropertyOp32
 70
     1
102
RTVSPropertyOp33
 70
     1
102
RTVSPropertyOp34
 70
     1
102
RTVSPropertyOp35
 70
     1
102
RTVSPropertyOp36
 70
     1
102
RTVSPropertyOp37
 70
     1
102
RTVSPropertyOp38
 70
     1
102
RTVSPropertyOp39
 70
     1
102
RTVSPropertyOp40
 70
     1
102
RTVSPropertyOp41
 70
     1
102
RTVSPropertyOp42
 70
     1
102
RTVSPropertyOp43
 70
     1
102
RTVSPropertyOp44
 70
     1
102
RTVSPropertyOp45
 70
     1
102
RTVSPropertyOp46
 70
     1
102
RTVSPropertyOp47
 70
     1
102
RTVSPropertyOp48
 70
     1
102
RTVSPropertyOp49
 70
     1
102
RTVSPropertyOp50
 70
     1
102
RTVSPropertyOp51
 70
     0
102
RTVSPropertyOp52
 70
     0
102
RTVSPropertyOp53
 70
     1
102
RTVSPropertyOp54
 70
     1
102
RTVSPropertyOp55
 70
     1
102
RTVSPropertyOp56
 70
     1
102
RTVSPropertyOp57
 70
     1
102
RTVSPropertyOp58
 70
     1
102
RTVSPropertyOp59
 70
     1
102
RTVSPropertyOp60
 70
     1
102
RTVSPropertyOp61
 70
     1
102
RTVSPropertyOp62
 70
     1
  0
XRECORD
  5
37D5
102
{ACAD_REACTORS
330
37D4
102
}
330
37D4
100
AcDbXrecord
280
     1
102
RTVSPost2010Prop28
280
     0
102
RTVSPost2010PropOp28
 70
     1
102
RTVSPost2010Prop29
280
     1
102
RTVSPost2010PropOp29
 70
     1
102
RTVSPost2010Prop30
280
     1
102
RTVSPost2010PropOp30
 70
     1
102
RTVSPost2010Prop31
280
     0
102
RTVSPost2010PropOp31
 70
     1
102
RTVSPost2010Prop32
280
     0
102
RTVSPost2010PropOp32
 70
     1
102
RTVSPost2010Prop33
280
     0
102
RTVSPost2010PropOp33
 70
     1
102
RTVSPost2010Prop34
280
     0
102
RTVSPost2010PropOp34
 70
     1
102
RTVSPost2010Prop35
280
     0
102
RTVSPost2010PropOp35
 70
     1
102
RTVSPost2010Prop36
280
     0
102
RTVSPost2010PropOp36
 70
     1
102
RTVSPost2010Prop37
 90
       50
102
RTVSPost2010PropOp37
 70
     1
102
RTVSPost2010Prop38
140
0.0
102
RTVSPost2010PropOp38
 70
     1
102
RTVSPost2010Prop39
140
1.0
102
RTVSPost2010PropOp39
 70
     1
102
RTVSPost2010Prop40
 90
        0
102
RTVSPost2010PropOp40
 70
     1
102
RTVSPost2010Prop41ColorIndex
 90
       18
102
RTVSPost2010Prop41ColorRGB
 90
        0
102
RTVSPost2010PropOp41
 70
     1
102
RTVSPost2010Prop42
 90
       50
102
RTVSPost2010PropOp42
 70
     1
102
RTVSPost2010Prop43
 90
        3
102
RTVSPost2010PropOp43
 70
     1
102
RTVSPost2010Prop44ColorIndex
 90
        5
102
RTVSPost2010Prop44ColorRGB
 90
      255
102
RTVSPost2010PropOp44
 70
     1
102
RTVSPost2010Prop45
280
     0
102
RTVSPost2010PropOp45
 70
     1
102
RTVSPost2010Prop46
 90
       50
102
RTVSPost2010PropOp46
 70
     1
102
RTVSPost2010Prop47
 90
       50
102
RTVSPost2010PropOp47
 70
     1
102
RTVSPost2010Prop48
 90
       50
102
RTVSPost2010PropOp48
 70
     1
102
RTVSPost2010Prop49
280
     0
102
RTVSPost2010PropOp49
 70
     1
102
RTVSPost2010Prop50
 90
       50
102
RTVSPost2010PropOp50
 70
     1
102
RTVSPost2010Prop51ColorIndex
 90
      256
102
RTVSPost2010Prop51ColorRGB
 90
-16777216
102
RTVSPost2010PropOp51
 70
     0
102
RTVSPost2010Prop52
140
1.0
102
RTVSPost2010PropOp52
 70
     0
102
RTVSPost2010Prop53
 90
        2
102
RTVSPost2010PropOp53
 70
     1
102
RTVSPost2010Prop54
  1
strokes_ogs.tif
102
RTVSPost2010PropOp54
 70
     1
102
RTVSPost2010Prop55
280
     0
102
RTVSPost2010PropOp55
 70
     1
102
RTVSPost2010Prop56
140
1.0
102
RTVSPost2010PropOp56
 70
     1
102
RTVSPost2010Prop57
140
1.0
102
RTVSPost2010PropOp57
 70
     1
102
RTVSPropertyOp0
 70
     1
102
RTVSPropertyOp1
 70
     1
102
RTVSPropertyOp2
 70
     1
102
RTVSPropertyOp3
 70
     1
102
RTVSPropertyOp4
 70
     1
102
RTVSPropertyOp5
 70
     1
102
RTVSPropertyOp6
 70
     1
102
RTVSPropertyOp7
 70
     1
102
RTVSPropertyOp8
 70
     1
102
RTVSPropertyOp9
 70
     1
102
RTVSPropertyOp10
 70
     1
102
RTVSPropertyOp11
 70
     1
102
RTVSPropertyOp12
 70
     1
102
RTVSPropertyOp13
 70
     1
102
RTVSPropertyOp14
 70
     1
102
RTVSPropertyOp15
 70
     1
102
RTVSPropertyOp16
 70
     1
102
RTVSPropertyOp17
 70
     1
102
RTVSPropertyOp18
 70
     1
102
RTVSPropertyOp19
 70
     1
102
RTVSPropertyOp20
 70
     1
102
RTVSPropertyOp21
 70
     1
102
RTVSPropertyOp22
 70
     1
102
RTVSPropertyOp23
 70
     1
102
RTVSPropertyOp24
 70
     1
102
RTVSPropertyOp25
 70
     1
102
RTVSPropertyOp26
 70
     1
102
RTVSPropertyOp27
 70
     1
102
RTVSPropertyOp28
 70
     1
102
RTVSPropertyOp29
 70
     1
102
RTVSPropertyOp30
 70
     1
102
RTVSPropertyOp31
 70
     1
102
RTVSPropertyOp32
 70
     1
102
RTVSPropertyOp33
 70
     1
102
RTVSPropertyOp34
 70
     1
102
RTVSPropertyOp35
 70
     1
102
RTVSPropertyOp36
 70
     1
102
RTVSPropertyOp37
 70
     1
102
RTVSPropertyOp38
 70
     1
102
RTVSPropertyOp39
 70
     1
102
RTVSPropertyOp40
 70
     1
102
RTVSPropertyOp41
 70
     1
102
RTVSPropertyOp42
 70
     1
102
RTVSPropertyOp43
 70
     1
102
RTVSPropertyOp44
 70
     1
102
RTVSPropertyOp45
 70
     1
102
RTVSPropertyOp46
 70
     1
102
RTVSPropertyOp47
 70
     1
102
RTVSPropertyOp48
 70
     1
102
RTVSPropertyOp49
 70
     1
102
RTVSPropertyOp50
 70
     1
102
RTVSPropertyOp51
 70
     0
102
RTVSPropertyOp52
 70
     0
102
RTVSPropertyOp53
 70
     1
102
RTVSPropertyOp54
 70
     1
102
RTVSPropertyOp55
 70
     1
102
RTVSPropertyOp56
 70
     1
102
RTVSPropertyOp57
 70
     1
102
RTVSPropertyOp58
 70
     1
102
RTVSPropertyOp59
 70
     1
102
RTVSPropertyOp60
 70
     1
102
RTVSPropertyOp61
 70
     1
102
RTVSPropertyOp62
 70
     1
  0
XRECORD
  5
37EF
102
{ACAD_REACTORS
330
37EE
102
}
330
37EE
100
AcDbXrecord
280
     1
102
RTVSPost2010Prop28
280
     0
102
RTVSPost2010PropOp28
 70
     1
102
RTVSPost2010Prop29
280
     1
102
RTVSPost2010PropOp29
 70
     1
102
RTVSPost2010Prop30
280
     1
102
RTVSPost2010PropOp30
 70
     1
102
RTVSPost2010Prop31
280
     0
102
RTVSPost2010PropOp31
 70
     1
102
RTVSPost2010Prop32
280
     0
102
RTVSPost2010PropOp32
 70
     1
102
RTVSPost2010Prop33
280
     0
102
RTVSPost2010PropOp33
 70
     1
102
RTVSPost2010Prop34
280
     0
102
RTVSPost2010PropOp34
 70
     1
102
RTVSPost2010Prop35
280
     0
102
RTVSPost2010PropOp35
 70
     1
102
RTVSPost2010Prop36
280
     0
102
RTVSPost2010PropOp36
 70
     1
102
RTVSPost2010Prop37
 90
       50
102
RTVSPost2010PropOp37
 70
     0
102
RTVSPost2010Prop38
140
0.0
102
RTVSPost2010PropOp38
 70
     0
102
RTVSPost2010Prop39
140
1.0
102
RTVSPost2010PropOp39
 70
     0
102
RTVSPost2010Prop40
 90
        0
102
RTVSPost2010PropOp40
 70
     0
102
RTVSPost2010Prop41ColorIndex
 90
       18
102
RTVSPost2010Prop41ColorRGB
 90
        0
102
RTVSPost2010PropOp41
 70
     0
102
RTVSPost2010Prop42
 90
       50
102
RTVSPost2010PropOp42
 70
     0
102
RTVSPost2010Prop43
 90
        3
102
RTVSPost2010PropOp43
 70
     0
102
RTVSPost2010Prop44ColorIndex
 90
        5
102
RTVSPost2010Prop44ColorRGB
 90
      255
102
RTVSPost2010PropOp44
 70
     0
102
RTVSPost2010Prop45
280
     0
102
RTVSPost2010PropOp45
 70
     1
102
RTVSPost2010Prop46
 90
       50
102
RTVSPost2010PropOp46
 70
     0
102
RTVSPost2010Prop47
 90
       50
102
RTVSPost2010PropOp47
 70
     0
102
RTVSPost2010Prop48
 90
       50
102
RTVSPost2010PropOp48
 70
     0
102
RTVSPost2010Prop49
280
     0
102
RTVSPost2010PropOp49
 70
     1
102
RTVSPost2010Prop50
 90
       50
102
RTVSPost2010PropOp50
 70
     0
102
RTVSPost2010Prop51ColorIndex
 90
      256
102
RTVSPost2010Prop51ColorRGB
 90
-16777216
102
RTVSPost2010PropOp51
 70
     0
102
RTVSPost2010Prop52
140
1.0
102
RTVSPost2010PropOp52
 70
     0
102
RTVSPost2010Prop53
 90
        2
102
RTVSPost2010PropOp53
 70
     0
102
RTVSPost2010Prop54
  1
strokes_ogs.tif
102
RTVSPost2010PropOp54
 70
     0
102
RTVSPost2010Prop55
280
     0
102
RTVSPost2010PropOp55
 70
     1
102
RTVSPost2010Prop56
140
1.0
102
RTVSPost2010PropOp56
 70
     0
102
RTVSPost2010Prop57
140
1.0
102
RTVSPost2010PropOp57
 70
     0
102
RTVSPropertyOp0
 70
     0
102
RTVSPropertyOp1
 70
     0
102
RTVSPropertyOp2
 70
     0
102
RTVSPropertyOp3
 70
     0
102
RTVSPropertyOp4
 70
     0
102
RTVSPropertyOp5
 70
     0
102
RTVSPropertyOp6
 70
     0
102
RTVSPropertyOp7
 70
     0
102
RTVSPropertyOp8
 70
     0
102
RTVSPropertyOp9
 70
     0
102
RTVSPropertyOp10
 70
     0
102
RTVSPropertyOp11
 70
     0
102
RTVSPropertyOp12
 70
     0
102
RTVSPropertyOp13
 70
     0
102
RTVSPropertyOp14
 70
     2
102
RTVSPropertyOp15
 70
     0
102
RTVSPropertyOp16
 70
     0
102
RTVSPropertyOp17
 70
     0
102
RTVSPropertyOp18
 70
     0
102
RTVSPropertyOp19
 70
     0
102
RTVSPropertyOp20
 70
     0
102
RTVSPropertyOp21
 70
     0
102
RTVSPropertyOp22
 70
     0
102
RTVSPropertyOp23
 70
     0
102
RTVSPropertyOp24
 70
     0
102
RTVSPropertyOp25
 70
     0
102
RTVSPropertyOp26
 70
     0
102
RTVSPropertyOp27
 70
     0
102
RTVSPropertyOp28
 70
     1
102
RTVSPropertyOp29
 70
     1
102
RTVSPropertyOp30
 70
     1
102
RTVSPropertyOp31
 70
     1
102
RTVSPropertyOp32
 70
     1
102
RTVSPropertyOp33
 70
     1
102
RTVSPropertyOp34
 70
     1
102
RTVSPropertyOp35
 70
     1
102
RTVSPropertyOp36
 70
     1
102
RTVSPropertyOp37
 70
     0
102
RTVSPropertyOp38
 70
     0
102
RTVSPropertyOp39
 70
     0
102
RTVSPropertyOp40
 70
     0
102
RTVSPropertyOp41
 70
     0
102
RTVSPropertyOp42
 70
     0
102
RTVSPropertyOp43
 70
     0
102
RTVSPropertyOp44
 70
     0
102
RTVSPropertyOp45
 70
     1
102
RTVSPropertyOp46
 70
     0
102
RTVSPropertyOp47
 70
     0
102
RTVSPropertyOp48
 70
     0
102
RTVSPropertyOp49
 70
     1
102
RTVSPropertyOp50
 70
     0
102
RTVSPropertyOp51
 70
     0
102
RTVSPropertyOp52
 70
     0
102
RTVSPropertyOp53
 70
     0
102
RTVSPropertyOp54
 70
     0
102
RTVSPropertyOp55
 70
     1
102
RTVSPropertyOp56
 70
     0
102
RTVSPropertyOp57
 70
     0
102
RTVSPropertyOp58
 70
     0
102
RTVSPropertyOp59
 70
     0
102
RTVSPropertyOp60
 70
     0
102
RTVSPropertyOp61
 70
     0
102
RTVSPropertyOp62
 70
     0
  0
XRECORD
  5
37DD
102
{ACAD_REACTORS
330
37DC
102
}
330
37DC
100
AcDbXrecord
280
     1
102
RTVSPost2010Prop28
280
     0
102
RTVSPost2010PropOp28
 70
     1
102
RTVSPost2010Prop29
280
     1
102
RTVSPost2010PropOp29
 70
     1
102
RTVSPost2010Prop30
280
     1
102
RTVSPost2010PropOp30
 70
     1
102
RTVSPost2010Prop31
280
     0
102
RTVSPost2010PropOp31
 70
     1
102
RTVSPost2010Prop32
280
     0
102
RTVSPost2010PropOp32
 70
     1
102
RTVSPost2010Prop33
280
     0
102
RTVSPost2010PropOp33
 70
     1
102
RTVSPost2010Prop34
280
     0
102
RTVSPost2010PropOp34
 70
     1
102
RTVSPost2010Prop35
280
     0
102
RTVSPost2010PropOp35
 70
     1
102
RTVSPost2010Prop36
280
     0
102
RTVSPost2010PropOp36
 70
     1
102
RTVSPost2010Prop37
 90
       50
102
RTVSPost2010PropOp37
 70
     1
102
RTVSPost2010Prop38
140
0.0
102
RTVSPost2010PropOp38
 70
     1
102
RTVSPost2010Prop39
140
1.0
102
RTVSPost2010PropOp39
 70
     1
102
RTVSPost2010Prop40
 90
        0
102
RTVSPost2010PropOp40
 70
     1
102
RTVSPost2010Prop41ColorIndex
 90
       18
102
RTVSPost2010Prop41ColorRGB
 90
        0
102
RTVSPost2010PropOp41
 70
     1
102
RTVSPost2010Prop42
 90
       50
102
RTVSPost2010PropOp42
 70
     1
102
RTVSPost2010Prop43
 90
        3
102
RTVSPost2010PropOp43
 70
     1
102
RTVSPost2010Prop44ColorIndex
 90
        5
102
RTVSPost2010Prop44ColorRGB
 90
      255
102
RTVSPost2010PropOp44
 70
     1
102
RTVSPost2010Prop45
280
     0
102
RTVSPost2010PropOp45
 70
     1
102
RTVSPost2010Prop46
 90
       50
102
RTVSPost2010PropOp46
 70
     1
102
RTVSPost2010Prop47
 90
       50
102
RTVSPost2010PropOp47
 70
     1
102
RTVSPost2010Prop48
 90
       50
102
RTVSPost2010PropOp48
 70
     1
102
RTVSPost2010Prop49
280
     0
102
RTVSPost2010PropOp49
 70
     1
102
RTVSPost2010Prop50
 90
       50
102
RTVSPost2010PropOp50
 70
     1
102
RTVSPost2010Prop51ColorIndex
 90
      256
102
RTVSPost2010Prop51ColorRGB
 90
-16777216
102
RTVSPost2010PropOp51
 70
     0
102
RTVSPost2010Prop52
140
1.0
102
RTVSPost2010PropOp52
 70
     0
102
RTVSPost2010Prop53
 90
        2
102
RTVSPost2010PropOp53
 70
     1
102
RTVSPost2010Prop54
  1
strokes_ogs.tif
102
RTVSPost2010PropOp54
 70
     1
102
RTVSPost2010Prop55
280
     0
102
RTVSPost2010PropOp55
 70
     1
102
RTVSPost2010Prop56
140
1.0
102
RTVSPost2010PropOp56
 70
     1
102
RTVSPost2010Prop57
140
1.0
102
RTVSPost2010PropOp57
 70
     1
102
RTVSPropertyOp0
 70
     1
102
RTVSPropertyOp1
 70
     1
102
RTVSPropertyOp2
 70
     1
102
RTVSPropertyOp3
 70
     1
102
RTVSPropertyOp4
 70
     1
102
RTVSPropertyOp5
 70
     1
102
RTVSPropertyOp6
 70
     1
102
RTVSPropertyOp7
 70
     1
102
RTVSPropertyOp8
 70
     1
102
RTVSPropertyOp9
 70
     1
102
RTVSPropertyOp10
 70
     1
102
RTVSPropertyOp11
 70
     1
102
RTVSPropertyOp12
 70
     1
102
RTVSPropertyOp13
 70
     1
102
RTVSPropertyOp14
 70
     1
102
RTVSPropertyOp15
 70
     1
102
RTVSPropertyOp16
 70
     1
102
RTVSPropertyOp17
 70
     1
102
RTVSPropertyOp18
 70
     1
102
RTVSPropertyOp19
 70
     1
102
RTVSPropertyOp20
 70
     1
102
RTVSPropertyOp21
 70
     1
102
RTVSPropertyOp22
 70
     1
102
RTVSPropertyOp23
 70
     1
102
RTVSPropertyOp24
 70
     1
102
RTVSPropertyOp25
 70
     1
102
RTVSPropertyOp26
 70
     1
102
RTVSPropertyOp27
 70
     1
102
RTVSPropertyOp28
 70
     1
102
RTVSPropertyOp29
 70
     1
102
RTVSPropertyOp30
 70
     1
102
RTVSPropertyOp31
 70
     1
102
RTVSPropertyOp32
 70
     1
102
RTVSPropertyOp33
 70
     1
102
RTVSPropertyOp34
 70
     1
102
RTVSPropertyOp35
 70
     1
102
RTVSPropertyOp36
 70
     1
102
RTVSPropertyOp37
 70
     1
102
RTVSPropertyOp38
 70
     1
102
RTVSPropertyOp39
 70
     1
102
RTVSPropertyOp40
 70
     1
102
RTVSPropertyOp41
 70
     1
102
RTVSPropertyOp42
 70
     1
102
RTVSPropertyOp43
 70
     1
102
RTVSPropertyOp44
 70
     1
102
RTVSPropertyOp45
 70
     1
102
RTVSPropertyOp46
 70
     1
102
RTVSPropertyOp47
 70
     1
102
RTVSPropertyOp48
 70
     1
102
RTVSPropertyOp49
 70
     1
102
RTVSPropertyOp50
 70
     1
102
RTVSPropertyOp51
 70
     0
102
RTVSPropertyOp52
 70
     0
102
RTVSPropertyOp53
 70
     1
102
RTVSPropertyOp54
 70
     1
102
RTVSPropertyOp55
 70
     1
102
RTVSPropertyOp56
 70
     1
102
RTVSPropertyOp57
 70
     1
102
RTVSPropertyOp58
 70
     1
102
RTVSPropertyOp59
 70
     1
102
RTVSPropertyOp60
 70
     1
102
RTVSPropertyOp61
 70
     1
102
RTVSPropertyOp62
 70
     1
  0
XRECORD
  5
37C1
102
{ACAD_REACTORS
330
37C0
102
}
330
37C0
100
AcDbXrecord
280
     1
102
RTVSPost2010Prop28
280
     0
102
RTVSPost2010PropOp28
 70
     1
102
RTVSPost2010Prop29
280
     1
102
RTVSPost2010PropOp29
 70
     1
102
RTVSPost2010Prop30
280
     1
102
RTVSPost2010PropOp30
 70
     1
102
RTVSPost2010Prop31
280
     0
102
RTVSPost2010PropOp31
 70
     1
102
RTVSPost2010Prop32
280
     0
102
RTVSPost2010PropOp32
 70
     1
102
RTVSPost2010Prop33
280
     0
102
RTVSPost2010PropOp33
 70
     1
102
RTVSPost2010Prop34
280
     0
102
RTVSPost2010PropOp34
 70
     1
102
RTVSPost2010Prop35
280
     0
102
RTVSPost2010PropOp35
 70
     1
102
RTVSPost2010Prop36
280
     0
102
RTVSPost2010PropOp36
 70
     1
102
RTVSPost2010Prop37
 90
       50
102
RTVSPost2010PropOp37
 70
     1
102
RTVSPost2010Prop38
140
0.0
102
RTVSPost2010PropOp38
 70
     1
102
RTVSPost2010Prop39
140
1.0
102
RTVSPost2010PropOp39
 70
     1
102
RTVSPost2010Prop40
 90
        0
102
RTVSPost2010PropOp40
 70
     1
102
RTVSPost2010Prop41ColorIndex
 90
       18
102
RTVSPost2010Prop41ColorRGB
 90
        0
102
RTVSPost2010PropOp41
 70
     1
102
RTVSPost2010Prop42
 90
       50
102
RTVSPost2010PropOp42
 70
     1
102
RTVSPost2010Prop43
 90
        3
102
RTVSPost2010PropOp43
 70
     1
102
RTVSPost2010Prop44ColorIndex
 90
        5
102
RTVSPost2010Prop44ColorRGB
 90
      255
102
RTVSPost2010PropOp44
 70
     1
102
RTVSPost2010Prop45
280
     0
102
RTVSPost2010PropOp45
 70
     1
102
RTVSPost2010Prop46
 90
       50
102
RTVSPost2010PropOp46
 70
     1
102
RTVSPost2010Prop47
 90
       50
102
RTVSPost2010PropOp47
 70
     1
102
RTVSPost2010Prop48
 90
       50
102
RTVSPost2010PropOp48
 70
     1
102
RTVSPost2010Prop49
280
     0
102
RTVSPost2010PropOp49
 70
     1
102
RTVSPost2010Prop50
 90
       50
102
RTVSPost2010PropOp50
 70
     1
102
RTVSPost2010Prop51ColorIndex
 90
      256
102
RTVSPost2010Prop51ColorRGB
 90
-16777216
102
RTVSPost2010PropOp51
 70
     0
102
RTVSPost2010Prop52
140
1.0
102
RTVSPost2010PropOp52
 70
     0
102
RTVSPost2010Prop53
 90
        2
102
RTVSPost2010PropOp53
 70
     1
102
RTVSPost2010Prop54
  1
strokes_ogs.tif
102
RTVSPost2010PropOp54
 70
     1
102
RTVSPost2010Prop55
280
     0
102
RTVSPost2010PropOp55
 70
     1
102
RTVSPost2010Prop56
140
1.0
102
RTVSPost2010PropOp56
 70
     1
102
RTVSPost2010Prop57
140
1.0
102
RTVSPost2010PropOp57
 70
     1
102
RTVSPropertyOp0
 70
     1
102
RTVSPropertyOp1
 70
     1
102
RTVSPropertyOp2
 70
     1
102
RTVSPropertyOp3
 70
     1
102
RTVSPropertyOp4
 70
     1
102
RTVSPropertyOp5
 70
     1
102
RTVSPropertyOp6
 70
     1
102
RTVSPropertyOp7
 70
     1
102
RTVSPropertyOp8
 70
     1
102
RTVSPropertyOp9
 70
     1
102
RTVSPropertyOp10
 70
     1
102
RTVSPropertyOp11
 70
     1
102
RTVSPropertyOp12
 70
     1
102
RTVSPropertyOp13
 70
     1
102
RTVSPropertyOp14
 70
     1
102
RTVSPropertyOp15
 70
     1
102
RTVSPropertyOp16
 70
     1
102
RTVSPropertyOp17
 70
     1
102
RTVSPropertyOp18
 70
     1
102
RTVSPropertyOp19
 70
     1
102
RTVSPropertyOp20
 70
     1
102
RTVSPropertyOp21
 70
     1
102
RTVSPropertyOp22
 70
     1
102
RTVSPropertyOp23
 70
     1
102
RTVSPropertyOp24
 70
     1
102
RTVSPropertyOp25
 70
     1
102
RTVSPropertyOp26
 70
     1
102
RTVSPropertyOp27
 70
     1
102
RTVSPropertyOp28
 70
     1
102
RTVSPropertyOp29
 70
     1
102
RTVSPropertyOp30
 70
     1
102
RTVSPropertyOp31
 70
     1
102
RTVSPropertyOp32
 70
     1
102
RTVSPropertyOp33
 70
     1
102
RTVSPropertyOp34
 70
     1
102
RTVSPropertyOp35
 70
     1
102
RTVSPropertyOp36
 70
     1
102
RTVSPropertyOp37
 70
     1
102
RTVSPropertyOp38
 70
     1
102
RTVSPropertyOp39
 70
     1
102
RTVSPropertyOp40
 70
     1
102
RTVSPropertyOp41
 70
     1
102
RTVSPropertyOp42
 70
     1
102
RTVSPropertyOp43
 70
     1
102
RTVSPropertyOp44
 70
     1
102
RTVSPropertyOp45
 70
     1
102
RTVSPropertyOp46
 70
     1
102
RTVSPropertyOp47
 70
     1
102
RTVSPropertyOp48
 70
     1
102
RTVSPropertyOp49
 70
     1
102
RTVSPropertyOp50
 70
     1
102
RTVSPropertyOp51
 70
     0
102
RTVSPropertyOp52
 70
     0
102
RTVSPropertyOp53
 70
     1
102
RTVSPropertyOp54
 70
     1
102
RTVSPropertyOp55
 70
     1
102
RTVSPropertyOp56
 70
     1
102
RTVSPropertyOp57
 70
     1
102
RTVSPropertyOp58
 70
     1
102
RTVSPropertyOp59
 70
     1
102
RTVSPropertyOp60
 70
     1
102
RTVSPropertyOp61
 70
     1
102
RTVSPropertyOp62
 70
     1
  0
XRECORD
  5
37C3
102
{ACAD_REACTORS
330
37C2
102
}
330
37C2
100
AcDbXrecord
280
     1
102
RTVSPost2010Prop28
280
     0
102
RTVSPost2010PropOp28
 70
     1
102
RTVSPost2010Prop29
280
     1
102
RTVSPost2010PropOp29
 70
     1
102
RTVSPost2010Prop30
280
     1
102
RTVSPost2010PropOp30
 70
     1
102
RTVSPost2010Prop31
280
     0
102
RTVSPost2010PropOp31
 70
     1
102
RTVSPost2010Prop32
280
     0
102
RTVSPost2010PropOp32
 70
     1
102
RTVSPost2010Prop33
280
     0
102
RTVSPost2010PropOp33
 70
     1
102
RTVSPost2010Prop34
280
     0
102
RTVSPost2010PropOp34
 70
     1
102
RTVSPost2010Prop35
280
     0
102
RTVSPost2010PropOp35
 70
     1
102
RTVSPost2010Prop36
280
     0
102
RTVSPost2010PropOp36
 70
     1
102
RTVSPost2010Prop37
 90
       50
102
RTVSPost2010PropOp37
 70
     1
102
RTVSPost2010Prop38
140
0.0
102
RTVSPost2010PropOp38
 70
     1
102
RTVSPost2010Prop39
140
1.0
102
RTVSPost2010PropOp39
 70
     1
102
RTVSPost2010Prop40
 90
        0
102
RTVSPost2010PropOp40
 70
     1
102
RTVSPost2010Prop41ColorIndex
 90
       18
102
RTVSPost2010Prop41ColorRGB
 90
        0
102
RTVSPost2010PropOp41
 70
     1
102
RTVSPost2010Prop42
 90
       50
102
RTVSPost2010PropOp42
 70
     1
102
RTVSPost2010Prop43
 90
        3
102
RTVSPost2010PropOp43
 70
     1
102
RTVSPost2010Prop44ColorIndex
 90
        5
102
RTVSPost2010Prop44ColorRGB
 90
      255
102
RTVSPost2010PropOp44
 70
     1
102
RTVSPost2010Prop45
280
     0
102
RTVSPost2010PropOp45
 70
     1
102
RTVSPost2010Prop46
 90
       50
102
RTVSPost2010PropOp46
 70
     1
102
RTVSPost2010Prop47
 90
       50
102
RTVSPost2010PropOp47
 70
     1
102
RTVSPost2010Prop48
 90
       50
102
RTVSPost2010PropOp48
 70
     1
102
RTVSPost2010Prop49
280
     0
102
RTVSPost2010PropOp49
 70
     1
102
RTVSPost2010Prop50
 90
       50
102
RTVSPost2010PropOp50
 70
     1
102
RTVSPost2010Prop51ColorIndex
 90
      256
102
RTVSPost2010Prop51ColorRGB
 90
-16777216
102
RTVSPost2010PropOp51
 70
     0
102
RTVSPost2010Prop52
140
1.0
102
RTVSPost2010PropOp52
 70
     0
102
RTVSPost2010Prop53
 90
        2
102
RTVSPost2010PropOp53
 70
     1
102
RTVSPost2010Prop54
  1
strokes_ogs.tif
102
RTVSPost2010PropOp54
 70
     1
102
RTVSPost2010Prop55
280
     0
102
RTVSPost2010PropOp55
 70
     1
102
RTVSPost2010Prop56
140
1.0
102
RTVSPost2010PropOp56
 70
     1
102
RTVSPost2010Prop57
140
1.0
102
RTVSPost2010PropOp57
 70
     1
102
RTVSPropertyOp0
 70
     1
102
RTVSPropertyOp1
 70
     1
102
RTVSPropertyOp2
 70
     1
102
RTVSPropertyOp3
 70
     1
102
RTVSPropertyOp4
 70
     1
102
RTVSPropertyOp5
 70
     1
102
RTVSPropertyOp6
 70
     1
102
RTVSPropertyOp7
 70
     1
102
RTVSPropertyOp8
 70
     1
102
RTVSPropertyOp9
 70
     1
102
RTVSPropertyOp10
 70
     1
102
RTVSPropertyOp11
 70
     1
102
RTVSPropertyOp12
 70
     1
102
RTVSPropertyOp13
 70
     1
102
RTVSPropertyOp14
 70
     1
102
RTVSPropertyOp15
 70
     1
102
RTVSPropertyOp16
 70
     1
102
RTVSPropertyOp17
 70
     1
102
RTVSPropertyOp18
 70
     1
102
RTVSPropertyOp19
 70
     1
102
RTVSPropertyOp20
 70
     1
102
RTVSPropertyOp21
 70
     1
102
RTVSPropertyOp22
 70
     1
102
RTVSPropertyOp23
 70
     1
102
RTVSPropertyOp24
 70
     1
102
RTVSPropertyOp25
 70
     1
102
RTVSPropertyOp26
 70
     1
102
RTVSPropertyOp27
 70
     1
102
RTVSPropertyOp28
 70
     1
102
RTVSPropertyOp29
 70
     1
102
RTVSPropertyOp30
 70
     1
102
RTVSPropertyOp31
 70
     1
102
RTVSPropertyOp32
 70
     1
102
RTVSPropertyOp33
 70
     1
102
RTVSPropertyOp34
 70
     1
102
RTVSPropertyOp35
 70
     1
102
RTVSPropertyOp36
 70
     1
102
RTVSPropertyOp37
 70
     1
102
RTVSPropertyOp38
 70
     1
102
RTVSPropertyOp39
 70
     1
102
RTVSPropertyOp40
 70
     1
102
RTVSPropertyOp41
 70
     1
102
RTVSPropertyOp42
 70
     1
102
RTVSPropertyOp43
 70
     1
102
RTVSPropertyOp44
 70
     1
102
RTVSPropertyOp45
 70
     1
102
RTVSPropertyOp46
 70
     1
102
RTVSPropertyOp47
 70
     1
102
RTVSPropertyOp48
 70
     1
102
RTVSPropertyOp49
 70
     1
102
RTVSPropertyOp50
 70
     1
102
RTVSPropertyOp51
 70
     0
102
RTVSPropertyOp52
 70
     0
102
RTVSPropertyOp53
 70
     1
102
RTVSPropertyOp54
 70
     1
102
RTVSPropertyOp55
 70
     1
102
RTVSPropertyOp56
 70
     1
102
RTVSPropertyOp57
 70
     1
102
RTVSPropertyOp58
 70
     1
102
RTVSPropertyOp59
 70
     1
102
RTVSPropertyOp60
 70
     1
102
RTVSPropertyOp61
 70
     1
102
RTVSPropertyOp62
 70
     1
  0
XRECORD
  5
37C5
102
{ACAD_REACTORS
330
37C4
102
}
330
37C4
100
AcDbXrecord
280
     1
102
RTVSPost2010Prop28
280
     0
102
RTVSPost2010PropOp28
 70
     1
102
RTVSPost2010Prop29
280
     1
102
RTVSPost2010PropOp29
 70
     1
102
RTVSPost2010Prop30
280
     1
102
RTVSPost2010PropOp30
 70
     1
102
RTVSPost2010Prop31
280
     0
102
RTVSPost2010PropOp31
 70
     1
102
RTVSPost2010Prop32
280
     0
102
RTVSPost2010PropOp32
 70
     1
102
RTVSPost2010Prop33
280
     0
102
RTVSPost2010PropOp33
 70
     1
102
RTVSPost2010Prop34
280
     0
102
RTVSPost2010PropOp34
 70
     1
102
RTVSPost2010Prop35
280
     0
102
RTVSPost2010PropOp35
 70
     1
102
RTVSPost2010Prop36
280
     0
102
RTVSPost2010PropOp36
 70
     1
102
RTVSPost2010Prop37
 90
       50
102
RTVSPost2010PropOp37
 70
     1
102
RTVSPost2010Prop38
140
0.0
102
RTVSPost2010PropOp38
 70
     1
102
RTVSPost2010Prop39
140
1.0
102
RTVSPost2010PropOp39
 70
     1
102
RTVSPost2010Prop40
 90
        0
102
RTVSPost2010PropOp40
 70
     1
102
RTVSPost2010Prop41ColorIndex
 90
       18
102
RTVSPost2010Prop41ColorRGB
 90
        0
102
RTVSPost2010PropOp41
 70
     1
102
RTVSPost2010Prop42
 90
       50
102
RTVSPost2010PropOp42
 70
     1
102
RTVSPost2010Prop43
 90
        3
102
RTVSPost2010PropOp43
 70
     1
102
RTVSPost2010Prop44ColorIndex
 90
        5
102
RTVSPost2010Prop44ColorRGB
 90
      255
102
RTVSPost2010PropOp44
 70
     1
102
RTVSPost2010Prop45
280
     0
102
RTVSPost2010PropOp45
 70
     1
102
RTVSPost2010Prop46
 90
       50
102
RTVSPost2010PropOp46
 70
     1
102
RTVSPost2010Prop47
 90
       50
102
RTVSPost2010PropOp47
 70
     1
102
RTVSPost2010Prop48
 90
       50
102
RTVSPost2010PropOp48
 70
     1
102
RTVSPost2010Prop49
280
     0
102
RTVSPost2010PropOp49
 70
     1
102
RTVSPost2010Prop50
 90
       50
102
RTVSPost2010PropOp50
 70
     1
102
RTVSPost2010Prop51ColorIndex
 90
      256
102
RTVSPost2010Prop51ColorRGB
 90
-16777216
102
RTVSPost2010PropOp51
 70
     0
102
RTVSPost2010Prop52
140
1.0
102
RTVSPost2010PropOp52
 70
     0
102
RTVSPost2010Prop53
 90
        2
102
RTVSPost2010PropOp53
 70
     1
102
RTVSPost2010Prop54
  1
strokes_ogs.tif
102
RTVSPost2010PropOp54
 70
     1
102
RTVSPost2010Prop55
280
     0
102
RTVSPost2010PropOp55
 70
     1
102
RTVSPost2010Prop56
140
1.0
102
RTVSPost2010PropOp56
 70
     1
102
RTVSPost2010Prop57
140
1.0
102
RTVSPost2010PropOp57
 70
     1
102
RTVSPropertyOp0
 70
     1
102
RTVSPropertyOp1
 70
     1
102
RTVSPropertyOp2
 70
     1
102
RTVSPropertyOp3
 70
     1
102
RTVSPropertyOp4
 70
     1
102
RTVSPropertyOp5
 70
     1
102
RTVSPropertyOp6
 70
     1
102
RTVSPropertyOp7
 70
     1
102
RTVSPropertyOp8
 70
     1
102
RTVSPropertyOp9
 70
     1
102
RTVSPropertyOp10
 70
     1
102
RTVSPropertyOp11
 70
     1
102
RTVSPropertyOp12
 70
     1
102
RTVSPropertyOp13
 70
     1
102
RTVSPropertyOp14
 70
     1
102
RTVSPropertyOp15
 70
     1
102
RTVSPropertyOp16
 70
     1
102
RTVSPropertyOp17
 70
     1
102
RTVSPropertyOp18
 70
     1
102
RTVSPropertyOp19
 70
     1
102
RTVSPropertyOp20
 70
     1
102
RTVSPropertyOp21
 70
     1
102
RTVSPropertyOp22
 70
     1
102
RTVSPropertyOp23
 70
     1
102
RTVSPropertyOp24
 70
     1
102
RTVSPropertyOp25
 70
     1
102
RTVSPropertyOp26
 70
     1
102
RTVSPropertyOp27
 70
     1
102
RTVSPropertyOp28
 70
     1
102
RTVSPropertyOp29
 70
     1
102
RTVSPropertyOp30
 70
     1
102
RTVSPropertyOp31
 70
     1
102
RTVSPropertyOp32
 70
     1
102
RTVSPropertyOp33
 70
     1
102
RTVSPropertyOp34
 70
     1
102
RTVSPropertyOp35
 70
     1
102
RTVSPropertyOp36
 70
     1
102
RTVSPropertyOp37
 70
     1
102
RTVSPropertyOp38
 70
     1
102
RTVSPropertyOp39
 70
     1
102
RTVSPropertyOp40
 70
     1
102
RTVSPropertyOp41
 70
     1
102
RTVSPropertyOp42
 70
     1
102
RTVSPropertyOp43
 70
     1
102
RTVSPropertyOp44
 70
     1
102
RTVSPropertyOp45
 70
     1
102
RTVSPropertyOp46
 70
     1
102
RTVSPropertyOp47
 70
     1
102
RTVSPropertyOp48
 70
     1
102
RTVSPropertyOp49
 70
     1
102
RTVSPropertyOp50
 70
     1
102
RTVSPropertyOp51
 70
     0
102
RTVSPropertyOp52
 70
     0
102
RTVSPropertyOp53
 70
     1
102
RTVSPropertyOp54
 70
     1
102
RTVSPropertyOp55
 70
     1
102
RTVSPropertyOp56
 70
     1
102
RTVSPropertyOp57
 70
     1
102
RTVSPropertyOp58
 70
     1
102
RTVSPropertyOp59
 70
     1
102
RTVSPropertyOp60
 70
     1
102
RTVSPropertyOp61
 70
     1
102
RTVSPropertyOp62
 70
     1
  0
XRECORD
  5
37C7
102
{ACAD_REACTORS
330
37C6
102
}
330
37C6
100
AcDbXrecord
280
     1
102
RTVSPost2010Prop28
280
     0
102
RTVSPost2010PropOp28
 70
     1
102
RTVSPost2010Prop29
280
     1
102
RTVSPost2010PropOp29
 70
     1
102
RTVSPost2010Prop30
280
     1
102
RTVSPost2010PropOp30
 70
     1
102
RTVSPost2010Prop31
280
     0
102
RTVSPost2010PropOp31
 70
     1
102
RTVSPost2010Prop32
280
     0
102
RTVSPost2010PropOp32
 70
     1
102
RTVSPost2010Prop33
280
     0
102
RTVSPost2010PropOp33
 70
     1
102
RTVSPost2010Prop34
280
     0
102
RTVSPost2010PropOp34
 70
     1
102
RTVSPost2010Prop35
280
     0
102
RTVSPost2010PropOp35
 70
     1
102
RTVSPost2010Prop36
280
     0
102
RTVSPost2010PropOp36
 70
     1
102
RTVSPost2010Prop37
 90
       50
102
RTVSPost2010PropOp37
 70
     1
102
RTVSPost2010Prop38
140
0.0
102
RTVSPost2010PropOp38
 70
     1
102
RTVSPost2010Prop39
140
1.0
102
RTVSPost2010PropOp39
 70
     1
102
RTVSPost2010Prop40
 90
        0
102
RTVSPost2010PropOp40
 70
     1
102
RTVSPost2010Prop41ColorIndex
 90
       18
102
RTVSPost2010Prop41ColorRGB
 90
        0
102
RTVSPost2010PropOp41
 70
     1
102
RTVSPost2010Prop42
 90
       50
102
RTVSPost2010PropOp42
 70
     1
102
RTVSPost2010Prop43
 90
        3
102
RTVSPost2010PropOp43
 70
     1
102
RTVSPost2010Prop44ColorIndex
 90
        5
102
RTVSPost2010Prop44ColorRGB
 90
      255
102
RTVSPost2010PropOp44
 70
     1
102
RTVSPost2010Prop45
280
     0
102
RTVSPost2010PropOp45
 70
     1
102
RTVSPost2010Prop46
 90
       50
102
RTVSPost2010PropOp46
 70
     1
102
RTVSPost2010Prop47
 90
       50
102
RTVSPost2010PropOp47
 70
     1
102
RTVSPost2010Prop48
 90
       50
102
RTVSPost2010PropOp48
 70
     1
102
RTVSPost2010Prop49
280
     0
102
RTVSPost2010PropOp49
 70
     1
102
RTVSPost2010Prop50
 90
       50
102
RTVSPost2010PropOp50
 70
     1
102
RTVSPost2010Prop51ColorIndex
 90
      256
102
RTVSPost2010Prop51ColorRGB
 90
-16777216
102
RTVSPost2010PropOp51
 70
     0
102
RTVSPost2010Prop52
140
1.0
102
RTVSPost2010PropOp52
 70
     0
102
RTVSPost2010Prop53
 90
        2
102
RTVSPost2010PropOp53
 70
     1
102
RTVSPost2010Prop54
  1
strokes_ogs.tif
102
RTVSPost2010PropOp54
 70
     1
102
RTVSPost2010Prop55
280
     0
102
RTVSPost2010PropOp55
 70
     1
102
RTVSPost2010Prop56
140
1.0
102
RTVSPost2010PropOp56
 70
     1
102
RTVSPost2010Prop57
140
1.0
102
RTVSPost2010PropOp57
 70
     1
102
RTVSPropertyOp0
 70
     1
102
RTVSPropertyOp1
 70
     1
102
RTVSPropertyOp2
 70
     1
102
RTVSPropertyOp3
 70
     1
102
RTVSPropertyOp4
 70
     1
102
RTVSPropertyOp5
 70
     1
102
RTVSPropertyOp6
 70
     1
102
RTVSPropertyOp7
 70
     1
102
RTVSPropertyOp8
 70
     1
102
RTVSPropertyOp9
 70
     1
102
RTVSPropertyOp10
 70
     1
102
RTVSPropertyOp11
 70
     1
102
RTVSPropertyOp12
 70
     1
102
RTVSPropertyOp13
 70
     1
102
RTVSPropertyOp14
 70
     1
102
RTVSPropertyOp15
 70
     1
102
RTVSPropertyOp16
 70
     1
102
RTVSPropertyOp17
 70
     1
102
RTVSPropertyOp18
 70
     1
102
RTVSPropertyOp19
 70
     1
102
RTVSPropertyOp20
 70
     1
102
RTVSPropertyOp21
 70
     1
102
RTVSPropertyOp22
 70
     1
102
RTVSPropertyOp23
 70
     1
102
RTVSPropertyOp24
 70
     1
102
RTVSPropertyOp25
 70
     1
102
RTVSPropertyOp26
 70
     1
102
RTVSPropertyOp27
 70
     1
102
RTVSPropertyOp28
 70
     1
102
RTVSPropertyOp29
 70
     1
102
RTVSPropertyOp30
 70
     1
102
RTVSPropertyOp31
 70
     1
102
RTVSPropertyOp32
 70
     1
102
RTVSPropertyOp33
 70
     1
102
RTVSPropertyOp34
 70
     1
102
RTVSPropertyOp35
 70
     1
102
RTVSPropertyOp36
 70
     1
102
RTVSPropertyOp37
 70
     1
102
RTVSPropertyOp38
 70
     1
102
RTVSPropertyOp39
 70
     1
102
RTVSPropertyOp40
 70
     1
102
RTVSPropertyOp41
 70
     1
102
RTVSPropertyOp42
 70
     1
102
RTVSPropertyOp43
 70
     1
102
RTVSPropertyOp44
 70
     1
102
RTVSPropertyOp45
 70
     1
102
RTVSPropertyOp46
 70
     1
102
RTVSPropertyOp47
 70
     1
102
RTVSPropertyOp48
 70
     1
102
RTVSPropertyOp49
 70
     1
102
RTVSPropertyOp50
 70
     1
102
RTVSPropertyOp51
 70
     0
102
RTVSPropertyOp52
 70
     0
102
RTVSPropertyOp53
 70
     1
102
RTVSPropertyOp54
 70
     1
102
RTVSPropertyOp55
 70
     1
102
RTVSPropertyOp56
 70
     1
102
RTVSPropertyOp57
 70
     1
102
RTVSPropertyOp58
 70
     1
102
RTVSPropertyOp59
 70
     1
102
RTVSPropertyOp60
 70
     1
102
RTVSPropertyOp61
 70
     1
102
RTVSPropertyOp62
 70
     1
  0
XRECORD
  5
37CF
102
{ACAD_REACTORS
330
37CE
102
}
330
37CE
100
AcDbXrecord
280
     1
102
RTVSPost2010Prop28
280
     0
102
RTVSPost2010PropOp28
 70
     1
102
RTVSPost2010Prop29
280
     1
102
RTVSPost2010PropOp29
 70
     1
102
RTVSPost2010Prop30
280
     1
102
RTVSPost2010PropOp30
 70
     1
102
RTVSPost2010Prop31
280
     0
102
RTVSPost2010PropOp31
 70
     1
102
RTVSPost2010Prop32
280
     0
102
RTVSPost2010PropOp32
 70
     1
102
RTVSPost2010Prop33
280
     0
102
RTVSPost2010PropOp33
 70
     1
102
RTVSPost2010Prop34
280
     0
102
RTVSPost2010PropOp34
 70
     1
102
RTVSPost2010Prop35
280
     0
102
RTVSPost2010PropOp35
 70
     1
102
RTVSPost2010Prop36
280
     0
102
RTVSPost2010PropOp36
 70
     1
102
RTVSPost2010Prop37
 90
       50
102
RTVSPost2010PropOp37
 70
     1
102
RTVSPost2010Prop38
140
0.0
102
RTVSPost2010PropOp38
 70
     1
102
RTVSPost2010Prop39
140
1.0
102
RTVSPost2010PropOp39
 70
     1
102
RTVSPost2010Prop40
 90
        0
102
RTVSPost2010PropOp40
 70
     1
102
RTVSPost2010Prop41ColorIndex
 90
       18
102
RTVSPost2010Prop41ColorRGB
 90
        0
102
RTVSPost2010PropOp41
 70
     1
102
RTVSPost2010Prop42
 90
       50
102
RTVSPost2010PropOp42
 70
     1
102
RTVSPost2010Prop43
 90
        3
102
RTVSPost2010PropOp43
 70
     1
102
RTVSPost2010Prop44ColorIndex
 90
        5
102
RTVSPost2010Prop44ColorRGB
 90
      255
102
RTVSPost2010PropOp44
 70
     1
102
RTVSPost2010Prop45
280
     0
102
RTVSPost2010PropOp45
 70
     1
102
RTVSPost2010Prop46
 90
       50
102
RTVSPost2010PropOp46
 70
     1
102
RTVSPost2010Prop47
 90
       50
102
RTVSPost2010PropOp47
 70
     1
102
RTVSPost2010Prop48
 90
       50
102
RTVSPost2010PropOp48
 70
     1
102
RTVSPost2010Prop49
280
     0
102
RTVSPost2010PropOp49
 70
     1
102
RTVSPost2010Prop50
 90
       50
102
RTVSPost2010PropOp50
 70
     1
102
RTVSPost2010Prop51ColorIndex
 90
      256
102
RTVSPost2010Prop51ColorRGB
 90
-16777216
102
RTVSPost2010PropOp51
 70
     0
102
RTVSPost2010Prop52
140
1.0
102
RTVSPost2010PropOp52
 70
     0
102
RTVSPost2010Prop53
 90
        2
102
RTVSPost2010PropOp53
 70
     1
102
RTVSPost2010Prop54
  1
strokes_ogs.tif
102
RTVSPost2010PropOp54
 70
     1
102
RTVSPost2010Prop55
280
     0
102
RTVSPost2010PropOp55
 70
     1
102
RTVSPost2010Prop56
140
1.0
102
RTVSPost2010PropOp56
 70
     1
102
RTVSPost2010Prop57
140
1.0
102
RTVSPost2010PropOp57
 70
     1
102
RTVSPropertyOp0
 70
     1
102
RTVSPropertyOp1
 70
     1
102
RTVSPropertyOp2
 70
     1
102
RTVSPropertyOp3
 70
     1
102
RTVSPropertyOp4
 70
     1
102
RTVSPropertyOp5
 70
     1
102
RTVSPropertyOp6
 70
     1
102
RTVSPropertyOp7
 70
     1
102
RTVSPropertyOp8
 70
     1
102
RTVSPropertyOp9
 70
     1
102
RTVSPropertyOp10
 70
     1
102
RTVSPropertyOp11
 70
     1
102
RTVSPropertyOp12
 70
     1
102
RTVSPropertyOp13
 70
     1
102
RTVSPropertyOp14
 70
     1
102
RTVSPropertyOp15
 70
     1
102
RTVSPropertyOp16
 70
     1
102
RTVSPropertyOp17
 70
     1
102
RTVSPropertyOp18
 70
     1
102
RTVSPropertyOp19
 70
     1
102
RTVSPropertyOp20
 70
     1
102
RTVSPropertyOp21
 70
     1
102
RTVSPropertyOp22
 70
     1
102
RTVSPropertyOp23
 70
     1
102
RTVSPropertyOp24
 70
     1
102
RTVSPropertyOp25
 70
     1
102
RTVSPropertyOp26
 70
     1
102
RTVSPropertyOp27
 70
     1
102
RTVSPropertyOp28
 70
     1
102
RTVSPropertyOp29
 70
     1
102
RTVSPropertyOp30
 70
     1
102
RTVSPropertyOp31
 70
     1
102
RTVSPropertyOp32
 70
     1
102
RTVSPropertyOp33
 70
     1
102
RTVSPropertyOp34
 70
     1
102
RTVSPropertyOp35
 70
     1
102
RTVSPropertyOp36
 70
     1
102
RTVSPropertyOp37
 70
     1
102
RTVSPropertyOp38
 70
     1
102
RTVSPropertyOp39
 70
     1
102
RTVSPropertyOp40
 70
     1
102
RTVSPropertyOp41
 70
     1
102
RTVSPropertyOp42
 70
     1
102
RTVSPropertyOp43
 70
     1
102
RTVSPropertyOp44
 70
     1
102
RTVSPropertyOp45
 70
     1
102
RTVSPropertyOp46
 70
     1
102
RTVSPropertyOp47
 70
     1
102
RTVSPropertyOp48
 70
     1
102
RTVSPropertyOp49
 70
     1
102
RTVSPropertyOp50
 70
     1
102
RTVSPropertyOp51
 70
     0
102
RTVSPropertyOp52
 70
     0
102
RTVSPropertyOp53
 70
     1
102
RTVSPropertyOp54
 70
     1
102
RTVSPropertyOp55
 70
     1
102
RTVSPropertyOp56
 70
     1
102
RTVSPropertyOp57
 70
     1
102
RTVSPropertyOp58
 70
     1
102
RTVSPropertyOp59
 70
     1
102
RTVSPropertyOp60
 70
     1
102
RTVSPropertyOp61
 70
     1
102
RTVSPropertyOp62
 70
     1
  0
XRECORD
  5
37EB
102
{ACAD_REACTORS
330
37EA
102
}
330
37EA
100
AcDbXrecord
280
     1
102
RTVSPost2010Prop28
280
     0
102
RTVSPost2010PropOp28
 70
     1
102
RTVSPost2010Prop29
280
     1
102
RTVSPost2010PropOp29
 70
     1
102
RTVSPost2010Prop30
280
     1
102
RTVSPost2010PropOp30
 70
     1
102
RTVSPost2010Prop31
280
     0
102
RTVSPost2010PropOp31
 70
     1
102
RTVSPost2010Prop32
280
     0
102
RTVSPost2010PropOp32
 70
     1
102
RTVSPost2010Prop33
280
     0
102
RTVSPost2010PropOp33
 70
     1
102
RTVSPost2010Prop34
280
     0
102
RTVSPost2010PropOp34
 70
     1
102
RTVSPost2010Prop35
280
     0
102
RTVSPost2010PropOp35
 70
     1
102
RTVSPost2010Prop36
280
     0
102
RTVSPost2010PropOp36
 70
     1
102
RTVSPost2010Prop37
 90
       50
102
RTVSPost2010PropOp37
 70
     0
102
RTVSPost2010Prop38
140
0.0
102
RTVSPost2010PropOp38
 70
     0
102
RTVSPost2010Prop39
140
1.0
102
RTVSPost2010PropOp39
 70
     0
102
RTVSPost2010Prop40
 90
        0
102
RTVSPost2010PropOp40
 70
     0
102
RTVSPost2010Prop41ColorIndex
 90
       18
102
RTVSPost2010Prop41ColorRGB
 90
        0
102
RTVSPost2010PropOp41
 70
     0
102
RTVSPost2010Prop42
 90
       50
102
RTVSPost2010PropOp42
 70
     0
102
RTVSPost2010Prop43
 90
        3
102
RTVSPost2010PropOp43
 70
     0
102
RTVSPost2010Prop44ColorIndex
 90
        5
102
RTVSPost2010Prop44ColorRGB
 90
      255
102
RTVSPost2010PropOp44
 70
     0
102
RTVSPost2010Prop45
280
     0
102
RTVSPost2010PropOp45
 70
     1
102
RTVSPost2010Prop46
 90
       50
102
RTVSPost2010PropOp46
 70
     0
102
RTVSPost2010Prop47
 90
       50
102
RTVSPost2010PropOp47
 70
     0
102
RTVSPost2010Prop48
 90
       50
102
RTVSPost2010PropOp48
 70
     0
102
RTVSPost2010Prop49
280
     0
102
RTVSPost2010PropOp49
 70
     1
102
RTVSPost2010Prop50
 90
       50
102
RTVSPost2010PropOp50
 70
     0
102
RTVSPost2010Prop51ColorIndex
 90
      256
102
RTVSPost2010Prop51ColorRGB
 90
-16777216
102
RTVSPost2010PropOp51
 70
     0
102
RTVSPost2010Prop52
140
1.0
102
RTVSPost2010PropOp52
 70
     0
102
RTVSPost2010Prop53
 90
        2
102
RTVSPost2010PropOp53
 70
     0
102
RTVSPost2010Prop54
  1
strokes_ogs.tif
102
RTVSPost2010PropOp54
 70
     0
102
RTVSPost2010Prop55
280
     0
102
RTVSPost2010PropOp55
 70
     1
102
RTVSPost2010Prop56
140
1.0
102
RTVSPost2010PropOp56
 70
     0
102
RTVSPost2010Prop57
140
1.0
102
RTVSPost2010PropOp57
 70
     0
102
RTVSPropertyOp0
 70
     0
102
RTVSPropertyOp1
 70
     0
102
RTVSPropertyOp2
 70
     0
102
RTVSPropertyOp3
 70
     0
102
RTVSPropertyOp4
 70
     0
102
RTVSPropertyOp5
 70
     0
102
RTVSPropertyOp6
 70
     0
102
RTVSPropertyOp7
 70
     0
102
RTVSPropertyOp8
 70
     0
102
RTVSPropertyOp9
 70
     0
102
RTVSPropertyOp10
 70
     0
102
RTVSPropertyOp11
 70
     0
102
RTVSPropertyOp12
 70
     0
102
RTVSPropertyOp13
 70
     0
102
RTVSPropertyOp14
 70
     2
102
RTVSPropertyOp15
 70
     0
102
RTVSPropertyOp16
 70
     0
102
RTVSPropertyOp17
 70
     0
102
RTVSPropertyOp18
 70
     0
102
RTVSPropertyOp19
 70
     0
102
RTVSPropertyOp20
 70
     0
102
RTVSPropertyOp21
 70
     0
102
RTVSPropertyOp22
 70
     0
102
RTVSPropertyOp23
 70
     0
102
RTVSPropertyOp24
 70
     0
102
RTVSPropertyOp25
 70
     0
102
RTVSPropertyOp26
 70
     0
102
RTVSPropertyOp27
 70
     0
102
RTVSPropertyOp28
 70
     1
102
RTVSPropertyOp29
 70
     1
102
RTVSPropertyOp30
 70
     1
102
RTVSPropertyOp31
 70
     1
102
RTVSPropertyOp32
 70
     1
102
RTVSPropertyOp33
 70
     1
102
RTVSPropertyOp34
 70
     1
102
RTVSPropertyOp35
 70
     1
102
RTVSPropertyOp36
 70
     1
102
RTVSPropertyOp37
 70
     0
102
RTVSPropertyOp38
 70
     0
102
RTVSPropertyOp39
 70
     0
102
RTVSPropertyOp40
 70
     0
102
RTVSPropertyOp41
 70
     0
102
RTVSPropertyOp42
 70
     0
102
RTVSPropertyOp43
 70
     0
102
RTVSPropertyOp44
 70
     0
102
RTVSPropertyOp45
 70
     1
102
RTVSPropertyOp46
 70
     0
102
RTVSPropertyOp47
 70
     0
102
RTVSPropertyOp48
 70
     0
102
RTVSPropertyOp49
 70
     1
102
RTVSPropertyOp50
 70
     0
102
RTVSPropertyOp51
 70
     0
102
RTVSPropertyOp52
 70
     0
102
RTVSPropertyOp53
 70
     0
102
RTVSPropertyOp54
 70
     0
102
RTVSPropertyOp55
 70
     1
102
RTVSPropertyOp56
 70
     0
102
RTVSPropertyOp57
 70
     0
102
RTVSPropertyOp58
 70
     0
102
RTVSPropertyOp59
 70
     0
102
RTVSPropertyOp60
 70
     0
102
RTVSPropertyOp61
 70
     0
102
RTVSPropertyOp62
 70
     0
  0
XRECORD
  5
37DB
102
{ACAD_REACTORS
330
37DA
102
}
330
37DA
100
AcDbXrecord
280
     1
102
RTVSPost2010Prop28
280
     0
102
RTVSPost2010PropOp28
 70
     1
102
RTVSPost2010Prop29
280
     1
102
RTVSPost2010PropOp29
 70
     1
102
RTVSPost2010Prop30
280
     1
102
RTVSPost2010PropOp30
 70
     1
102
RTVSPost2010Prop31
280
     0
102
RTVSPost2010PropOp31
 70
     1
102
RTVSPost2010Prop32
280
     0
102
RTVSPost2010PropOp32
 70
     1
102
RTVSPost2010Prop33
280
     0
102
RTVSPost2010PropOp33
 70
     1
102
RTVSPost2010Prop34
280
     0
102
RTVSPost2010PropOp34
 70
     1
102
RTVSPost2010Prop35
280
     0
102
RTVSPost2010PropOp35
 70
     1
102
RTVSPost2010Prop36
280
     0
102
RTVSPost2010PropOp36
 70
     1
102
RTVSPost2010Prop37
 90
       50
102
RTVSPost2010PropOp37
 70
     1
102
RTVSPost2010Prop38
140
0.0
102
RTVSPost2010PropOp38
 70
     1
102
RTVSPost2010Prop39
140
1.0
102
RTVSPost2010PropOp39
 70
     1
102
RTVSPost2010Prop40
 90
        0
102
RTVSPost2010PropOp40
 70
     1
102
RTVSPost2010Prop41ColorIndex
 90
       18
102
RTVSPost2010Prop41ColorRGB
 90
        0
102
RTVSPost2010PropOp41
 70
     1
102
RTVSPost2010Prop42
 90
       50
102
RTVSPost2010PropOp42
 70
     1
102
RTVSPost2010Prop43
 90
        3
102
RTVSPost2010PropOp43
 70
     1
102
RTVSPost2010Prop44ColorIndex
 90
        5
102
RTVSPost2010Prop44ColorRGB
 90
      255
102
RTVSPost2010PropOp44
 70
     1
102
RTVSPost2010Prop45
280
     0
102
RTVSPost2010PropOp45
 70
     1
102
RTVSPost2010Prop46
 90
       50
102
RTVSPost2010PropOp46
 70
     1
102
RTVSPost2010Prop47
 90
       50
102
RTVSPost2010PropOp47
 70
     1
102
RTVSPost2010Prop48
 90
       50
102
RTVSPost2010PropOp48
 70
     1
102
RTVSPost2010Prop49
280
     0
102
RTVSPost2010PropOp49
 70
     1
102
RTVSPost2010Prop50
 90
       50
102
RTVSPost2010PropOp50
 70
     1
102
RTVSPost2010Prop51ColorIndex
 90
      256
102
RTVSPost2010Prop51ColorRGB
 90
-16777216
102
RTVSPost2010PropOp51
 70
     0
102
RTVSPost2010Prop52
140
1.0
102
RTVSPost2010PropOp52
 70
     0
102
RTVSPost2010Prop53
 90
        2
102
RTVSPost2010PropOp53
 70
     1
102
RTVSPost2010Prop54
  1
strokes_ogs.tif
102
RTVSPost2010PropOp54
 70
     1
102
RTVSPost2010Prop55
280
     0
102
RTVSPost2010PropOp55
 70
     1
102
RTVSPost2010Prop56
140
1.0
102
RTVSPost2010PropOp56
 70
     1
102
RTVSPost2010Prop57
140
1.0
102
RTVSPost2010PropOp57
 70
     1
102
RTVSPropertyOp0
 70
     1
102
RTVSPropertyOp1
 70
     1
102
RTVSPropertyOp2
 70
     1
102
RTVSPropertyOp3
 70
     1
102
RTVSPropertyOp4
 70
     1
102
RTVSPropertyOp5
 70
     1
102
RTVSPropertyOp6
 70
     1
102
RTVSPropertyOp7
 70
     1
102
RTVSPropertyOp8
 70
     1
102
RTVSPropertyOp9
 70
     1
102
RTVSPropertyOp10
 70
     1
102
RTVSPropertyOp11
 70
     1
102
RTVSPropertyOp12
 70
     1
102
RTVSPropertyOp13
 70
     1
102
RTVSPropertyOp14
 70
     1
102
RTVSPropertyOp15
 70
     1
102
RTVSPropertyOp16
 70
     1
102
RTVSPropertyOp17
 70
     1
102
RTVSPropertyOp18
 70
     1
102
RTVSPropertyOp19
 70
     1
102
RTVSPropertyOp20
 70
     1
102
RTVSPropertyOp21
 70
     1
102
RTVSPropertyOp22
 70
     1
102
RTVSPropertyOp23
 70
     1
102
RTVSPropertyOp24
 70
     1
102
RTVSPropertyOp25
 70
     1
102
RTVSPropertyOp26
 70
     1
102
RTVSPropertyOp27
 70
     1
102
RTVSPropertyOp28
 70
     1
102
RTVSPropertyOp29
 70
     1
102
RTVSPropertyOp30
 70
     1
102
RTVSPropertyOp31
 70
     1
102
RTVSPropertyOp32
 70
     1
102
RTVSPropertyOp33
 70
     1
102
RTVSPropertyOp34
 70
     1
102
RTVSPropertyOp35
 70
     1
102
RTVSPropertyOp36
 70
     1
102
RTVSPropertyOp37
 70
     1
102
RTVSPropertyOp38
 70
     1
102
RTVSPropertyOp39
 70
     1
102
RTVSPropertyOp40
 70
     1
102
RTVSPropertyOp41
 70
     1
102
RTVSPropertyOp42
 70
     1
102
RTVSPropertyOp43
 70
     1
102
RTVSPropertyOp44
 70
     1
102
RTVSPropertyOp45
 70
     1
102
RTVSPropertyOp46
 70
     1
102
RTVSPropertyOp47
 70
     1
102
RTVSPropertyOp48
 70
     1
102
RTVSPropertyOp49
 70
     1
102
RTVSPropertyOp50
 70
     1
102
RTVSPropertyOp51
 70
     0
102
RTVSPropertyOp52
 70
     0
102
RTVSPropertyOp53
 70
     1
102
RTVSPropertyOp54
 70
     1
102
RTVSPropertyOp55
 70
     1
102
RTVSPropertyOp56
 70
     1
102
RTVSPropertyOp57
 70
     1
102
RTVSPropertyOp58
 70
     1
102
RTVSPropertyOp59
 70
     1
102
RTVSPropertyOp60
 70
     1
102
RTVSPropertyOp61
 70
     1
102
RTVSPropertyOp62
 70
     1
  0
XRECORD
  5
37ED
102
{ACAD_REACTORS
330
37EC
102
}
330
37EC
100
AcDbXrecord
280
     1
102
RTVSPost2010Prop28
280
     0
102
RTVSPost2010PropOp28
 70
     1
102
RTVSPost2010Prop29
280
     1
102
RTVSPost2010PropOp29
 70
     1
102
RTVSPost2010Prop30
280
     1
102
RTVSPost2010PropOp30
 70
     1
102
RTVSPost2010Prop31
280
     0
102
RTVSPost2010PropOp31
 70
     1
102
RTVSPost2010Prop32
280
     0
102
RTVSPost2010PropOp32
 70
     1
102
RTVSPost2010Prop33
280
     0
102
RTVSPost2010PropOp33
 70
     1
102
RTVSPost2010Prop34
280
     0
102
RTVSPost2010PropOp34
 70
     1
102
RTVSPost2010Prop35
280
     0
102
RTVSPost2010PropOp35
 70
     1
102
RTVSPost2010Prop36
280
     0
102
RTVSPost2010PropOp36
 70
     1
102
RTVSPost2010Prop37
 90
       50
102
RTVSPost2010PropOp37
 70
     0
102
RTVSPost2010Prop38
140
0.0
102
RTVSPost2010PropOp38
 70
     0
102
RTVSPost2010Prop39
140
1.0
102
RTVSPost2010PropOp39
 70
     0
102
RTVSPost2010Prop40
 90
        0
102
RTVSPost2010PropOp40
 70
     0
102
RTVSPost2010Prop41ColorIndex
 90
       18
102
RTVSPost2010Prop41ColorRGB
 90
        0
102
RTVSPost2010PropOp41
 70
     0
102
RTVSPost2010Prop42
 90
       50
102
RTVSPost2010PropOp42
 70
     0
102
RTVSPost2010Prop43
 90
        3
102
RTVSPost2010PropOp43
 70
     0
102
RTVSPost2010Prop44ColorIndex
 90
        5
102
RTVSPost2010Prop44ColorRGB
 90
      255
102
RTVSPost2010PropOp44
 70
     0
102
RTVSPost2010Prop45
280
     0
102
RTVSPost2010PropOp45
 70
     1
102
RTVSPost2010Prop46
 90
       50
102
RTVSPost2010PropOp46
 70
     0
102
RTVSPost2010Prop47
 90
       50
102
RTVSPost2010PropOp47
 70
     0
102
RTVSPost2010Prop48
 90
       50
102
RTVSPost2010PropOp48
 70
     0
102
RTVSPost2010Prop49
280
     0
102
RTVSPost2010PropOp49
 70
     1
102
RTVSPost2010Prop50
 90
       50
102
RTVSPost2010PropOp50
 70
     0
102
RTVSPost2010Prop51ColorIndex
 90
      256
102
RTVSPost2010Prop51ColorRGB
 90
-16777216
102
RTVSPost2010PropOp51
 70
     0
102
RTVSPost2010Prop52
140
1.0
102
RTVSPost2010PropOp52
 70
     0
102
RTVSPost2010Prop53
 90
        2
102
RTVSPost2010PropOp53
 70
     0
102
RTVSPost2010Prop54
  1
strokes_ogs.tif
102
RTVSPost2010PropOp54
 70
     0
102
RTVSPost2010Prop55
280
     0
102
RTVSPost2010PropOp55
 70
     1
102
RTVSPost2010Prop56
140
1.0
102
RTVSPost2010PropOp56
 70
     0
102
RTVSPost2010Prop57
140
1.0
102
RTVSPost2010PropOp57
 70
     0
102
RTVSPropertyOp0
 70
     0
102
RTVSPropertyOp1
 70
     0
102
RTVSPropertyOp2
 70
     0
102
RTVSPropertyOp3
 70
     0
102
RTVSPropertyOp4
 70
     0
102
RTVSPropertyOp5
 70
     0
102
RTVSPropertyOp6
 70
     0
102
RTVSPropertyOp7
 70
     0
102
RTVSPropertyOp8
 70
     0
102
RTVSPropertyOp9
 70
     0
102
RTVSPropertyOp10
 70
     0
102
RTVSPropertyOp11
 70
     0
102
RTVSPropertyOp12
 70
     0
102
RTVSPropertyOp13
 70
     0
102
RTVSPropertyOp14
 70
     2
102
RTVSPropertyOp15
 70
     0
102
RTVSPropertyOp16
 70
     0
102
RTVSPropertyOp17
 70
     0
102
RTVSPropertyOp18
 70
     0
102
RTVSPropertyOp19
 70
     0
102
RTVSPropertyOp20
 70
     0
102
RTVSPropertyOp21
 70
     0
102
RTVSPropertyOp22
 70
     0
102
RTVSPropertyOp23
 70
     0
102
RTVSPropertyOp24
 70
     0
102
RTVSPropertyOp25
 70
     0
102
RTVSPropertyOp26
 70
     0
102
RTVSPropertyOp27
 70
     0
102
RTVSPropertyOp28
 70
     1
102
RTVSPropertyOp29
 70
     1
102
RTVSPropertyOp30
 70
     1
102
RTVSPropertyOp31
 70
     1
102
RTVSPropertyOp32
 70
     1
102
RTVSPropertyOp33
 70
     1
102
RTVSPropertyOp34
 70
     1
102
RTVSPropertyOp35
 70
     1
102
RTVSPropertyOp36
 70
     1
102
RTVSPropertyOp37
 70
     0
102
RTVSPropertyOp38
 70
     0
102
RTVSPropertyOp39
 70
     0
102
RTVSPropertyOp40
 70
     0
102
RTVSPropertyOp41
 70
     0
102
RTVSPropertyOp42
 70
     0
102
RTVSPropertyOp43
 70
     0
102
RTVSPropertyOp44
 70
     0
102
RTVSPropertyOp45
 70
     1
102
RTVSPropertyOp46
 70
     0
102
RTVSPropertyOp47
 70
     0
102
RTVSPropertyOp48
 70
     0
102
RTVSPropertyOp49
 70
     1
102
RTVSPropertyOp50
 70
     0
102
RTVSPropertyOp51
 70
     0
102
RTVSPropertyOp52
 70
     0
102
RTVSPropertyOp53
 70
     0
102
RTVSPropertyOp54
 70
     0
102
RTVSPropertyOp55
 70
     1
102
RTVSPropertyOp56
 70
     0
102
RTVSPropertyOp57
 70
     0
102
RTVSPropertyOp58
 70
     0
102
RTVSPropertyOp59
 70
     0
102
RTVSPropertyOp60
 70
     0
102
RTVSPropertyOp61
 70
     0
102
RTVSPropertyOp62
 70
     0
  0
XRECORD
  5
37D3
102
{ACAD_REACTORS
330
37D2
102
}
330
37D2
100
AcDbXrecord
280
     1
102
RTVSPost2010Prop28
280
     0
102
RTVSPost2010PropOp28
 70
     1
102
RTVSPost2010Prop29
280
     1
102
RTVSPost2010PropOp29
 70
     1
102
RTVSPost2010Prop30
280
     1
102
RTVSPost2010PropOp30
 70
     1
102
RTVSPost2010Prop31
280
     0
102
RTVSPost2010PropOp31
 70
     1
102
RTVSPost2010Prop32
280
     0
102
RTVSPost2010PropOp32
 70
     1
102
RTVSPost2010Prop33
280
     0
102
RTVSPost2010PropOp33
 70
     1
102
RTVSPost2010Prop34
280
     0
102
RTVSPost2010PropOp34
 70
     1
102
RTVSPost2010Prop35
280
     0
102
RTVSPost2010PropOp35
 70
     1
102
RTVSPost2010Prop36
280
     0
102
RTVSPost2010PropOp36
 70
     1
102
RTVSPost2010Prop37
 90
       50
102
RTVSPost2010PropOp37
 70
     1
102
RTVSPost2010Prop38
140
0.0
102
RTVSPost2010PropOp38
 70
     1
102
RTVSPost2010Prop39
140
1.0
102
RTVSPost2010PropOp39
 70
     1
102
RTVSPost2010Prop40
 90
        0
102
RTVSPost2010PropOp40
 70
     1
102
RTVSPost2010Prop41ColorIndex
 90
       18
102
RTVSPost2010Prop41ColorRGB
 90
        0
102
RTVSPost2010PropOp41
 70
     1
102
RTVSPost2010Prop42
 90
       50
102
RTVSPost2010PropOp42
 70
     1
102
RTVSPost2010Prop43
 90
        3
102
RTVSPost2010PropOp43
 70
     1
102
RTVSPost2010Prop44ColorIndex
 90
        5
102
RTVSPost2010Prop44ColorRGB
 90
      255
102
RTVSPost2010PropOp44
 70
     1
102
RTVSPost2010Prop45
280
     0
102
RTVSPost2010PropOp45
 70
     1
102
RTVSPost2010Prop46
 90
       50
102
RTVSPost2010PropOp46
 70
     1
102
RTVSPost2010Prop47
 90
       50
102
RTVSPost2010PropOp47
 70
     1
102
RTVSPost2010Prop48
 90
       50
102
RTVSPost2010PropOp48
 70
     1
102
RTVSPost2010Prop49
280
     0
102
RTVSPost2010PropOp49
 70
     1
102
RTVSPost2010Prop50
 90
       50
102
RTVSPost2010PropOp50
 70
     1
102
RTVSPost2010Prop51ColorIndex
 90
      256
102
RTVSPost2010Prop51ColorRGB
 90
-16777216
102
RTVSPost2010PropOp51
 70
     0
102
RTVSPost2010Prop52
140
1.0
102
RTVSPost2010PropOp52
 70
     0
102
RTVSPost2010Prop53
 90
        2
102
RTVSPost2010PropOp53
 70
     1
102
RTVSPost2010Prop54
  1
strokes_ogs.tif
102
RTVSPost2010PropOp54
 70
     1
102
RTVSPost2010Prop55
280
     0
102
RTVSPost2010PropOp55
 70
     1
102
RTVSPost2010Prop56
140
1.0
102
RTVSPost2010PropOp56
 70
     1
102
RTVSPost2010Prop57
140
1.0
102
RTVSPost2010PropOp57
 70
     1
102
RTVSPropertyOp0
 70
     1
102
RTVSPropertyOp1
 70
     1
102
RTVSPropertyOp2
 70
     1
102
RTVSPropertyOp3
 70
     1
102
RTVSPropertyOp4
 70
     1
102
RTVSPropertyOp5
 70
     1
102
RTVSPropertyOp6
 70
     1
102
RTVSPropertyOp7
 70
     1
102
RTVSPropertyOp8
 70
     1
102
RTVSPropertyOp9
 70
     1
102
RTVSPropertyOp10
 70
     1
102
RTVSPropertyOp11
 70
     1
102
RTVSPropertyOp12
 70
     1
102
RTVSPropertyOp13
 70
     1
102
RTVSPropertyOp14
 70
     1
102
RTVSPropertyOp15
 70
     1
102
RTVSPropertyOp16
 70
     1
102
RTVSPropertyOp17
 70
     1
102
RTVSPropertyOp18
 70
     1
102
RTVSPropertyOp19
 70
     1
102
RTVSPropertyOp20
 70
     1
102
RTVSPropertyOp21
 70
     1
102
RTVSPropertyOp22
 70
     1
102
RTVSPropertyOp23
 70
     1
102
RTVSPropertyOp24
 70
     1
102
RTVSPropertyOp25
 70
     1
102
RTVSPropertyOp26
 70
     1
102
RTVSPropertyOp27
 70
     1
102
RTVSPropertyOp28
 70
     1
102
RTVSPropertyOp29
 70
     1
102
RTVSPropertyOp30
 70
     1
102
RTVSPropertyOp31
 70
     1
102
RTVSPropertyOp32
 70
     1
102
RTVSPropertyOp33
 70
     1
102
RTVSPropertyOp34
 70
     1
102
RTVSPropertyOp35
 70
     1
102
RTVSPropertyOp36
 70
     1
102
RTVSPropertyOp37
 70
     1
102
RTVSPropertyOp38
 70
     1
102
RTVSPropertyOp39
 70
     1
102
RTVSPropertyOp40
 70
     1
102
RTVSPropertyOp41
 70
     1
102
RTVSPropertyOp42
 70
     1
102
RTVSPropertyOp43
 70
     1
102
RTVSPropertyOp44
 70
     1
102
RTVSPropertyOp45
 70
     1
102
RTVSPropertyOp46
 70
     1
102
RTVSPropertyOp47
 70
     1
102
RTVSPropertyOp48
 70
     1
102
RTVSPropertyOp49
 70
     1
102
RTVSPropertyOp50
 70
     1
102
RTVSPropertyOp51
 70
     0
102
RTVSPropertyOp52
 70
     0
102
RTVSPropertyOp53
 70
     1
102
RTVSPropertyOp54
 70
     1
102
RTVSPropertyOp55
 70
     1
102
RTVSPropertyOp56
 70
     1
102
RTVSPropertyOp57
 70
     1
102
RTVSPropertyOp58
 70
     1
102
RTVSPropertyOp59
 70
     1
102
RTVSPropertyOp60
 70
     1
102
RTVSPropertyOp61
 70
     1
102
RTVSPropertyOp62
 70
     1
  0
XRECORD
  5
37E9
102
{ACAD_REACTORS
330
37E8
102
}
330
37E8
100
AcDbXrecord
280
     1
102
RTVSPost2010Prop28
280
     0
102
RTVSPost2010PropOp28
 70
     1
102
RTVSPost2010Prop29
280
     1
102
RTVSPost2010PropOp29
 70
     1
102
RTVSPost2010Prop30
280
     1
102
RTVSPost2010PropOp30
 70
     1
102
RTVSPost2010Prop31
280
     0
102
RTVSPost2010PropOp31
 70
     1
102
RTVSPost2010Prop32
280
     0
102
RTVSPost2010PropOp32
 70
     1
102
RTVSPost2010Prop33
280
     0
102
RTVSPost2010PropOp33
 70
     1
102
RTVSPost2010Prop34
280
     0
102
RTVSPost2010PropOp34
 70
     1
102
RTVSPost2010Prop35
280
     0
102
RTVSPost2010PropOp35
 70
     1
102
RTVSPost2010Prop36
280
     0
102
RTVSPost2010PropOp36
 70
     1
102
RTVSPost2010Prop37
 90
       50
102
RTVSPost2010PropOp37
 70
     1
102
RTVSPost2010Prop38
140
0.0
102
RTVSPost2010PropOp38
 70
     1
102
RTVSPost2010Prop39
140
1.0
102
RTVSPost2010PropOp39
 70
     1
102
RTVSPost2010Prop40
 90
        0
102
RTVSPost2010PropOp40
 70
     1
102
RTVSPost2010Prop41ColorIndex
 90
       18
102
RTVSPost2010Prop41ColorRGB
 90
        0
102
RTVSPost2010PropOp41
 70
     1
102
RTVSPost2010Prop42
 90
       50
102
RTVSPost2010PropOp42
 70
     1
102
RTVSPost2010Prop43
 90
        3
102
RTVSPost2010PropOp43
 70
     1
102
RTVSPost2010Prop44ColorIndex
 90
        5
102
RTVSPost2010Prop44ColorRGB
 90
      255
102
RTVSPost2010PropOp44
 70
     1
102
RTVSPost2010Prop45
280
     0
102
RTVSPost2010PropOp45
 70
     1
102
RTVSPost2010Prop46
 90
       50
102
RTVSPost2010PropOp46
 70
     1
102
RTVSPost2010Prop47
 90
       50
102
RTVSPost2010PropOp47
 70
     1
102
RTVSPost2010Prop48
 90
       50
102
RTVSPost2010PropOp48
 70
     1
102
RTVSPost2010Prop49
280
     0
102
RTVSPost2010PropOp49
 70
     1
102
RTVSPost2010Prop50
 90
       50
102
RTVSPost2010PropOp50
 70
     1
102
RTVSPost2010Prop51ColorIndex
 90
      256
102
RTVSPost2010Prop51ColorRGB
 90
-16777216
102
RTVSPost2010PropOp51
 70
     0
102
RTVSPost2010Prop52
140
1.0
102
RTVSPost2010PropOp52
 70
     0
102
RTVSPost2010Prop53
 90
        2
102
RTVSPost2010PropOp53
 70
     1
102
RTVSPost2010Prop54
  1
strokes_ogs.tif
102
RTVSPost2010PropOp54
 70
     1
102
RTVSPost2010Prop55
280
     0
102
RTVSPost2010PropOp55
 70
     1
102
RTVSPost2010Prop56
140
1.0
102
RTVSPost2010PropOp56
 70
     1
102
RTVSPost2010Prop57
140
1.0
102
RTVSPost2010PropOp57
 70
     1
102
RTVSPropertyOp0
 70
     1
102
RTVSPropertyOp1
 70
     1
102
RTVSPropertyOp2
 70
     1
102
RTVSPropertyOp3
 70
     1
102
RTVSPropertyOp4
 70
     1
102
RTVSPropertyOp5
 70
     1
102
RTVSPropertyOp6
 70
     1
102
RTVSPropertyOp7
 70
     1
102
RTVSPropertyOp8
 70
     1
102
RTVSPropertyOp9
 70
     1
102
RTVSPropertyOp10
 70
     1
102
RTVSPropertyOp11
 70
     1
102
RTVSPropertyOp12
 70
     1
102
RTVSPropertyOp13
 70
     1
102
RTVSPropertyOp14
 70
     1
102
RTVSPropertyOp15
 70
     1
102
RTVSPropertyOp16
 70
     1
102
RTVSPropertyOp17
 70
     1
102
RTVSPropertyOp18
 70
     1
102
RTVSPropertyOp19
 70
     1
102
RTVSPropertyOp20
 70
     1
102
RTVSPropertyOp21
 70
     1
102
RTVSPropertyOp22
 70
     1
102
RTVSPropertyOp23
 70
     1
102
RTVSPropertyOp24
 70
     1
102
RTVSPropertyOp25
 70
     1
102
RTVSPropertyOp26
 70
     1
102
RTVSPropertyOp27
 70
     1
102
RTVSPropertyOp28
 70
     1
102
RTVSPropertyOp29
 70
     1
102
RTVSPropertyOp30
 70
     1
102
RTVSPropertyOp31
 70
     1
102
RTVSPropertyOp32
 70
     1
102
RTVSPropertyOp33
 70
     1
102
RTVSPropertyOp34
 70
     1
102
RTVSPropertyOp35
 70
     1
102
RTVSPropertyOp36
 70
     1
102
RTVSPropertyOp37
 70
     1
102
RTVSPropertyOp38
 70
     1
102
RTVSPropertyOp39
 70
     1
102
RTVSPropertyOp40
 70
     1
102
RTVSPropertyOp41
 70
     1
102
RTVSPropertyOp42
 70
     1
102
RTVSPropertyOp43
 70
     1
102
RTVSPropertyOp44
 70
     1
102
RTVSPropertyOp45
 70
     1
102
RTVSPropertyOp46
 70
     1
102
RTVSPropertyOp47
 70
     1
102
RTVSPropertyOp48
 70
     1
102
RTVSPropertyOp49
 70
     1
102
RTVSPropertyOp50
 70
     1
102
RTVSPropertyOp51
 70
     0
102
RTVSPropertyOp52
 70
     0
102
RTVSPropertyOp53
 70
     1
102
RTVSPropertyOp54
 70
     1
102
RTVSPropertyOp55
 70
     1
102
RTVSPropertyOp56
 70
     1
102
RTVSPropertyOp57
 70
     1
102
RTVSPropertyOp58
 70
     1
102
RTVSPropertyOp59
 70
     1
102
RTVSPropertyOp60
 70
     1
102
RTVSPropertyOp61
 70
     1
102
RTVSPropertyOp62
 70
     1
  0
XRECORD
  5
37E7
102
{ACAD_REACTORS
330
37E6
102
}
330
37E6
100
AcDbXrecord
280
     1
102
RTVSPost2010Prop28
280
     0
102
RTVSPost2010PropOp28
 70
     1
102
RTVSPost2010Prop29
280
     1
102
RTVSPost2010PropOp29
 70
     1
102
RTVSPost2010Prop30
280
     1
102
RTVSPost2010PropOp30
 70
     1
102
RTVSPost2010Prop31
280
     0
102
RTVSPost2010PropOp31
 70
     1
102
RTVSPost2010Prop32
280
     0
102
RTVSPost2010PropOp32
 70
     1
102
RTVSPost2010Prop33
280
     0
102
RTVSPost2010PropOp33
 70
     1
102
RTVSPost2010Prop34
280
     0
102
RTVSPost2010PropOp34
 70
     1
102
RTVSPost2010Prop35
280
     0
102
RTVSPost2010PropOp35
 70
     1
102
RTVSPost2010Prop36
280
     0
102
RTVSPost2010PropOp36
 70
     1
102
RTVSPost2010Prop37
 90
       50
102
RTVSPost2010PropOp37
 70
     1
102
RTVSPost2010Prop38
140
0.0
102
RTVSPost2010PropOp38
 70
     1
102
RTVSPost2010Prop39
140
1.0
102
RTVSPost2010PropOp39
 70
     1
102
RTVSPost2010Prop40
 90
        0
102
RTVSPost2010PropOp40
 70
     1
102
RTVSPost2010Prop41ColorIndex
 90
       18
102
RTVSPost2010Prop41ColorRGB
 90
        0
102
RTVSPost2010PropOp41
 70
     1
102
RTVSPost2010Prop42
 90
       50
102
RTVSPost2010PropOp42
 70
     1
102
RTVSPost2010Prop43
 90
        3
102
RTVSPost2010PropOp43
 70
     1
102
RTVSPost2010Prop44ColorIndex
 90
        5
102
RTVSPost2010Prop44ColorRGB
 90
      255
102
RTVSPost2010PropOp44
 70
     1
102
RTVSPost2010Prop45
280
     0
102
RTVSPost2010PropOp45
 70
     1
102
RTVSPost2010Prop46
 90
       50
102
RTVSPost2010PropOp46
 70
     1
102
RTVSPost2010Prop47
 90
       50
102
RTVSPost2010PropOp47
 70
     1
102
RTVSPost2010Prop48
 90
       50
102
RTVSPost2010PropOp48
 70
     1
102
RTVSPost2010Prop49
280
     0
102
RTVSPost2010PropOp49
 70
     1
102
RTVSPost2010Prop50
 90
       50
102
RTVSPost2010PropOp50
 70
     1
102
RTVSPost2010Prop51ColorIndex
 90
      256
102
RTVSPost2010Prop51ColorRGB
 90
-16777216
102
RTVSPost2010PropOp51
 70
     0
102
RTVSPost2010Prop52
140
1.0
102
RTVSPost2010PropOp52
 70
     0
102
RTVSPost2010Prop53
 90
        2
102
RTVSPost2010PropOp53
 70
     1
102
RTVSPost2010Prop54
  1
strokes_ogs.tif
102
RTVSPost2010PropOp54
 70
     1
102
RTVSPost2010Prop55
280
     0
102
RTVSPost2010PropOp55
 70
     1
102
RTVSPost2010Prop56
140
1.0
102
RTVSPost2010PropOp56
 70
     1
102
RTVSPost2010Prop57
140
1.0
102
RTVSPost2010PropOp57
 70
     1
102
RTVSPropertyOp0
 70
     1
102
RTVSPropertyOp1
 70
     1
102
RTVSPropertyOp2
 70
     1
102
RTVSPropertyOp3
 70
     1
102
RTVSPropertyOp4
 70
     1
102
RTVSPropertyOp5
 70
     1
102
RTVSPropertyOp6
 70
     1
102
RTVSPropertyOp7
 70
     1
102
RTVSPropertyOp8
 70
     1
102
RTVSPropertyOp9
 70
     1
102
RTVSPropertyOp10
 70
     1
102
RTVSPropertyOp11
 70
     1
102
RTVSPropertyOp12
 70
     1
102
RTVSPropertyOp13
 70
     1
102
RTVSPropertyOp14
 70
     1
102
RTVSPropertyOp15
 70
     1
102
RTVSPropertyOp16
 70
     1
102
RTVSPropertyOp17
 70
     1
102
RTVSPropertyOp18
 70
     1
102
RTVSPropertyOp19
 70
     1
102
RTVSPropertyOp20
 70
     1
102
RTVSPropertyOp21
 70
     1
102
RTVSPropertyOp22
 70
     1
102
RTVSPropertyOp23
 70
     1
102
RTVSPropertyOp24
 70
     1
102
RTVSPropertyOp25
 70
     1
102
RTVSPropertyOp26
 70
     1
102
RTVSPropertyOp27
 70
     1
102
RTVSPropertyOp28
 70
     1
102
RTVSPropertyOp29
 70
     1
102
RTVSPropertyOp30
 70
     1
102
RTVSPropertyOp31
 70
     1
102
RTVSPropertyOp32
 70
     1
102
RTVSPropertyOp33
 70
     1
102
RTVSPropertyOp34
 70
     1
102
RTVSPropertyOp35
 70
     1
102
RTVSPropertyOp36
 70
     1
102
RTVSPropertyOp37
 70
     1
102
RTVSPropertyOp38
 70
     1
102
RTVSPropertyOp39
 70
     1
102
RTVSPropertyOp40
 70
     1
102
RTVSPropertyOp41
 70
     1
102
RTVSPropertyOp42
 70
     1
102
RTVSPropertyOp43
 70
     1
102
RTVSPropertyOp44
 70
     1
102
RTVSPropertyOp45
 70
     1
102
RTVSPropertyOp46
 70
     1
102
RTVSPropertyOp47
 70
     1
102
RTVSPropertyOp48
 70
     1
102
RTVSPropertyOp49
 70
     1
102
RTVSPropertyOp50
 70
     1
102
RTVSPropertyOp51
 70
     0
102
RTVSPropertyOp52
 70
     0
102
RTVSPropertyOp53
 70
     1
102
RTVSPropertyOp54
 70
     1
102
RTVSPropertyOp55
 70
     1
102
RTVSPropertyOp56
 70
     1
102
RTVSPropertyOp57
 70
     1
102
RTVSPropertyOp58
 70
     1
102
RTVSPropertyOp59
 70
     1
102
RTVSPropertyOp60
 70
     1
102
RTVSPropertyOp61
 70
     1
102
RTVSPropertyOp62
 70
     1
  0
XRECORD
  5
37E1
102
{ACAD_REACTORS
330
37E0
102
}
330
37E0
100
AcDbXrecord
280
     1
102
RTVSPost2010Prop28
280
     0
102
RTVSPost2010PropOp28
 70
     1
102
RTVSPost2010Prop29
280
     1
102
RTVSPost2010PropOp29
 70
     1
102
RTVSPost2010Prop30
280
     1
102
RTVSPost2010PropOp30
 70
     1
102
RTVSPost2010Prop31
280
     0
102
RTVSPost2010PropOp31
 70
     1
102
RTVSPost2010Prop32
280
     0
102
RTVSPost2010PropOp32
 70
     1
102
RTVSPost2010Prop33
280
     0
102
RTVSPost2010PropOp33
 70
     1
102
RTVSPost2010Prop34
280
     0
102
RTVSPost2010PropOp34
 70
     1
102
RTVSPost2010Prop35
280
     0
102
RTVSPost2010PropOp35
 70
     1
102
RTVSPost2010Prop36
280
     0
102
RTVSPost2010PropOp36
 70
     1
102
RTVSPost2010Prop37
 90
       50
102
RTVSPost2010PropOp37
 70
     1
102
RTVSPost2010Prop38
140
0.0
102
RTVSPost2010PropOp38
 70
     1
102
RTVSPost2010Prop39
140
1.0
102
RTVSPost2010PropOp39
 70
     1
102
RTVSPost2010Prop40
 90
        0
102
RTVSPost2010PropOp40
 70
     1
102
RTVSPost2010Prop41ColorIndex
 90
       18
102
RTVSPost2010Prop41ColorRGB
 90
        0
102
RTVSPost2010PropOp41
 70
     1
102
RTVSPost2010Prop42
 90
       50
102
RTVSPost2010PropOp42
 70
     1
102
RTVSPost2010Prop43
 90
        3
102
RTVSPost2010PropOp43
 70
     1
102
RTVSPost2010Prop44ColorIndex
 90
        5
102
RTVSPost2010Prop44ColorRGB
 90
      255
102
RTVSPost2010PropOp44
 70
     1
102
RTVSPost2010Prop45
280
     0
102
RTVSPost2010PropOp45
 70
     1
102
RTVSPost2010Prop46
 90
       50
102
RTVSPost2010PropOp46
 70
     1
102
RTVSPost2010Prop47
 90
       50
102
RTVSPost2010PropOp47
 70
     1
102
RTVSPost2010Prop48
 90
       50
102
RTVSPost2010PropOp48
 70
     1
102
RTVSPost2010Prop49
280
     0
102
RTVSPost2010PropOp49
 70
     1
102
RTVSPost2010Prop50
 90
       50
102
RTVSPost2010PropOp50
 70
     1
102
RTVSPost2010Prop51ColorIndex
 90
      256
102
RTVSPost2010Prop51ColorRGB
 90
-16777216
102
RTVSPost2010PropOp51
 70
     0
102
RTVSPost2010Prop52
140
1.0
102
RTVSPost2010PropOp52
 70
     0
102
RTVSPost2010Prop53
 90
        2
102
RTVSPost2010PropOp53
 70
     1
102
RTVSPost2010Prop54
  1
strokes_ogs.tif
102
RTVSPost2010PropOp54
 70
     1
102
RTVSPost2010Prop55
280
     0
102
RTVSPost2010PropOp55
 70
     1
102
RTVSPost2010Prop56
140
1.0
102
RTVSPost2010PropOp56
 70
     1
102
RTVSPost2010Prop57
140
1.0
102
RTVSPost2010PropOp57
 70
     1
102
RTVSPropertyOp0
 70
     1
102
RTVSPropertyOp1
 70
     1
102
RTVSPropertyOp2
 70
     1
102
RTVSPropertyOp3
 70
     1
102
RTVSPropertyOp4
 70
     1
102
RTVSPropertyOp5
 70
     1
102
RTVSPropertyOp6
 70
     1
102
RTVSPropertyOp7
 70
     1
102
RTVSPropertyOp8
 70
     1
102
RTVSPropertyOp9
 70
     1
102
RTVSPropertyOp10
 70
     1
102
RTVSPropertyOp11
 70
     1
102
RTVSPropertyOp12
 70
     1
102
RTVSPropertyOp13
 70
     1
102
RTVSPropertyOp14
 70
     1
102
RTVSPropertyOp15
 70
     1
102
RTVSPropertyOp16
 70
     1
102
RTVSPropertyOp17
 70
     1
102
RTVSPropertyOp18
 70
     1
102
RTVSPropertyOp19
 70
     1
102
RTVSPropertyOp20
 70
     1
102
RTVSPropertyOp21
 70
     1
102
RTVSPropertyOp22
 70
     1
102
RTVSPropertyOp23
 70
     1
102
RTVSPropertyOp24
 70
     1
102
RTVSPropertyOp25
 70
     1
102
RTVSPropertyOp26
 70
     1
102
RTVSPropertyOp27
 70
     1
102
RTVSPropertyOp28
 70
     1
102
RTVSPropertyOp29
 70
     1
102
RTVSPropertyOp30
 70
     1
102
RTVSPropertyOp31
 70
     1
102
RTVSPropertyOp32
 70
     1
102
RTVSPropertyOp33
 70
     1
102
RTVSPropertyOp34
 70
     1
102
RTVSPropertyOp35
 70
     1
102
RTVSPropertyOp36
 70
     1
102
RTVSPropertyOp37
 70
     1
102
RTVSPropertyOp38
 70
     1
102
RTVSPropertyOp39
 70
     1
102
RTVSPropertyOp40
 70
     1
102
RTVSPropertyOp41
 70
     1
102
RTVSPropertyOp42
 70
     1
102
RTVSPropertyOp43
 70
     1
102
RTVSPropertyOp44
 70
     1
102
RTVSPropertyOp45
 70
     1
102
RTVSPropertyOp46
 70
     1
102
RTVSPropertyOp47
 70
     1
102
RTVSPropertyOp48
 70
     1
102
RTVSPropertyOp49
 70
     1
102
RTVSPropertyOp50
 70
     1
102
RTVSPropertyOp51
 70
     0
102
RTVSPropertyOp52
 70
     0
102
RTVSPropertyOp53
 70
     1
102
RTVSPropertyOp54
 70
     1
102
RTVSPropertyOp55
 70
     1
102
RTVSPropertyOp56
 70
     1
102
RTVSPropertyOp57
 70
     1
102
RTVSPropertyOp58
 70
     1
102
RTVSPropertyOp59
 70
     1
102
RTVSPropertyOp60
 70
     1
102
RTVSPropertyOp61
 70
     1
102
RTVSPropertyOp62
 70
     1
  0
XRECORD
  5
37E3
102
{ACAD_REACTORS
330
37E2
102
}
330
37E2
100
AcDbXrecord
280
     1
102
RTVSPost2010Prop28
280
     0
102
RTVSPost2010PropOp28
 70
     1
102
RTVSPost2010Prop29
280
     1
102
RTVSPost2010PropOp29
 70
     1
102
RTVSPost2010Prop30
280
     1
102
RTVSPost2010PropOp30
 70
     1
102
RTVSPost2010Prop31
280
     0
102
RTVSPost2010PropOp31
 70
     1
102
RTVSPost2010Prop32
280
     0
102
RTVSPost2010PropOp32
 70
     1
102
RTVSPost2010Prop33
280
     0
102
RTVSPost2010PropOp33
 70
     1
102
RTVSPost2010Prop34
280
     0
102
RTVSPost2010PropOp34
 70
     1
102
RTVSPost2010Prop35
280
     0
102
RTVSPost2010PropOp35
 70
     1
102
RTVSPost2010Prop36
280
     0
102
RTVSPost2010PropOp36
 70
     1
102
RTVSPost2010Prop37
 90
       50
102
RTVSPost2010PropOp37
 70
     1
102
RTVSPost2010Prop38
140
0.0
102
RTVSPost2010PropOp38
 70
     1
102
RTVSPost2010Prop39
140
1.0
102
RTVSPost2010PropOp39
 70
     1
102
RTVSPost2010Prop40
 90
        0
102
RTVSPost2010PropOp40
 70
     1
102
RTVSPost2010Prop41ColorIndex
 90
       18
102
RTVSPost2010Prop41ColorRGB
 90
        0
102
RTVSPost2010PropOp41
 70
     1
102
RTVSPost2010Prop42
 90
       50
102
RTVSPost2010PropOp42
 70
     1
102
RTVSPost2010Prop43
 90
        3
102
RTVSPost2010PropOp43
 70
     1
102
RTVSPost2010Prop44ColorIndex
 90
        5
102
RTVSPost2010Prop44ColorRGB
 90
      255
102
RTVSPost2010PropOp44
 70
     1
102
RTVSPost2010Prop45
280
     0
102
RTVSPost2010PropOp45
 70
     1
102
RTVSPost2010Prop46
 90
       50
102
RTVSPost2010PropOp46
 70
     1
102
RTVSPost2010Prop47
 90
       50
102
RTVSPost2010PropOp47
 70
     1
102
RTVSPost2010Prop48
 90
       50
102
RTVSPost2010PropOp48
 70
     1
102
RTVSPost2010Prop49
280
     0
102
RTVSPost2010PropOp49
 70
     1
102
RTVSPost2010Prop50
 90
       50
102
RTVSPost2010PropOp50
 70
     1
102
RTVSPost2010Prop51ColorIndex
 90
      256
102
RTVSPost2010Prop51ColorRGB
 90
-16777216
102
RTVSPost2010PropOp51
 70
     0
102
RTVSPost2010Prop52
140
1.0
102
RTVSPost2010PropOp52
 70
     0
102
RTVSPost2010Prop53
 90
        2
102
RTVSPost2010PropOp53
 70
     1
102
RTVSPost2010Prop54
  1
strokes_ogs.tif
102
RTVSPost2010PropOp54
 70
     1
102
RTVSPost2010Prop55
280
     0
102
RTVSPost2010PropOp55
 70
     1
102
RTVSPost2010Prop56
140
1.0
102
RTVSPost2010PropOp56
 70
     1
102
RTVSPost2010Prop57
140
1.0
102
RTVSPost2010PropOp57
 70
     1
102
RTVSPropertyOp0
 70
     1
102
RTVSPropertyOp1
 70
     1
102
RTVSPropertyOp2
 70
     1
102
RTVSPropertyOp3
 70
     1
102
RTVSPropertyOp4
 70
     1
102
RTVSPropertyOp5
 70
     1
102
RTVSPropertyOp6
 70
     1
102
RTVSPropertyOp7
 70
     1
102
RTVSPropertyOp8
 70
     1
102
RTVSPropertyOp9
 70
     1
102
RTVSPropertyOp10
 70
     1
102
RTVSPropertyOp11
 70
     1
102
RTVSPropertyOp12
 70
     1
102
RTVSPropertyOp13
 70
     1
102
RTVSPropertyOp14
 70
     1
102
RTVSPropertyOp15
 70
     1
102
RTVSPropertyOp16
 70
     1
102
RTVSPropertyOp17
 70
     1
102
RTVSPropertyOp18
 70
     1
102
RTVSPropertyOp19
 70
     1
102
RTVSPropertyOp20
 70
     1
102
RTVSPropertyOp21
 70
     1
102
RTVSPropertyOp22
 70
     1
102
RTVSPropertyOp23
 70
     1
102
RTVSPropertyOp24
 70
     1
102
RTVSPropertyOp25
 70
     1
102
RTVSPropertyOp26
 70
     1
102
RTVSPropertyOp27
 70
     1
102
RTVSPropertyOp28
 70
     1
102
RTVSPropertyOp29
 70
     1
102
RTVSPropertyOp30
 70
     1
102
RTVSPropertyOp31
 70
     1
102
RTVSPropertyOp32
 70
     1
102
RTVSPropertyOp33
 70
     1
102
RTVSPropertyOp34
 70
     1
102
RTVSPropertyOp35
 70
     1
102
RTVSPropertyOp36
 70
     1
102
RTVSPropertyOp37
 70
     1
102
RTVSPropertyOp38
 70
     1
102
RTVSPropertyOp39
 70
     1
102
RTVSPropertyOp40
 70
     1
102
RTVSPropertyOp41
 70
     1
102
RTVSPropertyOp42
 70
     1
102
RTVSPropertyOp43
 70
     1
102
RTVSPropertyOp44
 70
     1
102
RTVSPropertyOp45
 70
     1
102
RTVSPropertyOp46
 70
     1
102
RTVSPropertyOp47
 70
     1
102
RTVSPropertyOp48
 70
     1
102
RTVSPropertyOp49
 70
     1
102
RTVSPropertyOp50
 70
     1
102
RTVSPropertyOp51
 70
     0
102
RTVSPropertyOp52
 70
     0
102
RTVSPropertyOp53
 70
     1
102
RTVSPropertyOp54
 70
     1
102
RTVSPropertyOp55
 70
     1
102
RTVSPropertyOp56
 70
     1
102
RTVSPropertyOp57
 70
     1
102
RTVSPropertyOp58
 70
     1
102
RTVSPropertyOp59
 70
     1
102
RTVSPropertyOp60
 70
     1
102
RTVSPropertyOp61
 70
     1
102
RTVSPropertyOp62
 70
     1
  0
XRECORD
  5
37D9
102
{ACAD_REACTORS
330
37D8
102
}
330
37D8
100
AcDbXrecord
280
     1
102
RTVSPost2010Prop28
280
     0
102
RTVSPost2010PropOp28
 70
     1
102
RTVSPost2010Prop29
280
     1
102
RTVSPost2010PropOp29
 70
     1
102
RTVSPost2010Prop30
280
     1
102
RTVSPost2010PropOp30
 70
     1
102
RTVSPost2010Prop31
280
     0
102
RTVSPost2010PropOp31
 70
     1
102
RTVSPost2010Prop32
280
     0
102
RTVSPost2010PropOp32
 70
     1
102
RTVSPost2010Prop33
280
     0
102
RTVSPost2010PropOp33
 70
     1
102
RTVSPost2010Prop34
280
     0
102
RTVSPost2010PropOp34
 70
     1
102
RTVSPost2010Prop35
280
     0
102
RTVSPost2010PropOp35
 70
     1
102
RTVSPost2010Prop36
280
     0
102
RTVSPost2010PropOp36
 70
     1
102
RTVSPost2010Prop37
 90
       50
102
RTVSPost2010PropOp37
 70
     1
102
RTVSPost2010Prop38
140
0.0
102
RTVSPost2010PropOp38
 70
     1
102
RTVSPost2010Prop39
140
1.0
102
RTVSPost2010PropOp39
 70
     1
102
RTVSPost2010Prop40
 90
        0
102
RTVSPost2010PropOp40
 70
     1
102
RTVSPost2010Prop41ColorIndex
 90
       18
102
RTVSPost2010Prop41ColorRGB
 90
        0
102
RTVSPost2010PropOp41
 70
     1
102
RTVSPost2010Prop42
 90
       50
102
RTVSPost2010PropOp42
 70
     1
102
RTVSPost2010Prop43
 90
        3
102
RTVSPost2010PropOp43
 70
     1
102
RTVSPost2010Prop44ColorIndex
 90
        5
102
RTVSPost2010Prop44ColorRGB
 90
      255
102
RTVSPost2010PropOp44
 70
     1
102
RTVSPost2010Prop45
280
     0
102
RTVSPost2010PropOp45
 70
     1
102
RTVSPost2010Prop46
 90
       50
102
RTVSPost2010PropOp46
 70
     1
102
RTVSPost2010Prop47
 90
       50
102
RTVSPost2010PropOp47
 70
     1
102
RTVSPost2010Prop48
 90
       50
102
RTVSPost2010PropOp48
 70
     1
102
RTVSPost2010Prop49
280
     0
102
RTVSPost2010PropOp49
 70
     1
102
RTVSPost2010Prop50
 90
       50
102
RTVSPost2010PropOp50
 70
     1
102
RTVSPost2010Prop51ColorIndex
 90
      256
102
RTVSPost2010Prop51ColorRGB
 90
-16777216
102
RTVSPost2010PropOp51
 70
     0
102
RTVSPost2010Prop52
140
1.0
102
RTVSPost2010PropOp52
 70
     0
102
RTVSPost2010Prop53
 90
        2
102
RTVSPost2010PropOp53
 70
     1
102
RTVSPost2010Prop54
  1
strokes_ogs.tif
102
RTVSPost2010PropOp54
 70
     1
102
RTVSPost2010Prop55
280
     0
102
RTVSPost2010PropOp55
 70
     1
102
RTVSPost2010Prop56
140
1.0
102
RTVSPost2010PropOp56
 70
     1
102
RTVSPost2010Prop57
140
1.0
102
RTVSPost2010PropOp57
 70
     1
102
RTVSPropertyOp0
 70
     1
102
RTVSPropertyOp1
 70
     1
102
RTVSPropertyOp2
 70
     1
102
RTVSPropertyOp3
 70
     1
102
RTVSPropertyOp4
 70
     1
102
RTVSPropertyOp5
 70
     1
102
RTVSPropertyOp6
 70
     1
102
RTVSPropertyOp7
 70
     1
102
RTVSPropertyOp8
 70
     1
102
RTVSPropertyOp9
 70
     1
102
RTVSPropertyOp10
 70
     1
102
RTVSPropertyOp11
 70
     1
102
RTVSPropertyOp12
 70
     1
102
RTVSPropertyOp13
 70
     1
102
RTVSPropertyOp14
 70
     1
102
RTVSPropertyOp15
 70
     1
102
RTVSPropertyOp16
 70
     1
102
RTVSPropertyOp17
 70
     1
102
RTVSPropertyOp18
 70
     1
102
RTVSPropertyOp19
 70
     1
102
RTVSPropertyOp20
 70
     1
102
RTVSPropertyOp21
 70
     1
102
RTVSPropertyOp22
 70
     1
102
RTVSPropertyOp23
 70
     1
102
RTVSPropertyOp24
 70
     1
102
RTVSPropertyOp25
 70
     1
102
RTVSPropertyOp26
 70
     1
102
RTVSPropertyOp27
 70
     1
102
RTVSPropertyOp28
 70
     1
102
RTVSPropertyOp29
 70
     1
102
RTVSPropertyOp30
 70
     1
102
RTVSPropertyOp31
 70
     1
102
RTVSPropertyOp32
 70
     1
102
RTVSPropertyOp33
 70
     1
102
RTVSPropertyOp34
 70
     1
102
RTVSPropertyOp35
 70
     1
102
RTVSPropertyOp36
 70
     1
102
RTVSPropertyOp37
 70
     1
102
RTVSPropertyOp38
 70
     1
102
RTVSPropertyOp39
 70
     1
102
RTVSPropertyOp40
 70
     1
102
RTVSPropertyOp41
 70
     1
102
RTVSPropertyOp42
 70
     1
102
RTVSPropertyOp43
 70
     1
102
RTVSPropertyOp44
 70
     1
102
RTVSPropertyOp45
 70
     1
102
RTVSPropertyOp46
 70
     1
102
RTVSPropertyOp47
 70
     1
102
RTVSPropertyOp48
 70
     1
102
RTVSPropertyOp49
 70
     1
102
RTVSPropertyOp50
 70
     1
102
RTVSPropertyOp51
 70
     0
102
RTVSPropertyOp52
 70
     0
102
RTVSPropertyOp53
 70
     1
102
RTVSPropertyOp54
 70
     1
102
RTVSPropertyOp55
 70
     1
102
RTVSPropertyOp56
 70
     1
102
RTVSPropertyOp57
 70
     1
102
RTVSPropertyOp58
 70
     1
102
RTVSPropertyOp59
 70
     1
102
RTVSPropertyOp60
 70
     1
102
RTVSPropertyOp61
 70
     1
102
RTVSPropertyOp62
 70
     1
  0
XRECORD
  5
37CD
102
{ACAD_REACTORS
330
37CC
102
}
330
37CC
100
AcDbXrecord
280
     1
102
RTVSPost2010Prop28
280
     0
102
RTVSPost2010PropOp28
 70
     1
102
RTVSPost2010Prop29
280
     1
102
RTVSPost2010PropOp29
 70
     1
102
RTVSPost2010Prop30
280
     1
102
RTVSPost2010PropOp30
 70
     1
102
RTVSPost2010Prop31
280
     0
102
RTVSPost2010PropOp31
 70
     1
102
RTVSPost2010Prop32
280
     0
102
RTVSPost2010PropOp32
 70
     1
102
RTVSPost2010Prop33
280
     0
102
RTVSPost2010PropOp33
 70
     1
102
RTVSPost2010Prop34
280
     0
102
RTVSPost2010PropOp34
 70
     1
102
RTVSPost2010Prop35
280
     0
102
RTVSPost2010PropOp35
 70
     1
102
RTVSPost2010Prop36
280
     0
102
RTVSPost2010PropOp36
 70
     1
102
RTVSPost2010Prop37
 90
       50
102
RTVSPost2010PropOp37
 70
     1
102
RTVSPost2010Prop38
140
0.0
102
RTVSPost2010PropOp38
 70
     1
102
RTVSPost2010Prop39
140
1.0
102
RTVSPost2010PropOp39
 70
     1
102
RTVSPost2010Prop40
 90
        0
102
RTVSPost2010PropOp40
 70
     1
102
RTVSPost2010Prop41ColorIndex
 90
       18
102
RTVSPost2010Prop41ColorRGB
 90
        0
102
RTVSPost2010PropOp41
 70
     1
102
RTVSPost2010Prop42
 90
       50
102
RTVSPost2010PropOp42
 70
     1
102
RTVSPost2010Prop43
 90
        3
102
RTVSPost2010PropOp43
 70
     1
102
RTVSPost2010Prop44ColorIndex
 90
        5
102
RTVSPost2010Prop44ColorRGB
 90
      255
102
RTVSPost2010PropOp44
 70
     1
102
RTVSPost2010Prop45
280
     0
102
RTVSPost2010PropOp45
 70
     1
102
RTVSPost2010Prop46
 90
       50
102
RTVSPost2010PropOp46
 70
     1
102
RTVSPost2010Prop47
 90
       50
102
RTVSPost2010PropOp47
 70
     1
102
RTVSPost2010Prop48
 90
       50
102
RTVSPost2010PropOp48
 70
     1
102
RTVSPost2010Prop49
280
     0
102
RTVSPost2010PropOp49
 70
     1
102
RTVSPost2010Prop50
 90
       50
102
RTVSPost2010PropOp50
 70
     1
102
RTVSPost2010Prop51ColorIndex
 90
      256
102
RTVSPost2010Prop51ColorRGB
 90
-16777216
102
RTVSPost2010PropOp51
 70
     0
102
RTVSPost2010Prop52
140
1.0
102
RTVSPost2010PropOp52
 70
     0
102
RTVSPost2010Prop53
 90
        2
102
RTVSPost2010PropOp53
 70
     1
102
RTVSPost2010Prop54
  1
strokes_ogs.tif
102
RTVSPost2010PropOp54
 70
     1
102
RTVSPost2010Prop55
280
     0
102
RTVSPost2010PropOp55
 70
     1
102
RTVSPost2010Prop56
140
1.0
102
RTVSPost2010PropOp56
 70
     1
102
RTVSPost2010Prop57
140
1.0
102
RTVSPost2010PropOp57
 70
     1
102
RTVSPropertyOp0
 70
     1
102
RTVSPropertyOp1
 70
     1
102
RTVSPropertyOp2
 70
     1
102
RTVSPropertyOp3
 70
     1
102
RTVSPropertyOp4
 70
     1
102
RTVSPropertyOp5
 70
     1
102
RTVSPropertyOp6
 70
     1
102
RTVSPropertyOp7
 70
     1
102
RTVSPropertyOp8
 70
     1
102
RTVSPropertyOp9
 70
     1
102
RTVSPropertyOp10
 70
     1
102
RTVSPropertyOp11
 70
     1
102
RTVSPropertyOp12
 70
     1
102
RTVSPropertyOp13
 70
     1
102
RTVSPropertyOp14
 70
     1
102
RTVSPropertyOp15
 70
     1
102
RTVSPropertyOp16
 70
     1
102
RTVSPropertyOp17
 70
     1
102
RTVSPropertyOp18
 70
     1
102
RTVSPropertyOp19
 70
     1
102
RTVSPropertyOp20
 70
     1
102
RTVSPropertyOp21
 70
     1
102
RTVSPropertyOp22
 70
     1
102
RTVSPropertyOp23
 70
     1
102
RTVSPropertyOp24
 70
     1
102
RTVSPropertyOp25
 70
     1
102
RTVSPropertyOp26
 70
     1
102
RTVSPropertyOp27
 70
     1
102
RTVSPropertyOp28
 70
     1
102
RTVSPropertyOp29
 70
     1
102
RTVSPropertyOp30
 70
     1
102
RTVSPropertyOp31
 70
     1
102
RTVSPropertyOp32
 70
     1
102
RTVSPropertyOp33
 70
     1
102
RTVSPropertyOp34
 70
     1
102
RTVSPropertyOp35
 70
     1
102
RTVSPropertyOp36
 70
     1
102
RTVSPropertyOp37
 70
     1
102
RTVSPropertyOp38
 70
     1
102
RTVSPropertyOp39
 70
     1
102
RTVSPropertyOp40
 70
     1
102
RTVSPropertyOp41
 70
     1
102
RTVSPropertyOp42
 70
     1
102
RTVSPropertyOp43
 70
     1
102
RTVSPropertyOp44
 70
     1
102
RTVSPropertyOp45
 70
     1
102
RTVSPropertyOp46
 70
     1
102
RTVSPropertyOp47
 70
     1
102
RTVSPropertyOp48
 70
     1
102
RTVSPropertyOp49
 70
     1
102
RTVSPropertyOp50
 70
     1
102
RTVSPropertyOp51
 70
     0
102
RTVSPropertyOp52
 70
     0
102
RTVSPropertyOp53
 70
     1
102
RTVSPropertyOp54
 70
     1
102
RTVSPropertyOp55
 70
     1
102
RTVSPropertyOp56
 70
     1
102
RTVSPropertyOp57
 70
     1
102
RTVSPropertyOp58
 70
     1
102
RTVSPropertyOp59
 70
     1
102
RTVSPropertyOp60
 70
     1
102
RTVSPropertyOp61
 70
     1
102
RTVSPropertyOp62
 70
     1
  0
XRECORD
  5
37E5
102
{ACAD_REACTORS
330
37E4
102
}
330
37E4
100
AcDbXrecord
280
     1
102
RTVSPost2010Prop28
280
     0
102
RTVSPost2010PropOp28
 70
     1
102
RTVSPost2010Prop29
280
     1
102
RTVSPost2010PropOp29
 70
     1
102
RTVSPost2010Prop30
280
     1
102
RTVSPost2010PropOp30
 70
     1
102
RTVSPost2010Prop31
280
     0
102
RTVSPost2010PropOp31
 70
     1
102
RTVSPost2010Prop32
280
     0
102
RTVSPost2010PropOp32
 70
     1
102
RTVSPost2010Prop33
280
     0
102
RTVSPost2010PropOp33
 70
     1
102
RTVSPost2010Prop34
280
     0
102
RTVSPost2010PropOp34
 70
     1
102
RTVSPost2010Prop35
280
     0
102
RTVSPost2010PropOp35
 70
     1
102
RTVSPost2010Prop36
280
     0
102
RTVSPost2010PropOp36
 70
     1
102
RTVSPost2010Prop37
 90
       50
102
RTVSPost2010PropOp37
 70
     1
102
RTVSPost2010Prop38
140
0.0
102
RTVSPost2010PropOp38
 70
     1
102
RTVSPost2010Prop39
140
1.0
102
RTVSPost2010PropOp39
 70
     1
102
RTVSPost2010Prop40
 90
        0
102
RTVSPost2010PropOp40
 70
     1
102
RTVSPost2010Prop41ColorIndex
 90
       18
102
RTVSPost2010Prop41ColorRGB
 90
        0
102
RTVSPost2010PropOp41
 70
     1
102
RTVSPost2010Prop42
 90
       50
102
RTVSPost2010PropOp42
 70
     1
102
RTVSPost2010Prop43
 90
        3
102
RTVSPost2010PropOp43
 70
     1
102
RTVSPost2010Prop44ColorIndex
 90
        5
102
RTVSPost2010Prop44ColorRGB
 90
      255
102
RTVSPost2010PropOp44
 70
     1
102
RTVSPost2010Prop45
280
     0
102
RTVSPost2010PropOp45
 70
     1
102
RTVSPost2010Prop46
 90
       50
102
RTVSPost2010PropOp46
 70
     1
102
RTVSPost2010Prop47
 90
       50
102
RTVSPost2010PropOp47
 70
     1
102
RTVSPost2010Prop48
 90
       50
102
RTVSPost2010PropOp48
 70
     1
102
RTVSPost2010Prop49
280
     0
102
RTVSPost2010PropOp49
 70
     1
102
RTVSPost2010Prop50
 90
       50
102
RTVSPost2010PropOp50
 70
     1
102
RTVSPost2010Prop51ColorIndex
 90
      256
102
RTVSPost2010Prop51ColorRGB
 90
-16777216
102
RTVSPost2010PropOp51
 70
     0
102
RTVSPost2010Prop52
140
1.0
102
RTVSPost2010PropOp52
 70
     0
102
RTVSPost2010Prop53
 90
        2
102
RTVSPost2010PropOp53
 70
     1
102
RTVSPost2010Prop54
  1
strokes_ogs.tif
102
RTVSPost2010PropOp54
 70
     1
102
RTVSPost2010Prop55
280
     0
102
RTVSPost2010PropOp55
 70
     1
102
RTVSPost2010Prop56
140
1.0
102
RTVSPost2010PropOp56
 70
     1
102
RTVSPost2010Prop57
140
1.0
102
RTVSPost2010PropOp57
 70
     1
102
RTVSPropertyOp0
 70
     1
102
RTVSPropertyOp1
 70
     1
102
RTVSPropertyOp2
 70
     1
102
RTVSPropertyOp3
 70
     1
102
RTVSPropertyOp4
 70
     1
102
RTVSPropertyOp5
 70
     1
102
RTVSPropertyOp6
 70
     1
102
RTVSPropertyOp7
 70
     1
102
RTVSPropertyOp8
 70
     1
102
RTVSPropertyOp9
 70
     1
102
RTVSPropertyOp10
 70
     1
102
RTVSPropertyOp11
 70
     1
102
RTVSPropertyOp12
 70
     1
102
RTVSPropertyOp13
 70
     1
102
RTVSPropertyOp14
 70
     1
102
RTVSPropertyOp15
 70
     1
102
RTVSPropertyOp16
 70
     1
102
RTVSPropertyOp17
 70
     1
102
RTVSPropertyOp18
 70
     1
102
RTVSPropertyOp19
 70
     1
102
RTVSPropertyOp20
 70
     1
102
RTVSPropertyOp21
 70
     1
102
RTVSPropertyOp22
 70
     1
102
RTVSPropertyOp23
 70
     1
102
RTVSPropertyOp24
 70
     1
102
RTVSPropertyOp25
 70
     1
102
RTVSPropertyOp26
 70
     1
102
RTVSPropertyOp27
 70
     1
102
RTVSPropertyOp28
 70
     1
102
RTVSPropertyOp29
 70
     1
102
RTVSPropertyOp30
 70
     1
102
RTVSPropertyOp31
 70
     1
102
RTVSPropertyOp32
 70
     1
102
RTVSPropertyOp33
 70
     1
102
RTVSPropertyOp34
 70
     1
102
RTVSPropertyOp35
 70
     1
102
RTVSPropertyOp36
 70
     1
102
RTVSPropertyOp37
 70
     1
102
RTVSPropertyOp38
 70
     1
102
RTVSPropertyOp39
 70
     1
102
RTVSPropertyOp40
 70
     1
102
RTVSPropertyOp41
 70
     1
102
RTVSPropertyOp42
 70
     1
102
RTVSPropertyOp43
 70
     1
102
RTVSPropertyOp44
 70
     1
102
RTVSPropertyOp45
 70
     1
102
RTVSPropertyOp46
 70
     1
102
RTVSPropertyOp47
 70
     1
102
RTVSPropertyOp48
 70
     1
102
RTVSPropertyOp49
 70
     1
102
RTVSPropertyOp50
 70
     1
102
RTVSPropertyOp51
 70
     0
102
RTVSPropertyOp52
 70
     0
102
RTVSPropertyOp53
 70
     1
102
RTVSPropertyOp54
 70
     1
102
RTVSPropertyOp55
 70
     1
102
RTVSPropertyOp56
 70
     1
102
RTVSPropertyOp57
 70
     1
102
RTVSPropertyOp58
 70
     1
102
RTVSPropertyOp59
 70
     1
102
RTVSPropertyOp60
 70
     1
102
RTVSPropertyOp61
 70
     1
102
RTVSPropertyOp62
 70
     1
  0
ENDSEC
  0
EOF
