  0
SECTION
  2
HEADER
  9
$ACADVER
  1
AC1015
  9
$ACADMAINTVER
 70
    20
  9
$DWGCODEPAGE
  3
ANSI_932
  9
$INSBASE
 10
0.0
 20
0.0
 30
0.0
  9
$EXTMIN
 10
16.54074351213654
 20
-1.334681136378093
 30
0.0
  9
$EXTMAX
 10
231.8643842689751
 20
243.9076006789191
 30
0.0
  9
$LIMMIN
 10
0.0
 20
0.0
  9
$LIMMAX
 10
10000.0
 20
10000.0
  9
$ORTHOMODE
 70
     1
  9
$REGENMODE
 70
     1
  9
$FILLMODE
 70
     1
  9
$QTEXTMODE
 70
     0
  9
$MIRRTEXT
 70
     1
  9
$LTSCALE
 40
5.0
  9
$ATTMODE
 70
     1
  9
$TEXTSIZE
 40
3.5
  9
$TRACEWID
 40
1.0
  9
$TEXTSTYLE
  7
AD-STANDARD
  9
$CLAYER
  8
1
  9
$CELTYPE
  6
ByLayer
  9
$CECOLOR
 62
   256
  9
$CELTSCALE
 40
1.0
  9
$DISPSILH
 70
     0
  9
$DIMSCALE
 40
1.0
  9
$DIMASZ
 40
0.18
  9
$DIMEXO
 40
0.0625
  9
$DIMDLI
 40
0.38
  9
$DIMRND
 40
0.0
  9
$DIMDLE
 40
0.0
  9
$DIMEXE
 40
0.18
  9
$DIMTP
 40
0.0
  9
$DIMTM
 40
0.0
  9
$DIMTXT
 40
0.18
  9
$DIMCEN
 40
0.09
  9
$DIMTSZ
 40
0.0
  9
$DIMTOL
 70
     0
  9
$DIMLIM
 70
     0
  9
$DIMTIH
 70
     1
  9
$DIMTOH
 70
     1
  9
$DIMSE1
 70
     0
  9
$DIMSE2
 70
     0
  9
$DIMTAD
 70
     0
  9
$DIMZIN
 70
     0
  9
$DIMBLK
  1

  9
$DIMASO
 70
     1
  9
$DIMSHO
 70
     1
  9
$DIMPOST
  1

  9
$DIMAPOST
  1

  9
$DIMALT
 70
     0
  9
$DIMALTD
 70
     2
  9
$DIMALTF
 40
25.4
  9
$DIMLFAC
 40
1.0
  9
$DIMTOFL
 70
     0
  9
$DIMTVP
 40
0.0
  9
$DIMTIX
 70
     0
  9
$DIMSOXD
 70
     0
  9
$DIMSAH
 70
     0
  9
$DIMBLK1
  1

  9
$DIMBLK2
  1

  9
$DIMSTYLE
  2
STANDARD
  9
$DIMCLRD
 70
     0
  9
$DIMCLRE
 70
     0
  9
$DIMCLRT
 70
     0
  9
$DIMTFAC
 40
1.0
  9
$DIMGAP
 40
0.09
  9
$DIMJUST
 70
     0
  9
$DIMSD1
 70
     0
  9
$DIMSD2
 70
     0
  9
$DIMTOLJ
 70
     1
  9
$DIMTZIN
 70
     0
  9
$DIMALTZ
 70
     0
  9
$DIMALTTZ
 70
     0
  9
$DIMUPT
 70
     0
  9
$DIMDEC
 70
     4
  9
$DIMTDEC
 70
     4
  9
$DIMALTU
 70
     2
  9
$DIMALTTD
 70
     2
  9
$DIMTXSTY
  7
STANDARD
  9
$DIMAUNIT
 70
     0
  9
$DIMADEC
 70
     0
  9
$DIMALTRND
 40
0.0
  9
$DIMAZIN
 70
     0
  9
$DIMDSEP
 70
    46
  9
$DIMATFIT
 70
     3
  9
$DIMFRAC
 70
     0
  9
$DIMLDRBLK
  1

  9
$DIMLUNIT
 70
     2
  9
$DIMLWD
 70
    -2
  9
$DIMLWE
 70
    -2
  9
$DIMTMOVE
 70
     0
  9
$LUNITS
 70
     2
  9
$LUPREC
 70
     4
  9
$SKETCHINC
 40
1.0
  9
$FILLETRAD
 40
3.0
  9
$AUNITS
 70
     0
  9
$AUPREC
 70
     0
  9
$MENU
  1
.
  9
$ELEVATION
 40
0.0
  9
$PELEVATION
 40
0.0
  9
$THICKNESS
 40
0.0
  9
$LIMCHECK
 70
     0
  9
$CHAMFERA
 40
0.0
  9
$CHAMFERB
 40
0.0
  9
$CHAMFERC
 40
0.0
  9
$CHAMFERD
 40
0.0
  9
$SKPOLY
 70
     0
  9
$TDCREATE
 40
2451430.616412153
  9
$TDUCREATE
 40
2451430.241412153
  9
$TDUPDATE
 40
2458004.646398148
  9
$TDUUPDATE
 40
2458004.271398148
  9
$TDINDWG
 40
0.5389671065
  9
$TDUSRTIMER
 40
0.5389629282
  9
$USRTIMER
 70
     1
  9
$ANGBASE
 50
0.0
  9
$ANGDIR
 70
     0
  9
$PDMODE
 70
     0
  9
$PDSIZE
 40
0.0
  9
$PLINEWID
 40
0.0
  9
$SPLFRAME
 70
     0
  9
$SPLINETYPE
 70
     6
  9
$SPLINESEGS
 70
     8
  9
$HANDSEED
  5
3D2A
  9
$SURFTAB1
 70
     6
  9
$SURFTAB2
 70
     6
  9
$SURFTYPE
 70
     6
  9
$SURFU
 70
     6
  9
$SURFV
 70
     6
  9
$UCSBASE
  2

  9
$UCSNAME
  2

  9
$UCSORG
 10
0.0
 20
0.0
 30
0.0
  9
$UCSXDIR
 10
1.0
 20
0.0
 30
0.0
  9
$UCSYDIR
 10
0.0
 20
1.0
 30
0.0
  9
$UCSORTHOREF
  2

  9
$UCSORTHOVIEW
 70
     0
  9
$UCSORGTOP
 10
0.0
 20
0.0
 30
0.0
  9
$UCSORGBOTTOM
 10
0.0
 20
0.0
 30
0.0
  9
$UCSORGLEFT
 10
0.0
 20
0.0
 30
0.0
  9
$UCSORGRIGHT
 10
0.0
 20
0.0
 30
0.0
  9
$UCSORGFRONT
 10
0.0
 20
0.0
 30
0.0
  9
$UCSORGBACK
 10
0.0
 20
0.0
 30
0.0
  9
$PUCSBASE
  2

  9
$PUCSNAME
  2

  9
$PUCSORG
 10
0.0
 20
0.0
 30
0.0
  9
$PUCSXDIR
 10
1.0
 20
0.0
 30
0.0
  9
$PUCSYDIR
 10
0.0
 20
1.0
 30
0.0
  9
$PUCSORTHOREF
  2

  9
$PUCSORTHOVIEW
 70
     0
  9
$PUCSORGTOP
 10
0.0
 20
0.0
 30
0.0
  9
$PUCSORGBOTTOM
 10
0.0
 20
0.0
 30
0.0
  9
$PUCSORGLEFT
 10
0.0
 20
0.0
 30
0.0
  9
$PUCSORGRIGHT
 10
0.0
 20
0.0
 30
0.0
  9
$PUCSORGFRONT
 10
0.0
 20
0.0
 30
0.0
  9
$PUCSORGBACK
 10
0.0
 20
0.0
 30
0.0
  9
$USERI1
 70
     0
  9
$USERI2
 70
     0
  9
$USERI3
 70
     0
  9
$USERI4
 70
     0
  9
$USERI5
 70
     0
  9
$USERR1
 40
0.0
  9
$USERR2
 40
0.0
  9
$USERR3
 40
0.0
  9
$USERR4
 40
0.0
  9
$USERR5
 40
0.0
  9
$WORLDVIEW
 70
     1
  9
$SHADEDGE
 70
     3
  9
$SHADEDIF
 70
    70
  9
$TILEMODE
 70
     1
  9
$MAXACTVP
 70
    16
  9
$PINSBASE
 10
0.0
 20
0.0
 30
0.0
  9
$PLIMCHECK
 70
     0
  9
$PEXTMIN
 10
20.0
 20
11.9999999999998
 30
0.0
  9
$PEXTMAX
 10
405.0
 20
276.9999999999998
 30
0.0
  9
$PLIMMIN
 10
15.79382404310286
 20
7.783344744338517
  9
$PLIMMAX
 10
409.2306831482342
 20
285.9818056295641
  9
$UNITMODE
 70
     0
  9
$VISRETAIN
 70
     0
  9
$PLINEGEN
 70
     0
  9
$PSLTSCALE
 70
     1
  9
$TREEDEPTH
 70
  3020
  9
$CMLSTYLE
  2
Standard
  9
$CMLJUST
 70
     0
  9
$CMLSCALE
 40
1.0
  9
$PROXYGRAPHICS
 70
     1
  9
$MEASUREMENT
 70
     0
  9
$CELWEIGHT
370
    -1
  9
$ENDCAPS
280
     0
  9
$JOINSTYLE
280
     0
  9
$LWDISPLAY
290
     0
  9
$INSUNITS
 70
     0
  9
$HYPERLINKBASE
  1

  9
$STYLESHEET
  1

  9
$XEDIT
290
     1
  9
$CEPSNTYPE
380
     0
  9
$PSTYLEMODE
290
     1
  9
$FINGERPRINTGUID
  2
{E892A763-DAB8-4A64-A590-13577D1B74B4}
  9
$VERSIONGUID
  2
{E7859B9A-D661-45E4-9BDC-DA9A71A3C227}
  9
$EXTNAMES
290
     1
  9
$PSVPSCALE
 40
0.0
  9
$OLESTARTUP
290
     0
  0
ENDSEC
  0
SECTION
  2
CLASSES
  0
CLASS
  1
ACDBDICTIONARYWDFLT
  2
AcDbDictionaryWithDefault
  3
ObjectDBX Classes
 90
        0
280
     0
281
     0
  0
CLASS
  1
MATERIAL
  2
AcDbMaterial
  3
ObjectDBX Classes
 90
     1153
280
     0
281
     0
  0
CLASS
  1
VISUALSTYLE
  2
AcDbVisualStyle
  3
ObjectDBX Classes
 90
     4095
280
     0
281
     0
  0
CLASS
  1
SCALE
  2
AcDbScale
  3
ObjectDBX Classes
 90
     1153
280
     0
281
     0
  0
CLASS
  1
TABLESTYLE
  2
AcDbTableStyle
  3
ObjectDBX Classes
 90
     4095
280
     0
281
     0
  0
CLASS
  1
MLEADERSTYLE
  2
AcDbMLeaderStyle
  3
ACDB_MLEADERSTYLE_CLASS
 90
     4095
280
     0
281
     0
  0
CLASS
  1
ACDBSECTIONVIEWSTYLE
  2
AcDbSectionViewStyle
  3
ObjectDBX Classes
 90
     1025
280
     0
281
     0
  0
CLASS
  1
ACDBDETAILVIEWSTYLE
  2
AcDbDetailViewStyle
  3
ObjectDBX Classes
 90
     1025
280
     0
281
     0
  0
CLASS
  1
DICTIONARYVAR
  2
AcDbDictionaryVar
  3
ObjectDBX Classes
 90
        0
280
     0
281
     0
  0
CLASS
  1
CELLSTYLEMAP
  2
AcDbCellStyleMap
  3
ObjectDBX Classes
 90
     1152
280
     0
281
     0
  0
CLASS
  1
ACDBPLACEHOLDER
  2
AcDbPlaceHolder
  3
ObjectDBX Classes
 90
        0
280
     0
281
     0
  0
CLASS
  1
LAYOUT
  2
AcDbLayout
  3
ObjectDBX Classes
 90
        0
280
     0
281
     0
  0
ENDSEC
  0
SECTION
  2
TABLES
  0
TABLE
  2
VPORT
  5
3B81
330
0
100
AcDbSymbolTable
 70
     1
  0
VPORT
  5
3BEF
330
3B81
100
AcDbSymbolTableRecord
100
AcDbViewportTableRecord
  2
*ACTIVE
 70
     0
 10
0.0
 20
0.0
 11
1.0
 21
1.0
 12
168.0091426028964
 22
111.3668710217558
 13
0.0
 23
0.0
 14
168.0
 24
168.0
 15
0.0
 25
0.0
 16
0.0
 26
0.0
 36
1.0
 17
0.0
 27
0.0
 37
0.0
 40
300.0705510741783
 41
1.597938144329897
 42
50.0
 43
0.0
 44
0.0
 50
0.0
 51
0.0
 71
     0
 72
   100
 73
     1
 74
     0
 75
     0
 76
     0
 77
     0
 78
     1
281
     0
 65
     1
110
0.0
120
0.0
130
0.0
111
1.0
121
0.0
131
0.0
112
0.0
122
1.0
132
0.0
 79
     0
146
0.0
1001
ACAD_NAV_VCDISPLAY
1070
     3
  0
ENDTAB
  0
TABLE
  2
LTYPE
  5
3B7E
330
0
100
AcDbSymbolTable
 70
     5
  0
LTYPE
  5
3BD3
330
3B7E
100
AcDbSymbolTableRecord
100
AcDbLinetypeTableRecord
  2
ByBlock
 70
     0
  3

 72
    65
 73
     0
 40
0.0
  0
LTYPE
  5
3BD4
330
3B7E
100
AcDbSymbolTableRecord
100
AcDbLinetypeTableRecord
  2
ByLayer
 70
     0
  3

 72
    65
 73
     0
 40
0.0
  0
LTYPE
  5
3BD5
330
3B7E
100
AcDbSymbolTableRecord
100
AcDbLinetypeTableRecord
  2
CONTINUOUS
 70
     0
  3
Solid line
 72
    65
 73
     0
 40
0.0
  0
LTYPE
  5
3BE1
330
3B7E
100
AcDbSymbolTableRecord
100
AcDbLinetypeTableRecord
  2
PHANTOM2
 70
     0
  3
___ _ _ ___ _ _ ___ _ _ ___ _ _
 72
    65
 73
     6
 40
1.25
 49
0.625
 74
     0
 49
-0.125
 74
     0
 49
0.125
 74
     0
 49
-0.125
 74
     0
 49
0.125
 74
     0
 49
-0.125
 74
     0
  0
LTYPE
  5
3BF0
330
3B7E
100
AcDbSymbolTableRecord
100
AcDbLinetypeTableRecord
  2
CENTER
 70
     0
  3
____ _ ____ _ ____ _ ____ _ ____ _ ____ _ ____ 
 72
    65
 73
     4
 40
2.0
 49
1.25
 74
     0
 49
-0.25
 74
     0
 49
0.25
 74
     0
 49
-0.25
 74
     0
  0
ENDTAB
  0
TABLE
  2
LAYER
  5
3B7B
102
{ACAD_XDICTIONARY
360
3CB5
102
}
330
0
100
AcDbSymbolTable
 70
     7
  0
LAYER
  5
3BCD
102
{ACAD_XDICTIONARY
360
3CD0
102
}
330
3B7B
100
AcDbSymbolTableRecord
100
AcDbLayerTableRecord
  2
0
 70
     0
 62
     7
  6
CONTINUOUS
370
    -3
390
3B88
  0
LAYER
  5
3BED
102
{ACAD_XDICTIONARY
360
3CD2
102
}
330
3B7B
100
AcDbSymbolTableRecord
100
AcDbLayerTableRecord
  2
1
 70
     0
 62
     7
  6
CONTINUOUS
370
    -3
390
3B88
  0
LAYER
  5
3BF2
330
3B7B
100
AcDbSymbolTableRecord
100
AcDbLayerTableRecord
  2
DEFPOINTS
 70
     0
 62
     7
  6
CONTINUOUS
290
     0
370
    -3
390
3B88
  0
LAYER
  5
3BF3
102
{ACAD_XDICTIONARY
360
3CD4
102
}
330
3B7B
100
AcDbSymbolTableRecord
100
AcDbLayerTableRecord
  2
CENTER
 70
     0
 62
     9
  6
CENTER
370
    -3
390
3B88
  0
ENDTAB
  0
TABLE
  2
STYLE
  5
3B7C
330
0
100
AcDbSymbolTable
 70
     4
  0
STYLE
  5
3BCE
330
3B7C
100
AcDbSymbolTableRecord
100
AcDbTextStyleTableRecord
  2
STANDARD
 70
     0
 40
0.0
 41
0.8
 50
0.0
 71
     0
 42
84.17508417508413
  3
TXT
  4
bigfont.shx
  0
STYLE
  5
3BEE
330
3B7C
100
AcDbSymbolTableRecord
100
AcDbTextStyleTableRecord
  2
AD-STANDARD
 70
     0
 40
0.0
 41
0.8
 50
0.0
 71
     0
 42
3.5
  3
C:\Program Files\AutoCAD LT\romans.shx
  4
bigfont.shx
  0
ENDTAB
  0
TABLE
  2
VIEW
  5
3B7F
330
0
100
AcDbSymbolTable
 70
     4
  0
ENDTAB
  0
TABLE
  2
UCS
  5
3B80
330
0
100
AcDbSymbolTable
 70
     0
  0
ENDTAB
  0
TABLE
  2
APPID
  5
3B82
330
0
100
AcDbSymbolTable
 70
    13
  0
APPID
  5
3BCF
330
3B82
100
AcDbSymbolTableRecord
100
AcDbRegAppTableRecord
  2
ACAD
 70
     0
  0
APPID
  5
3BD6
330
3B82
100
AcDbSymbolTableRecord
100
AcDbRegAppTableRecord
  2
ACADANNOTATIVE
 70
     0
  0
APPID
  5
3BF8
330
3B82
100
AcDbSymbolTableRecord
100
AcDbRegAppTableRecord
  2
CONTENTTABDATA
 70
     0
  0
APPID
  5
3BF9
330
3B82
100
AcDbSymbolTableRecord
100
AcDbRegAppTableRecord
  2
CONTENTCURRENTTAB
 70
     0
  0
APPID
  5
3BFA
330
3B82
100
AcDbSymbolTableRecord
100
AcDbRegAppTableRecord
  2
CONTENTBLOCKDESCRIPTION
 70
     0
  0
APPID
  5
3BFB
330
3B82
100
AcDbSymbolTableRecord
100
AcDbRegAppTableRecord
  2
CONTENTBLOCKICON
 70
     0
  0
APPID
  5
3BFC
330
3B82
100
AcDbSymbolTableRecord
100
AcDbRegAppTableRecord
  2
ACAD_PSEXT
 70
     0
  0
APPID
  5
3BFD
330
3B82
100
AcDbSymbolTableRecord
100
AcDbRegAppTableRecord
  2
ACAD_NAV_VCDISPLAY
 70
     0
  0
APPID
  5
3BFE
330
3B82
100
AcDbSymbolTableRecord
100
AcDbRegAppTableRecord
  2
ACAD_DSTYLE_DIMRADIAL_EXTENSION
 70
     0
  0
APPID
  5
3BFF
330
3B82
100
AcDbSymbolTableRecord
100
AcDbRegAppTableRecord
  2
ACAECLAYERSTANDARD
 70
     0
  0
APPID
  5
3C00
330
3B82
100
AcDbSymbolTableRecord
100
AcDbRegAppTableRecord
  2
ACCMTRANSPARENCY
 70
     0
  0
APPID
  5
3C01
330
3B82
100
AcDbSymbolTableRecord
100
AcDbRegAppTableRecord
  2
ACAD_EXEMPT_FROM_CAD_STANDARDS
 70
     0
  0
APPID
  5
3C02
330
3B82
100
AcDbSymbolTableRecord
100
AcDbRegAppTableRecord
  2
ACAD_MLEADERVER
 70
     0
  0
ENDTAB
  0
TABLE
  2
DIMSTYLE
  5
3B83
330
0
100
AcDbSymbolTable
 70
     5
100
AcDbDimStyleTable
 71
     1
340
3BD0
  0
DIMSTYLE
105
3BD0
330
3B83
100
AcDbSymbolTableRecord
100
AcDbDimStyleTableRecord
  2
STANDARD
 70
     0
279
     2
340
3BEE
  0
ENDTAB
  0
TABLE
  2
BLOCK_RECORD
  5
3B7A
330
0
100
AcDbSymbolTable
 70
    79
  0
BLOCK_RECORD
  5
3BE9
330
3B7A
100
AcDbSymbolTableRecord
100
AcDbBlockTableRecord
  2
*Model_Space
340
3BEC
  0
BLOCK_RECORD
  5
3BE5
330
3B7A
100
AcDbSymbolTableRecord
100
AcDbBlockTableRecord
  2
*Paper_Space
340
3BE8
  0
BLOCK_RECORD
  5
3C9F
330
3B7A
100
AcDbSymbolTableRecord
100
AcDbBlockTableRecord
  2
*U75
340
0
102
{BLKREFS
331
37AB
102
}
  0
BLOCK_RECORD
  5
3CA1
330
3B7A
100
AcDbSymbolTableRecord
100
AcDbBlockTableRecord
  2
*U76
340
0
102
{BLKREFS
331
37AC
102
}
  0
BLOCK_RECORD
  5
3CA3
330
3B7A
100
AcDbSymbolTableRecord
100
AcDbBlockTableRecord
  2
*U77
340
0
102
{BLKREFS
331
37AD
102
}
  0
ENDTAB
  0
ENDSEC
  0
SECTION
  2
BLOCKS
  0
BLOCK
  5
3BEA
330
3BE9
100
AcDbEntity
  8
0
100
AcDbBlockBegin
  2
*Model_Space
 70
     0
 10
0.0
 20
0.0
 30
0.0
  3
*Model_Space
  1

  0
ENDBLK
  5
3BEB
330
3BE9
100
AcDbEntity
  8
0
100
AcDbBlockEnd
  0
BLOCK
  5
3BE6
330
3BE5
100
AcDbEntity
 67
     1
  8
0
100
AcDbBlockBegin
  2
*Paper_Space
 70
     0
 10
0.0
 20
0.0
 30
0.0
  3
*Paper_Space
  1

  0
ENDBLK
  5
3BE7
330
3BE5
100
AcDbEntity
 67
     1
  8
0
100
AcDbBlockEnd
  0
BLOCK
  5
3CA0
330
3C9F
100
AcDbEntity
  8
0
100
AcDbBlockBegin
  2
*U75
 70
     1
 10
0.0
 20
0.0
 30
0.0
  3
*U75
  1

  0
TEXT
  5
3882
330
3C9F
100
AcDbEntity
  8
1
100
AcDbText
 10
214.8674062215846
 20
233.9413400964317
 30
0.0
 40
3.5
  1
1
 41
0.8
  7
AD-STANDARD
100
AcDbText
  0
ENDBLK
  5
3884
330
3C9F
100
AcDbEntity
  8
0
100
AcDbBlockEnd
  0
BLOCK
  5
3CA2
330
3CA1
100
AcDbEntity
  8
0
100
AcDbBlockBegin
  2
*U76
 70
     1
 10
0.0
 20
0.0
 30
0.0
  3
*U76
  1

  0
TEXT
  5
3886
330
3CA1
100
AcDbEntity
  8
1
100
AcDbText
 10
204.8157220569418
 20
233.9413400964317
 30
0.0
 40
3.5
  1
5
 41
0.8
  7
AD-STANDARD
100
AcDbText
  0
ENDBLK
  5
3888
330
3CA1
100
AcDbEntity
  8
0
100
AcDbBlockEnd
  0
BLOCK
  5
3CA4
330
3CA3
100
AcDbEntity
  8
0
100
AcDbBlockBegin
  2
*U77
 70
     1
 10
0.0
 20
0.0
 30
0.0
  3
*U77
  1

  0
TEXT
  5
388A
330
3CA3
100
AcDbEntity
  8
1
100
AcDbText
 10
212.8176916066442
 20
220.1122031646872
 30
0.0
 40
3.5
  1
%%UF.P.C
 50
90.0
 41
0.8
  7
AD-STANDARD
100
AcDbText
  0
ENDBLK
  5
388C
330
3CA3
100
AcDbEntity
  8
0
100
AcDbBlockEnd
  0
ENDSEC
  0
SECTION
  2
ENTITIES
  0
CIRCLE
  5
35D5
330
3BE9
100
AcDbEntity
  8
1
100
AcDbCircle
 10
29.54074351213654
 20
114.754742631413
 30
0.0
 40
3.5
  0
LINE
  5
35D6
330
3BE9
100
AcDbEntity
  8
1
100
AcDbLine
 10
31.59074351213582
 20
115.1647426314128
 30
0.0
 11
30.93474351213496
 21
115.1647426314128
 31
0.0
  0
LINE
  5
35D7
330
3BE9
100
AcDbEntity
  8
1
100
AcDbLine
 10
30.93474351213496
 20
114.3447426314122
 30
0.0
 11
31.59074351213582
 21
114.3447426314122
 31
0.0
  0
LINE
  5
35D8
330
3BE9
100
AcDbEntity
  8
1
100
AcDbLine
 10
27.49074351213546
 20
115.1647426314138
 30
0.0
 11
27.49074351213546
 21
114.3447426314131
 31
0.0
  0
LINE
  5
35D9
330
3BE9
100
AcDbEntity
  8
1
100
AcDbLine
 10
29.13074351213487
 20
113.3607426314137
 30
0.0
 11
29.13074351213487
 21
112.7047426314128
 31
0.0
  0
LINE
  5
35DA
330
3BE9
100
AcDbEntity
  8
1
100
AcDbLine
 10
29.9507435121364
 20
112.7047426314128
 30
0.0
 11
29.9507435121364
 21
113.3607426314128
 31
0.0
  0
LINE
  5
35DB
330
3BE9
100
AcDbEntity
  8
1
100
AcDbLine
 10
29.13074351213487
 20
112.7047426314128
 30
0.0
 11
29.9507435121364
 21
112.7047426314128
 31
0.0
  0
LINE
  5
35DC
330
3BE9
100
AcDbEntity
  8
1
100
AcDbLine
 10
28.84374351213643
 20
114.0577426314129
 30
0.0
 11
29.13074351213487
 21
113.3607426314137
 31
0.0
  0
LINE
  5
35DD
330
3BE9
100
AcDbEntity
  8
1
100
AcDbLine
 10
28.14674351213631
 20
114.3447426314131
 30
0.0
 11
28.84374351213643
 21
114.0577426314129
 31
0.0
  0
LINE
  5
35DE
330
3BE9
100
AcDbEntity
  8
1
100
AcDbLine
 10
27.49074351213546
 20
114.3447426314131
 30
0.0
 11
28.14674351213631
 21
114.3447426314131
 31
0.0
  0
LINE
  5
35DF
330
3BE9
100
AcDbEntity
  8
1
100
AcDbLine
 10
30.23774351213484
 20
114.0577426314129
 30
0.0
 11
30.93474351213496
 21
114.3447426314122
 31
0.0
  0
LINE
  5
35E0
330
3BE9
100
AcDbEntity
  8
1
100
AcDbLine
 10
29.9507435121364
 20
113.3607426314128
 30
0.0
 11
30.23774351213484
 21
114.0577426314129
 31
0.0
  0
LINE
  5
35E1
330
3BE9
100
AcDbEntity
  8
1
100
AcDbLine
 10
30.93474351213496
 20
115.1647426314128
 30
0.0
 11
30.23774351213484
 21
115.4517426314131
 31
0.0
  0
LINE
  5
35E2
330
3BE9
100
AcDbEntity
  8
1
100
AcDbLine
 10
30.23774351213484
 20
115.4517426314131
 30
0.0
 11
29.9507435121364
 21
116.1487426314132
 31
0.0
  0
LINE
  5
35E3
330
3BE9
100
AcDbEntity
  8
1
100
AcDbLine
 10
29.9507435121364
 20
116.1487426314132
 30
0.0
 11
29.9507435121364
 21
116.8047426314132
 31
0.0
  0
LINE
  5
35E4
330
3BE9
100
AcDbEntity
  8
1
100
AcDbLine
 10
28.14674351213631
 20
115.1647426314138
 30
0.0
 11
27.49074351213546
 21
115.1647426314138
 31
0.0
  0
LINE
  5
35E5
330
3BE9
100
AcDbEntity
  8
1
100
AcDbLine
 10
28.84374351213643
 20
115.4517426314131
 30
0.0
 11
28.14674351213631
 21
115.1647426314138
 31
0.0
  0
LINE
  5
35E6
330
3BE9
100
AcDbEntity
  8
1
100
AcDbLine
 10
29.13074351213487
 20
116.1487426314132
 30
0.0
 11
28.84374351213643
 21
115.4517426314131
 31
0.0
  0
LINE
  5
35E7
330
3BE9
100
AcDbEntity
  8
1
100
AcDbLine
 10
29.13074351213487
 20
116.8047426314132
 30
0.0
 11
29.13074351213487
 21
116.1487426314132
 31
0.0
  0
LINE
  5
35E8
330
3BE9
100
AcDbEntity
  8
1
100
AcDbLine
 10
29.13074351213487
 20
116.8047426314132
 30
0.0
 11
29.9507435121364
 21
116.8047426314132
 31
0.0
  0
LINE
  5
35E9
330
3BE9
100
AcDbEntity
  8
1
100
AcDbLine
 10
31.59074351213582
 20
115.1647426314128
 30
0.0
 11
31.59074351213582
 21
114.3447426314122
 31
0.0
  0
CIRCLE
  5
35EA
330
3BE9
100
AcDbEntity
  8
1
100
AcDbCircle
 10
29.54074351213654
 20
114.754742631413
 30
0.0
 40
3.799999999999999
  0
CIRCLE
  5
35EB
330
3BE9
100
AcDbEntity
  8
1
100
AcDbCircle
 10
29.54074351213654
 20
114.754742631413
 30
0.0
 40
4.5
  0
LINE
  5
35EC
330
3BE9
100
AcDbEntity
  8
1
100
AcDbLine
 10
17.54074351213654
 20
68.7547426314121
 30
0.0
 11
41.54074351213653
 21
68.75474263141303
 31
0.0
  0
LINE
  5
35ED
330
3BE9
100
AcDbEntity
  8
1
100
AcDbLine
 10
17.54074351213654
 20
124.2547426314121
 30
0.0
 11
41.54074351213834
 21
124.2547426314121
 31
0.0
  0
LINE
  5
35EE
330
3BE9
100
AcDbEntity
  8
1
100
AcDbLine
 10
42.54074351213834
 20
123.2547426314121
 30
0.0
 11
42.54074351213652
 21
69.75474263141302
 31
0.0
  0
LINE
  5
35EF
330
3BE9
100
AcDbEntity
  8
1
100
AcDbLine
 10
16.54074351213654
 20
75.75474263141207
 30
0.0
 11
18.1407435121369
 21
75.75474263141207
 31
0.0
  0
LINE
  5
35F0
330
3BE9
100
AcDbEntity
  8
1
100
AcDbLine
 10
16.54074351213654
 20
75.75474263141207
 30
0.0
 11
16.54074351213654
 21
69.7547426314121
 31
0.0
  0
LINE
  5
35F1
330
3BE9
100
AcDbEntity
  8
1
100
AcDbLine
 10
18.1407435121369
 20
75.75474263141207
 30
0.0
 11
18.1407435121369
 21
70.35474263141157
 31
0.0
  0
LINE
  5
35F2
330
3BE9
100
AcDbEntity
  8
1
100
AcDbLine
 10
18.14074351213873
 20
122.6547426314116
 30
0.0
 11
40.94074351213618
 21
122.6547426314108
 31
0.0
  0
LINE
  5
35F3
330
3BE9
100
AcDbEntity
  8
1
100
AcDbLine
 10
16.54074351213654
 20
117.2547426314121
 30
0.0
 11
18.1407435121369
 21
117.2547426314121
 31
0.0
  0
LINE
  5
35F4
330
3BE9
100
AcDbEntity
  8
1
100
AcDbLine
 10
16.54074351213654
 20
117.2547426314121
 30
0.0
 11
16.54074351213654
 21
123.2547426314121
 31
0.0
  0
LINE
  5
35F5
330
3BE9
100
AcDbEntity
  8
1
100
AcDbLine
 10
18.1407435121369
 20
117.2547426314121
 30
0.0
 11
18.1407435121369
 21
122.6547426314126
 31
0.0
  0
LINE
  5
35F6
330
3BE9
100
AcDbEntity
  8
1
100
AcDbLine
 10
40.94074351213618
 20
122.654742631409
 30
0.0
 11
40.94074351213618
 21
97.7547426314112
 31
0.0
  0
LINE
  5
35F7
330
3BE9
100
AcDbEntity
  8
1
100
AcDbLine
 10
18.1407435121369
 20
70.35474263141157
 30
0.0
 11
40.94074351213618
 21
70.35474263141066
 31
0.0
  0
LINE
  5
35F8
330
3BE9
100
AcDbEntity
  8
1
100
AcDbLine
 10
32.04074351213654
 20
73.7547426314121
 30
0.0
 11
42.54074351213652
 21
73.7547426314121
 31
0.0
  0
LINE
  5
35F9
330
3BE9
100
AcDbEntity
  8
1
100
AcDbLine
 10
23.54074351213654
 20
97.75474263141212
 30
0.0
 11
42.54074351213652
 21
97.75474263141212
 31
0.0
  0
LINE
  5
35FA
330
3BE9
100
AcDbEntity
  8
1
100
AcDbLine
 10
32.04074351213654
 20
94.25474263141213
 30
0.0
 11
32.04074351213654
 21
73.7547426314121
 31
0.0
  0
LINE
  5
35FB
330
3BE9
100
AcDbEntity
  8
1
100
AcDbLine
 10
26.54074351213655
 20
94.25474263141213
 30
0.0
 11
26.54074351213655
 21
89.75474263141302
 31
0.0
  0
LINE
  5
35FC
330
3BE9
100
AcDbEntity
  8
1
100
AcDbLine
 10
23.54074351213654
 20
97.75474263141212
 30
0.0
 11
23.54074351213654
 21
89.75474263141302
 31
0.0
  0
LINE
  5
35FD
330
3BE9
100
AcDbEntity
  8
1
100
AcDbLine
 10
23.54074351213654
 20
89.75474263141302
 30
0.0
 11
26.54074351213655
 21
89.75474263141302
 31
0.0
  0
LINE
  5
35FE
330
3BE9
100
AcDbEntity
  8
1
100
AcDbLine
 10
26.54074351213655
 20
94.25474263141213
 30
0.0
 11
32.04074351213654
 21
94.2547426314112
 31
0.0
  0
LINE
  5
35FF
330
3BE9
100
AcDbEntity
  8
1
100
AcDbLine
 10
40.94074351213618
 20
73.7547426314121
 30
0.0
 11
40.94074351213618
 21
70.35474263141066
 31
0.0
  0
LINE
  5
3600
330
3BE9
100
AcDbEntity
  8
1
100
AcDbLine
 10
32.54074351213655
 20
72.35474263141249
 30
0.0
 11
32.54074351213655
 21
71.35474263141337
 31
0.0
  0
LINE
  5
3601
330
3BE9
100
AcDbEntity
  8
1
100
AcDbLine
 10
26.54074351213655
 20
72.35474263141249
 30
0.0
 11
26.54074351213655
 21
71.35474263142066
 31
0.0
  0
LINE
  5
3602
330
3BE9
100
AcDbEntity
  8
1
100
AcDbLine
 10
26.54074351213655
 20
72.35474263141154
 30
0.0
 11
32.54074351213655
 21
72.35474263141249
 31
0.0
  0
ARC
  5
3603
330
3BE9
100
AcDbEntity
  8
1
100
AcDbCircle
 10
33.54074351213654
 20
71.35474263141337
 30
0.0
 40
1.0
100
AcDbArc
 50
180.0
 51
270.0
  0
ARC
  5
3604
330
3BE9
100
AcDbEntity
  8
1
100
AcDbCircle
 10
25.54074351213655
 20
71.35474263142066
 30
0.0
 40
1.0
100
AcDbArc
 50
269.9999999998958
 51
0.0
  0
LINE
  5
3605
330
3BE9
100
AcDbEntity
  8
1
100
AcDbLine
 10
39.01043735780564
 20
121.254742631413
 30
0.0
 11
40.94074351213618
 21
121.254742631413
 31
0.0
  0
LINE
  5
3606
330
3BE9
100
AcDbEntity
  8
1
100
AcDbLine
 10
29.54074351213654
 20
120.3819044934361
 30
0.0
 11
29.54074351213654
 21
99.00302497104974
 31
0.0
  0
LINE
  5
3607
330
3BE9
100
AcDbEntity
  8
CENTER
100
AcDbLine
 10
34.62303120334451
 20
103.7547426314139
 30
0.0
 11
24.41662938755559
 21
103.7547426314121
 31
0.0
  0
LINE
  5
3608
330
3BE9
100
AcDbEntity
  8
CENTER
100
AcDbLine
 10
34.62303120334451
 20
114.7547426314139
 30
0.0
 11
24.41662938755559
 21
114.7547426314121
 31
0.0
  0
LINE
  5
3609
330
3BE9
100
AcDbEntity
  8
1
100
AcDbLine
 10
23.54074351213654
 20
71.75474263141301
 30
0.0
 11
26.54074351213655
 21
71.75474263141393
 31
0.0
  0
LINE
  5
360A
330
3BE9
100
AcDbEntity
  8
1
100
AcDbLine
 10
32.54074351213655
 20
71.75474263141301
 30
0.0
 11
40.94074351213618
 21
71.75474263141301
 31
0.0
  0
ARC
  5
360B
330
3BE9
100
AcDbEntity
  8
1
100
AcDbCircle
 10
17.54074351213654
 20
123.2547426314121
 30
0.0
 40
1.0
100
AcDbArc
 50
90.0
 51
180.0
  0
ARC
  5
360C
330
3BE9
100
AcDbEntity
  8
1
100
AcDbCircle
 10
41.54074351213834
 20
123.2547426314121
 30
0.0
 40
1.0
100
AcDbArc
 50
0.0
 51
90.0
  0
ARC
  5
360D
330
3BE9
100
AcDbEntity
  8
1
100
AcDbCircle
 10
17.54074351213654
 20
69.7547426314121
 30
0.0
 40
1.0
100
AcDbArc
 50
180.0
 51
270.0
  0
ARC
  5
360E
330
3BE9
100
AcDbEntity
  8
1
100
AcDbCircle
 10
41.54074351213653
 20
69.75474263141302
 30
0.0
 40
1.0
100
AcDbArc
 50
270.0
 51
0.0
  0
LINE
  5
360F
330
3BE9
100
AcDbEntity
  8
1
100
AcDbLine
 10
30.04074351213473
 20
88.75474263141303
 30
0.0
 11
32.04074351213654
 21
88.75474263141303
 31
0.0
  0
LINE
  5
3610
330
3BE9
100
AcDbEntity
  8
1
100
AcDbLine
 10
35.04074351213655
 20
97.7547426314112
 30
0.0
 11
35.04074351213655
 21
117.9547426314128
 31
0.0
  0
LINE
  5
3611
330
3BE9
100
AcDbEntity
  8
1
100
AcDbLine
 10
20.04074351213654
 20
119.4547426314128
 30
0.0
 11
20.04074351213654
 21
87.75474263141303
 31
0.0
  0
LINE
  5
3612
330
3BE9
100
AcDbEntity
  8
1
100
AcDbLine
 10
30.04074351213655
 20
92.75474263141303
 30
0.0
 11
28.54074351213654
 21
92.75474263141303
 31
0.0
  0
LINE
  5
3613
330
3BE9
100
AcDbEntity
  8
1
100
AcDbLine
 10
20.04074351213654
 20
87.75474263141303
 30
0.0
 11
30.04074351213655
 21
87.75474263141303
 31
0.0
  0
LINE
  5
3614
330
3BE9
100
AcDbEntity
  8
1
100
AcDbLine
 10
28.04074351213655
 20
92.75474263141303
 30
0.0
 11
30.04074351213655
 21
92.75474263141303
 31
0.0
  0
LINE
  5
3615
330
3BE9
100
AcDbEntity
  8
1
100
AcDbLine
 10
20.04074351213654
 20
87.75474263141303
 30
0.0
 11
30.04074351213655
 21
87.75474263141303
 31
0.0
  0
LINE
  5
3616
330
3BE9
100
AcDbEntity
  8
1
100
AcDbLine
 10
28.54074351213654
 20
92.75474263141303
 30
0.0
 11
28.54074351213654
 21
87.75474263141303
 31
0.0
  0
ARC
  5
3617
330
3BE9
100
AcDbEntity
  8
1
100
AcDbCircle
 10
28.04074351213655
 20
94.254742631413
 30
0.0
 40
1.5
100
AcDbArc
 50
180.0000000000521
 51
270.0
  0
LINE
  5
3618
330
3BE9
100
AcDbEntity
  8
1
100
AcDbLine
 10
30.04074351213655
 20
87.75474263141303
 30
0.0
 11
30.04074351213655
 21
92.75474263141303
 31
0.0
  0
LINE
  5
3619
330
3BE9
100
AcDbEntity
  8
1
100
AcDbLine
 10
21.54074351213655
 20
120.9547426314128
 30
0.0
 11
37.54074351213655
 21
120.9547426314128
 31
0.0
  0
LINE
  5
361A
330
3BE9
100
AcDbEntity
  8
1
100
AcDbLine
 10
20.54074351213655
 20
122.4547426314128
 30
0.0
 11
38.54074351213653
 21
122.4547426314128
 31
0.0
  0
LINE
  5
361B
330
3BE9
100
AcDbEntity
  8
1
100
AcDbLine
 10
20.04074351213654
 20
119.4547426314128
 30
0.0
 11
33.54074351213473
 21
119.4547426314128
 31
0.0
  0
LINE
  5
361C
330
3BE9
100
AcDbEntity
  8
1
100
AcDbLine
 10
20.04074351213654
 20
119.4547426314128
 30
0.0
 11
20.04074351213654
 21
120.9547426314128
 31
0.0
  0
LINE
  5
361D
330
3BE9
100
AcDbEntity
  8
1
100
AcDbLine
 10
20.04074351213654
 20
119.4547426314128
 30
0.0
 11
21.54074351213655
 21
119.4547426314128
 31
0.0
  0
ARC
  5
361E
330
3BE9
100
AcDbEntity
  8
1
100
AcDbCircle
 10
21.54074351213655
 20
120.9547426314128
 30
0.0
 40
1.5
100
AcDbArc
 50
90.0
 51
180.0
  0
ARC
  5
361F
330
3BE9
100
AcDbEntity
  8
1
100
AcDbCircle
 10
37.54074351213655
 20
120.9547426314128
 30
0.0
 40
1.5
100
AcDbArc
 50
0.0
 51
90.0
  0
LINE
  5
3620
330
3BE9
100
AcDbEntity
  8
1
100
AcDbLine
 10
20.04074351213654
 20
83.95474263141281
 30
0.0
 11
20.04074351213654
 21
87.75474263141303
 31
0.0
  0
LINE
  5
3621
330
3BE9
100
AcDbEntity
  8
1
100
AcDbLine
 10
21.54074351213655
 20
87.75474263141303
 30
0.0
 11
21.54074351213655
 21
83.95474263141281
 31
0.0
  0
LINE
  5
3622
330
3BE9
100
AcDbEntity
  8
1
100
AcDbLine
 10
37.54074351213655
 20
97.7547426314112
 30
0.0
 11
37.54074351213655
 21
120.9547426314128
 31
0.0
  0
LINE
  5
3623
330
3BE9
100
AcDbEntity
  8
1
100
AcDbLine
 10
39.04074351213655
 20
120.9547426314128
 30
0.0
 11
39.04074351213655
 21
97.7547426314112
 31
0.0
  0
LINE
  5
3624
330
3BE9
100
AcDbEntity
  8
1
100
AcDbLine
 10
21.54074351213655
 20
83.95474263141281
 30
0.0
 11
20.04074351213654
 21
83.95474263141281
 31
0.0
  0
LINE
  5
3625
330
3BE9
100
AcDbEntity
  8
1
100
AcDbLine
 10
20.04074351213654
 20
83.95474263141281
 30
0.0
 11
20.04074351213654
 21
87.75474263141211
 31
0.0
  0
LINE
  5
3626
330
3BE9
100
AcDbEntity
  8
1
100
AcDbLine
 10
38.54074351213653
 20
122.4547426314128
 30
0.0
 11
38.54074351213653
 21
122.6547426314116
 31
0.0
  0
LINE
  5
3627
330
3BE9
100
AcDbEntity
  8
1
100
AcDbLine
 10
20.54074351213655
 20
122.6547426314126
 30
0.0
 11
20.54074351213655
 21
122.4547426314128
 31
0.0
  0
LINE
  5
3628
330
3BE9
100
AcDbEntity
  8
1
100
AcDbLine
 10
23.54074351213654
 20
87.75474263141303
 30
0.0
 11
23.54074351213654
 21
71.75474263141301
 31
0.0
  0
CIRCLE
  5
3629
330
3BE9
100
AcDbEntity
  8
1
100
AcDbCircle
 10
29.54074351213654
 20
103.754742631413
 30
0.0
 40
3.5
  0
LINE
  5
362A
330
3BE9
100
AcDbEntity
  8
1
100
AcDbLine
 10
31.59074351213582
 20
104.1647426314129
 30
0.0
 11
30.93474351213496
 21
104.1647426314129
 31
0.0
  0
LINE
  5
362B
330
3BE9
100
AcDbEntity
  8
1
100
AcDbLine
 10
30.93474351213496
 20
103.3447426314122
 30
0.0
 11
31.59074351213582
 21
103.3447426314122
 31
0.0
  0
LINE
  5
362C
330
3BE9
100
AcDbEntity
  8
1
100
AcDbLine
 10
27.49074351213546
 20
104.1647426314138
 30
0.0
 11
27.49074351213546
 21
103.3447426314132
 31
0.0
  0
LINE
  5
362D
330
3BE9
100
AcDbEntity
  8
1
100
AcDbLine
 10
29.13074351213487
 20
102.3607426314137
 30
0.0
 11
29.13074351213487
 21
101.7047426314128
 31
0.0
  0
LINE
  5
362E
330
3BE9
100
AcDbEntity
  8
1
100
AcDbLine
 10
29.9507435121364
 20
101.7047426314128
 30
0.0
 11
29.9507435121364
 21
102.3607426314128
 31
0.0
  0
LINE
  5
362F
330
3BE9
100
AcDbEntity
  8
1
100
AcDbLine
 10
29.13074351213487
 20
101.7047426314128
 30
0.0
 11
29.9507435121364
 21
101.7047426314128
 31
0.0
  0
LINE
  5
3630
330
3BE9
100
AcDbEntity
  8
1
100
AcDbLine
 10
28.84374351213643
 20
103.0577426314129
 30
0.0
 11
29.13074351213487
 21
102.3607426314137
 31
0.0
  0
LINE
  5
3631
330
3BE9
100
AcDbEntity
  8
1
100
AcDbLine
 10
28.14674351213631
 20
103.3447426314132
 30
0.0
 11
28.84374351213643
 21
103.0577426314129
 31
0.0
  0
LINE
  5
3632
330
3BE9
100
AcDbEntity
  8
1
100
AcDbLine
 10
27.49074351213546
 20
103.3447426314132
 30
0.0
 11
28.14674351213631
 21
103.3447426314132
 31
0.0
  0
LINE
  5
3633
330
3BE9
100
AcDbEntity
  8
1
100
AcDbLine
 10
30.23774351213484
 20
103.0577426314129
 30
0.0
 11
30.93474351213496
 21
103.3447426314122
 31
0.0
  0
LINE
  5
3634
330
3BE9
100
AcDbEntity
  8
1
100
AcDbLine
 10
29.9507435121364
 20
102.3607426314128
 30
0.0
 11
30.23774351213484
 21
103.0577426314129
 31
0.0
  0
LINE
  5
3635
330
3BE9
100
AcDbEntity
  8
1
100
AcDbLine
 10
30.93474351213496
 20
104.1647426314129
 30
0.0
 11
30.23774351213484
 21
104.4517426314131
 31
0.0
  0
LINE
  5
3636
330
3BE9
100
AcDbEntity
  8
1
100
AcDbLine
 10
30.23774351213484
 20
104.4517426314131
 30
0.0
 11
29.9507435121364
 21
105.1487426314132
 31
0.0
  0
LINE
  5
3637
330
3BE9
100
AcDbEntity
  8
1
100
AcDbLine
 10
29.9507435121364
 20
105.1487426314132
 30
0.0
 11
29.9507435121364
 21
105.8047426314132
 31
0.0
  0
LINE
  5
3638
330
3BE9
100
AcDbEntity
  8
1
100
AcDbLine
 10
28.14674351213631
 20
104.1647426314138
 30
0.0
 11
27.49074351213546
 21
104.1647426314138
 31
0.0
  0
LINE
  5
3639
330
3BE9
100
AcDbEntity
  8
1
100
AcDbLine
 10
28.84374351213643
 20
104.4517426314131
 30
0.0
 11
28.14674351213631
 21
104.1647426314138
 31
0.0
  0
LINE
  5
363A
330
3BE9
100
AcDbEntity
  8
1
100
AcDbLine
 10
29.13074351213487
 20
105.1487426314132
 30
0.0
 11
28.84374351213643
 21
104.4517426314131
 31
0.0
  0
LINE
  5
363B
330
3BE9
100
AcDbEntity
  8
1
100
AcDbLine
 10
29.13074351213487
 20
105.8047426314132
 30
0.0
 11
29.13074351213487
 21
105.1487426314132
 31
0.0
  0
LINE
  5
363C
330
3BE9
100
AcDbEntity
  8
1
100
AcDbLine
 10
29.13074351213487
 20
105.8047426314132
 30
0.0
 11
29.9507435121364
 21
105.8047426314132
 31
0.0
  0
LINE
  5
363D
330
3BE9
100
AcDbEntity
  8
1
100
AcDbLine
 10
31.59074351213582
 20
104.1647426314129
 30
0.0
 11
31.59074351213582
 21
103.3447426314122
 31
0.0
  0
CIRCLE
  5
363E
330
3BE9
100
AcDbEntity
  8
1
100
AcDbCircle
 10
29.54074351213654
 20
103.754742631413
 30
0.0
 40
3.799999999999999
  0
CIRCLE
  5
363F
330
3BE9
100
AcDbEntity
  8
1
100
AcDbCircle
 10
29.54074351213654
 20
103.754742631413
 30
0.0
 40
4.5
  0
LINE
  5
3640
330
3BE9
100
AcDbEntity
  8
1
100
AcDbLine
 10
155.1571525574446
 20
134.4547426314119
 30
0.0
 11
137.1571525574446
 21
134.454742631412
 31
0.0
  0
LINE
  5
3641
330
3BE9
100
AcDbEntity
  8
1
100
AcDbLine
 10
154.1571525574446
 20
122.4547426314119
 30
0.0
 11
138.1571525574446
 21
122.4547426314119
 31
0.0
  0
LINE
  5
3642
330
3BE9
100
AcDbEntity
  8
1
100
AcDbLine
 10
155.1571525574446
 20
122.4547426314119
 30
0.0
 11
155.1571525574446
 21
134.4547426314119
 31
0.0
  0
LINE
  5
3643
330
3BE9
100
AcDbEntity
  8
1
100
AcDbLine
 10
154.1571525574446
 20
122.4547426314119
 30
0.0
 11
155.1571525574446
 21
122.4547426314119
 31
0.0
  0
LINE
  5
3644
330
3BE9
100
AcDbEntity
  8
1
100
AcDbLine
 10
101.557152557444
 20
119.4547426314119
 30
0.0
 11
101.557152557444
 21
97.75474263141303
 31
0.0
  0
LINE
  5
3645
330
3BE9
100
AcDbEntity
  8
1
100
AcDbLine
 10
96.05715255744399
 20
92.75474263141212
 30
0.0
 11
97.65715255744437
 21
92.7547426314112
 31
0.0
  0
LINE
  5
3646
330
3BE9
100
AcDbEntity
  8
1
100
AcDbLine
 10
97.65715255744254
 20
87.75474263141211
 30
0.0
 11
96.05715255744399
 21
87.75474263141211
 31
0.0
  0
LINE
  5
3647
330
3BE9
100
AcDbEntity
  8
1
100
AcDbLine
 10
96.05715255744399
 20
87.75474263141211
 30
0.0
 11
96.05715255744399
 21
92.75474263141212
 31
0.0
  0
LINE
  5
3648
330
3BE9
100
AcDbEntity
  8
1
100
AcDbLine
 10
102.1571525574425
 20
119.4547426314119
 30
0.0
 11
101.557152557444
 21
119.4547426314119
 31
0.0
  0
LINE
  5
3649
330
3BE9
100
AcDbEntity
  8
1
100
AcDbLine
 10
137.1571525574446
 20
134.4547426314119
 30
0.0
 11
137.1571525574446
 21
122.4547426314119
 31
0.0
  0
LINE
  5
364A
330
3BE9
100
AcDbEntity
  8
1
100
AcDbLine
 10
138.0571525574458
 20
122.4547426314119
 30
0.0
 11
138.0571525574458
 21
121.2547426314112
 31
0.0
  0
LINE
  5
364B
330
3BE9
100
AcDbEntity
  8
1
100
AcDbLine
 10
138.0571525574458
 20
122.4547426314119
 30
0.0
 11
138.0571525574458
 21
121.15474263141
 31
0.0
  0
LINE
  5
364C
330
3BE9
100
AcDbEntity
  8
1
100
AcDbLine
 10
138.1571525574446
 20
122.4547426314119
 30
0.0
 11
137.1571525574446
 21
122.4547426314119
 31
0.0
  0
LINE
  5
364D
330
3BE9
100
AcDbEntity
  8
1
100
AcDbLine
 10
226.557152557444
 20
118.2547426314121
 30
0.0
 11
226.557152557444
 21
111.2547426314121
 31
0.0
  0
ARC
  5
364E
330
3BE9
100
AcDbEntity
  8
1
100
AcDbCircle
 10
220.1571525574443
 20
114.7547426314121
 30
0.0
 40
8.999999999999831
100
AcDbArc
 50
343.8167007802426
 51
16.18329921975739
  0
ARC
  5
364F
330
3BE9
100
AcDbEntity
  8
1
100
AcDbCircle
 10
227.5520397972929
 20
112.6086665120864
 30
0.0
 40
1.3
100
AcDbArc
 50
273.0000000000056
 51
343.8167007802426
  0
LINE
  5
3650
330
3BE9
100
AcDbEntity
  8
1
100
AcDbLine
 10
226.557152557444
 20
111.2547426314121
 30
0.0
 11
227.6200765404072
 21
111.3104481169056
 31
0.0
  0
ARC
  5
3651
330
3BE9
100
AcDbEntity
  8
1
100
AcDbCircle
 10
227.5520397972929
 20
116.9008187507369
 30
0.0
 40
1.3
100
AcDbArc
 50
16.18329921975739
 51
86.99999999999443
  0
LINE
  5
3652
330
3BE9
100
AcDbEntity
  8
1
100
AcDbLine
 10
227.6200765404072
 20
118.1990371459177
 30
0.0
 11
226.557152557444
 21
118.2547426314121
 31
0.0
  0
LINE
  5
3653
330
3BE9
100
AcDbEntity
  8
1
100
AcDbLine
 10
226.557152557444
 20
118.5547426314123
 30
0.0
 11
226.557152557444
 21
110.9547426314119
 31
0.0
  0
LINE
  5
3654
330
3BE9
100
AcDbEntity
  8
1
100
AcDbLine
 10
226.557152557444
 20
110.9547426314119
 30
0.0
 11
225.557152557444
 21
110.9547426314119
 31
0.0
  0
LINE
  5
3655
330
3BE9
100
AcDbEntity
  8
1
100
AcDbLine
 10
225.557152557444
 20
110.9547426314119
 30
0.0
 11
225.557152557444
 21
118.5547426314123
 31
0.0
  0
LINE
  5
3656
330
3BE9
100
AcDbEntity
  8
1
100
AcDbLine
 10
225.557152557444
 20
118.5547426314123
 30
0.0
 11
226.557152557444
 21
118.5547426314123
 31
0.0
  0
LINE
  5
3657
330
3BE9
100
AcDbEntity
  8
1
100
AcDbLine
 10
225.557152557444
 20
119.2547426314121
 30
0.0
 11
225.557152557444
 21
110.2547426314121
 31
0.0
  0
LINE
  5
3658
330
3BE9
100
AcDbEntity
  8
1
100
AcDbLine
 10
225.557152557444
 20
110.2547426314121
 30
0.0
 11
224.7571525574447
 21
110.2547426314121
 31
0.0
  0
LINE
  5
3659
330
3BE9
100
AcDbEntity
  8
1
100
AcDbLine
 10
224.7571525574447
 20
110.2547426314121
 30
0.0
 11
224.7571525574447
 21
119.2547426314121
 31
0.0
  0
LINE
  5
365A
330
3BE9
100
AcDbEntity
  8
1
100
AcDbLine
 10
224.7571525574447
 20
119.2547426314121
 30
0.0
 11
225.557152557444
 21
119.2547426314121
 31
0.0
  0
LINE
  5
365B
330
3BE9
100
AcDbEntity
  8
1
100
AcDbLine
 10
226.557152557444
 20
107.2547426314121
 30
0.0
 11
226.557152557444
 21
100.2547426314121
 31
0.0
  0
ARC
  5
365C
330
3BE9
100
AcDbEntity
  8
1
100
AcDbCircle
 10
220.1571525574443
 20
103.7547426314121
 30
0.0
 40
8.999999999999831
100
AcDbArc
 50
343.8167007802426
 51
16.18329921975739
  0
ARC
  5
365D
330
3BE9
100
AcDbEntity
  8
1
100
AcDbCircle
 10
227.5520397972929
 20
101.6086665120864
 30
0.0
 40
1.3
100
AcDbArc
 50
273.0000000000056
 51
343.8167007802426
  0
LINE
  5
365E
330
3BE9
100
AcDbEntity
  8
1
100
AcDbLine
 10
226.557152557444
 20
100.2547426314121
 30
0.0
 11
227.6200765404072
 21
100.3104481169056
 31
0.0
  0
ARC
  5
365F
330
3BE9
100
AcDbEntity
  8
1
100
AcDbCircle
 10
227.5520397972929
 20
105.9008187507369
 30
0.0
 40
1.3
100
AcDbArc
 50
16.18329921975739
 51
86.99999999999443
  0
LINE
  5
3660
330
3BE9
100
AcDbEntity
  8
1
100
AcDbLine
 10
227.6200765404072
 20
107.1990371459177
 30
0.0
 11
226.557152557444
 21
107.2547426314121
 31
0.0
  0
LINE
  5
3661
330
3BE9
100
AcDbEntity
  8
1
100
AcDbLine
 10
226.557152557444
 20
107.5547426314123
 30
0.0
 11
226.557152557444
 21
99.95474263141193
 31
0.0
  0
LINE
  5
3662
330
3BE9
100
AcDbEntity
  8
1
100
AcDbLine
 10
226.557152557444
 20
99.95474263141193
 30
0.0
 11
225.557152557444
 21
99.95474263141193
 31
0.0
  0
LINE
  5
3663
330
3BE9
100
AcDbEntity
  8
1
100
AcDbLine
 10
225.557152557444
 20
99.95474263141193
 30
0.0
 11
225.557152557444
 21
107.5547426314123
 31
0.0
  0
LINE
  5
3664
330
3BE9
100
AcDbEntity
  8
1
100
AcDbLine
 10
225.557152557444
 20
107.5547426314123
 30
0.0
 11
226.557152557444
 21
107.5547426314123
 31
0.0
  0
LINE
  5
3665
330
3BE9
100
AcDbEntity
  8
1
100
AcDbLine
 10
225.557152557444
 20
108.2547426314121
 30
0.0
 11
225.557152557444
 21
99.25474263141213
 31
0.0
  0
LINE
  5
3666
330
3BE9
100
AcDbEntity
  8
1
100
AcDbLine
 10
225.557152557444
 20
99.25474263141213
 30
0.0
 11
224.7571525574447
 21
99.25474263141213
 31
0.0
  0
LINE
  5
3667
330
3BE9
100
AcDbEntity
  8
1
100
AcDbLine
 10
224.7571525574447
 20
99.25474263141213
 30
0.0
 11
224.7571525574447
 21
108.2547426314121
 31
0.0
  0
LINE
  5
3668
330
3BE9
100
AcDbEntity
  8
1
100
AcDbLine
 10
224.7571525574447
 20
108.2547426314121
 30
0.0
 11
225.557152557444
 21
108.2547426314121
 31
0.0
  0
LINE
  5
3669
330
3BE9
100
AcDbEntity
  8
1
100
AcDbLine
 10
101.057152557444
 20
118.2547426314121
 30
0.0
 11
101.057152557444
 21
111.2547426314121
 31
0.0
  0
LINE
  5
366A
330
3BE9
100
AcDbEntity
  8
1
100
AcDbLine
 10
101.057152557444
 20
118.5547426314123
 30
0.0
 11
101.057152557444
 21
110.9547426314119
 31
0.0
  0
LINE
  5
366B
330
3BE9
100
AcDbEntity
  8
1
100
AcDbLine
 10
101.057152557444
 20
110.7547426314119
 30
0.0
 11
101.557152557444
 21
110.7547426314119
 31
0.0
  0
LINE
  5
366C
330
3BE9
100
AcDbEntity
  8
1
100
AcDbLine
 10
101.557152557444
 20
118.7547426314123
 30
0.0
 11
101.057152557444
 21
118.7547426314123
 31
0.0
  0
LINE
  5
366D
330
3BE9
100
AcDbEntity
  8
1
100
AcDbLine
 10
154.0571525574458
 20
121.2547426314112
 30
0.0
 11
154.0571525574458
 21
122.4547426314119
 31
0.0
  0
ARC
  5
366E
330
3BE9
100
AcDbEntity
  8
1
100
AcDbCircle
 10
33.54074351213473
 20
117.9547426314128
 30
0.0
 40
1.5
100
AcDbArc
 50
0.0
 51
90.0
  0
LINE
  5
366F
330
3BE9
100
AcDbEntity
  8
1
100
AcDbLine
 10
224.7571525574447
 20
121.2547426314117
 30
0.0
 11
224.7571525574447
 21
71.7547426314121
 31
0.0
  0
LINE
  5
3670
330
3BE9
100
AcDbEntity
  8
1
100
AcDbLine
 10
97.75715255744472
 20
73.75474263141301
 30
0.0
 11
97.75715255744472
 21
97.75474263141212
 31
0.0
  0
LINE
  5
3671
330
3BE9
100
AcDbEntity
  8
1
100
AcDbLine
 10
97.75715255744472
 20
97.75474263141212
 30
0.0
 11
100.7571525574447
 21
97.75474263141212
 31
0.0
  0
LINE
  5
3672
330
3BE9
100
AcDbEntity
  8
1
100
AcDbLine
 10
102.2571525574447
 20
118.7547426314121
 30
0.0
 11
102.2571525574447
 21
124.2547426314121
 31
0.0
  0
LINE
  5
3673
330
3BE9
100
AcDbEntity
  8
1
100
AcDbLine
 10
221.7571525574443
 20
124.2547426314121
 30
0.0
 11
158.2571525574447
 21
124.2547426314112
 31
0.0
  0
LINE
  5
3674
330
3BE9
100
AcDbEntity
  8
1
100
AcDbLine
 10
158.2571525574447
 20
124.2547426314121
 30
0.0
 11
158.2571525574447
 21
122.6547426314108
 31
0.0
  0
LINE
  5
3675
330
3BE9
100
AcDbEntity
  8
1
100
AcDbLine
 10
134.2571525574447
 20
124.2547426314121
 30
0.0
 11
134.2571525574447
 21
122.6547426314099
 31
0.0
  0
LINE
  5
3676
330
3BE9
100
AcDbEntity
  8
1
100
AcDbLine
 10
134.2571525574447
 20
124.2547426314112
 30
0.0
 11
102.2571525574447
 21
124.2547426314121
 31
0.0
  0
LINE
  5
3677
330
3BE9
100
AcDbEntity
  8
1
100
AcDbLine
 10
102.2571525574447
 20
72.2547426314121
 30
0.0
 11
102.2571525574447
 21
68.7547426314121
 31
0.0
  0
LINE
  5
3678
330
3BE9
100
AcDbEntity
  8
1
100
AcDbLine
 10
100.7571525574447
 20
73.7547426314121
 30
0.0
 11
97.75715255744472
 21
73.7547426314121
 31
0.0
  0
LINE
  5
3679
330
3BE9
100
AcDbEntity
  8
1
100
AcDbLine
 10
221.7571525574444
 20
68.7547426314121
 30
0.0
 11
102.2571525574447
 21
68.7547426314121
 31
0.0
  0
LINE
  5
367A
330
3BE9
100
AcDbEntity
  8
1
100
AcDbLine
 10
148.2571525574447
 20
86.2547426314112
 30
0.0
 11
148.2571525574447
 21
83.75474263141393
 31
0.0
  0
LINE
  5
367B
330
3BE9
100
AcDbEntity
  8
1
100
AcDbLine
 10
145.2571525574464
 20
86.25474263141208
 30
0.0
 11
145.2571525574429
 21
68.7547426314121
 31
0.0
  0
LINE
  5
367C
330
3BE9
100
AcDbEntity
  8
1
100
AcDbLine
 10
224.7571525574447
 20
71.7547426314121
 30
0.0
 11
223.2571525574461
 21
71.7547426314121
 31
0.0
  0
LINE
  5
367D
330
3BE9
100
AcDbEntity
  8
1
100
AcDbLine
 10
102.2571525574447
 20
99.25474263141213
 30
0.0
 11
102.2571525574447
 21
119.2547426314121
 31
0.0
  0
LINE
  5
367E
330
3BE9
100
AcDbEntity
  8
1
100
AcDbLine
 10
146.7571525574447
 20
87.7547426314112
 30
0.0
 11
146.7571525574464
 21
87.75474263141211
 31
0.0
  0
ARC
  5
367F
330
3BE9
100
AcDbEntity
  8
1
100
AcDbCircle
 10
100.7571525574447
 20
99.25474263141213
 30
0.0
 40
1.5
100
AcDbArc
 50
270.0
 51
0.0
  0
LINE
  5
3680
330
3BE9
100
AcDbEntity
  8
1
100
AcDbLine
 10
156.7571525574447
 20
121.1547426314108
 30
0.0
 11
135.7571525574447
 21
121.1547426314099
 31
0.0
  0
LINE
  5
3681
330
3BE9
100
AcDbEntity
  8
1
100
AcDbLine
 10
145.2571525574447
 20
72.75474263141394
 30
0.0
 11
173.2571525574447
 21
72.75474263141394
 31
0.0
  0
LINE
  5
3682
330
3BE9
100
AcDbEntity
  8
1
100
AcDbLine
 10
173.2571525574447
 20
72.75474263141394
 30
0.0
 11
173.2571525574447
 21
87.75474263141394
 31
0.0
  0
LINE
  5
3683
330
3BE9
100
AcDbEntity
  8
1
100
AcDbLine
 10
173.2571525574447
 20
87.75474263141394
 30
0.0
 11
151.2571525574447
 21
87.75474263141394
 31
0.0
  0
LINE
  5
3684
330
3BE9
100
AcDbEntity
  8
1
100
AcDbLine
 10
151.2571525574447
 20
87.75474263141394
 30
0.0
 11
151.2571525574447
 21
83.75474263141393
 31
0.0
  0
LINE
  5
3685
330
3BE9
100
AcDbEntity
  8
1
100
AcDbLine
 10
151.2571525574447
 20
83.75474263141393
 30
0.0
 11
145.2571525574447
 21
83.75474263141393
 31
0.0
  0
LINE
  5
3686
330
3BE9
100
AcDbEntity
  8
1
100
AcDbLine
 10
145.2571525574447
 20
83.75474263141393
 30
0.0
 11
145.2571525574447
 21
72.75474263141394
 31
0.0
  0
CIRCLE
  5
3687
330
3BE9
100
AcDbEntity
  8
1
100
AcDbCircle
 10
166.2571525574447
 20
80.75474263141392
 30
0.0
 40
3.799999999999999
  0
CIRCLE
  5
3688
330
3BE9
100
AcDbEntity
  8
1
100
AcDbCircle
 10
166.2571525574447
 20
80.75474263141392
 30
0.0
 40
4.5
  0
CIRCLE
  5
3689
330
3BE9
100
AcDbEntity
  8
1
100
AcDbCircle
 10
156.2571525574447
 20
80.75474263141392
 30
0.0
 40
3.799999999999999
  0
CIRCLE
  5
368A
330
3BE9
100
AcDbEntity
  8
1
100
AcDbCircle
 10
156.2571525574447
 20
80.75474263141392
 30
0.0
 40
4.5
  0
ARC
  5
368B
330
3BE9
100
AcDbEntity
  8
1
100
AcDbCircle
 10
156.2571525574447
 20
78.00474263141393
 30
0.0
 40
2.25
100
AcDbArc
 50
218.0363739571259
 51
321.9636260428741
  0
ARC
  5
368C
330
3BE9
100
AcDbEntity
  8
1
100
AcDbCircle
 10
156.2571525574447
 20
83.50474263141393
 30
0.0
 40
2.25
100
AcDbArc
 50
38.03637395712587
 51
141.9636260428741
  0
ARC
  5
368D
330
3BE9
100
AcDbEntity
  8
1
100
AcDbCircle
 10
166.2571525574447
 20
83.50474263141393
 30
0.0
 40
2.25
100
AcDbArc
 50
38.03637395712587
 51
141.9636260428741
  0
ARC
  5
368E
330
3BE9
100
AcDbEntity
  8
1
100
AcDbCircle
 10
166.2571525574447
 20
78.00474263141393
 30
0.0
 40
2.25
100
AcDbArc
 50
218.0363739571259
 51
321.9636260428741
  0
LINE
  5
368F
330
3BE9
100
AcDbEntity
  8
1
100
AcDbLine
 10
148.2571525574447
 20
72.75474263141484
 30
0.0
 11
148.2571525574447
 21
68.75474263141303
 31
0.0
  0
LINE
  5
3694
330
3BE9
100
AcDbEntity
  8
1
100
AcDbLine
 10
20.54074351213655
 20
134.4547426314128
 30
0.0
 11
20.54074351213655
 21
124.2547426314121
 31
0.0
  0
LINE
  5
3695
330
3BE9
100
AcDbEntity
  8
1
100
AcDbLine
 10
38.54074351213653
 20
124.2547426314121
 30
0.0
 11
38.54074351213653
 21
134.4547426314127
 31
0.0
  0
LINE
  5
3696
330
3BE9
100
AcDbEntity
  8
1
100
AcDbLine
 10
38.54074351213653
 20
134.4547426314127
 30
0.0
 11
20.54074351213655
 21
134.4547426314128
 31
0.0
  0
LINE
  5
3699
330
3BE9
100
AcDbEntity
  8
1
100
AcDbLine
 10
102.2571525574447
 20
24.66531886362282
 30
0.0
 11
102.2571525574447
 21
-1.334681136378093
 31
0.0
  0
LINE
  5
369A
330
3BE9
100
AcDbEntity
  8
1
100
AcDbLine
 10
223.7571525574447
 20
163.3633352559268
 30
0.0
 11
98.75715255744291
 21
163.3633352559259
 31
0.0
  0
LINE
  5
369B
330
3BE9
100
AcDbEntity
  8
1
100
AcDbLine
 10
102.2571525574447
 20
189.3633352559277
 30
0.0
 11
203.2571525574447
 21
189.3633352559268
 31
0.0
  0
LINE
  5
369C
330
3BE9
100
AcDbEntity
  8
1
100
AcDbLine
 10
221.7571525574443
 20
180.8633352559259
 30
0.0
 11
221.7571525574443
 21
163.3633352559277
 31
0.0
  0
LINE
  5
369D
330
3BE9
100
AcDbEntity
  8
1
100
AcDbLine
 10
224.7571525574447
 20
182.3633352559268
 30
0.0
 11
224.7571525574447
 21
164.3633352559268
 31
0.0
  0
LINE
  5
369E
330
3BE9
100
AcDbEntity
  8
1
100
AcDbLine
 10
223.1571525574444
 20
182.3633352559268
 30
0.0
 11
223.1571525574444
 21
164.9633352559263
 31
0.0
  0
ARC
  5
369F
330
3BE9
100
AcDbEntity
  8
1
100
AcDbCircle
 10
223.7571525574447
 20
164.3633352559268
 30
0.0
 40
1.0
100
AcDbArc
 50
270.0
 51
0.0
  0
LINE
  5
36A0
330
3BE9
100
AcDbEntity
  8
1
100
AcDbLine
 10
223.1571525574444
 20
164.9633352559272
 30
0.0
 11
221.7571525574447
 21
164.9633352559272
 31
0.0
  0
LINE
  5
36A1
330
3BE9
100
AcDbEntity
  8
1
100
AcDbLine
 10
203.2571525574447
 20
189.3633352559268
 30
0.0
 11
212.7571525574447
 21
189.3633352559268
 31
0.0
  0
LINE
  5
36A2
330
3BE9
100
AcDbEntity
  8
1
100
AcDbLine
 10
218.7571525574436
 20
189.3633352559268
 30
0.0
 11
221.7571525574443
 21
189.3633352559268
 31
0.0
  0
LINE
  5
36A3
330
3BE9
100
AcDbEntity
  8
1
100
AcDbLine
 10
203.2571525574447
 20
187.7633352559264
 30
0.0
 11
212.7571525574447
 21
187.7633352559264
 31
0.0
  0
LINE
  5
36A4
330
3BE9
100
AcDbEntity
  8
1
100
AcDbLine
 10
218.7571525574433
 20
187.7633352559264
 30
0.0
 11
221.7571525574443
 21
187.7633352559264
 31
0.0
  0
LINE
  5
36A5
330
3BE9
100
AcDbEntity
  8
1
100
AcDbLine
 10
221.7571525574443
 20
182.3633352559247
 30
0.0
 11
205.2571525574447
 21
182.3633352559277
 31
0.0
  0
LINE
  5
36A6
330
3BE9
100
AcDbEntity
  8
1
100
AcDbLine
 10
224.7571525574447
 20
182.3633352559268
 30
0.0
 11
223.1571525574425
 21
182.3633352559268
 31
0.0
  0
LINE
  5
36A7
330
3BE9
100
AcDbEntity
  8
1
100
AcDbLine
 10
203.2571525574447
 20
184.3633352559277
 30
0.0
 11
203.2571525574447
 21
189.3633352559268
 31
0.0
  0
LINE
  5
36A8
330
3BE9
100
AcDbEntity
  8
1
100
AcDbLine
 10
102.2571525574447
 20
163.3633352559268
 30
0.0
 11
102.2571525574447
 21
189.3633352559268
 31
0.0
  0
LINE
  5
36A9
330
3BE9
100
AcDbEntity
  8
1
100
AcDbLine
 10
134.2571525574447
 20
163.3633352559268
 30
0.0
 11
134.2571525574447
 21
189.3633352559268
 31
0.0
  0
LINE
  5
36AA
330
3BE9
100
AcDbEntity
  8
1
100
AcDbLine
 10
158.2571525574447
 20
163.3633352559268
 30
0.0
 11
158.2571525574447
 21
189.3633352559268
 31
0.0
  0
LINE
  5
36AB
330
3BE9
100
AcDbEntity
  8
1
100
AcDbLine
 10
97.75715255744291
 20
164.3633352559259
 30
0.0
 11
97.75715255744472
 21
182.3633352559277
 31
0.0
  0
LINE
  5
36AC
330
3BE9
100
AcDbEntity
  8
1
100
AcDbLine
 10
99.3571525574451
 20
164.9633352559263
 30
0.0
 11
99.3571525574451
 21
173.5041978435463
 31
0.0
  0
LINE
  5
36AF
330
3BE9
100
AcDbEntity
  8
1
100
AcDbLine
 10
146.7571525574447
 20
170.5477521985917
 30
0.0
 11
146.7571525574447
 21
161.8451603379275
 31
0.0
  0
LINE
  5
36B0
330
3BE9
100
AcDbEntity
  8
1
100
AcDbLine
 10
158.2571525574447
 20
164.9633352559263
 30
0.0
 11
134.2571525574447
 21
164.9633352559253
 31
0.0
  0
LINE
  5
36B1
330
3BE9
100
AcDbEntity
  8
1
100
AcDbLine
 10
148.2571525574447
 20
164.9633352559244
 30
0.0
 11
145.2571525574447
 21
164.9633352559244
 31
0.0
  0
LINE
  5
36B3
330
3BE9
100
AcDbEntity
  8
1
100
AcDbLine
 10
148.2571525574447
 20
166.8633352559259
 30
0.0
 11
148.2571525574447
 21
164.9633352559235
 31
0.0
  0
LINE
  5
36B6
330
3BE9
100
AcDbEntity
  8
1
100
AcDbLine
 10
145.2571525574447
 20
166.8633352559259
 30
0.0
 11
145.2571525574447
 21
164.9633352559235
 31
0.0
  0
ARC
  5
36B7
330
3BE9
100
AcDbEntity
  8
1
100
AcDbCircle
 10
98.75715255744291
 20
164.3633352559259
 30
0.0
 40
1.0
100
AcDbArc
 50
180.0
 51
270.0
  0
LINE
  5
36B8
330
3BE9
100
AcDbEntity
  8
1
100
AcDbLine
 10
102.2571525574447
 20
164.9633352559253
 30
0.0
 11
99.3571525574451
 21
164.9633352559263
 31
0.0
  0
LINE
  5
36B9
330
3BE9
100
AcDbEntity
  8
1
100
AcDbLine
 10
134.2571525574447
 20
187.7633352559273
 30
0.0
 11
158.2571525574447
 21
187.7633352559292
 31
0.0
  0
LINE
  5
36BA
330
3BE9
100
AcDbEntity
  8
1
100
AcDbLine
 10
99.3571525574451
 20
182.3633352559277
 30
0.0
 11
97.75715255744472
 21
182.3633352559268
 31
0.0
  0
LINE
  5
36BB
330
3BE9
100
AcDbEntity
  8
1
100
AcDbLine
 10
221.7571525574425
 20
-1.334681136378093
 30
0.0
 11
102.2571525574447
 21
-1.334681136378093
 31
0.0
  0
LINE
  5
36BC
330
3BE9
100
AcDbEntity
  8
1
100
AcDbLine
 10
223.7571525574447
 20
24.66531886362191
 30
0.0
 11
147.2571525574447
 21
24.66531886362191
 31
0.0
  0
LINE
  5
36BD
330
3BE9
100
AcDbEntity
  8
1
100
AcDbLine
 10
223.1571525574444
 20
5.665318863621903
 30
0.0
 11
223.1571525574444
 21
23.06531886362245
 31
0.0
  0
LINE
  5
36BE
330
3BE9
100
AcDbEntity
  8
1
100
AcDbLine
 10
224.7571525574447
 20
5.665318863621903
 30
0.0
 11
224.7571525574447
 21
23.66531886362189
 31
0.0
  0
LINE
  5
36BF
330
3BE9
100
AcDbEntity
  8
1
100
AcDbLine
 10
224.7571525574447
 20
5.665318863621903
 30
0.0
 11
223.1571525574425
 21
5.665318863621903
 31
0.0
  0
ARC
  5
36C0
330
3BE9
100
AcDbEntity
  8
1
100
AcDbCircle
 10
223.7571525574447
 20
23.66531886362189
 30
0.0
 40
1.0
100
AcDbArc
 50
0.0
 51
90.0
  0
LINE
  5
36C1
330
3BE9
100
AcDbEntity
  8
1
100
AcDbLine
 10
223.1571525574444
 20
23.06531886362154
 30
0.0
 11
221.7571525574447
 21
23.06531886362154
 31
0.0
  0
LINE
  5
36C2
330
3BE9
100
AcDbEntity
  8
CENTER
100
AcDbLine
 10
201.7571525574447
 20
7.5044164998626
 30
0.0
 11
201.7571525574447
 21
15.66322210708768
 31
0.0
  0
CIRCLE
  5
36C3
330
3BE9
100
AcDbEntity
  8
1
100
AcDbCircle
 10
201.7571525574447
 20
11.6653188636219
 30
0.0
 40
2.0
  0
CIRCLE
  5
36C4
330
3BE9
100
AcDbEntity
  8
1
100
AcDbCircle
 10
201.7571525574447
 20
11.6653188636219
 30
0.0
 40
1.5
  0
CIRCLE
  5
36C5
330
3BE9
100
AcDbEntity
  8
1
100
AcDbCircle
 10
122.2571525574447
 20
11.6653188636219
 30
0.0
 40
2.0
  0
CIRCLE
  5
36C6
330
3BE9
100
AcDbEntity
  8
1
100
AcDbCircle
 10
122.2571525574447
 20
11.6653188636219
 30
0.0
 40
1.5
  0
LINE
  5
36C7
330
3BE9
100
AcDbEntity
  8
1
100
AcDbLine
 10
148.2571525574447
 20
23.06531886362336
 30
0.0
 11
145.2571525574447
 21
23.06531886362336
 31
0.0
  0
LINE
  5
36C8
330
3BE9
100
AcDbEntity
  8
1
100
AcDbLine
 10
146.7571525574447
 20
19.66531886362188
 30
0.0
 11
146.7571525574447
 21
19.66531886362188
 31
0.0
  0
LINE
  5
36C9
330
3BE9
100
AcDbEntity
  8
1
100
AcDbLine
 10
148.2571525574447
 20
21.1653188636219
 30
0.0
 11
148.2571525574447
 21
24.66531886362282
 31
0.0
  0
LINE
  5
36CA
330
3BE9
100
AcDbEntity
  8
1
100
AcDbLine
 10
145.2571525574447
 20
21.1653188636219
 30
0.0
 11
145.2571525574447
 21
24.66531886362282
 31
0.0
  0
LINE
  5
36CB
330
3BE9
100
AcDbEntity
  8
1
100
AcDbLine
 10
99.3571525574451
 20
23.06531886362245
 30
0.0
 11
99.3571525574451
 21
12.16531886362236
 31
0.0
  0
LINE
  5
36CC
330
3BE9
100
AcDbEntity
  8
CENTER
100
AcDbLine
 10
122.2571525574447
 20
7.719121262428416
 30
0.0
 11
122.2571525574447
 21
16.09263368469783
 31
0.0
  0
LINE
  5
36CD
330
3BE9
100
AcDbEntity
  8
1
100
AcDbLine
 10
97.75715255744291
 20
23.66531886362189
 30
0.0
 11
97.7571525574441
 21
12.16531886362236
 31
0.0
  0
LINE
  5
36CE
330
3BE9
100
AcDbEntity
  8
1
100
AcDbLine
 10
99.3571525574451
 20
5.665318863620996
 30
0.0
 11
97.75715255744472
 21
5.665318863621903
 31
0.0
  0
LINE
  5
36CF
330
3BE9
100
AcDbEntity
  8
1
100
AcDbLine
 10
99.35715255744693
 20
8.665318863620994
 30
0.0
 11
97.75715255744657
 21
8.665318863621905
 31
0.0
  0
LINE
  5
36D0
330
3BE9
100
AcDbEntity
  8
1
100
AcDbLine
 10
102.2571525574447
 20
23.06531886362336
 30
0.0
 11
99.3571525574451
 21
23.06531886362245
 31
0.0
  0
LINE
  5
36D1
330
3BE9
100
AcDbEntity
  8
1
100
AcDbLine
 10
99.35715255745055
 20
14.16531886362099
 30
0.0
 11
97.75715255745019
 21
14.1653188636219
 31
0.0
  0
ARC
  5
36D2
330
3BE9
100
AcDbEntity
  8
1
100
AcDbCircle
 10
98.75715255744291
 20
23.66531886362189
 30
0.0
 40
1.0
100
AcDbArc
 50
90.0
 51
180.0
  0
LINE
  5
36D3
330
3BE9
100
AcDbEntity
  8
CENTER
100
AcDbLine
 10
95.10660736956239
 20
176.3633352559268
 30
0.0
 11
231.1834825772522
 21
176.3633352559268
 31
0.0
  0
LINE
  5
36D4
330
3BE9
100
AcDbEntity
  8
CENTER
100
AcDbLine
 10
95.07959346760625
 20
11.6653188636219
 30
0.0
 11
231.1834825772522
 21
11.6653188636219
 31
0.0
  0
CIRCLE
  5
36D5
330
3BE9
100
AcDbEntity
  8
1
100
AcDbCircle
 10
146.1571525574446
 20
176.3633352559268
 30
0.0
 40
9.0
  0
LINE
  5
36D6
330
3BE9
100
AcDbEntity
  8
CENTER
100
AcDbLine
 10
146.1571525574446
 20
188.3633170324696
 30
0.0
 11
146.1571525574446
 21
164.3633534793839
 31
0.0
  0
CIRCLE
  5
36D7
330
3BE9
100
AcDbEntity
  8
1
100
AcDbCircle
 10
146.1571525574446
 20
176.3633352559268
 30
0.0
 40
1.199999999999999
  0
CIRCLE
  5
36D8
330
3BE9
100
AcDbEntity
  8
1
100
AcDbCircle
 10
146.1571525574446
 20
176.3633352559268
 30
0.0
 40
1.5
  0
LINE
  5
36D9
330
3BE9
100
AcDbEntity
  8
1
100
AcDbLine
 10
221.7571525574444
 20
181.3633352559268
 30
0.0
 11
223.1571525574444
 21
181.3633352559268
 31
0.0
  0
LINE
  5
36DA
330
3BE9
100
AcDbEntity
  8
1
100
AcDbLine
 10
221.7571525574443
 20
171.3633352559268
 30
0.0
 11
223.1571525574444
 21
171.3633352559268
 31
0.0
  0
LINE
  5
36DB
330
3BE9
100
AcDbEntity
  8
1
100
AcDbLine
 10
221.7571525574437
 20
16.66531886362236
 30
0.0
 11
223.1571525574444
 21
16.66531886362236
 31
0.0
  0
LINE
  5
36DC
330
3BE9
100
AcDbEntity
  8
1
100
AcDbLine
 10
221.7571525574431
 20
6.66531886362236
 30
0.0
 11
223.1571525574444
 21
6.66531886362236
 31
0.0
  0
LINE
  5
36DD
330
3BE9
100
AcDbEntity
  8
CENTER
100
AcDbLine
 10
231.8643842689751
 20
114.7547426314121
 30
0.0
 11
222.3063401247606
 21
114.7547426314121
 31
0.0
  0
LINE
  5
36DE
330
3BE9
100
AcDbEntity
  8
1
100
AcDbLine
 10
226.557152557444
 20
15.16531886362236
 30
0.0
 11
226.557152557444
 21
8.16531886362236
 31
0.0
  0
ARC
  5
36DF
330
3BE9
100
AcDbEntity
  8
1
100
AcDbCircle
 10
220.1571525574443
 20
11.66531886362236
 30
0.0
 40
8.999999999999831
100
AcDbArc
 50
343.8167007802426
 51
16.18329921975739
  0
LINE
  5
36E0
330
3BE9
100
AcDbEntity
  8
1
100
AcDbLine
 10
226.557152557444
 20
15.46531886362254
 30
0.0
 11
226.557152557444
 21
7.865318863622175
 31
0.0
  0
LINE
  5
36E1
330
3BE9
100
AcDbEntity
  8
1
100
AcDbLine
 10
225.557152557444
 20
7.865318863622175
 30
0.0
 11
225.557152557444
 21
15.46531886362254
 31
0.0
  0
LINE
  5
36E2
330
3BE9
100
AcDbEntity
  8
1
100
AcDbLine
 10
225.557152557444
 20
16.16531886362236
 30
0.0
 11
225.557152557444
 21
7.16531886362236
 31
0.0
  0
LINE
  5
36E3
330
3BE9
100
AcDbEntity
  8
1
100
AcDbLine
 10
224.7571525574447
 20
7.16531886362236
 30
0.0
 11
224.7571525574447
 21
16.16531886362236
 31
0.0
  0
ARC
  5
36E4
330
3BE9
100
AcDbEntity
  8
1
100
AcDbCircle
 10
227.5520397972929
 20
9.51924274429666
 30
0.0
 40
1.3
100
AcDbArc
 50
273.0000000000056
 51
343.8167007802426
  0
LINE
  5
36E5
330
3BE9
100
AcDbEntity
  8
1
100
AcDbLine
 10
226.557152557444
 20
8.16531886362236
 30
0.0
 11
227.6200765404072
 21
8.221024349115849
 31
0.0
  0
LINE
  5
36E6
330
3BE9
100
AcDbEntity
  8
1
100
AcDbLine
 10
226.557152557444
 20
7.865318863622175
 30
0.0
 11
225.557152557444
 21
7.865318863622175
 31
0.0
  0
LINE
  5
36E7
330
3BE9
100
AcDbEntity
  8
1
100
AcDbLine
 10
225.557152557444
 20
7.16531886362236
 30
0.0
 11
224.7571525574447
 21
7.16531886362236
 31
0.0
  0
ARC
  5
36E8
330
3BE9
100
AcDbEntity
  8
1
100
AcDbCircle
 10
227.5520397972929
 20
13.81139498294715
 30
0.0
 40
1.3
100
AcDbArc
 50
16.18329921975739
 51
86.99999999999443
  0
LINE
  5
36E9
330
3BE9
100
AcDbEntity
  8
1
100
AcDbLine
 10
227.6200765404072
 20
15.10961337812796
 30
0.0
 11
226.557152557444
 21
15.16531886362236
 31
0.0
  0
LINE
  5
36EA
330
3BE9
100
AcDbEntity
  8
1
100
AcDbLine
 10
225.557152557444
 20
15.46531886362254
 30
0.0
 11
226.557152557444
 21
15.46531886362254
 31
0.0
  0
LINE
  5
36EB
330
3BE9
100
AcDbEntity
  8
1
100
AcDbLine
 10
224.7571525574447
 20
16.16531886362236
 30
0.0
 11
225.557152557444
 21
16.16531886362236
 31
0.0
  0
LINE
  5
36EC
330
3BE9
100
AcDbEntity
  8
1
100
AcDbLine
 10
226.557152557444
 20
179.8633352559268
 30
0.0
 11
226.557152557444
 21
172.8633352559268
 31
0.0
  0
ARC
  5
36ED
330
3BE9
100
AcDbEntity
  8
1
100
AcDbCircle
 10
220.1571525574443
 20
176.3633352559268
 30
0.0
 40
8.999999999999831
100
AcDbArc
 50
343.8167007802426
 51
16.18329921975739
  0
LINE
  5
36EE
330
3BE9
100
AcDbEntity
  8
1
100
AcDbLine
 10
226.557152557444
 20
180.163335255927
 30
0.0
 11
226.557152557444
 21
172.5633352559266
 31
0.0
  0
LINE
  5
36EF
330
3BE9
100
AcDbEntity
  8
1
100
AcDbLine
 10
225.557152557444
 20
172.5633352559266
 30
0.0
 11
225.557152557444
 21
180.163335255927
 31
0.0
  0
LINE
  5
36F0
330
3BE9
100
AcDbEntity
  8
1
100
AcDbLine
 10
225.557152557444
 20
180.8633352559268
 30
0.0
 11
225.557152557444
 21
171.8633352559268
 31
0.0
  0
LINE
  5
36F1
330
3BE9
100
AcDbEntity
  8
1
100
AcDbLine
 10
224.7571525574447
 20
171.8633352559268
 30
0.0
 11
224.7571525574447
 21
180.8633352559268
 31
0.0
  0
ARC
  5
36F2
330
3BE9
100
AcDbEntity
  8
1
100
AcDbCircle
 10
227.5520397972929
 20
174.2172591366011
 30
0.0
 40
1.3
100
AcDbArc
 50
273.0000000000056
 51
343.8167007802426
  0
LINE
  5
36F3
330
3BE9
100
AcDbEntity
  8
1
100
AcDbLine
 10
226.557152557444
 20
172.8633352559268
 30
0.0
 11
227.6200765404072
 21
172.9190407414203
 31
0.0
  0
LINE
  5
36F4
330
3BE9
100
AcDbEntity
  8
1
100
AcDbLine
 10
226.557152557444
 20
172.5633352559266
 30
0.0
 11
225.557152557444
 21
172.5633352559266
 31
0.0
  0
LINE
  5
36F5
330
3BE9
100
AcDbEntity
  8
1
100
AcDbLine
 10
225.557152557444
 20
171.8633352559268
 30
0.0
 11
224.7571525574447
 21
171.8633352559268
 31
0.0
  0
ARC
  5
36F6
330
3BE9
100
AcDbEntity
  8
1
100
AcDbCircle
 10
227.5520397972929
 20
178.5094113752514
 30
0.0
 40
1.3
100
AcDbArc
 50
16.18329921975739
 51
86.99999999999443
  0
LINE
  5
36F7
330
3BE9
100
AcDbEntity
  8
1
100
AcDbLine
 10
227.6200765404072
 20
179.8076297704324
 30
0.0
 11
226.557152557444
 21
179.8633352559268
 31
0.0
  0
LINE
  5
36F8
330
3BE9
100
AcDbEntity
  8
1
100
AcDbLine
 10
225.557152557444
 20
180.163335255927
 30
0.0
 11
226.557152557444
 21
180.163335255927
 31
0.0
  0
LINE
  5
36F9
330
3BE9
100
AcDbEntity
  8
1
100
AcDbLine
 10
224.7571525574447
 20
180.8633352559268
 30
0.0
 11
225.557152557444
 21
180.8633352559268
 31
0.0
  0
LINE
  5
36FA
330
3BE9
100
AcDbEntity
  8
1
100
AcDbLine
 10
101.6571525574443
 20
180.163335255927
 30
0.0
 11
101.6571525574443
 21
172.5633352559266
 31
0.0
  0
LINE
  5
36FB
330
3BE9
100
AcDbEntity
  8
1
100
AcDbLine
 10
101.6571525574443
 20
181.0633352559266
 30
0.0
 11
101.6571525574443
 21
170.8633352559268
 31
0.0
  0
LINE
  5
36FC
330
3BE9
100
AcDbEntity
  8
1
100
AcDbLine
 10
101.6571525574462
 20
185.8633352559268
 30
0.0
 11
101.6571525574462
 21
170.8633352559268
 31
0.0
  0
LINE
  5
36FD
330
3BE9
100
AcDbEntity
  8
1
100
AcDbLine
 10
102.2571525574447
 20
185.8633352559268
 30
0.0
 11
101.6571525574462
 21
185.8633352559268
 31
0.0
  0
LINE
  5
36FE
330
3BE9
100
AcDbEntity
  8
1
100
AcDbLine
 10
102.2571525574465
 20
185.8633352559268
 30
0.0
 11
101.657152557448
 21
185.8633352559268
 31
0.0
  0
LINE
  5
36FF
330
3BE9
100
AcDbEntity
  8
1
100
AcDbLine
 10
100.6571525574443
 20
15.16531886362236
 30
0.0
 11
100.6571525574443
 21
12.16531886362236
 31
0.0
  0
LINE
  5
3700
330
3BE9
100
AcDbEntity
  8
1
100
AcDbLine
 10
100.6571525574443
 20
15.46531886362254
 30
0.0
 11
100.6571525574443
 21
12.16531886362236
 31
0.0
  0
LINE
  5
3701
330
3BE9
100
AcDbEntity
  8
1
100
AcDbLine
 10
101.6571525574443
 20
15.46531886362254
 30
0.0
 11
101.6571525574443
 21
12.16198181833204
 31
0.0
  0
ARC
  5
3702
330
3BE9
100
AcDbEntity
  8
1
100
AcDbCircle
 10
99.66226531759531
 20
9.51924274429666
 30
0.0
 40
1.3
100
AcDbArc
 50
256.4259353877929
 51
266.9999999999944
  0
LINE
  5
3703
330
3BE9
100
AcDbEntity
  8
1
100
AcDbLine
 10
100.6571525574443
 20
8.16531886362236
 30
0.0
 11
99.59422857448117
 21
8.221024349115849
 31
0.0
  0
LINE
  5
3704
330
3BE9
100
AcDbEntity
  8
1
100
AcDbLine
 10
100.6571525574443
 20
7.865318863622175
 30
0.0
 11
101.5571525574458
 21
7.865318863622175
 31
0.0
  0
ARC
  5
3705
330
3BE9
100
AcDbEntity
  8
1
100
AcDbCircle
 10
99.66226531759531
 20
13.81139498294715
 30
0.0
 40
1.3
100
AcDbArc
 50
93.00000000000558
 51
103.5740646122071
  0
LINE
  5
3706
330
3BE9
100
AcDbEntity
  8
1
100
AcDbLine
 10
101.6571525574443
 20
15.46531886362254
 30
0.0
 11
100.6571525574443
 21
15.46531886362254
 31
0.0
  0
LINE
  5
3707
330
3BE9
100
AcDbEntity
  8
1
100
AcDbLine
 10
99.59422857448117
 20
15.10961337812796
 30
0.0
 11
100.6571525574443
 21
15.16531886362236
 31
0.0
  0
LINE
  5
3708
330
3BE9
100
AcDbEntity
  8
1
100
AcDbLine
 10
101.6571525574443
 20
16.36531886362217
 30
0.0
 11
101.6571525574443
 21
12.16198181833204
 31
0.0
  0
LINE
  5
3709
330
3BE9
100
AcDbEntity
  8
1
100
AcDbLine
 10
101.6571525574462
 20
17.16531886362236
 30
0.0
 11
101.6571525574462
 21
12.16198181833191
 31
0.0
  0
LINE
  5
370A
330
3BE9
100
AcDbEntity
  8
1
100
AcDbLine
 10
102.2571525574447
 20
17.16531886362236
 30
0.0
 11
101.6571525574462
 21
17.16531886362236
 31
0.0
  0
LINE
  5
370B
330
3BE9
100
AcDbEntity
  8
1
100
AcDbLine
 10
102.2571525574465
 20
17.16531886362236
 30
0.0
 11
101.657152557448
 21
17.16531886362236
 31
0.0
  0
LINE
  5
370C
330
3BE9
100
AcDbEntity
  8
1
100
AcDbLine
 10
102.2571525574428
 20
170.8633352559268
 30
0.0
 11
101.6571525574443
 21
170.8633352559268
 31
0.0
  0
LINE
  5
370D
330
3BE9
100
AcDbEntity
  8
1
100
AcDbLine
 10
102.2571525574447
 20
170.8633352559268
 30
0.0
 11
101.6571525574462
 21
170.8633352559268
 31
0.0
  0
LINE
  5
370E
330
3BE9
100
AcDbEntity
  8
1
100
AcDbLine
 10
102.2571525574428
 20
2.165318863622359
 30
0.0
 11
101.6571525574443
 21
2.165318863622359
 31
0.0
  0
LINE
  5
370F
330
3BE9
100
AcDbEntity
  8
1
100
AcDbLine
 10
102.2571525574447
 20
2.165318863622359
 30
0.0
 11
101.6571525574462
 21
2.165318863622359
 31
0.0
  0
LINE
  5
3710
330
3BE9
100
AcDbEntity
  8
1
100
AcDbLine
 10
96.05715255744579
 20
12.16531886362236
 30
0.0
 11
101.5571525574458
 21
12.16531886362236
 31
0.0
  0
LINE
  5
3711
330
3BE9
100
AcDbEntity
  8
1
100
AcDbLine
 10
96.05715255744579
 20
10.66531886362236
 30
0.0
 11
101.5571525574458
 21
10.66531886362236
 31
0.0
  0
LINE
  5
3712
330
3BE9
100
AcDbEntity
  8
1
100
AcDbLine
 10
96.05715255744579
 20
12.16531886362236
 30
0.0
 11
96.05715255744579
 21
10.66531886362236
 31
0.0
  0
ARC
  5
3713
330
3BE9
100
AcDbEntity
  8
1
100
AcDbCircle
 10
103.0571525574458
 20
3.665318863622359
 30
0.0
 40
1.5
100
AcDbArc
 50
180.0
 51
237.7690473644497
  0
ARC
  5
3714
330
3BE9
100
AcDbEntity
  8
1
100
AcDbCircle
 10
101.5571525574458
 20
10.66531886362236
 30
0.0
 40
1.5
100
AcDbArc
 50
62.18186071539219
 51
90.0
  0
LINE
  5
3715
330
3BE9
100
AcDbEntity
  8
1
100
AcDbLine
 10
101.5571525574458
 20
3.665318863622359
 30
0.0
 11
101.5571525574458
 21
10.66531886362236
 31
0.0
  0
LINE
  5
3716
330
3BE9
100
AcDbEntity
  8
1
100
AcDbLine
 10
101.6571525574462
 20
3.126802382907981
 30
0.0
 11
101.6571525574462
 21
2.165318863622359
 31
0.0
  0
LINE
  5
3717
330
3BE9
100
AcDbEntity
  8
1
100
AcDbLine
 10
101.6571525574443
 20
3.126802382912698
 30
0.0
 11
101.6571525574443
 21
2.165318863622359
 31
0.0
  0
LINE
  5
3718
330
3BE9
100
AcDbEntity
  8
1
100
AcDbLine
 10
97.75715255744422
 20
10.66531886362236
 30
0.0
 11
97.75715255744472
 21
5.665318863620996
 31
0.0
  0
LINE
  5
3719
330
3BE9
100
AcDbEntity
  8
1
100
AcDbLine
 10
99.3571525574451
 20
10.66531886362236
 30
0.0
 11
99.3571525574451
 21
5.665318863620996
 31
0.0
  0
LINE
  5
371A
330
3BE9
100
AcDbEntity
  8
1
100
AcDbLine
 10
100.6571525574443
 20
10.66531886362236
 30
0.0
 11
100.6571525574443
 21
7.865318863622175
 31
0.0
  0
LINE
  5
371B
330
3BE9
100
AcDbEntity
  8
1
100
AcDbLine
 10
100.6571525574443
 20
10.66531886362236
 30
0.0
 11
100.6571525574443
 21
8.16531886362236
 31
0.0
  0
LINE
  5
371C
330
3BE9
100
AcDbEntity
  8
1
100
AcDbLine
 10
96.05715255744579
 20
176.8633352559268
 30
0.0
 11
96.05715255744579
 21
175.3633352559268
 31
0.0
  0
LINE
  5
371D
330
3BE9
100
AcDbEntity
  8
1
100
AcDbLine
 10
96.05715255744579
 20
175.3633352559268
 30
0.0
 11
97.75715255744399
 21
175.3633352559268
 31
0.0
  0
LINE
  5
371E
330
3BE9
100
AcDbEntity
  8
1
100
AcDbLine
 10
96.05715255744579
 20
176.8633352559268
 30
0.0
 11
97.75715255744414
 21
176.8633352559268
 31
0.0
  0
LINE
  5
371F
330
3BE9
100
AcDbEntity
  8
1
100
AcDbLine
 10
99.3571525574451
 20
179.222472668307
 30
0.0
 11
99.3571525574451
 21
182.3633352559277
 31
0.0
  0
LINE
  5
3720
330
3BE9
100
AcDbEntity
  8
1
100
AcDbLine
 10
44.54074351213717
 20
87.75474263141394
 30
0.0
 11
42.54074351213716
 21
87.75474263141394
 31
0.0
  0
LINE
  5
3721
330
3BE9
100
AcDbEntity
  8
1
100
AcDbLine
 10
44.54074351213665
 20
72.75474263141394
 30
0.0
 11
42.54074351213666
 21
72.75474263141394
 31
0.0
  0
LINE
  5
3722
330
3BE9
100
AcDbEntity
  8
1
100
AcDbLine
 10
44.54074351213701
 20
83.75474263141393
 30
0.0
 11
42.54074351213705
 21
83.75474263141393
 31
0.0
  0
LINE
  5
3723
330
3BE9
100
AcDbEntity
  8
1
100
AcDbLine
 10
44.54074351213717
 20
87.75474263141394
 30
0.0
 11
44.54074351213665
 21
72.75474263141394
 31
0.0
  0
LINE
  5
3724
330
3BE9
100
AcDbEntity
  8
1
100
AcDbLine
 10
45.34074351213706
 20
85.25474263141394
 30
0.0
 11
44.54074351213704
 21
85.25474263141394
 31
0.0
  0
CIRCLE
  5
3725
330
3BE9
100
AcDbEntity
  8
1
100
AcDbCircle
 10
156.2571525574447
 20
80.75474263141392
 30
0.0
 40
3.5
  0
LINE
  5
3726
330
3BE9
100
AcDbEntity
  8
1
100
AcDbLine
 10
157.7571525574447
 20
79.8887172276295
 30
0.0
 11
157.7571525574447
 21
81.62076803519836
 31
0.0
  0
LINE
  5
3727
330
3BE9
100
AcDbEntity
  8
1
100
AcDbLine
 10
156.2571525574447
 20
79.02269182384509
 30
0.0
 11
157.7571525574447
 21
79.8887172276295
 31
0.0
  0
LINE
  5
3728
330
3BE9
100
AcDbEntity
  8
1
100
AcDbLine
 10
154.7571525574447
 20
79.8887172276295
 30
0.0
 11
156.2571525574447
 21
79.02269182384509
 31
0.0
  0
LINE
  5
3729
330
3BE9
100
AcDbEntity
  8
1
100
AcDbLine
 10
154.7571525574447
 20
81.62076803519836
 30
0.0
 11
154.7571525574447
 21
79.8887172276295
 31
0.0
  0
LINE
  5
372A
330
3BE9
100
AcDbEntity
  8
1
100
AcDbLine
 10
156.2571525574447
 20
82.48679343898276
 30
0.0
 11
154.7571525574447
 21
81.62076803519836
 31
0.0
  0
LINE
  5
372B
330
3BE9
100
AcDbEntity
  8
1
100
AcDbLine
 10
157.7571525574447
 20
81.62076803519836
 30
0.0
 11
156.2571525574447
 21
82.48679343898276
 31
0.0
  0
CIRCLE
  5
372C
330
3BE9
100
AcDbEntity
  8
1
100
AcDbCircle
 10
166.2571525574447
 20
80.75474263141392
 30
0.0
 40
3.5
  0
LINE
  5
372D
330
3BE9
100
AcDbEntity
  8
1
100
AcDbLine
 10
167.7571525574447
 20
79.8887172276295
 30
0.0
 11
167.7571525574447
 21
81.62076803519836
 31
0.0
  0
LINE
  5
372E
330
3BE9
100
AcDbEntity
  8
1
100
AcDbLine
 10
166.2571525574447
 20
79.02269182384509
 30
0.0
 11
167.7571525574447
 21
79.8887172276295
 31
0.0
  0
LINE
  5
372F
330
3BE9
100
AcDbEntity
  8
1
100
AcDbLine
 10
164.7571525574447
 20
79.8887172276295
 30
0.0
 11
166.2571525574447
 21
79.02269182384509
 31
0.0
  0
LINE
  5
3730
330
3BE9
100
AcDbEntity
  8
1
100
AcDbLine
 10
164.7571525574447
 20
81.62076803519836
 30
0.0
 11
164.7571525574447
 21
79.8887172276295
 31
0.0
  0
LINE
  5
3731
330
3BE9
100
AcDbEntity
  8
1
100
AcDbLine
 10
166.2571525574447
 20
82.48679343898276
 30
0.0
 11
164.7571525574447
 21
81.62076803519836
 31
0.0
  0
LINE
  5
3732
330
3BE9
100
AcDbEntity
  8
1
100
AcDbLine
 10
167.7571525574447
 20
81.62076803519836
 30
0.0
 11
166.2571525574447
 21
82.48679343898276
 31
0.0
  0
LINE
  5
3733
330
3BE9
100
AcDbEntity
  8
1
100
AcDbLine
 10
46.74074351213704
 20
84.5547426314139
 30
0.0
 11
45.34074351213701
 21
84.55474263141393
 31
0.0
  0
LINE
  5
3734
330
3BE9
100
AcDbEntity
  8
1
100
AcDbLine
 10
49.94074351213703
 20
84.25474263141394
 30
0.0
 11
46.74074351213704
 21
84.25474263141394
 31
0.0
  0
LINE
  5
3735
330
3BE9
100
AcDbEntity
  8
1
100
AcDbLine
 10
45.34074351213706
 20
85.25474263141394
 30
0.0
 11
45.34074351213678
 21
76.25474263141393
 31
0.0
  0
LINE
  5
3736
330
3BE9
100
AcDbEntity
  8
1
100
AcDbLine
 10
46.74074351213704
 20
84.5547426314139
 30
0.0
 11
46.74074351213675
 21
76.95474263141392
 31
0.0
  0
LINE
  5
3737
330
3BE9
100
AcDbEntity
  8
1
100
AcDbLine
 10
50.74074351213696
 20
83.45474263141388
 30
0.0
 11
50.74074351213681
 21
78.0547426314139
 31
0.0
  0
LINE
  5
3738
330
3BE9
100
AcDbEntity
  8
1
100
AcDbLine
 10
49.94074351213679
 20
77.25474263141393
 30
0.0
 11
46.74074351213682
 21
77.25474263141393
 31
0.0
  0
LINE
  5
3739
330
3BE9
100
AcDbEntity
  8
1
100
AcDbLine
 10
46.74074351213675
 20
76.95474263141392
 30
0.0
 11
45.34074351213678
 21
76.95474263141392
 31
0.0
  0
LINE
  5
373A
330
3BE9
100
AcDbEntity
  8
1
100
AcDbLine
 10
45.34074351213678
 20
76.25474263141393
 30
0.0
 11
44.54074351213677
 21
76.25474263141393
 31
0.0
  0
ARC
  5
373B
330
3BE9
100
AcDbEntity
  8
1
100
AcDbCircle
 10
49.94074351213703
 20
83.45474263141392
 30
0.0
 40
0.8
100
AcDbArc
 50
359.9999999999976
 51
90.0
  0
ARC
  5
373C
330
3BE9
100
AcDbEntity
  8
1
100
AcDbCircle
 10
49.94074351213679
 20
78.05474263141393
 30
0.0
 40
0.8
100
AcDbArc
 50
270.0
 51
359.9999999999976
  0
LINE
  5
373D
330
3BE9
100
AcDbEntity
  8
1
100
AcDbLine
 10
173.2571525574447
 20
161.3633352559264
 30
0.0
 11
173.2571525574447
 21
163.3633352559265
 31
0.0
  0
LINE
  5
373E
330
3BE9
100
AcDbEntity
  8
1
100
AcDbLine
 10
151.2571525574447
 20
163.3633352559263
 30
0.0
 11
151.2571525574447
 21
161.3633352559262
 31
0.0
  0
LINE
  5
373F
330
3BE9
100
AcDbEntity
  8
1
100
AcDbLine
 10
145.2571525574447
 20
163.3633352559262
 30
0.0
 11
145.2571525574447
 21
161.3633352559262
 31
0.0
  0
LINE
  5
3740
330
3BE9
100
AcDbEntity
  8
1
100
AcDbLine
 10
173.2571525574447
 20
161.3633352559264
 30
0.0
 11
145.2571525574447
 21
161.3633352559262
 31
0.0
  0
ARC
  5
3741
330
3BE9
100
AcDbEntity
  8
1
100
AcDbCircle
 10
158.9571525574447
 20
155.9633352559262
 30
0.0
 40
0.8
100
AcDbArc
 50
269.9999999999968
 51
0.0
  0
LINE
  5
3742
330
3BE9
100
AcDbEntity
  8
1
100
AcDbLine
 10
160.0571525574447
 20
159.1633352559262
 30
0.0
 11
152.4571525574447
 21
159.1633352559264
 31
0.0
  0
LINE
  5
3743
330
3BE9
100
AcDbEntity
  8
1
100
AcDbLine
 10
160.7571525574447
 20
160.5633352559262
 30
0.0
 11
151.7571525574447
 21
160.5633352559265
 31
0.0
  0
ARC
  5
3744
330
3BE9
100
AcDbEntity
  8
1
100
AcDbCircle
 10
153.5571525574447
 20
155.9633352559264
 30
0.0
 40
0.8
100
AcDbArc
 50
180.0
 51
269.9999999999968
  0
LINE
  5
3745
330
3BE9
100
AcDbEntity
  8
1
100
AcDbLine
 10
152.7571525574447
 20
155.9633352559264
 30
0.0
 11
152.7571525574447
 21
159.1633352559264
 31
0.0
  0
LINE
  5
3746
330
3BE9
100
AcDbEntity
  8
1
100
AcDbLine
 10
152.4571525574447
 20
159.1633352559264
 30
0.0
 11
152.4571525574447
 21
160.5633352559264
 31
0.0
  0
LINE
  5
3747
330
3BE9
100
AcDbEntity
  8
1
100
AcDbLine
 10
151.7571525574447
 20
160.5633352559265
 30
0.0
 11
151.7571525574447
 21
161.3633352559264
 31
0.0
  0
LINE
  5
3748
330
3BE9
100
AcDbEntity
  8
1
100
AcDbLine
 10
158.9571525574447
 20
155.1633352559262
 30
0.0
 11
153.5571525574447
 21
155.1633352559264
 31
0.0
  0
LINE
  5
3749
330
3BE9
100
AcDbEntity
  8
1
100
AcDbLine
 10
159.7571525574447
 20
155.9633352559262
 30
0.0
 11
159.7571525574447
 21
159.1633352559262
 31
0.0
  0
LINE
  5
374A
330
3BE9
100
AcDbEntity
  8
1
100
AcDbLine
 10
160.0571525574447
 20
159.1633352559262
 30
0.0
 11
160.0571525574447
 21
160.5633352559262
 31
0.0
  0
LINE
  5
374B
330
3BE9
100
AcDbEntity
  8
1
100
AcDbLine
 10
160.7571525574447
 20
160.5633352559262
 30
0.0
 11
160.7571525574447
 21
161.3633352559261
 31
0.0
  0
LINE
  5
374C
330
3BE9
100
AcDbEntity
  8
1
100
AcDbLine
 10
160.7571525574447
 20
161.3633352559261
 30
0.0
 11
151.7571525574447
 21
161.3633352559264
 31
0.0
  0
LINE
  5
374D
330
3BE9
100
AcDbEntity
  8
1
100
AcDbLine
 10
170.7571525574447
 20
161.3633352559262
 30
0.0
 11
161.7571525574447
 21
161.3633352559266
 31
0.0
  0
LINE
  5
374E
330
3BE9
100
AcDbEntity
  8
1
100
AcDbLine
 10
168.9571525574447
 20
155.1633352559263
 30
0.0
 11
163.5571525574447
 21
155.1633352559265
 31
0.0
  0
LINE
  5
374F
330
3BE9
100
AcDbEntity
  8
1
100
AcDbLine
 10
170.0571525574447
 20
159.1633352559262
 30
0.0
 11
162.4571525574447
 21
159.1633352559265
 31
0.0
  0
LINE
  5
3750
330
3BE9
100
AcDbEntity
  8
1
100
AcDbLine
 10
170.7571525574447
 20
160.5633352559262
 30
0.0
 11
161.7571525574447
 21
160.5633352559266
 31
0.0
  0
LINE
  5
3751
330
3BE9
100
AcDbEntity
  8
1
100
AcDbLine
 10
162.7571525574447
 20
155.9633352559264
 30
0.0
 11
162.7571525574447
 21
159.1633352559265
 31
0.0
  0
ARC
  5
3752
330
3BE9
100
AcDbEntity
  8
1
100
AcDbCircle
 10
163.5571525574447
 20
155.9633352559264
 30
0.0
 40
0.8
100
AcDbArc
 50
180.0
 51
269.9999999999968
  0
LINE
  5
3753
330
3BE9
100
AcDbEntity
  8
1
100
AcDbLine
 10
162.4571525574447
 20
159.1633352559265
 30
0.0
 11
162.4571525574447
 21
160.5633352559265
 31
0.0
  0
LINE
  5
3754
330
3BE9
100
AcDbEntity
  8
1
100
AcDbLine
 10
161.7571525574447
 20
160.5633352559266
 30
0.0
 11
161.7571525574447
 21
161.3633352559266
 31
0.0
  0
LINE
  5
3755
330
3BE9
100
AcDbEntity
  8
1
100
AcDbLine
 10
169.7571525574447
 20
155.9633352559263
 30
0.0
 11
169.7571525574447
 21
159.1633352559262
 31
0.0
  0
ARC
  5
3756
330
3BE9
100
AcDbEntity
  8
1
100
AcDbCircle
 10
168.9571525574447
 20
155.9633352559263
 30
0.0
 40
0.8
100
AcDbArc
 50
269.9999999999968
 51
0.0
  0
LINE
  5
3757
330
3BE9
100
AcDbEntity
  8
1
100
AcDbLine
 10
170.0571525574447
 20
159.1633352559263
 30
0.0
 11
170.0571525574447
 21
160.5633352559263
 31
0.0
  0
LINE
  5
3758
330
3BE9
100
AcDbEntity
  8
1
100
AcDbLine
 10
170.7571525574447
 20
160.5633352559262
 30
0.0
 11
170.7571525574447
 21
161.3633352559262
 31
0.0
  0
LINE
  5
3759
330
3BE9
100
AcDbEntity
  8
1
100
AcDbLine
 10
173.2571525574447
 20
24.66531886362259
 30
0.0
 11
147.2571525574447
 21
24.66531886362282
 31
0.0
  0
LINE
  5
375A
330
3BE9
100
AcDbEntity
  8
1
100
AcDbLine
 10
173.2571525574447
 20
26.66531886362263
 30
0.0
 11
146.0571525574447
 21
26.66531886362284
 31
0.0
  0
LINE
  5
375B
330
3BE9
100
AcDbEntity
  8
1
100
AcDbLine
 10
160.7571525574447
 20
27.46531886362291
 30
0.0
 11
151.7571525574447
 21
27.46531886362257
 31
0.0
  0
LINE
  5
375C
330
3BE9
100
AcDbEntity
  8
1
100
AcDbLine
 10
160.0571525574447
 20
28.86531886362289
 30
0.0
 11
152.4571525574447
 21
28.86531886362261
 31
0.0
  0
LINE
  5
375D
330
3BE9
100
AcDbEntity
  8
1
100
AcDbLine
 10
158.9571525574447
 20
32.86531886362283
 30
0.0
 11
153.5571525574447
 21
32.86531886362267
 31
0.0
  0
LINE
  5
375E
330
3BE9
100
AcDbEntity
  8
1
100
AcDbLine
 10
160.7571525574447
 20
26.6653188636229
 30
0.0
 11
151.7571525574447
 21
26.66531886362259
 31
0.0
  0
LINE
  5
375F
330
3BE9
100
AcDbEntity
  8
1
100
AcDbLine
 10
152.7571525574447
 20
32.06531886362264
 30
0.0
 11
152.7571525574447
 21
28.86531886362263
 31
0.0
  0
ARC
  5
3760
330
3BE9
100
AcDbEntity
  8
1
100
AcDbCircle
 10
153.5571525574447
 20
32.06531886362264
 30
0.0
 40
0.8
100
AcDbArc
 50
90.00000000000323
 51
180.0
  0
LINE
  5
3761
330
3BE9
100
AcDbEntity
  8
1
100
AcDbLine
 10
145.2571525574447
 20
24.66531886362282
 30
0.0
 11
145.2571525574447
 21
25.86531886362283
 31
0.0
  0
LINE
  5
3762
330
3BE9
100
AcDbEntity
  8
1
100
AcDbLine
 10
151.2571525574447
 20
24.66531886362276
 30
0.0
 11
151.2571525574447
 21
26.66531886362279
 31
0.0
  0
LINE
  5
3763
330
3BE9
100
AcDbEntity
  8
1
100
AcDbLine
 10
151.7571525574447
 20
27.46531886362257
 30
0.0
 11
151.7571525574447
 21
26.66531886362259
 31
0.0
  0
LINE
  5
3764
330
3BE9
100
AcDbEntity
  8
1
100
AcDbLine
 10
152.4571525574447
 20
28.86531886362261
 30
0.0
 11
152.4571525574447
 21
27.4653188636226
 31
0.0
  0
LINE
  5
3765
330
3BE9
100
AcDbEntity
  8
1
100
AcDbLine
 10
159.7571525574447
 20
32.06531886362282
 30
0.0
 11
159.7571525574447
 21
28.86531886362289
 31
0.0
  0
LINE
  5
3766
330
3BE9
100
AcDbEntity
  8
1
100
AcDbLine
 10
162.7571525574447
 20
32.06531886362256
 30
0.0
 11
162.7571525574447
 21
28.86531886362255
 31
0.0
  0
LINE
  5
3767
330
3BE9
100
AcDbEntity
  8
1
100
AcDbLine
 10
169.7571525574447
 20
32.06531886362275
 30
0.0
 11
169.7571525574447
 21
28.86531886362281
 31
0.0
  0
LINE
  5
3768
330
3BE9
100
AcDbEntity
  8
1
100
AcDbLine
 10
168.9571525574447
 20
32.86531886362276
 30
0.0
 11
163.5571525574447
 21
32.86531886362258
 31
0.0
  0
ARC
  5
3769
330
3BE9
100
AcDbEntity
  8
1
100
AcDbCircle
 10
158.9571525574447
 20
32.06531886362282
 30
0.0
 40
0.8
100
AcDbArc
 50
0.0
 51
90.00000000000323
  0
ARC
  5
376A
330
3BE9
100
AcDbEntity
  8
1
100
AcDbCircle
 10
163.5571525574447
 20
32.06531886362256
 30
0.0
 40
0.8
100
AcDbArc
 50
90.00000000000323
 51
180.0
  0
ARC
  5
376B
330
3BE9
100
AcDbEntity
  8
1
100
AcDbCircle
 10
168.9571525574447
 20
32.06531886362275
 30
0.0
 40
0.8
100
AcDbArc
 50
0.0
 51
90.00000000000323
  0
LINE
  5
376C
330
3BE9
100
AcDbEntity
  8
1
100
AcDbLine
 10
170.7571525574447
 20
26.66531886362282
 30
0.0
 11
161.7571525574447
 21
26.6653188636225
 31
0.0
  0
LINE
  5
376D
330
3BE9
100
AcDbEntity
  8
1
100
AcDbLine
 10
170.0571525574447
 20
28.86531886362281
 30
0.0
 11
162.4571525574447
 21
28.86531886362252
 31
0.0
  0
LINE
  5
376E
330
3BE9
100
AcDbEntity
  8
1
100
AcDbLine
 10
170.7571525574447
 20
27.46531886362283
 30
0.0
 11
161.7571525574447
 21
27.46531886362248
 31
0.0
  0
LINE
  5
376F
330
3BE9
100
AcDbEntity
  8
1
100
AcDbLine
 10
160.7571525574447
 20
27.46531886362291
 30
0.0
 11
160.7571525574447
 21
26.6653188636229
 31
0.0
  0
LINE
  5
3770
330
3BE9
100
AcDbEntity
  8
1
100
AcDbLine
 10
160.0571525574447
 20
28.86531886362286
 30
0.0
 11
160.0571525574447
 21
27.46531886362286
 31
0.0
  0
LINE
  5
3771
330
3BE9
100
AcDbEntity
  8
1
100
AcDbLine
 10
162.4571525574447
 20
28.86531886362252
 30
0.0
 11
162.4571525574447
 21
27.46531886362252
 31
0.0
  0
LINE
  5
3772
330
3BE9
100
AcDbEntity
  8
1
100
AcDbLine
 10
161.7571525574447
 20
27.46531886362248
 30
0.0
 11
161.7571525574447
 21
26.6653188636225
 31
0.0
  0
LINE
  5
3773
330
3BE9
100
AcDbEntity
  8
1
100
AcDbLine
 10
173.2571525574447
 20
26.66531886362263
 30
0.0
 11
173.2571525574447
 21
24.66531886362259
 31
0.0
  0
LINE
  5
3774
330
3BE9
100
AcDbEntity
  8
1
100
AcDbLine
 10
170.0571525574447
 20
28.86531886362277
 30
0.0
 11
170.0571525574447
 21
27.46531886362277
 31
0.0
  0
LINE
  5
3775
330
3BE9
100
AcDbEntity
  8
1
100
AcDbLine
 10
170.7571525574447
 20
27.46531886362283
 30
0.0
 11
170.7571525574447
 21
26.66531886362282
 31
0.0
  0
LINE
  5
3776
330
3BE9
100
AcDbEntity
  8
1
100
AcDbLine
 10
147.2571525574447
 20
19.66531886362188
 30
0.0
 11
147.2571525574447
 21
24.66531886362191
 31
0.0
  0
LINE
  5
3777
330
3BE9
100
AcDbEntity
  8
1
100
AcDbLine
 10
145.2571525574447
 20
24.66531886362191
 30
0.0
 11
98.75715255744291
 21
24.66531886362191
 31
0.0
  0
ARC
  5
3778
330
3BE9
100
AcDbEntity
  8
1
100
AcDbCircle
 10
146.0571525574447
 20
25.86531886362283
 30
0.0
 40
0.8
100
AcDbArc
 50
90.0
 51
180.0
  0
LINE
  5
3779
330
3BE9
100
AcDbEntity
  8
1
100
AcDbLine
 10
212.7571525574447
 20
189.3633352559268
 30
0.0
 11
203.1571525574443
 21
189.3633352559268
 31
0.0
  0
LINE
  5
377A
330
3BE9
100
AcDbEntity
  8
1
100
AcDbLine
 10
191.4348082055484
 20
-1.334681136377696
 30
0.0
 11
186.1321934551096
 21
-1.334681136377696
 31
0.0
  0
LINE
  5
377B
330
3BE9
100
AcDbEntity
  8
1
100
AcDbLine
 10
196.1571525574444
 20
-1.334681136377696
 30
0.0
 11
191.8863246607005
 21
-1.334681136377696
 31
0.0
  0
LINE
  5
377C
330
3BE9
100
AcDbEntity
  8
1
100
AcDbLine
 10
214.6571525574444
 20
-1.334681136377696
 30
0.0
 11
203.1571525574444
 21
-1.334681136377696
 31
0.0
  0
LINE
  5
377D
330
3BE9
100
AcDbEntity
  8
CENTER
100
AcDbLine
 10
29.54074351213654
 20
141.5745190966744
 30
0.0
 11
29.54074351213654
 21
63.81392191565328
 31
0.0
  0
LINE
  5
377E
330
3BE9
100
AcDbEntity
  8
1
100
AcDbLine
 10
221.7571525574443
 20
124.2547426314121
 30
0.0
 11
221.7571525574444
 21
122.7547426314117
 31
0.0
  0
LINE
  5
377F
330
3BE9
100
AcDbEntity
  8
1
100
AcDbLine
 10
221.7571525574462
 20
70.25474263141394
 30
0.0
 11
221.7571525574443
 21
68.75474263141109
 31
0.0
  0
LINE
  5
3780
330
3BE9
100
AcDbEntity
  8
1
100
AcDbLine
 10
221.7571525574425
 20
-1.334681136378093
 30
0.0
 11
221.7571525574443
 21
24.665318863621
 31
0.0
  0
LINE
  5
3781
330
3BE9
100
AcDbEntity
  8
1
100
AcDbLine
 10
221.7571525574443
 20
180.8633352559259
 30
0.0
 11
221.7571525574443
 21
189.3633352559277
 31
0.0
  0
LINE
  5
3782
330
3BE9
100
AcDbEntity
  8
1
100
AcDbLine
 10
224.7571525574447
 20
121.2547426314117
 30
0.0
 11
223.2571525574444
 21
121.2547426314117
 31
0.0
  0
LINE
  5
3783
330
3BE9
100
AcDbEntity
  8
CENTER
100
AcDbLine
 10
231.8643842689751
 20
103.7547426314121
 30
0.0
 11
222.3063401247606
 21
103.7547426314121
 31
0.0
  0
LINE
  5
3784
330
3BE9
100
AcDbEntity
  8
1
100
AcDbLine
 10
221.7571525574444
 20
122.7547426314117
 30
0.0
 11
221.7571525574443
 21
121.2547426314117
 31
0.0
  0
LINE
  5
3785
330
3BE9
100
AcDbEntity
  8
1
100
AcDbLine
 10
221.7571525574443
 20
121.2547426314117
 30
0.0
 11
223.2571525574444
 21
121.2547426314117
 31
0.0
  0
LINE
  5
3786
330
3BE9
100
AcDbEntity
  8
1
100
AcDbLine
 10
100.7571525574447
 20
73.7547426314121
 30
0.0
 11
102.2571525574447
 21
73.7547426314121
 31
0.0
  0
LINE
  5
3787
330
3BE9
100
AcDbEntity
  8
1
100
AcDbLine
 10
102.2571525574447
 20
73.7547426314121
 30
0.0
 11
102.2571525574447
 21
72.2547426314121
 31
0.0
  0
LINE
  5
3788
330
3BE9
100
AcDbEntity
  8
1
100
AcDbLine
 10
223.2571525574461
 20
71.7547426314121
 30
0.0
 11
221.7571525574462
 21
71.7547426314121
 31
0.0
  0
LINE
  5
3789
330
3BE9
100
AcDbEntity
  8
1
100
AcDbLine
 10
221.7571525574462
 20
71.7547426314121
 30
0.0
 11
221.7571525574462
 21
70.25474263141394
 31
0.0
  0
LINE
  5
378A
330
3BE9
100
AcDbEntity
  8
1
100
AcDbLine
 10
134.2571525574447
 20
122.6547426314099
 30
0.0
 11
134.2571525574447
 21
121.1547426314099
 31
0.0
  0
LINE
  5
378B
330
3BE9
100
AcDbEntity
  8
1
100
AcDbLine
 10
134.2571525574447
 20
121.1547426314099
 30
0.0
 11
135.7571525574447
 21
121.1547426314099
 31
0.0
  0
LINE
  5
378C
330
3BE9
100
AcDbEntity
  8
1
100
AcDbLine
 10
158.2571525574447
 20
122.6547426314108
 30
0.0
 11
158.2571525574447
 21
121.1547426314109
 31
0.0
  0
LINE
  5
378D
330
3BE9
100
AcDbEntity
  8
1
100
AcDbLine
 10
158.2571525574447
 20
121.1547426314109
 30
0.0
 11
156.7571525574447
 21
121.1547426314108
 31
0.0
  0
LINE
  5
378E
330
3BE9
100
AcDbEntity
  8
1
100
AcDbLine
 10
203.2571525574447
 20
184.3633352559277
 30
0.0
 11
203.2571525574447
 21
182.3633352559277
 31
0.0
  0
LINE
  5
378F
330
3BE9
100
AcDbEntity
  8
1
100
AcDbLine
 10
203.2571525574447
 20
182.3633352559277
 30
0.0
 11
205.2571525574447
 21
182.3633352559277
 31
0.0
  0
LINE
  5
3790
330
3BE9
100
AcDbEntity
  8
1
100
AcDbLine
 10
145.2571525574464
 20
86.25474263141208
 30
0.0
 11
145.2571525574469
 21
87.75474263141211
 31
0.0
  0
LINE
  5
3791
330
3BE9
100
AcDbEntity
  8
1
100
AcDbLine
 10
145.2571525574469
 20
87.75474263141211
 30
0.0
 11
148.2571525574447
 21
87.75474263141147
 31
0.0
  0
LINE
  5
3792
330
3BE9
100
AcDbEntity
  8
1
100
AcDbLine
 10
148.2571525574447
 20
87.75474263141147
 30
0.0
 11
148.2571525574447
 21
86.2547426314112
 31
0.0
  0
LWPOLYLINE
  5
3793
330
3BE9
100
AcDbEntity
  8
1
100
AcDbPolyline
 90
        4
 70
     0
 43
0.0
 10
138.1571525574446
 20
180.4864408815444
 10
138.1571525574446
 20
185.8633352559268
 10
154.1571525574446
 20
185.8633352559268
 10
154.1571525574446
 20
180.4864408815444
  0
LWPOLYLINE
  5
3794
330
3BE9
100
AcDbEntity
  8
1
100
AcDbPolyline
 90
        4
 70
     0
 43
0.0
 10
154.1571525574446
 20
172.2402296303091
 10
154.1571525574446
 20
166.8633352559268
 10
138.1571525574446
 20
166.8633352559268
 10
138.1571525574446
 20
172.2402296303091
  0
LINE
  5
3795
330
3BE9
100
AcDbEntity
  8
1
100
AcDbLine
 10
134.2571525574447
 20
181.3633352559268
 30
0.0
 11
138.1571525574446
 21
181.3633352559268
 31
0.0
  0
LINE
  5
3796
330
3BE9
100
AcDbEntity
  8
1
100
AcDbLine
 10
154.1571525574446
 20
181.3633352559268
 30
0.0
 11
158.1571525574446
 21
181.3633352559268
 31
0.0
  0
LINE
  5
3797
330
3BE9
100
AcDbEntity
  8
1
100
AcDbLine
 10
134.2571525574447
 20
171.3633352559268
 30
0.0
 11
138.1571525574446
 21
171.3633352559268
 31
0.0
  0
LINE
  5
3798
330
3BE9
100
AcDbEntity
  8
1
100
AcDbLine
 10
154.1571525574446
 20
171.3633352559268
 30
0.0
 11
158.1571525574446
 21
171.3633352559268
 31
0.0
  0
LINE
  5
3799
330
3BE9
100
AcDbEntity
  8
1
100
AcDbLine
 10
212.7571525574467
 20
182.3633352559263
 30
0.0
 11
212.7571525574467
 21
195.3161679130089
 31
0.0
  0
LINE
  5
379A
330
3BE9
100
AcDbEntity
  8
1
100
AcDbLine
 10
218.7571525574467
 20
195.3161679130089
 30
0.0
 11
218.7571525574444
 21
182.3633352559251
 31
0.0
  0
POLYLINE
  5
3890
330
3BE9
100
AcDbEntity
  8
1
100
AcDb3dPolyline
 66
     1
 10
0.0
 20
0.0
 30
0.0
 70
     8
  0
VERTEX
  5
3891
330
3890
100
AcDbEntity
  8
1
100
AcDbVertex
100
AcDb3dPolylineVertex
 10
212.757
 20
195.316
 30
0.0
 70
    32
  0
VERTEX
  5
3892
330
3890
100
AcDbEntity
  8
1
100
AcDbVertex
100
AcDb3dPolylineVertex
 10
212.813
 20
195.335
 30
0.0
 70
    32
  0
VERTEX
  5
3893
330
3890
100
AcDbEntity
  8
1
100
AcDbVertex
100
AcDb3dPolylineVertex
 10
212.869
 20
195.352
 30
0.0
 70
    32
  0
VERTEX
  5
3894
330
3890
100
AcDbEntity
  8
1
100
AcDbVertex
100
AcDb3dPolylineVertex
 10
212.924
 20
195.37
 30
0.0
 70
    32
  0
VERTEX
  5
3895
330
3890
100
AcDbEntity
  8
1
100
AcDbVertex
100
AcDb3dPolylineVertex
 10
212.978
 20
195.386
 30
0.0
 70
    32
  0
VERTEX
  5
3896
330
3890
100
AcDbEntity
  8
1
100
AcDbVertex
100
AcDb3dPolylineVertex
 10
213.031
 20
195.402
 30
0.0
 70
    32
  0
VERTEX
  5
3897
330
3890
100
AcDbEntity
  8
1
100
AcDbVertex
100
AcDb3dPolylineVertex
 10
213.084
 20
195.417
 30
0.0
 70
    32
  0
VERTEX
  5
3898
330
3890
100
AcDbEntity
  8
1
100
AcDbVertex
100
AcDb3dPolylineVertex
 10
213.136
 20
195.4309999999999
 30
0.0
 70
    32
  0
VERTEX
  5
3899
330
3890
100
AcDbEntity
  8
1
100
AcDbVertex
100
AcDb3dPolylineVertex
 10
213.188
 20
195.445
 30
0.0
 70
    32
  0
VERTEX
  5
389A
330
3890
100
AcDbEntity
  8
1
100
AcDbVertex
100
AcDb3dPolylineVertex
 10
213.239
 20
195.458
 30
0.0
 70
    32
  0
VERTEX
  5
389B
330
3890
100
AcDbEntity
  8
1
100
AcDbVertex
100
AcDb3dPolylineVertex
 10
213.289
 20
195.471
 30
0.0
 70
    32
  0
VERTEX
  5
389C
330
3890
100
AcDbEntity
  8
1
100
AcDbVertex
100
AcDb3dPolylineVertex
 10
213.339
 20
195.483
 30
0.0
 70
    32
  0
VERTEX
  5
389D
330
3890
100
AcDbEntity
  8
1
100
AcDbVertex
100
AcDb3dPolylineVertex
 10
213.388
 20
195.494
 30
0.0
 70
    32
  0
VERTEX
  5
389E
330
3890
100
AcDbEntity
  8
1
100
AcDbVertex
100
AcDb3dPolylineVertex
 10
213.436
 20
195.505
 30
0.0
 70
    32
  0
VERTEX
  5
389F
330
3890
100
AcDbEntity
  8
1
100
AcDbVertex
100
AcDb3dPolylineVertex
 10
213.484
 20
195.515
 30
0.0
 70
    32
  0
VERTEX
  5
38A0
330
3890
100
AcDbEntity
  8
1
100
AcDbVertex
100
AcDb3dPolylineVertex
 10
213.531
 20
195.524
 30
0.0
 70
    32
  0
VERTEX
  5
38A1
330
3890
100
AcDbEntity
  8
1
100
AcDbVertex
100
AcDb3dPolylineVertex
 10
213.578
 20
195.533
 30
0.0
 70
    32
  0
VERTEX
  5
38A2
330
3890
100
AcDbEntity
  8
1
100
AcDbVertex
100
AcDb3dPolylineVertex
 10
213.624
 20
195.541
 30
0.0
 70
    32
  0
VERTEX
  5
38A3
330
3890
100
AcDbEntity
  8
1
100
AcDbVertex
100
AcDb3dPolylineVertex
 10
213.669
 20
195.549
 30
0.0
 70
    32
  0
VERTEX
  5
38A4
330
3890
100
AcDbEntity
  8
1
100
AcDbVertex
100
AcDb3dPolylineVertex
 10
213.714
 20
195.556
 30
0.0
 70
    32
  0
VERTEX
  5
38A5
330
3890
100
AcDbEntity
  8
1
100
AcDbVertex
100
AcDb3dPolylineVertex
 10
213.759
 20
195.563
 30
0.0
 70
    32
  0
VERTEX
  5
38A6
330
3890
100
AcDbEntity
  8
1
100
AcDbVertex
100
AcDb3dPolylineVertex
 10
213.803
 20
195.569
 30
0.0
 70
    32
  0
VERTEX
  5
38A7
330
3890
100
AcDbEntity
  8
1
100
AcDbVertex
100
AcDb3dPolylineVertex
 10
213.846
 20
195.575
 30
0.0
 70
    32
  0
VERTEX
  5
38A8
330
3890
100
AcDbEntity
  8
1
100
AcDbVertex
100
AcDb3dPolylineVertex
 10
213.889
 20
195.58
 30
0.0
 70
    32
  0
VERTEX
  5
38A9
330
3890
100
AcDbEntity
  8
1
100
AcDbVertex
100
AcDb3dPolylineVertex
 10
213.931
 20
195.585
 30
0.0
 70
    32
  0
VERTEX
  5
38AA
330
3890
100
AcDbEntity
  8
1
100
AcDbVertex
100
AcDb3dPolylineVertex
 10
213.973
 20
195.589
 30
0.0
 70
    32
  0
VERTEX
  5
38AB
330
3890
100
AcDbEntity
  8
1
100
AcDbVertex
100
AcDb3dPolylineVertex
 10
214.014
 20
195.592
 30
0.0
 70
    32
  0
VERTEX
  5
38AC
330
3890
100
AcDbEntity
  8
1
100
AcDbVertex
100
AcDb3dPolylineVertex
 10
214.055
 20
195.595
 30
0.0
 70
    32
  0
VERTEX
  5
38AD
330
3890
100
AcDbEntity
  8
1
100
AcDbVertex
100
AcDb3dPolylineVertex
 10
214.096
 20
195.598
 30
0.0
 70
    32
  0
VERTEX
  5
38AE
330
3890
100
AcDbEntity
  8
1
100
AcDbVertex
100
AcDb3dPolylineVertex
 10
214.136
 20
195.6
 30
0.0
 70
    32
  0
VERTEX
  5
38AF
330
3890
100
AcDbEntity
  8
1
100
AcDbVertex
100
AcDb3dPolylineVertex
 10
214.175
 20
195.602
 30
0.0
 70
    32
  0
VERTEX
  5
38B0
330
3890
100
AcDbEntity
  8
1
100
AcDbVertex
100
AcDb3dPolylineVertex
 10
214.214
 20
195.603
 30
0.0
 70
    32
  0
VERTEX
  5
38B1
330
3890
100
AcDbEntity
  8
1
100
AcDbVertex
100
AcDb3dPolylineVertex
 10
214.253
 20
195.604
 30
0.0
 70
    32
  0
VERTEX
  5
38B2
330
3890
100
AcDbEntity
  8
1
100
AcDbVertex
100
AcDb3dPolylineVertex
 10
214.291
 20
195.605
 30
0.0
 70
    32
  0
VERTEX
  5
38B3
330
3890
100
AcDbEntity
  8
1
100
AcDbVertex
100
AcDb3dPolylineVertex
 10
214.329
 20
195.605
 30
0.0
 70
    32
  0
VERTEX
  5
38B4
330
3890
100
AcDbEntity
  8
1
100
AcDbVertex
100
AcDb3dPolylineVertex
 10
214.366
 20
195.604
 30
0.0
 70
    32
  0
VERTEX
  5
38B5
330
3890
100
AcDbEntity
  8
1
100
AcDbVertex
100
AcDb3dPolylineVertex
 10
214.403
 20
195.604
 30
0.0
 70
    32
  0
VERTEX
  5
38B6
330
3890
100
AcDbEntity
  8
1
100
AcDbVertex
100
AcDb3dPolylineVertex
 10
214.44
 20
195.603
 30
0.0
 70
    32
  0
VERTEX
  5
38B7
330
3890
100
AcDbEntity
  8
1
100
AcDbVertex
100
AcDb3dPolylineVertex
 10
214.476
 20
195.601
 30
0.0
 70
    32
  0
VERTEX
  5
38B8
330
3890
100
AcDbEntity
  8
1
100
AcDbVertex
100
AcDb3dPolylineVertex
 10
214.512
 20
195.599
 30
0.0
 70
    32
  0
VERTEX
  5
38B9
330
3890
100
AcDbEntity
  8
1
100
AcDbVertex
100
AcDb3dPolylineVertex
 10
214.547
 20
195.597
 30
0.0
 70
    32
  0
VERTEX
  5
38BA
330
3890
100
AcDbEntity
  8
1
100
AcDbVertex
100
AcDb3dPolylineVertex
 10
214.582
 20
195.594
 30
0.0
 70
    32
  0
VERTEX
  5
38BB
330
3890
100
AcDbEntity
  8
1
100
AcDbVertex
100
AcDb3dPolylineVertex
 10
214.617
 20
195.591
 30
0.0
 70
    32
  0
VERTEX
  5
38BC
330
3890
100
AcDbEntity
  8
1
100
AcDbVertex
100
AcDb3dPolylineVertex
 10
214.652
 20
195.588
 30
0.0
 70
    32
  0
VERTEX
  5
38BD
330
3890
100
AcDbEntity
  8
1
100
AcDbVertex
100
AcDb3dPolylineVertex
 10
214.686
 20
195.584
 30
0.0
 70
    32
  0
VERTEX
  5
38BE
330
3890
100
AcDbEntity
  8
1
100
AcDbVertex
100
AcDb3dPolylineVertex
 10
214.719
 20
195.58
 30
0.0
 70
    32
  0
VERTEX
  5
38BF
330
3890
100
AcDbEntity
  8
1
100
AcDbVertex
100
AcDb3dPolylineVertex
 10
214.753
 20
195.576
 30
0.0
 70
    32
  0
VERTEX
  5
38C0
330
3890
100
AcDbEntity
  8
1
100
AcDbVertex
100
AcDb3dPolylineVertex
 10
214.786
 20
195.572
 30
0.0
 70
    32
  0
VERTEX
  5
38C1
330
3890
100
AcDbEntity
  8
1
100
AcDbVertex
100
AcDb3dPolylineVertex
 10
214.819
 20
195.567
 30
0.0
 70
    32
  0
VERTEX
  5
38C2
330
3890
100
AcDbEntity
  8
1
100
AcDbVertex
100
AcDb3dPolylineVertex
 10
214.852
 20
195.562
 30
0.0
 70
    32
  0
VERTEX
  5
38C3
330
3890
100
AcDbEntity
  8
1
100
AcDbVertex
100
AcDb3dPolylineVertex
 10
214.884
 20
195.556
 30
0.0
 70
    32
  0
VERTEX
  5
38C4
330
3890
100
AcDbEntity
  8
1
100
AcDbVertex
100
AcDb3dPolylineVertex
 10
214.916
 20
195.55
 30
0.0
 70
    32
  0
VERTEX
  5
38C5
330
3890
100
AcDbEntity
  8
1
100
AcDbVertex
100
AcDb3dPolylineVertex
 10
214.948
 20
195.545
 30
0.0
 70
    32
  0
VERTEX
  5
38C6
330
3890
100
AcDbEntity
  8
1
100
AcDbVertex
100
AcDb3dPolylineVertex
 10
214.979
 20
195.538
 30
0.0
 70
    32
  0
VERTEX
  5
38C7
330
3890
100
AcDbEntity
  8
1
100
AcDbVertex
100
AcDb3dPolylineVertex
 10
215.011
 20
195.532
 30
0.0
 70
    32
  0
VERTEX
  5
38C8
330
3890
100
AcDbEntity
  8
1
100
AcDbVertex
100
AcDb3dPolylineVertex
 10
215.042
 20
195.525
 30
0.0
 70
    32
  0
VERTEX
  5
38C9
330
3890
100
AcDbEntity
  8
1
100
AcDbVertex
100
AcDb3dPolylineVertex
 10
215.073
 20
195.518
 30
0.0
 70
    32
  0
VERTEX
  5
38CA
330
3890
100
AcDbEntity
  8
1
100
AcDbVertex
100
AcDb3dPolylineVertex
 10
215.103
 20
195.511
 30
0.0
 70
    32
  0
VERTEX
  5
38CB
330
3890
100
AcDbEntity
  8
1
100
AcDbVertex
100
AcDb3dPolylineVertex
 10
215.134
 20
195.504
 30
0.0
 70
    32
  0
VERTEX
  5
38CC
330
3890
100
AcDbEntity
  8
1
100
AcDbVertex
100
AcDb3dPolylineVertex
 10
215.164
 20
195.497
 30
0.0
 70
    32
  0
VERTEX
  5
38CD
330
3890
100
AcDbEntity
  8
1
100
AcDbVertex
100
AcDb3dPolylineVertex
 10
215.194
 20
195.489
 30
0.0
 70
    32
  0
VERTEX
  5
38CE
330
3890
100
AcDbEntity
  8
1
100
AcDbVertex
100
AcDb3dPolylineVertex
 10
215.224
 20
195.481
 30
0.0
 70
    32
  0
VERTEX
  5
38CF
330
3890
100
AcDbEntity
  8
1
100
AcDbVertex
100
AcDb3dPolylineVertex
 10
215.254
 20
195.4729999999999
 30
0.0
 70
    32
  0
VERTEX
  5
38D0
330
3890
100
AcDbEntity
  8
1
100
AcDbVertex
100
AcDb3dPolylineVertex
 10
215.283
 20
195.465
 30
0.0
 70
    32
  0
VERTEX
  5
38D1
330
3890
100
AcDbEntity
  8
1
100
AcDbVertex
100
AcDb3dPolylineVertex
 10
215.313
 20
195.457
 30
0.0
 70
    32
  0
VERTEX
  5
38D2
330
3890
100
AcDbEntity
  8
1
100
AcDbVertex
100
AcDb3dPolylineVertex
 10
215.342
 20
195.448
 30
0.0
 70
    32
  0
VERTEX
  5
38D3
330
3890
100
AcDbEntity
  8
1
100
AcDbVertex
100
AcDb3dPolylineVertex
 10
215.371
 20
195.44
 30
0.0
 70
    32
  0
VERTEX
  5
38D4
330
3890
100
AcDbEntity
  8
1
100
AcDbVertex
100
AcDb3dPolylineVertex
 10
215.4
 20
195.4309999999999
 30
0.0
 70
    32
  0
VERTEX
  5
38D5
330
3890
100
AcDbEntity
  8
1
100
AcDbVertex
100
AcDb3dPolylineVertex
 10
215.429
 20
195.422
 30
0.0
 70
    32
  0
VERTEX
  5
38D6
330
3890
100
AcDbEntity
  8
1
100
AcDbVertex
100
AcDb3dPolylineVertex
 10
215.458
 20
195.413
 30
0.0
 70
    32
  0
VERTEX
  5
38D7
330
3890
100
AcDbEntity
  8
1
100
AcDbVertex
100
AcDb3dPolylineVertex
 10
215.487
 20
195.405
 30
0.0
 70
    32
  0
VERTEX
  5
38D8
330
3890
100
AcDbEntity
  8
1
100
AcDbVertex
100
AcDb3dPolylineVertex
 10
215.516
 20
195.395
 30
0.0
 70
    32
  0
VERTEX
  5
38D9
330
3890
100
AcDbEntity
  8
1
100
AcDbVertex
100
AcDb3dPolylineVertex
 10
215.544
 20
195.386
 30
0.0
 70
    32
  0
VERTEX
  5
38DA
330
3890
100
AcDbEntity
  8
1
100
AcDbVertex
100
AcDb3dPolylineVertex
 10
215.573
 20
195.377
 30
0.0
 70
    32
  0
VERTEX
  5
38DB
330
3890
100
AcDbEntity
  8
1
100
AcDbVertex
100
AcDb3dPolylineVertex
 10
215.601
 20
195.368
 30
0.0
 70
    32
  0
VERTEX
  5
38DC
330
3890
100
AcDbEntity
  8
1
100
AcDbVertex
100
AcDb3dPolylineVertex
 10
215.63
 20
195.358
 30
0.0
 70
    32
  0
VERTEX
  5
38DD
330
3890
100
AcDbEntity
  8
1
100
AcDbVertex
100
AcDb3dPolylineVertex
 10
215.658
 20
195.349
 30
0.0
 70
    32
  0
VERTEX
  5
38DE
330
3890
100
AcDbEntity
  8
1
100
AcDbVertex
100
AcDb3dPolylineVertex
 10
215.686
 20
195.34
 30
0.0
 70
    32
  0
VERTEX
  5
38DF
330
3890
100
AcDbEntity
  8
1
100
AcDbVertex
100
AcDb3dPolylineVertex
 10
215.715
 20
195.33
 30
0.0
 70
    32
  0
VERTEX
  5
38E0
330
3890
100
AcDbEntity
  8
1
100
AcDbVertex
100
AcDb3dPolylineVertex
 10
215.743
 20
195.321
 30
0.0
 70
    32
  0
VERTEX
  5
38E1
330
3890
100
AcDbEntity
  8
1
100
AcDbVertex
100
AcDb3dPolylineVertex
 10
215.771
 20
195.311
 30
0.0
 70
    32
  0
VERTEX
  5
38E2
330
3890
100
AcDbEntity
  8
1
100
AcDbVertex
100
AcDb3dPolylineVertex
 10
215.8
 20
195.302
 30
0.0
 70
    32
  0
VERTEX
  5
38E3
330
3890
100
AcDbEntity
  8
1
100
AcDbVertex
100
AcDb3dPolylineVertex
 10
215.828
 20
195.293
 30
0.0
 70
    32
  0
VERTEX
  5
38E4
330
3890
100
AcDbEntity
  8
1
100
AcDbVertex
100
AcDb3dPolylineVertex
 10
215.856
 20
195.283
 30
0.0
 70
    32
  0
VERTEX
  5
38E5
330
3890
100
AcDbEntity
  8
1
100
AcDbVertex
100
AcDb3dPolylineVertex
 10
215.885
 20
195.274
 30
0.0
 70
    32
  0
VERTEX
  5
38E6
330
3890
100
AcDbEntity
  8
1
100
AcDbVertex
100
AcDb3dPolylineVertex
 10
215.913
 20
195.265
 30
0.0
 70
    32
  0
VERTEX
  5
38E7
330
3890
100
AcDbEntity
  8
1
100
AcDbVertex
100
AcDb3dPolylineVertex
 10
215.942
 20
195.255
 30
0.0
 70
    32
  0
VERTEX
  5
38E8
330
3890
100
AcDbEntity
  8
1
100
AcDbVertex
100
AcDb3dPolylineVertex
 10
215.97
 20
195.246
 30
0.0
 70
    32
  0
VERTEX
  5
38E9
330
3890
100
AcDbEntity
  8
1
100
AcDbVertex
100
AcDb3dPolylineVertex
 10
215.999
 20
195.237
 30
0.0
 70
    32
  0
VERTEX
  5
38EA
330
3890
100
AcDbEntity
  8
1
100
AcDbVertex
100
AcDb3dPolylineVertex
 10
216.027
 20
195.228
 30
0.0
 70
    32
  0
VERTEX
  5
38EB
330
3890
100
AcDbEntity
  8
1
100
AcDbVertex
100
AcDb3dPolylineVertex
 10
216.056
 20
195.219
 30
0.0
 70
    32
  0
VERTEX
  5
38EC
330
3890
100
AcDbEntity
  8
1
100
AcDbVertex
100
AcDb3dPolylineVertex
 10
216.085
 20
195.21
 30
0.0
 70
    32
  0
VERTEX
  5
38ED
330
3890
100
AcDbEntity
  8
1
100
AcDbVertex
100
AcDb3dPolylineVertex
 10
216.114
 20
195.201
 30
0.0
 70
    32
  0
VERTEX
  5
38EE
330
3890
100
AcDbEntity
  8
1
100
AcDbVertex
100
AcDb3dPolylineVertex
 10
216.143
 20
195.192
 30
0.0
 70
    32
  0
VERTEX
  5
38EF
330
3890
100
AcDbEntity
  8
1
100
AcDbVertex
100
AcDb3dPolylineVertex
 10
216.172
 20
195.184
 30
0.0
 70
    32
  0
VERTEX
  5
38F0
330
3890
100
AcDbEntity
  8
1
100
AcDbVertex
100
AcDb3dPolylineVertex
 10
216.201
 20
195.175
 30
0.0
 70
    32
  0
VERTEX
  5
38F1
330
3890
100
AcDbEntity
  8
1
100
AcDbVertex
100
AcDb3dPolylineVertex
 10
216.231
 20
195.167
 30
0.0
 70
    32
  0
VERTEX
  5
38F2
330
3890
100
AcDbEntity
  8
1
100
AcDbVertex
100
AcDb3dPolylineVertex
 10
216.26
 20
195.159
 30
0.0
 70
    32
  0
VERTEX
  5
38F3
330
3890
100
AcDbEntity
  8
1
100
AcDbVertex
100
AcDb3dPolylineVertex
 10
216.29
 20
195.151
 30
0.0
 70
    32
  0
VERTEX
  5
38F4
330
3890
100
AcDbEntity
  8
1
100
AcDbVertex
100
AcDb3dPolylineVertex
 10
216.32
 20
195.143
 30
0.0
 70
    32
  0
VERTEX
  5
38F5
330
3890
100
AcDbEntity
  8
1
100
AcDbVertex
100
AcDb3dPolylineVertex
 10
216.35
 20
195.136
 30
0.0
 70
    32
  0
VERTEX
  5
38F6
330
3890
100
AcDbEntity
  8
1
100
AcDbVertex
100
AcDb3dPolylineVertex
 10
216.38
 20
195.128
 30
0.0
 70
    32
  0
VERTEX
  5
38F7
330
3890
100
AcDbEntity
  8
1
100
AcDbVertex
100
AcDb3dPolylineVertex
 10
216.411
 20
195.121
 30
0.0
 70
    32
  0
VERTEX
  5
38F8
330
3890
100
AcDbEntity
  8
1
100
AcDbVertex
100
AcDb3dPolylineVertex
 10
216.442
 20
195.114
 30
0.0
 70
    32
  0
VERTEX
  5
38F9
330
3890
100
AcDbEntity
  8
1
100
AcDbVertex
100
AcDb3dPolylineVertex
 10
216.472
 20
195.107
 30
0.0
 70
    32
  0
VERTEX
  5
38FA
330
3890
100
AcDbEntity
  8
1
100
AcDbVertex
100
AcDb3dPolylineVertex
 10
216.504
 20
195.1
 30
0.0
 70
    32
  0
VERTEX
  5
38FB
330
3890
100
AcDbEntity
  8
1
100
AcDbVertex
100
AcDb3dPolylineVertex
 10
216.535
 20
195.094
 30
0.0
 70
    32
  0
VERTEX
  5
38FC
330
3890
100
AcDbEntity
  8
1
100
AcDbVertex
100
AcDb3dPolylineVertex
 10
216.566
 20
195.088
 30
0.0
 70
    32
  0
VERTEX
  5
38FD
330
3890
100
AcDbEntity
  8
1
100
AcDbVertex
100
AcDb3dPolylineVertex
 10
216.598
 20
195.082
 30
0.0
 70
    32
  0
VERTEX
  5
38FE
330
3890
100
AcDbEntity
  8
1
100
AcDbVertex
100
AcDb3dPolylineVertex
 10
216.63
 20
195.076
 30
0.0
 70
    32
  0
VERTEX
  5
38FF
330
3890
100
AcDbEntity
  8
1
100
AcDbVertex
100
AcDb3dPolylineVertex
 10
216.663
 20
195.071
 30
0.0
 70
    32
  0
VERTEX
  5
3900
330
3890
100
AcDbEntity
  8
1
100
AcDbVertex
100
AcDb3dPolylineVertex
 10
216.695
 20
195.066
 30
0.0
 70
    32
  0
VERTEX
  5
3901
330
3890
100
AcDbEntity
  8
1
100
AcDbVertex
100
AcDb3dPolylineVertex
 10
216.728
 20
195.0609999999999
 30
0.0
 70
    32
  0
VERTEX
  5
3902
330
3890
100
AcDbEntity
  8
1
100
AcDbVertex
100
AcDb3dPolylineVertex
 10
216.761
 20
195.056
 30
0.0
 70
    32
  0
VERTEX
  5
3903
330
3890
100
AcDbEntity
  8
1
100
AcDbVertex
100
AcDb3dPolylineVertex
 10
216.795
 20
195.052
 30
0.0
 70
    32
  0
VERTEX
  5
3904
330
3890
100
AcDbEntity
  8
1
100
AcDbVertex
100
AcDb3dPolylineVertex
 10
216.829
 20
195.048
 30
0.0
 70
    32
  0
VERTEX
  5
3905
330
3890
100
AcDbEntity
  8
1
100
AcDbVertex
100
AcDb3dPolylineVertex
 10
216.863
 20
195.044
 30
0.0
 70
    32
  0
VERTEX
  5
3906
330
3890
100
AcDbEntity
  8
1
100
AcDbVertex
100
AcDb3dPolylineVertex
 10
216.897
 20
195.041
 30
0.0
 70
    32
  0
VERTEX
  5
3907
330
3890
100
AcDbEntity
  8
1
100
AcDbVertex
100
AcDb3dPolylineVertex
 10
216.932
 20
195.038
 30
0.0
 70
    32
  0
VERTEX
  5
3908
330
3890
100
AcDbEntity
  8
1
100
AcDbVertex
100
AcDb3dPolylineVertex
 10
216.967
 20
195.036
 30
0.0
 70
    32
  0
VERTEX
  5
3909
330
3890
100
AcDbEntity
  8
1
100
AcDbVertex
100
AcDb3dPolylineVertex
 10
217.003
 20
195.033
 30
0.0
 70
    32
  0
VERTEX
  5
390A
330
3890
100
AcDbEntity
  8
1
100
AcDbVertex
100
AcDb3dPolylineVertex
 10
217.038
 20
195.0309999999999
 30
0.0
 70
    32
  0
VERTEX
  5
390B
330
3890
100
AcDbEntity
  8
1
100
AcDbVertex
100
AcDb3dPolylineVertex
 10
217.075
 20
195.03
 30
0.0
 70
    32
  0
VERTEX
  5
390C
330
3890
100
AcDbEntity
  8
1
100
AcDbVertex
100
AcDb3dPolylineVertex
 10
217.111
 20
195.029
 30
0.0
 70
    32
  0
VERTEX
  5
390D
330
3890
100
AcDbEntity
  8
1
100
AcDbVertex
100
AcDb3dPolylineVertex
 10
217.148
 20
195.028
 30
0.0
 70
    32
  0
VERTEX
  5
390E
330
3890
100
AcDbEntity
  8
1
100
AcDbVertex
100
AcDb3dPolylineVertex
 10
217.185
 20
195.028
 30
0.0
 70
    32
  0
VERTEX
  5
390F
330
3890
100
AcDbEntity
  8
1
100
AcDbVertex
100
AcDb3dPolylineVertex
 10
217.223
 20
195.028
 30
0.0
 70
    32
  0
VERTEX
  5
3910
330
3890
100
AcDbEntity
  8
1
100
AcDbVertex
100
AcDb3dPolylineVertex
 10
217.261
 20
195.028
 30
0.0
 70
    32
  0
VERTEX
  5
3911
330
3890
100
AcDbEntity
  8
1
100
AcDbVertex
100
AcDb3dPolylineVertex
 10
217.3
 20
195.029
 30
0.0
 70
    32
  0
VERTEX
  5
3912
330
3890
100
AcDbEntity
  8
1
100
AcDbVertex
100
AcDb3dPolylineVertex
 10
217.339
 20
195.03
 30
0.0
 70
    32
  0
VERTEX
  5
3913
330
3890
100
AcDbEntity
  8
1
100
AcDbVertex
100
AcDb3dPolylineVertex
 10
217.379
 20
195.032
 30
0.0
 70
    32
  0
VERTEX
  5
3914
330
3890
100
AcDbEntity
  8
1
100
AcDbVertex
100
AcDb3dPolylineVertex
 10
217.419
 20
195.034
 30
0.0
 70
    32
  0
VERTEX
  5
3915
330
3890
100
AcDbEntity
  8
1
100
AcDbVertex
100
AcDb3dPolylineVertex
 10
217.459
 20
195.037
 30
0.0
 70
    32
  0
VERTEX
  5
3916
330
3890
100
AcDbEntity
  8
1
100
AcDbVertex
100
AcDb3dPolylineVertex
 10
217.5
 20
195.04
 30
0.0
 70
    32
  0
VERTEX
  5
3917
330
3890
100
AcDbEntity
  8
1
100
AcDbVertex
100
AcDb3dPolylineVertex
 10
217.541
 20
195.044
 30
0.0
 70
    32
  0
VERTEX
  5
3918
330
3890
100
AcDbEntity
  8
1
100
AcDbVertex
100
AcDb3dPolylineVertex
 10
217.583
 20
195.048
 30
0.0
 70
    32
  0
VERTEX
  5
3919
330
3890
100
AcDbEntity
  8
1
100
AcDbVertex
100
AcDb3dPolylineVertex
 10
217.625
 20
195.052
 30
0.0
 70
    32
  0
VERTEX
  5
391A
330
3890
100
AcDbEntity
  8
1
100
AcDbVertex
100
AcDb3dPolylineVertex
 10
217.668
 20
195.057
 30
0.0
 70
    32
  0
VERTEX
  5
391B
330
3890
100
AcDbEntity
  8
1
100
AcDbVertex
100
AcDb3dPolylineVertex
 10
217.712
 20
195.063
 30
0.0
 70
    32
  0
VERTEX
  5
391C
330
3890
100
AcDbEntity
  8
1
100
AcDbVertex
100
AcDb3dPolylineVertex
 10
217.756
 20
195.069
 30
0.0
 70
    32
  0
VERTEX
  5
391D
330
3890
100
AcDbEntity
  8
1
100
AcDbVertex
100
AcDb3dPolylineVertex
 10
217.8
 20
195.076
 30
0.0
 70
    32
  0
VERTEX
  5
391E
330
3890
100
AcDbEntity
  8
1
100
AcDbVertex
100
AcDb3dPolylineVertex
 10
217.845
 20
195.083
 30
0.0
 70
    32
  0
VERTEX
  5
391F
330
3890
100
AcDbEntity
  8
1
100
AcDbVertex
100
AcDb3dPolylineVertex
 10
217.89
 20
195.091
 30
0.0
 70
    32
  0
VERTEX
  5
3920
330
3890
100
AcDbEntity
  8
1
100
AcDbVertex
100
AcDb3dPolylineVertex
 10
217.937
 20
195.099
 30
0.0
 70
    32
  0
VERTEX
  5
3921
330
3890
100
AcDbEntity
  8
1
100
AcDbVertex
100
AcDb3dPolylineVertex
 10
217.983
 20
195.108
 30
0.0
 70
    32
  0
VERTEX
  5
3922
330
3890
100
AcDbEntity
  8
1
100
AcDbVertex
100
AcDb3dPolylineVertex
 10
218.03
 20
195.118
 30
0.0
 70
    32
  0
VERTEX
  5
3923
330
3890
100
AcDbEntity
  8
1
100
AcDbVertex
100
AcDb3dPolylineVertex
 10
218.078
 20
195.128
 30
0.0
 70
    32
  0
VERTEX
  5
3924
330
3890
100
AcDbEntity
  8
1
100
AcDbVertex
100
AcDb3dPolylineVertex
 10
218.127
 20
195.138
 30
0.0
 70
    32
  0
VERTEX
  5
3925
330
3890
100
AcDbEntity
  8
1
100
AcDbVertex
100
AcDb3dPolylineVertex
 10
218.176
 20
195.15
 30
0.0
 70
    32
  0
VERTEX
  5
3926
330
3890
100
AcDbEntity
  8
1
100
AcDbVertex
100
AcDb3dPolylineVertex
 10
218.225
 20
195.162
 30
0.0
 70
    32
  0
VERTEX
  5
3927
330
3890
100
AcDbEntity
  8
1
100
AcDbVertex
100
AcDb3dPolylineVertex
 10
218.275
 20
195.174
 30
0.0
 70
    32
  0
VERTEX
  5
3928
330
3890
100
AcDbEntity
  8
1
100
AcDbVertex
100
AcDb3dPolylineVertex
 10
218.326
 20
195.187
 30
0.0
 70
    32
  0
VERTEX
  5
3929
330
3890
100
AcDbEntity
  8
1
100
AcDbVertex
100
AcDb3dPolylineVertex
 10
218.378
 20
195.201
 30
0.0
 70
    32
  0
VERTEX
  5
392A
330
3890
100
AcDbEntity
  8
1
100
AcDbVertex
100
AcDb3dPolylineVertex
 10
218.43
 20
195.215
 30
0.0
 70
    32
  0
VERTEX
  5
392B
330
3890
100
AcDbEntity
  8
1
100
AcDbVertex
100
AcDb3dPolylineVertex
 10
218.483
 20
195.231
 30
0.0
 70
    32
  0
VERTEX
  5
392C
330
3890
100
AcDbEntity
  8
1
100
AcDbVertex
100
AcDb3dPolylineVertex
 10
218.536
 20
195.246
 30
0.0
 70
    32
  0
VERTEX
  5
392D
330
3890
100
AcDbEntity
  8
1
100
AcDbVertex
100
AcDb3dPolylineVertex
 10
218.591
 20
195.263
 30
0.0
 70
    32
  0
VERTEX
  5
392E
330
3890
100
AcDbEntity
  8
1
100
AcDbVertex
100
AcDb3dPolylineVertex
 10
218.645
 20
195.28
 30
0.0
 70
    32
  0
VERTEX
  5
392F
330
3890
100
AcDbEntity
  8
1
100
AcDbVertex
100
AcDb3dPolylineVertex
 10
218.701
 20
195.298
 30
0.0
 70
    32
  0
VERTEX
  5
3930
330
3890
100
AcDbEntity
  8
1
100
AcDbVertex
100
AcDb3dPolylineVertex
 10
218.757
 20
195.316
 30
0.0
 70
    32
  0
SEQEND
  5
3931
330
3890
100
AcDbEntity
  8
1
  0
POLYLINE
  5
3932
330
3BE9
100
AcDbEntity
  8
1
100
AcDb3dPolyline
 66
     1
 10
0.0
 20
0.0
 30
0.0
 70
     8
  0
VERTEX
  5
3933
330
3932
100
AcDbEntity
  8
1
100
AcDbVertex
100
AcDb3dPolylineVertex
 10
212.757
 20
198.3159999999999
 30
0.0
 70
    32
  0
VERTEX
  5
3934
330
3932
100
AcDbEntity
  8
1
100
AcDbVertex
100
AcDb3dPolylineVertex
 10
212.813
 20
198.335
 30
0.0
 70
    32
  0
VERTEX
  5
3935
330
3932
100
AcDbEntity
  8
1
100
AcDbVertex
100
AcDb3dPolylineVertex
 10
212.869
 20
198.352
 30
0.0
 70
    32
  0
VERTEX
  5
3936
330
3932
100
AcDbEntity
  8
1
100
AcDbVertex
100
AcDb3dPolylineVertex
 10
212.924
 20
198.37
 30
0.0
 70
    32
  0
VERTEX
  5
3937
330
3932
100
AcDbEntity
  8
1
100
AcDbVertex
100
AcDb3dPolylineVertex
 10
212.978
 20
198.386
 30
0.0
 70
    32
  0
VERTEX
  5
3938
330
3932
100
AcDbEntity
  8
1
100
AcDbVertex
100
AcDb3dPolylineVertex
 10
213.031
 20
198.402
 30
0.0
 70
    32
  0
VERTEX
  5
3939
330
3932
100
AcDbEntity
  8
1
100
AcDbVertex
100
AcDb3dPolylineVertex
 10
213.084
 20
198.417
 30
0.0
 70
    32
  0
VERTEX
  5
393A
330
3932
100
AcDbEntity
  8
1
100
AcDbVertex
100
AcDb3dPolylineVertex
 10
213.136
 20
198.4309999999999
 30
0.0
 70
    32
  0
VERTEX
  5
393B
330
3932
100
AcDbEntity
  8
1
100
AcDbVertex
100
AcDb3dPolylineVertex
 10
213.188
 20
198.445
 30
0.0
 70
    32
  0
VERTEX
  5
393C
330
3932
100
AcDbEntity
  8
1
100
AcDbVertex
100
AcDb3dPolylineVertex
 10
213.239
 20
198.458
 30
0.0
 70
    32
  0
VERTEX
  5
393D
330
3932
100
AcDbEntity
  8
1
100
AcDbVertex
100
AcDb3dPolylineVertex
 10
213.289
 20
198.4709999999999
 30
0.0
 70
    32
  0
VERTEX
  5
393E
330
3932
100
AcDbEntity
  8
1
100
AcDbVertex
100
AcDb3dPolylineVertex
 10
213.339
 20
198.483
 30
0.0
 70
    32
  0
VERTEX
  5
393F
330
3932
100
AcDbEntity
  8
1
100
AcDbVertex
100
AcDb3dPolylineVertex
 10
213.388
 20
198.494
 30
0.0
 70
    32
  0
VERTEX
  5
3940
330
3932
100
AcDbEntity
  8
1
100
AcDbVertex
100
AcDb3dPolylineVertex
 10
213.436
 20
198.505
 30
0.0
 70
    32
  0
VERTEX
  5
3941
330
3932
100
AcDbEntity
  8
1
100
AcDbVertex
100
AcDb3dPolylineVertex
 10
213.484
 20
198.515
 30
0.0
 70
    32
  0
VERTEX
  5
3942
330
3932
100
AcDbEntity
  8
1
100
AcDbVertex
100
AcDb3dPolylineVertex
 10
213.531
 20
198.524
 30
0.0
 70
    32
  0
VERTEX
  5
3943
330
3932
100
AcDbEntity
  8
1
100
AcDbVertex
100
AcDb3dPolylineVertex
 10
213.578
 20
198.533
 30
0.0
 70
    32
  0
VERTEX
  5
3944
330
3932
100
AcDbEntity
  8
1
100
AcDbVertex
100
AcDb3dPolylineVertex
 10
213.624
 20
198.541
 30
0.0
 70
    32
  0
VERTEX
  5
3945
330
3932
100
AcDbEntity
  8
1
100
AcDbVertex
100
AcDb3dPolylineVertex
 10
213.669
 20
198.549
 30
0.0
 70
    32
  0
VERTEX
  5
3946
330
3932
100
AcDbEntity
  8
1
100
AcDbVertex
100
AcDb3dPolylineVertex
 10
213.714
 20
198.5559999999999
 30
0.0
 70
    32
  0
VERTEX
  5
3947
330
3932
100
AcDbEntity
  8
1
100
AcDbVertex
100
AcDb3dPolylineVertex
 10
213.759
 20
198.563
 30
0.0
 70
    32
  0
VERTEX
  5
3948
330
3932
100
AcDbEntity
  8
1
100
AcDbVertex
100
AcDb3dPolylineVertex
 10
213.803
 20
198.569
 30
0.0
 70
    32
  0
VERTEX
  5
3949
330
3932
100
AcDbEntity
  8
1
100
AcDbVertex
100
AcDb3dPolylineVertex
 10
213.846
 20
198.575
 30
0.0
 70
    32
  0
VERTEX
  5
394A
330
3932
100
AcDbEntity
  8
1
100
AcDbVertex
100
AcDb3dPolylineVertex
 10
213.889
 20
198.58
 30
0.0
 70
    32
  0
VERTEX
  5
394B
330
3932
100
AcDbEntity
  8
1
100
AcDbVertex
100
AcDb3dPolylineVertex
 10
213.931
 20
198.585
 30
0.0
 70
    32
  0
VERTEX
  5
394C
330
3932
100
AcDbEntity
  8
1
100
AcDbVertex
100
AcDb3dPolylineVertex
 10
213.973
 20
198.589
 30
0.0
 70
    32
  0
VERTEX
  5
394D
330
3932
100
AcDbEntity
  8
1
100
AcDbVertex
100
AcDb3dPolylineVertex
 10
214.014
 20
198.592
 30
0.0
 70
    32
  0
VERTEX
  5
394E
330
3932
100
AcDbEntity
  8
1
100
AcDbVertex
100
AcDb3dPolylineVertex
 10
214.055
 20
198.595
 30
0.0
 70
    32
  0
VERTEX
  5
394F
330
3932
100
AcDbEntity
  8
1
100
AcDbVertex
100
AcDb3dPolylineVertex
 10
214.096
 20
198.5979999999999
 30
0.0
 70
    32
  0
VERTEX
  5
3950
330
3932
100
AcDbEntity
  8
1
100
AcDbVertex
100
AcDb3dPolylineVertex
 10
214.136
 20
198.6
 30
0.0
 70
    32
  0
VERTEX
  5
3951
330
3932
100
AcDbEntity
  8
1
100
AcDbVertex
100
AcDb3dPolylineVertex
 10
214.175
 20
198.602
 30
0.0
 70
    32
  0
VERTEX
  5
3952
330
3932
100
AcDbEntity
  8
1
100
AcDbVertex
100
AcDb3dPolylineVertex
 10
214.214
 20
198.6029999999999
 30
0.0
 70
    32
  0
VERTEX
  5
3953
330
3932
100
AcDbEntity
  8
1
100
AcDbVertex
100
AcDb3dPolylineVertex
 10
214.253
 20
198.604
 30
0.0
 70
    32
  0
VERTEX
  5
3954
330
3932
100
AcDbEntity
  8
1
100
AcDbVertex
100
AcDb3dPolylineVertex
 10
214.291
 20
198.605
 30
0.0
 70
    32
  0
VERTEX
  5
3955
330
3932
100
AcDbEntity
  8
1
100
AcDbVertex
100
AcDb3dPolylineVertex
 10
214.329
 20
198.605
 30
0.0
 70
    32
  0
VERTEX
  5
3956
330
3932
100
AcDbEntity
  8
1
100
AcDbVertex
100
AcDb3dPolylineVertex
 10
214.366
 20
198.604
 30
0.0
 70
    32
  0
VERTEX
  5
3957
330
3932
100
AcDbEntity
  8
1
100
AcDbVertex
100
AcDb3dPolylineVertex
 10
214.403
 20
198.604
 30
0.0
 70
    32
  0
VERTEX
  5
3958
330
3932
100
AcDbEntity
  8
1
100
AcDbVertex
100
AcDb3dPolylineVertex
 10
214.44
 20
198.6029999999999
 30
0.0
 70
    32
  0
VERTEX
  5
3959
330
3932
100
AcDbEntity
  8
1
100
AcDbVertex
100
AcDb3dPolylineVertex
 10
214.476
 20
198.601
 30
0.0
 70
    32
  0
VERTEX
  5
395A
330
3932
100
AcDbEntity
  8
1
100
AcDbVertex
100
AcDb3dPolylineVertex
 10
214.512
 20
198.599
 30
0.0
 70
    32
  0
VERTEX
  5
395B
330
3932
100
AcDbEntity
  8
1
100
AcDbVertex
100
AcDb3dPolylineVertex
 10
214.547
 20
198.597
 30
0.0
 70
    32
  0
VERTEX
  5
395C
330
3932
100
AcDbEntity
  8
1
100
AcDbVertex
100
AcDb3dPolylineVertex
 10
214.582
 20
198.594
 30
0.0
 70
    32
  0
VERTEX
  5
395D
330
3932
100
AcDbEntity
  8
1
100
AcDbVertex
100
AcDb3dPolylineVertex
 10
214.617
 20
198.591
 30
0.0
 70
    32
  0
VERTEX
  5
395E
330
3932
100
AcDbEntity
  8
1
100
AcDbVertex
100
AcDb3dPolylineVertex
 10
214.652
 20
198.588
 30
0.0
 70
    32
  0
VERTEX
  5
395F
330
3932
100
AcDbEntity
  8
1
100
AcDbVertex
100
AcDb3dPolylineVertex
 10
214.686
 20
198.584
 30
0.0
 70
    32
  0
VERTEX
  5
3960
330
3932
100
AcDbEntity
  8
1
100
AcDbVertex
100
AcDb3dPolylineVertex
 10
214.719
 20
198.58
 30
0.0
 70
    32
  0
VERTEX
  5
3961
330
3932
100
AcDbEntity
  8
1
100
AcDbVertex
100
AcDb3dPolylineVertex
 10
214.753
 20
198.576
 30
0.0
 70
    32
  0
VERTEX
  5
3962
330
3932
100
AcDbEntity
  8
1
100
AcDbVertex
100
AcDb3dPolylineVertex
 10
214.786
 20
198.572
 30
0.0
 70
    32
  0
VERTEX
  5
3963
330
3932
100
AcDbEntity
  8
1
100
AcDbVertex
100
AcDb3dPolylineVertex
 10
214.819
 20
198.567
 30
0.0
 70
    32
  0
VERTEX
  5
3964
330
3932
100
AcDbEntity
  8
1
100
AcDbVertex
100
AcDb3dPolylineVertex
 10
214.852
 20
198.562
 30
0.0
 70
    32
  0
VERTEX
  5
3965
330
3932
100
AcDbEntity
  8
1
100
AcDbVertex
100
AcDb3dPolylineVertex
 10
214.884
 20
198.5559999999999
 30
0.0
 70
    32
  0
VERTEX
  5
3966
330
3932
100
AcDbEntity
  8
1
100
AcDbVertex
100
AcDb3dPolylineVertex
 10
214.916
 20
198.55
 30
0.0
 70
    32
  0
VERTEX
  5
3967
330
3932
100
AcDbEntity
  8
1
100
AcDbVertex
100
AcDb3dPolylineVertex
 10
214.948
 20
198.545
 30
0.0
 70
    32
  0
VERTEX
  5
3968
330
3932
100
AcDbEntity
  8
1
100
AcDbVertex
100
AcDb3dPolylineVertex
 10
214.979
 20
198.538
 30
0.0
 70
    32
  0
VERTEX
  5
3969
330
3932
100
AcDbEntity
  8
1
100
AcDbVertex
100
AcDb3dPolylineVertex
 10
215.011
 20
198.532
 30
0.0
 70
    32
  0
VERTEX
  5
396A
330
3932
100
AcDbEntity
  8
1
100
AcDbVertex
100
AcDb3dPolylineVertex
 10
215.042
 20
198.525
 30
0.0
 70
    32
  0
VERTEX
  5
396B
330
3932
100
AcDbEntity
  8
1
100
AcDbVertex
100
AcDb3dPolylineVertex
 10
215.073
 20
198.518
 30
0.0
 70
    32
  0
VERTEX
  5
396C
330
3932
100
AcDbEntity
  8
1
100
AcDbVertex
100
AcDb3dPolylineVertex
 10
215.103
 20
198.511
 30
0.0
 70
    32
  0
VERTEX
  5
396D
330
3932
100
AcDbEntity
  8
1
100
AcDbVertex
100
AcDb3dPolylineVertex
 10
215.134
 20
198.504
 30
0.0
 70
    32
  0
VERTEX
  5
396E
330
3932
100
AcDbEntity
  8
1
100
AcDbVertex
100
AcDb3dPolylineVertex
 10
215.164
 20
198.497
 30
0.0
 70
    32
  0
VERTEX
  5
396F
330
3932
100
AcDbEntity
  8
1
100
AcDbVertex
100
AcDb3dPolylineVertex
 10
215.194
 20
198.489
 30
0.0
 70
    32
  0
VERTEX
  5
3970
330
3932
100
AcDbEntity
  8
1
100
AcDbVertex
100
AcDb3dPolylineVertex
 10
215.224
 20
198.481
 30
0.0
 70
    32
  0
VERTEX
  5
3971
330
3932
100
AcDbEntity
  8
1
100
AcDbVertex
100
AcDb3dPolylineVertex
 10
215.254
 20
198.473
 30
0.0
 70
    32
  0
VERTEX
  5
3972
330
3932
100
AcDbEntity
  8
1
100
AcDbVertex
100
AcDb3dPolylineVertex
 10
215.283
 20
198.465
 30
0.0
 70
    32
  0
VERTEX
  5
3973
330
3932
100
AcDbEntity
  8
1
100
AcDbVertex
100
AcDb3dPolylineVertex
 10
215.313
 20
198.457
 30
0.0
 70
    32
  0
VERTEX
  5
3974
330
3932
100
AcDbEntity
  8
1
100
AcDbVertex
100
AcDb3dPolylineVertex
 10
215.342
 20
198.4479999999999
 30
0.0
 70
    32
  0
VERTEX
  5
3975
330
3932
100
AcDbEntity
  8
1
100
AcDbVertex
100
AcDb3dPolylineVertex
 10
215.371
 20
198.44
 30
0.0
 70
    32
  0
VERTEX
  5
3976
330
3932
100
AcDbEntity
  8
1
100
AcDbVertex
100
AcDb3dPolylineVertex
 10
215.4
 20
198.4309999999999
 30
0.0
 70
    32
  0
VERTEX
  5
3977
330
3932
100
AcDbEntity
  8
1
100
AcDbVertex
100
AcDb3dPolylineVertex
 10
215.429
 20
198.422
 30
0.0
 70
    32
  0
VERTEX
  5
3978
330
3932
100
AcDbEntity
  8
1
100
AcDbVertex
100
AcDb3dPolylineVertex
 10
215.458
 20
198.413
 30
0.0
 70
    32
  0
VERTEX
  5
3979
330
3932
100
AcDbEntity
  8
1
100
AcDbVertex
100
AcDb3dPolylineVertex
 10
215.487
 20
198.405
 30
0.0
 70
    32
  0
VERTEX
  5
397A
330
3932
100
AcDbEntity
  8
1
100
AcDbVertex
100
AcDb3dPolylineVertex
 10
215.516
 20
198.395
 30
0.0
 70
    32
  0
VERTEX
  5
397B
330
3932
100
AcDbEntity
  8
1
100
AcDbVertex
100
AcDb3dPolylineVertex
 10
215.544
 20
198.386
 30
0.0
 70
    32
  0
VERTEX
  5
397C
330
3932
100
AcDbEntity
  8
1
100
AcDbVertex
100
AcDb3dPolylineVertex
 10
215.573
 20
198.377
 30
0.0
 70
    32
  0
VERTEX
  5
397D
330
3932
100
AcDbEntity
  8
1
100
AcDbVertex
100
AcDb3dPolylineVertex
 10
215.601
 20
198.368
 30
0.0
 70
    32
  0
VERTEX
  5
397E
330
3932
100
AcDbEntity
  8
1
100
AcDbVertex
100
AcDb3dPolylineVertex
 10
215.63
 20
198.358
 30
0.0
 70
    32
  0
VERTEX
  5
397F
330
3932
100
AcDbEntity
  8
1
100
AcDbVertex
100
AcDb3dPolylineVertex
 10
215.658
 20
198.349
 30
0.0
 70
    32
  0
VERTEX
  5
3980
330
3932
100
AcDbEntity
  8
1
100
AcDbVertex
100
AcDb3dPolylineVertex
 10
215.686
 20
198.34
 30
0.0
 70
    32
  0
VERTEX
  5
3981
330
3932
100
AcDbEntity
  8
1
100
AcDbVertex
100
AcDb3dPolylineVertex
 10
215.715
 20
198.33
 30
0.0
 70
    32
  0
VERTEX
  5
3982
330
3932
100
AcDbEntity
  8
1
100
AcDbVertex
100
AcDb3dPolylineVertex
 10
215.743
 20
198.321
 30
0.0
 70
    32
  0
VERTEX
  5
3983
330
3932
100
AcDbEntity
  8
1
100
AcDbVertex
100
AcDb3dPolylineVertex
 10
215.771
 20
198.311
 30
0.0
 70
    32
  0
VERTEX
  5
3984
330
3932
100
AcDbEntity
  8
1
100
AcDbVertex
100
AcDb3dPolylineVertex
 10
215.8
 20
198.302
 30
0.0
 70
    32
  0
VERTEX
  5
3985
330
3932
100
AcDbEntity
  8
1
100
AcDbVertex
100
AcDb3dPolylineVertex
 10
215.828
 20
198.293
 30
0.0
 70
    32
  0
VERTEX
  5
3986
330
3932
100
AcDbEntity
  8
1
100
AcDbVertex
100
AcDb3dPolylineVertex
 10
215.856
 20
198.283
 30
0.0
 70
    32
  0
VERTEX
  5
3987
330
3932
100
AcDbEntity
  8
1
100
AcDbVertex
100
AcDb3dPolylineVertex
 10
215.885
 20
198.274
 30
0.0
 70
    32
  0
VERTEX
  5
3988
330
3932
100
AcDbEntity
  8
1
100
AcDbVertex
100
AcDb3dPolylineVertex
 10
215.913
 20
198.2649999999999
 30
0.0
 70
    32
  0
VERTEX
  5
3989
330
3932
100
AcDbEntity
  8
1
100
AcDbVertex
100
AcDb3dPolylineVertex
 10
215.942
 20
198.255
 30
0.0
 70
    32
  0
VERTEX
  5
398A
330
3932
100
AcDbEntity
  8
1
100
AcDbVertex
100
AcDb3dPolylineVertex
 10
215.97
 20
198.246
 30
0.0
 70
    32
  0
VERTEX
  5
398B
330
3932
100
AcDbEntity
  8
1
100
AcDbVertex
100
AcDb3dPolylineVertex
 10
215.999
 20
198.237
 30
0.0
 70
    32
  0
VERTEX
  5
398C
330
3932
100
AcDbEntity
  8
1
100
AcDbVertex
100
AcDb3dPolylineVertex
 10
216.027
 20
198.228
 30
0.0
 70
    32
  0
VERTEX
  5
398D
330
3932
100
AcDbEntity
  8
1
100
AcDbVertex
100
AcDb3dPolylineVertex
 10
216.056
 20
198.219
 30
0.0
 70
    32
  0
VERTEX
  5
398E
330
3932
100
AcDbEntity
  8
1
100
AcDbVertex
100
AcDb3dPolylineVertex
 10
216.085
 20
198.21
 30
0.0
 70
    32
  0
VERTEX
  5
398F
330
3932
100
AcDbEntity
  8
1
100
AcDbVertex
100
AcDb3dPolylineVertex
 10
216.114
 20
198.201
 30
0.0
 70
    32
  0
VERTEX
  5
3990
330
3932
100
AcDbEntity
  8
1
100
AcDbVertex
100
AcDb3dPolylineVertex
 10
216.143
 20
198.192
 30
0.0
 70
    32
  0
VERTEX
  5
3991
330
3932
100
AcDbEntity
  8
1
100
AcDbVertex
100
AcDb3dPolylineVertex
 10
216.172
 20
198.184
 30
0.0
 70
    32
  0
VERTEX
  5
3992
330
3932
100
AcDbEntity
  8
1
100
AcDbVertex
100
AcDb3dPolylineVertex
 10
216.201
 20
198.175
 30
0.0
 70
    32
  0
VERTEX
  5
3993
330
3932
100
AcDbEntity
  8
1
100
AcDbVertex
100
AcDb3dPolylineVertex
 10
216.231
 20
198.167
 30
0.0
 70
    32
  0
VERTEX
  5
3994
330
3932
100
AcDbEntity
  8
1
100
AcDbVertex
100
AcDb3dPolylineVertex
 10
216.26
 20
198.159
 30
0.0
 70
    32
  0
VERTEX
  5
3995
330
3932
100
AcDbEntity
  8
1
100
AcDbVertex
100
AcDb3dPolylineVertex
 10
216.29
 20
198.151
 30
0.0
 70
    32
  0
VERTEX
  5
3996
330
3932
100
AcDbEntity
  8
1
100
AcDbVertex
100
AcDb3dPolylineVertex
 10
216.32
 20
198.143
 30
0.0
 70
    32
  0
VERTEX
  5
3997
330
3932
100
AcDbEntity
  8
1
100
AcDbVertex
100
AcDb3dPolylineVertex
 10
216.35
 20
198.136
 30
0.0
 70
    32
  0
VERTEX
  5
3998
330
3932
100
AcDbEntity
  8
1
100
AcDbVertex
100
AcDb3dPolylineVertex
 10
216.38
 20
198.128
 30
0.0
 70
    32
  0
VERTEX
  5
3999
330
3932
100
AcDbEntity
  8
1
100
AcDbVertex
100
AcDb3dPolylineVertex
 10
216.411
 20
198.121
 30
0.0
 70
    32
  0
VERTEX
  5
399A
330
3932
100
AcDbEntity
  8
1
100
AcDbVertex
100
AcDb3dPolylineVertex
 10
216.442
 20
198.114
 30
0.0
 70
    32
  0
VERTEX
  5
399B
330
3932
100
AcDbEntity
  8
1
100
AcDbVertex
100
AcDb3dPolylineVertex
 10
216.472
 20
198.107
 30
0.0
 70
    32
  0
VERTEX
  5
399C
330
3932
100
AcDbEntity
  8
1
100
AcDbVertex
100
AcDb3dPolylineVertex
 10
216.504
 20
198.1
 30
0.0
 70
    32
  0
VERTEX
  5
399D
330
3932
100
AcDbEntity
  8
1
100
AcDbVertex
100
AcDb3dPolylineVertex
 10
216.535
 20
198.094
 30
0.0
 70
    32
  0
VERTEX
  5
399E
330
3932
100
AcDbEntity
  8
1
100
AcDbVertex
100
AcDb3dPolylineVertex
 10
216.566
 20
198.088
 30
0.0
 70
    32
  0
VERTEX
  5
399F
330
3932
100
AcDbEntity
  8
1
100
AcDbVertex
100
AcDb3dPolylineVertex
 10
216.598
 20
198.082
 30
0.0
 70
    32
  0
VERTEX
  5
39A0
330
3932
100
AcDbEntity
  8
1
100
AcDbVertex
100
AcDb3dPolylineVertex
 10
216.63
 20
198.076
 30
0.0
 70
    32
  0
VERTEX
  5
39A1
330
3932
100
AcDbEntity
  8
1
100
AcDbVertex
100
AcDb3dPolylineVertex
 10
216.663
 20
198.071
 30
0.0
 70
    32
  0
VERTEX
  5
39A2
330
3932
100
AcDbEntity
  8
1
100
AcDbVertex
100
AcDb3dPolylineVertex
 10
216.695
 20
198.066
 30
0.0
 70
    32
  0
VERTEX
  5
39A3
330
3932
100
AcDbEntity
  8
1
100
AcDbVertex
100
AcDb3dPolylineVertex
 10
216.728
 20
198.061
 30
0.0
 70
    32
  0
VERTEX
  5
39A4
330
3932
100
AcDbEntity
  8
1
100
AcDbVertex
100
AcDb3dPolylineVertex
 10
216.761
 20
198.056
 30
0.0
 70
    32
  0
VERTEX
  5
39A5
330
3932
100
AcDbEntity
  8
1
100
AcDbVertex
100
AcDb3dPolylineVertex
 10
216.795
 20
198.052
 30
0.0
 70
    32
  0
VERTEX
  5
39A6
330
3932
100
AcDbEntity
  8
1
100
AcDbVertex
100
AcDb3dPolylineVertex
 10
216.829
 20
198.048
 30
0.0
 70
    32
  0
VERTEX
  5
39A7
330
3932
100
AcDbEntity
  8
1
100
AcDbVertex
100
AcDb3dPolylineVertex
 10
216.863
 20
198.044
 30
0.0
 70
    32
  0
VERTEX
  5
39A8
330
3932
100
AcDbEntity
  8
1
100
AcDbVertex
100
AcDb3dPolylineVertex
 10
216.897
 20
198.041
 30
0.0
 70
    32
  0
VERTEX
  5
39A9
330
3932
100
AcDbEntity
  8
1
100
AcDbVertex
100
AcDb3dPolylineVertex
 10
216.932
 20
198.038
 30
0.0
 70
    32
  0
VERTEX
  5
39AA
330
3932
100
AcDbEntity
  8
1
100
AcDbVertex
100
AcDb3dPolylineVertex
 10
216.967
 20
198.0359999999999
 30
0.0
 70
    32
  0
VERTEX
  5
39AB
330
3932
100
AcDbEntity
  8
1
100
AcDbVertex
100
AcDb3dPolylineVertex
 10
217.003
 20
198.033
 30
0.0
 70
    32
  0
VERTEX
  5
39AC
330
3932
100
AcDbEntity
  8
1
100
AcDbVertex
100
AcDb3dPolylineVertex
 10
217.038
 20
198.031
 30
0.0
 70
    32
  0
VERTEX
  5
39AD
330
3932
100
AcDbEntity
  8
1
100
AcDbVertex
100
AcDb3dPolylineVertex
 10
217.075
 20
198.03
 30
0.0
 70
    32
  0
VERTEX
  5
39AE
330
3932
100
AcDbEntity
  8
1
100
AcDbVertex
100
AcDb3dPolylineVertex
 10
217.111
 20
198.029
 30
0.0
 70
    32
  0
VERTEX
  5
39AF
330
3932
100
AcDbEntity
  8
1
100
AcDbVertex
100
AcDb3dPolylineVertex
 10
217.148
 20
198.028
 30
0.0
 70
    32
  0
VERTEX
  5
39B0
330
3932
100
AcDbEntity
  8
1
100
AcDbVertex
100
AcDb3dPolylineVertex
 10
217.185
 20
198.028
 30
0.0
 70
    32
  0
VERTEX
  5
39B1
330
3932
100
AcDbEntity
  8
1
100
AcDbVertex
100
AcDb3dPolylineVertex
 10
217.223
 20
198.028
 30
0.0
 70
    32
  0
VERTEX
  5
39B2
330
3932
100
AcDbEntity
  8
1
100
AcDbVertex
100
AcDb3dPolylineVertex
 10
217.261
 20
198.028
 30
0.0
 70
    32
  0
VERTEX
  5
39B3
330
3932
100
AcDbEntity
  8
1
100
AcDbVertex
100
AcDb3dPolylineVertex
 10
217.3
 20
198.029
 30
0.0
 70
    32
  0
VERTEX
  5
39B4
330
3932
100
AcDbEntity
  8
1
100
AcDbVertex
100
AcDb3dPolylineVertex
 10
217.339
 20
198.03
 30
0.0
 70
    32
  0
VERTEX
  5
39B5
330
3932
100
AcDbEntity
  8
1
100
AcDbVertex
100
AcDb3dPolylineVertex
 10
217.379
 20
198.032
 30
0.0
 70
    32
  0
VERTEX
  5
39B6
330
3932
100
AcDbEntity
  8
1
100
AcDbVertex
100
AcDb3dPolylineVertex
 10
217.419
 20
198.034
 30
0.0
 70
    32
  0
VERTEX
  5
39B7
330
3932
100
AcDbEntity
  8
1
100
AcDbVertex
100
AcDb3dPolylineVertex
 10
217.459
 20
198.037
 30
0.0
 70
    32
  0
VERTEX
  5
39B8
330
3932
100
AcDbEntity
  8
1
100
AcDbVertex
100
AcDb3dPolylineVertex
 10
217.5
 20
198.04
 30
0.0
 70
    32
  0
VERTEX
  5
39B9
330
3932
100
AcDbEntity
  8
1
100
AcDbVertex
100
AcDb3dPolylineVertex
 10
217.541
 20
198.044
 30
0.0
 70
    32
  0
VERTEX
  5
39BA
330
3932
100
AcDbEntity
  8
1
100
AcDbVertex
100
AcDb3dPolylineVertex
 10
217.583
 20
198.048
 30
0.0
 70
    32
  0
VERTEX
  5
39BB
330
3932
100
AcDbEntity
  8
1
100
AcDbVertex
100
AcDb3dPolylineVertex
 10
217.625
 20
198.052
 30
0.0
 70
    32
  0
VERTEX
  5
39BC
330
3932
100
AcDbEntity
  8
1
100
AcDbVertex
100
AcDb3dPolylineVertex
 10
217.668
 20
198.057
 30
0.0
 70
    32
  0
VERTEX
  5
39BD
330
3932
100
AcDbEntity
  8
1
100
AcDbVertex
100
AcDb3dPolylineVertex
 10
217.712
 20
198.063
 30
0.0
 70
    32
  0
VERTEX
  5
39BE
330
3932
100
AcDbEntity
  8
1
100
AcDbVertex
100
AcDb3dPolylineVertex
 10
217.756
 20
198.069
 30
0.0
 70
    32
  0
VERTEX
  5
39BF
330
3932
100
AcDbEntity
  8
1
100
AcDbVertex
100
AcDb3dPolylineVertex
 10
217.8
 20
198.076
 30
0.0
 70
    32
  0
VERTEX
  5
39C0
330
3932
100
AcDbEntity
  8
1
100
AcDbVertex
100
AcDb3dPolylineVertex
 10
217.845
 20
198.083
 30
0.0
 70
    32
  0
VERTEX
  5
39C1
330
3932
100
AcDbEntity
  8
1
100
AcDbVertex
100
AcDb3dPolylineVertex
 10
217.89
 20
198.091
 30
0.0
 70
    32
  0
VERTEX
  5
39C2
330
3932
100
AcDbEntity
  8
1
100
AcDbVertex
100
AcDb3dPolylineVertex
 10
217.937
 20
198.099
 30
0.0
 70
    32
  0
VERTEX
  5
39C3
330
3932
100
AcDbEntity
  8
1
100
AcDbVertex
100
AcDb3dPolylineVertex
 10
217.983
 20
198.108
 30
0.0
 70
    32
  0
VERTEX
  5
39C4
330
3932
100
AcDbEntity
  8
1
100
AcDbVertex
100
AcDb3dPolylineVertex
 10
218.03
 20
198.118
 30
0.0
 70
    32
  0
VERTEX
  5
39C5
330
3932
100
AcDbEntity
  8
1
100
AcDbVertex
100
AcDb3dPolylineVertex
 10
218.078
 20
198.128
 30
0.0
 70
    32
  0
VERTEX
  5
39C6
330
3932
100
AcDbEntity
  8
1
100
AcDbVertex
100
AcDb3dPolylineVertex
 10
218.127
 20
198.138
 30
0.0
 70
    32
  0
VERTEX
  5
39C7
330
3932
100
AcDbEntity
  8
1
100
AcDbVertex
100
AcDb3dPolylineVertex
 10
218.176
 20
198.15
 30
0.0
 70
    32
  0
VERTEX
  5
39C8
330
3932
100
AcDbEntity
  8
1
100
AcDbVertex
100
AcDb3dPolylineVertex
 10
218.225
 20
198.162
 30
0.0
 70
    32
  0
VERTEX
  5
39C9
330
3932
100
AcDbEntity
  8
1
100
AcDbVertex
100
AcDb3dPolylineVertex
 10
218.275
 20
198.174
 30
0.0
 70
    32
  0
VERTEX
  5
39CA
330
3932
100
AcDbEntity
  8
1
100
AcDbVertex
100
AcDb3dPolylineVertex
 10
218.326
 20
198.187
 30
0.0
 70
    32
  0
VERTEX
  5
39CB
330
3932
100
AcDbEntity
  8
1
100
AcDbVertex
100
AcDb3dPolylineVertex
 10
218.378
 20
198.201
 30
0.0
 70
    32
  0
VERTEX
  5
39CC
330
3932
100
AcDbEntity
  8
1
100
AcDbVertex
100
AcDb3dPolylineVertex
 10
218.43
 20
198.215
 30
0.0
 70
    32
  0
VERTEX
  5
39CD
330
3932
100
AcDbEntity
  8
1
100
AcDbVertex
100
AcDb3dPolylineVertex
 10
218.483
 20
198.231
 30
0.0
 70
    32
  0
VERTEX
  5
39CE
330
3932
100
AcDbEntity
  8
1
100
AcDbVertex
100
AcDb3dPolylineVertex
 10
218.536
 20
198.246
 30
0.0
 70
    32
  0
VERTEX
  5
39CF
330
3932
100
AcDbEntity
  8
1
100
AcDbVertex
100
AcDb3dPolylineVertex
 10
218.591
 20
198.263
 30
0.0
 70
    32
  0
VERTEX
  5
39D0
330
3932
100
AcDbEntity
  8
1
100
AcDbVertex
100
AcDb3dPolylineVertex
 10
218.645
 20
198.28
 30
0.0
 70
    32
  0
VERTEX
  5
39D1
330
3932
100
AcDbEntity
  8
1
100
AcDbVertex
100
AcDb3dPolylineVertex
 10
218.701
 20
198.298
 30
0.0
 70
    32
  0
VERTEX
  5
39D2
330
3932
100
AcDbEntity
  8
1
100
AcDbVertex
100
AcDb3dPolylineVertex
 10
218.757
 20
198.3159999999999
 30
0.0
 70
    32
  0
SEQEND
  5
39D3
330
3932
100
AcDbEntity
  8
1
  0
LINE
  5
379D
330
3BE9
100
AcDbEntity
  8
1
100
AcDbLine
 10
212.7571525574467
 20
198.3161679130089
 30
0.0
 11
212.7571525574467
 21
208.3191434108032
 31
0.0
  0
LINE
  5
379E
330
3BE9
100
AcDbEntity
  8
1
100
AcDbLine
 10
218.7571525574491
 20
211.2690005700937
 30
0.0
 11
218.7571525574467
 21
198.31616791301
 31
0.0
  0
LINE
  5
379F
330
3BE9
100
AcDbEntity
  8
1
100
AcDbLine
 10
203.7571525574491
 20
223.9076006789191
 30
0.0
 11
203.7571525574491
 21
243.9076006789191
 31
0.0
  0
LINE
  5
37A0
330
3BE9
100
AcDbEntity
  8
1
100
AcDbLine
 10
218.7571525574491
 20
211.269000570091
 30
0.0
 11
218.7571525574491
 21
221.7990935813296
 31
0.0
  0
LINE
  5
37A1
330
3BE9
100
AcDbEntity
  8
1
100
AcDbLine
 10
203.7571525574491
 20
223.9076006789191
 30
0.0
 11
212.7571525574467
 21
208.3191434108032
 31
0.0
  0
LINE
  5
37A2
330
3BE9
100
AcDbEntity
  8
1
100
AcDbLine
 10
203.7571525574491
 20
243.9076006789191
 30
0.0
 11
218.757152557449
 21
243.9076006789191
 31
0.0
  0
LINE
  5
37A3
330
3BE9
100
AcDbEntity
  8
1
100
AcDbLine
 10
218.757152557449
 20
243.9076006789191
 30
0.0
 11
218.7571525574491
 21
221.7990935813296
 31
0.0
  0
LINE
  5
37A4
330
3BE9
100
AcDbEntity
  8
1
100
AcDbLine
 10
216.3371525574491
 20
243.9076006789191
 30
0.0
 11
216.3371525574491
 21
237.907600678919
 31
0.0
  0
LINE
  5
37A5
330
3BE9
100
AcDbEntity
  8
1
100
AcDbLine
 10
213.7971525574491
 20
243.9076006789191
 30
0.0
 11
213.7971525574491
 21
237.907600678919
 31
0.0
  0
LINE
  5
37A6
330
3BE9
100
AcDbEntity
  8
1
100
AcDbLine
 10
211.2571525574491
 20
243.9076006789191
 30
0.0
 11
211.2571525574491
 21
237.907600678919
 31
0.0
  0
LINE
  5
37A7
330
3BE9
100
AcDbEntity
  8
1
100
AcDbLine
 10
208.7171525574491
 20
243.9076006789191
 30
0.0
 11
208.7171525574491
 21
237.907600678919
 31
0.0
  0
LINE
  5
37A8
330
3BE9
100
AcDbEntity
  8
1
100
AcDbLine
 10
206.1771525574491
 20
243.9076006789191
 30
0.0
 11
206.1771525574491
 21
237.907600678919
 31
0.0
  0
LINE
  5
37A9
330
3BE9
100
AcDbEntity
  8
1
100
AcDbLine
 10
158.1571525574446
 20
181.3633352559268
 30
0.0
 11
158.2571525574447
 21
181.3633352559268
 31
0.0
  0
LINE
  5
37AA
330
3BE9
100
AcDbEntity
  8
1
100
AcDbLine
 10
158.1571525574446
 20
171.3633352559268
 30
0.0
 11
158.2571525574447
 21
171.3633352559268
 31
0.0
  0
INSERT
  5
37AB
330
3BE9
100
AcDbEntity
  8
1
100
AcDbBlockReference
  2
*U75
 10
0.0
 20
0.0
 30
0.0
  0
INSERT
  5
37AC
330
3BE9
100
AcDbEntity
  8
1
100
AcDbBlockReference
  2
*U76
 10
0.0
 20
0.0
 30
0.0
  0
INSERT
  5
37AD
330
3BE9
100
AcDbEntity
  8
1
100
AcDbBlockReference
  2
*U77
 10
0.0
 20
0.0
 30
0.0
  0
LINE
  5
37AE
330
3BE9
100
AcDbEntity
  8
1
100
AcDbLine
 10
145.2571525574447
 20
21.1653188636219
 30
0.0
 11
145.2571525574447
 21
19.66531886362188
 31
0.0
  0
LINE
  5
37AF
330
3BE9
100
AcDbEntity
  8
1
100
AcDbLine
 10
145.2571525574447
 20
19.66531886362188
 30
0.0
 11
148.2571525574447
 21
19.66531886362188
 31
0.0
  0
LINE
  5
37B0
330
3BE9
100
AcDbEntity
  8
1
100
AcDbLine
 10
148.2571525574447
 20
19.66531886362188
 30
0.0
 11
148.2571525574447
 21
21.1653188636219
 31
0.0
  0
LINE
  5
37B1
330
3BE9
100
AcDbEntity
  8
1
100
AcDbLine
 10
138.1571525574446
 20
184.3633352559268
 30
0.0
 11
134.2571525574447
 21
184.3633352559268
 31
0.0
  0
LINE
  5
37B2
330
3BE9
100
AcDbEntity
  8
1
100
AcDbLine
 10
138.1571525574446
 20
185.8633352559268
 30
0.0
 11
134.2571525574447
 21
185.8633352559268
 31
0.0
  0
LINE
  5
37B3
330
3BE9
100
AcDbEntity
  8
1
100
AcDbLine
 10
145.2571525574469
 20
85.75474263141208
 30
0.0
 11
148.2571525574447
 21
85.75474263141151
 31
0.0
  0
LINE
  5
37B4
330
3BE9
100
AcDbEntity
  8
1
100
AcDbLine
 10
145.2571525574429
 20
70.3547426314121
 30
0.0
 11
148.2571525574447
 21
70.35474263141302
 31
0.0
  0
LINE
  5
37B5
330
3BE9
100
AcDbEntity
  8
1
100
AcDbLine
 10
101.057152557444
 20
119.4547426314121
 30
0.0
 11
101.057152557444
 21
110.0547426314121
 31
0.0
  0
LINE
  5
37B6
330
3BE9
100
AcDbEntity
  8
1
100
AcDbLine
 10
101.057152557444
 20
107.2547426314121
 30
0.0
 11
101.057152557444
 21
100.2547426314121
 31
0.0
  0
LINE
  5
37B7
330
3BE9
100
AcDbEntity
  8
1
100
AcDbLine
 10
101.057152557444
 20
107.5547426314122
 30
0.0
 11
101.057152557444
 21
99.95474263141193
 31
0.0
  0
LINE
  5
37B8
330
3BE9
100
AcDbEntity
  8
1
100
AcDbLine
 10
101.057152557444
 20
99.75474263141192
 30
0.0
 11
101.557152557444
 21
99.75474263141192
 31
0.0
  0
LINE
  5
37B9
330
3BE9
100
AcDbEntity
  8
1
100
AcDbLine
 10
101.557152557444
 20
107.7547426314122
 30
0.0
 11
101.057152557444
 21
107.7547426314122
 31
0.0
  0
LINE
  5
37BA
330
3BE9
100
AcDbEntity
  8
1
100
AcDbLine
 10
101.057152557444
 20
108.4547426314121
 30
0.0
 11
101.057152557444
 21
99.05474263141208
 31
0.0
  0
LINE
  5
37BB
330
3BE9
100
AcDbEntity
  8
1
100
AcDbLine
 10
101.1571525574443
 20
172.3633352559266
 30
0.0
 11
101.6571525574443
 21
172.3633352559266
 31
0.0
  0
LINE
  5
37BC
330
3BE9
100
AcDbEntity
  8
1
100
AcDbLine
 10
101.6571525574443
 20
180.3633352559269
 30
0.0
 11
101.1571525574443
 21
180.3633352559269
 31
0.0
  0
ARC
  5
37BD
330
3BE9
100
AcDbEntity
  8
1
100
AcDbCircle
 10
104.7455969764891
 20
176.3633352559267
 30
0.0
 40
6.099999999999997
100
AcDbArc
 50
129.6019270811068
 51
230.3980729188931
  0
LINE
  5
37BE
330
3BE9
100
AcDbEntity
  8
1
100
AcDbLine
 10
100.8571525574442
 20
181.0633352559267
 30
0.0
 11
101.1571525574443
 21
181.0633352559267
 31
0.0
  0
LINE
  5
37BF
330
3BE9
100
AcDbEntity
  8
1
100
AcDbLine
 10
101.1571525574443
 20
181.0633352559267
 30
0.0
 11
101.1571525574443
 21
171.6633352559267
 31
0.0
  0
LINE
  5
37C0
330
3BE9
100
AcDbEntity
  8
1
100
AcDbLine
 10
101.1571525574443
 20
171.6633352559267
 30
0.0
 11
100.8571525574442
 21
171.6633352559267
 31
0.0
  0
ARC
  5
37C1
330
3BE9
100
AcDbEntity
  8
1
100
AcDbCircle
 10
104.6455969764887
 20
114.7547426314121
 30
0.0
 40
6.099999999999997
100
AcDbArc
 50
129.6019270811068
 51
230.3980729188931
  0
LINE
  5
37C2
330
3BE9
100
AcDbEntity
  8
1
100
AcDbLine
 10
100.757152557444
 20
119.4547426314121
 30
0.0
 11
101.057152557444
 21
119.4547426314121
 31
0.0
  0
LINE
  5
37C3
330
3BE9
100
AcDbEntity
  8
1
100
AcDbLine
 10
101.057152557444
 20
110.0547426314121
 30
0.0
 11
100.757152557444
 21
110.0547426314121
 31
0.0
  0
ARC
  5
37C4
330
3BE9
100
AcDbEntity
  8
1
100
AcDbCircle
 10
104.6455969764887
 20
103.754742631412
 30
0.0
 40
6.099999999999997
100
AcDbArc
 50
129.6019270811068
 51
230.3980729188931
  0
LINE
  5
37C5
330
3BE9
100
AcDbEntity
  8
1
100
AcDbLine
 10
100.757152557444
 20
108.454742631412
 30
0.0
 11
101.057152557444
 21
108.454742631412
 31
0.0
  0
LINE
  5
37C6
330
3BE9
100
AcDbEntity
  8
1
100
AcDbLine
 10
101.057152557444
 20
99.05474263141208
 30
0.0
 11
100.757152557444
 21
99.05474263141206
 31
0.0
  0
LINE
  5
37C7
330
3BE9
100
AcDbEntity
  8
1
100
AcDbLine
 10
21.54074351213655
 20
120.9547426314128
 30
0.0
 11
21.54074351213655
 21
119.4547426314128
 31
0.0
  0
VIEWPORT
  5
1403
102
{ACAD_XDICTIONARY
360
3CEC
102
}
330
3BE5
100
AcDbEntity
 67
     1
  8
0
100
AcDbViewport
 10
281.467638828499
 20
206.3587180365035
 30
0.0
 40
681.5039671977879
 41
426.489579472164
 68
     1
 69
     1
 12
281.467638828499
 22
206.3587180365035
 13
0.0
 23
0.0
 14
1.0
 24
1.0
 15
10.0
 25
10.0
 16
0.0
 26
0.0
 36
1.0
 17
0.0
 27
0.0
 37
0.0
 42
50.0
 43
0.0
 44
0.0
 45
426.489579472164
 50
0.0
 51
0.0
 72
   100
 90
   557056
  1

281
     0
 71
     0
 74
     0
110
0.0
120
0.0
130
0.0
111
1.0
121
0.0
131
0.0
112
0.0
122
1.0
132
0.0
 79
     0
146
0.0
  0
VIEWPORT
  5
1404
102
{ACAD_XDICTIONARY
360
3CEE
102
}
330
3BE5
100
AcDbEntity
 67
     1
  8
DEFPOINTS
100
AcDbViewport
 10
212.5
 20
144.4999999999998
 30
0.0
 40
385.0
 41
264.9999999999999
 68
     2
 69
     2
 12
5000.0
 22
5000.0
 13
0.0
 23
0.0
 14
168.0
 24
168.0
 15
0.0
 25
0.0
 16
0.0
 26
0.0
 36
1.0
 17
0.0
 27
0.0
 37
0.0
 42
50.0
 43
0.0
 44
0.0
 45
264.9999999999999
 50
0.0
 51
0.0
 72
   100
 90
   561152
  1

281
     0
 71
     0
 74
     0
110
0.0
120
0.0
130
0.0
111
1.0
121
0.0
131
0.0
112
0.0
122
1.0
132
0.0
 79
     0
146
0.0
  0
VIEWPORT
  5
1462
102
{ACAD_XDICTIONARY
360
3CF0
102
}
330
3BE5
100
AcDbEntity
 67
     1
  8
DEFPOINTS
100
AcDbViewport
 10
212.4999999999999
 20
144.4999999999998
 30
0.0
 40
384.9999999999998
 41
265.0
 68
     3
 69
     3
 12
120.6987180836561
 22
92.31834577678851
 13
0.0
 23
0.0
 14
168.0
 24
168.0
 15
0.0
 25
0.0
 16
0.0
 26
0.0
 36
1.0
 17
0.0
 27
0.0
 37
0.0
 42
50.0
 43
0.0
 44
0.0
 45
215.2989965031114
 50
0.0
 51
0.0
 72
   100
 90
   561152
  1

281
     0
 71
     0
 74
     0
110
0.0
120
0.0
130
0.0
111
1.0
121
0.0
131
0.0
112
0.0
122
1.0
132
0.0
 79
     0
146
0.0
  0
ENDSEC
  0
SECTION
  2
OBJECTS
  0
DICTIONARY
  5
3B85
330
0
100
AcDbDictionary
281
     1
  3
ACAD_CIP_PREVIOUS_PRODUCT_INFO
350
3CAA
  3
ACAD_COLOR
350
3BDB
  3
ACAD_DETAILVIEWSTYLE
350
3BE3
  3
ACAD_GROUP
350
3B86
  3
ACAD_LAYOUT
350
3BDA
  3
ACAD_MATERIAL
350
3B89
  3
ACAD_MLEADERSTYLE
350
3BDE
  3
ACAD_MLINESTYLE
350
3BD7
  3
ACAD_PLOTSETTINGS
350
3BD9
  3
ACAD_PLOTSTYLENAME
350
3B87
  3
ACAD_SCALELIST
350
3BBB
  3
ACAD_SECTIONVIEWSTYLE
350
3BE0
  3
ACAD_TABLESTYLE
350
3BDC
  3
ACAD_VISUALSTYLE
350
3BA2
  3
ACDB_RECOMPOSE_DATA
350
3CE2
  3
AcDbVariableDictionary
350
3CD6
  3
AcDsDecomposeData
350
3CE9
  3
DWGPROPS
350
3CE3
  0
DICTIONARY
  5
3CB5
330
3B7B
100
AcDbDictionary
280
     1
281
     1
  3
ACAD_LAYERSTATES
360
3CB6
  0
DICTIONARY
  5
3CD0
330
3BCD
100
AcDbDictionary
280
     1
281
     1
  3
ADSK_XREC_LAYER_RECONCILED
360
3CD1
  0
DICTIONARY
  5
3CD2
330
3BED
100
AcDbDictionary
280
     1
281
     1
  3
ADSK_XREC_LAYER_RECONCILED
360
3CD3
  0
DICTIONARY
  5
3CD4
330
3BF3
100
AcDbDictionary
280
     1
281
     1
  3
ADSK_XREC_LAYER_RECONCILED
360
3CD5
  0
DICTIONARY
  5
3CEC
330
1403
100
AcDbDictionary
280
     1
281
     1
  3
ACAD_XREC_ROUNDTRIP
360
3CED
  0
DICTIONARY
  5
3CEE
330
1404
100
AcDbDictionary
280
     1
281
     1
  3
ACAD_XREC_ROUNDTRIP
360
3CEF
  0
DICTIONARY
  5
3CF0
330
1462
100
AcDbDictionary
280
     1
281
     1
  3
ACAD_XREC_ROUNDTRIP
360
3CF1
  0
XRECORD
  5
3CAA
102
{ACAD_REACTORS
330
3B85
102
}
330
3B85
100
AcDbXrecord
280
     1
300
ACDLT
300
2013
300
INVLTS_F_S
  0
DICTIONARY
  5
3BDB
102
{ACAD_REACTORS
330
3B85
102
}
330
3B85
100
AcDbDictionary
281
     1
  0
DICTIONARY
  5
3BE3
102
{ACAD_REACTORS
330
3B85
102
}
330
3B85
100
AcDbDictionary
281
     1
  3
Imperial24
350
3BE4
  0
DICTIONARY
  5
3B86
102
{ACAD_REACTORS
330
3B85
102
}
330
3B85
100
AcDbDictionary
281
     1
  0
DICTIONARY
  5
3BDA
102
{ACAD_REACTORS
330
3B85
102
}
330
3B85
100
AcDbDictionary
281
     1
  3
Model
350
3BEC
  3
レイアウト1
350
3BE8
  0
DICTIONARY
  5
3B89
102
{ACAD_REACTORS
330
3B85
102
}
330
3B85
100
AcDbDictionary
281
     1
  3
ByBlock
350
3B92
  3
ByLayer
350
3B8A
  3
Global
350
3B9A
  0
DICTIONARY
  5
3BDE
102
{ACAD_REACTORS
330
3B85
102
}
330
3B85
100
AcDbDictionary
281
     1
  3
Standard
350
3BDF
  0
DICTIONARY
  5
3BD7
102
{ACAD_REACTORS
330
3B85
102
}
330
3B85
100
AcDbDictionary
281
     1
  3
Standard
350
3BD8
  0
DICTIONARY
  5
3BD9
102
{ACAD_REACTORS
330
3B85
102
}
330
3B85
100
AcDbDictionary
281
     1
  0
ACDBDICTIONARYWDFLT
  5
3B87
102
{ACAD_REACTORS
330
3B85
102
}
330
3B85
100
AcDbDictionary
281
     1
  3
Normal
350
3B88
100
AcDbDictionaryWithDefault
340
3B88
  0
DICTIONARY
  5
3BBB
102
{ACAD_REACTORS
330
3B85
102
}
330
3B85
100
AcDbDictionary
281
     1
  3
A0
350
3BBC
  3
A1
350
3BBD
  3
A2
350
3BBE
  3
A3
350
3BBF
  3
A4
350
3BC0
  3
A5
350
3BC1
  3
A6
350
3BC2
  3
A7
350
3BC3
  3
A8
350
3BC4
  3
A9
350
3BC5
  3
B0
350
3BC6
  3
B1
350
3BC7
  3
B2
350
3BC8
  3
B3
350
3BC9
  3
B4
350
3BCA
  3
B5
350
3BCB
  3
B6
350
3BCC
  0
DICTIONARY
  5
3BE0
102
{ACAD_REACTORS
330
3B85
102
}
330
3B85
100
AcDbDictionary
281
     1
  3
Imperial24
350
3BE2
  0
DICTIONARY
  5
3BDC
102
{ACAD_REACTORS
330
3B85
102
}
330
3B85
100
AcDbDictionary
281
     1
  3
Standard
350
3BDD
  0
DICTIONARY
  5
3BA2
102
{ACAD_REACTORS
330
3B85
102
}
330
3B85
100
AcDbDictionary
281
     1
  3
2dWireframe
350
3BA8
  3
Basic
350
3BA7
  3
Brighten
350
3BAE
  3
ColorChange
350
3BB2
  3
Conceptual
350
3BAB
  3
Dim
350
3BAD
  3
EdgeColorOff
350
3BBA
  3
Facepattern
350
3BB1
  3
Flat
350
3BA3
  3
FlatWithEdges
350
3BA4
  3
Gouraud
350
3BA5
  3
GouraudWithEdges
350
3BA6
  3
Hidden
350
3BAA
  3
JitterOff
350
3BB8
  3
Linepattern
350
3BB0
  3
OverhangOff
350
3BB9
  3
Realistic
350
3BAC
  3
Shaded
350
3BB7
  3
Shaded with edges
350
3BB6
  3
Shades of Gray
350
3BB3
  3
Sketchy
350
3BB4
  3
Thicken
350
3BAF
  3
Wireframe
350
3BA9
  3
X-Ray
350
3BB5
  0
XRECORD
  5
3CE2
102
{ACAD_REACTORS
330
3B85
102
}
330
3B85
100
AcDbXrecord
280
     1
 90
        1
330
3BDD
  0
DICTIONARY
  5
3CD6
102
{ACAD_REACTORS
330
3B85
102
}
330
3B85
100
AcDbDictionary
281
     1
  3
CANNOSCALE
350
3CDB
  3
CMLEADERSTYLE
350
3CD8
  3
CTABLESTYLE
350
3CD7
  3
CVIEWDETAILSTYLE
350
3CD9
  3
CVIEWSECTIONSTYLE
350
3CDA
  3
DIMASSOC
350
3CDE
  3
INDEXCTL
350
3CDD
  3
SORTENTS
350
3CDC
  3
XCLIPFRAME
350
3CDF
  0
DICTIONARY
  5
3CE9
102
{ACAD_REACTORS
330
3B85
102
}
330
3B85
100
AcDbDictionary
281
     1
  3
AcDsRecords
350
3CEB
  3
AcDsSchemas
350
3CEA
1001
ACAD
1070
     2
  0
XRECORD
  5
3CE3
102
{ACAD_REACTORS
330
3B85
102
}
330
3B85
100
AcDbXrecord
280
     1
  1
DWGPROPS COOKIE
  2

  3

  4

  6

  7

  8
SIKI-1610
  9

300
=
301
=
302
=
303
=
304
=
305
=
306
=
307
=
308
=
309
=
 40
0.5389651388888889
 41
2451430.616412153
 42
2458004.646398148
  1

 90
        0
  0
DICTIONARY
  5
3CB6
102
{ACAD_REACTORS
330
3CB5
102
}
330
3CB5
100
AcDbDictionary
281
     1
  0
XRECORD
  5
3CD1
102
{ACAD_REACTORS
330
3CD0
102
}
330
3CD0
100
AcDbXrecord
280
     1
290
     1
  0
XRECORD
  5
3CD3
102
{ACAD_REACTORS
330
3CD2
102
}
330
3CD2
100
AcDbXrecord
280
     1
290
     1
  0
XRECORD
  5
3CD5
102
{ACAD_REACTORS
330
3CD4
102
}
330
3CD4
100
AcDbXrecord
280
     1
290
     1
  0
XRECORD
  5
3CED
102
{ACAD_REACTORS
330
3CEC
102
}
330
3CEC
100
AcDbXrecord
280
     1
102
SHADEPLOT
 70
     0
  0
XRECORD
  5
3CEF
102
{ACAD_REACTORS
330
3CEE
102
}
330
3CEE
100
AcDbXrecord
280
     1
102
SHADEPLOT
 70
     0
  0
XRECORD
  5
3CF1
102
{ACAD_REACTORS
330
3CF0
102
}
330
3CF0
100
AcDbXrecord
280
     1
102
SHADEPLOT
 70
     0
  0
ACDBDETAILVIEWSTYLE
  5
3BE4
102
{ACAD_REACTORS
330
3BE3
102
}
330
3BE3
100
AcDbModelDocViewStyle
 70
     0
  3
Imperial24
290
     0
100
AcDbDetailViewStyle
 70
     0
 71
     0
 90
        3
 71
     1
340
3BCE
 40
0.24
340
0
 40
0.24
300

 40
0.36
280
     3
 71
     2
340
3BD5
 90
       25
 71
     3
340
3BCE
 40
0.24
 90
        1
 40
0.75
 90
        1
300
%<\AcVar ViewType \f "%tc1">% %<\AcVar ViewDetailId>%\PSCALE %<\AcVar ViewScale \f "%sn">%
 71
     4
340
3BD5
 90
       25
340
3BD5
 90
       25
280
     0
  0
LAYOUT
  5
3BEC
102
{ACAD_XDICTIONARY
360
3D28
102
}
102
{ACAD_REACTORS
330
3BDA
102
}
330
3BDA
100
AcDbPlotSettings
  1

  2
いきなりPDF 7
  4

  6

 40
0.0
 41
0.0
 42
0.0
 43
0.0
 44
0.0
 45
0.0
 46
0.0
 47
0.0
 48
0.0
 49
0.0
140
0.0
141
0.0
142
1.0
143
1.0
 70
  1712
 72
     0
 73
     0
 74
     0
  7

 75
     0
147
1.0
148
0.0
149
0.0
100
AcDbLayout
  1
Model
 70
     1
 71
     0
 10
0.0
 20
0.0
 11
12.0
 21
9.0
 12
0.0
 22
0.0
 32
0.0
 14
0.0
 24
0.0
 34
0.0
 15
0.0
 25
0.0
 35
0.0
146
0.0
 13
0.0
 23
0.0
 33
0.0
 16
1.0
 26
0.0
 36
0.0
 17
0.0
 27
1.0
 37
0.0
 76
     0
330
3BE9
331
3BEF
  0
LAYOUT
  5
3BE8
102
{ACAD_XDICTIONARY
360
3D26
102
}
102
{ACAD_REACTORS
330
3BDA
102
}
330
3BDA
100
AcDbPlotSettings
  1

  2
いきなりPDF 7
  4
A4
  6

 40
3.174999952316284
 41
3.174999952316284
 42
3.175003051757812
 43
3.17498779296875
 44
210.0156707763672
 45
297.0106506347656
 46
0.0
 47
0.0
 48
0.0
 49
0.0
140
0.0
141
0.0
142
1.0
143
33.64625544542882
 70
   688
 72
     0
 73
     1
 74
     1
  7

 75
     0
147
0.0297209893571042
148
-507.9895810131574
149
-304.5238159410563
100
AcDbLayout
  1
レイアウト1
 70
     1
 71
     1
 10
15.79382404310286
 20
7.783344744338517
 11
409.2306831482342
 21
285.9818056295641
 12
0.0
 22
0.0
 32
0.0
 14
20.0
 24
11.9999999999998
 34
0.0
 15
405.0
 25
276.9999999999998
 35
0.0
146
0.0
 13
0.0
 23
0.0
 33
0.0
 16
1.0
 26
0.0
 36
0.0
 17
0.0
 27
1.0
 37
0.0
 76
     0
330
3BE5
331
1403
1001
ACAD_PSEXT
1000
いきなりPDF 7
1000
いきなりPDF 7
1000
SN PDF4 Port
1000

1070
     0
  0
MATERIAL
  5
3B92
102
{ACAD_XDICTIONARY
360
3B93
102
}
102
{ACAD_REACTORS
330
3B89
102
}
330
3B89
100
AcDbMaterial
  1
ByBlock
 72
     0
 43
0.0208333333333333
 43
0.0
 43
0.0
 43
0.0
 43
0.0
 43
0.0208333333333333
 43
0.0
 43
0.0
 43
0.0
 43
0.0
 43
1.0
 43
0.0
 43
0.0
 43
0.0
 43
0.0
 43
1.0
 77
     0
 47
0.0208333333333333
 47
0.0
 47
0.0
 47
0.0
 47
0.0
 47
0.0208333333333333
 47
0.0
 47
0.0
 47
0.0
 47
0.0
 47
1.0
 47
0.0
 47
0.0
 47
0.0
 47
0.0
 47
1.0
171
     0
 49
0.0208333333333333
 49
0.0
 49
0.0
 49
0.0
 49
0.0
 49
0.0208333333333333
 49
0.0
 49
0.0
 49
0.0
 49
0.0
 49
1.0
 49
0.0
 49
0.0
 49
0.0
 49
0.0
 49
1.0
175
     0
142
0.0208333333333333
142
0.0
142
0.0
142
0.0
142
0.0
142
0.0208333333333333
142
0.0
142
0.0
142
0.0
142
0.0
142
1.0
142
0.0
142
0.0
142
0.0
142
0.0
142
1.0
179
     0
144
0.0208333333333333
144
0.0
144
0.0
144
0.0
144
0.0
144
0.0208333333333333
144
0.0
144
0.0
144
0.0
144
0.0
144
1.0
144
0.0
144
0.0
144
0.0
144
0.0
144
1.0
147
0.0208333333333333
147
0.0
147
0.0
147
0.0
147
0.0
147
0.0208333333333333
147
0.0
147
0.0
147
0.0
147
0.0
147
1.0
147
0.0
147
0.0
147
0.0
147
0.0
147
1.0
  0
MATERIAL
  5
3B8A
102
{ACAD_XDICTIONARY
360
3B8B
102
}
102
{ACAD_REACTORS
330
3B89
102
}
330
3B89
100
AcDbMaterial
  1
ByLayer
 72
     0
 43
0.0208333333333333
 43
0.0
 43
0.0
 43
0.0
 43
0.0
 43
0.0208333333333333
 43
0.0
 43
0.0
 43
0.0
 43
0.0
 43
1.0
 43
0.0
 43
0.0
 43
0.0
 43
0.0
 43
1.0
 77
     0
 47
0.0208333333333333
 47
0.0
 47
0.0
 47
0.0
 47
0.0
 47
0.0208333333333333
 47
0.0
 47
0.0
 47
0.0
 47
0.0
 47
1.0
 47
0.0
 47
0.0
 47
0.0
 47
0.0
 47
1.0
171
     0
 49
0.0208333333333333
 49
0.0
 49
0.0
 49
0.0
 49
0.0
 49
0.0208333333333333
 49
0.0
 49
0.0
 49
0.0
 49
0.0
 49
1.0
 49
0.0
 49
0.0
 49
0.0
 49
0.0
 49
1.0
175
     0
142
0.0208333333333333
142
0.0
142
0.0
142
0.0
142
0.0
142
0.0208333333333333
142
0.0
142
0.0
142
0.0
142
0.0
142
1.0
142
0.0
142
0.0
142
0.0
142
0.0
142
1.0
179
     0
144
0.0208333333333333
144
0.0
144
0.0
144
0.0
144
0.0
144
0.0208333333333333
144
0.0
144
0.0
144
0.0
144
0.0
144
1.0
144
0.0
144
0.0
144
0.0
144
0.0
144
1.0
147
0.0208333333333333
147
0.0
147
0.0
147
0.0
147
0.0
147
0.0208333333333333
147
0.0
147
0.0
147
0.0
147
0.0
147
1.0
147
0.0
147
0.0
147
0.0
147
0.0
147
1.0
  0
MATERIAL
  5
3B9A
102
{ACAD_XDICTIONARY
360
3B9B
102
}
102
{ACAD_REACTORS
330
3B89
102
}
330
3B89
100
AcDbMaterial
  1
Global
 72
     0
 43
0.0208333333333333
 43
0.0
 43
0.0
 43
0.0
 43
0.0
 43
0.0208333333333333
 43
0.0
 43
0.0
 43
0.0
 43
0.0
 43
1.0
 43
0.0
 43
0.0
 43
0.0
 43
0.0
 43
1.0
 77
     0
 47
0.0208333333333333
 47
0.0
 47
0.0
 47
0.0
 47
0.0
 47
0.0208333333333333
 47
0.0
 47
0.0
 47
0.0
 47
0.0
 47
1.0
 47
0.0
 47
0.0
 47
0.0
 47
0.0
 47
1.0
171
     0
 49
0.0208333333333333
 49
0.0
 49
0.0
 49
0.0
 49
0.0
 49
0.0208333333333333
 49
0.0
 49
0.0
 49
0.0
 49
0.0
 49
1.0
 49
0.0
 49
0.0
 49
0.0
 49
0.0
 49
1.0
175
     0
142
0.0208333333333333
142
0.0
142
0.0
142
0.0
142
0.0
142
0.0208333333333333
142
0.0
142
0.0
142
0.0
142
0.0
142
1.0
142
0.0
142
0.0
142
0.0
142
0.0
142
1.0
179
     0
144
0.0208333333333333
144
0.0
144
0.0
144
0.0
144
0.0
144
0.0208333333333333
144
0.0
144
0.0
144
0.0
144
0.0
144
1.0
144
0.0
144
0.0
144
0.0
144
0.0
144
1.0
147
0.0208333333333333
147
0.0
147
0.0
147
0.0
147
0.0
147
0.0208333333333333
147
0.0
147
0.0
147
0.0
147
0.0
147
1.0
147
0.0
147
0.0
147
0.0
147
0.0
147
1.0
  0
MLEADERSTYLE
  5
3BDF
102
{ACAD_REACTORS
330
3BDE
102
}
330
3BDE
100
AcDbMLeaderStyle
170
     2
171
     1
172
     0
 90
        2
 40
0.0
 41
0.0
173
     1
 91
-1056964608
340
3BD3
 92
       -2
290
     1
 42
0.09
291
     1
 43
0.36
  3
Standard
 44
0.18
300

342
3BCE
174
     1
178
     6
175
     1
176
     0
 93
-1056964608
 45
0.18
292
     0
297
     0
 46
0.18
 94
-1056964608
 47
1.0
 49
1.0
140
1.0
293
     1
141
0.0
294
     1
177
     0
142
1.0
295
     0
296
     0
143
0.125
1001
ACAD_MLEADERVER
1070
     2
  0
MLINESTYLE
  5
3BD8
102
{ACAD_REACTORS
330
3BD7
102
}
330
3BD7
100
AcDbMlineStyle
  2
STANDARD
 70
     0
  3

 62
   256
 51
90.0
 52
90.0
 71
     2
 49
0.5
 62
   256
  6
BYLAYER
 49
-0.5
 62
   256
  6
BYLAYER
  0
ACDBPLACEHOLDER
  5
3B88
102
{ACAD_REACTORS
330
3B87
102
}
330
3B87
  0
SCALE
  5
3BBC
102
{ACAD_REACTORS
330
3BBB
102
}
330
3BBB
100
AcDbScale
 70
     0
300
1:1
140
1.0
141
1.0
290
     1
  0
SCALE
  5
3BBD
102
{ACAD_REACTORS
330
3BBB
102
}
330
3BBB
100
AcDbScale
 70
     0
300
1/128" = 1'-0"
140
0.0078125
141
12.0
290
     0
  0
SCALE
  5
3BBE
102
{ACAD_REACTORS
330
3BBB
102
}
330
3BBB
100
AcDbScale
 70
     0
300
1/64" = 1'-0"
140
0.015625
141
12.0
290
     0
  0
SCALE
  5
3BBF
102
{ACAD_REACTORS
330
3BBB
102
}
330
3BBB
100
AcDbScale
 70
     0
300
1/32" = 1'-0"
140
0.03125
141
12.0
290
     0
  0
SCALE
  5
3BC0
102
{ACAD_REACTORS
330
3BBB
102
}
330
3BBB
100
AcDbScale
 70
     0
300
1/16" = 1'-0"
140
0.0625
141
12.0
290
     0
  0
SCALE
  5
3BC1
102
{ACAD_REACTORS
330
3BBB
102
}
330
3BBB
100
AcDbScale
 70
     0
300
3/32" = 1'-0"
140
0.09375
141
12.0
290
     0
  0
SCALE
  5
3BC2
102
{ACAD_REACTORS
330
3BBB
102
}
330
3BBB
100
AcDbScale
 70
     0
300
1/8" = 1'-0"
140
0.125
141
12.0
290
     0
  0
SCALE
  5
3BC3
102
{ACAD_REACTORS
330
3BBB
102
}
330
3BBB
100
AcDbScale
 70
     0
300
3/16" = 1'-0"
140
0.1875
141
12.0
290
     0
  0
SCALE
  5
3BC4
102
{ACAD_REACTORS
330
3BBB
102
}
330
3BBB
100
AcDbScale
 70
     0
300
1/4" = 1'-0"
140
0.25
141
12.0
290
     0
  0
SCALE
  5
3BC5
102
{ACAD_REACTORS
330
3BBB
102
}
330
3BBB
100
AcDbScale
 70
     0
300
3/8" = 1'-0"
140
0.375
141
12.0
290
     0
  0
SCALE
  5
3BC6
102
{ACAD_REACTORS
330
3BBB
102
}
330
3BBB
100
AcDbScale
 70
     0
300
1/2" = 1'-0"
140
0.5
141
12.0
290
     0
  0
SCALE
  5
3BC7
102
{ACAD_REACTORS
330
3BBB
102
}
330
3BBB
100
AcDbScale
 70
     0
300
3/4" = 1'-0"
140
0.75
141
12.0
290
     0
  0
SCALE
  5
3BC8
102
{ACAD_REACTORS
330
3BBB
102
}
330
3BBB
100
AcDbScale
 70
     0
300
1" = 1'-0"
140
1.0
141
12.0
290
     0
  0
SCALE
  5
3BC9
102
{ACAD_REACTORS
330
3BBB
102
}
330
3BBB
100
AcDbScale
 70
     0
300
1-1/2" = 1'-0"
140
1.5
141
12.0
290
     0
  0
SCALE
  5
3BCA
102
{ACAD_REACTORS
330
3BBB
102
}
330
3BBB
100
AcDbScale
 70
     0
300
3" = 1'-0"
140
3.0
141
12.0
290
     0
  0
SCALE
  5
3BCB
102
{ACAD_REACTORS
330
3BBB
102
}
330
3BBB
100
AcDbScale
 70
     0
300
6" = 1'-0"
140
6.0
141
12.0
290
     0
  0
SCALE
  5
3BCC
102
{ACAD_REACTORS
330
3BBB
102
}
330
3BBB
100
AcDbScale
 70
     0
300
1'-0" = 1'-0"
140
12.0
141
12.0
290
     0
  0
ACDBSECTIONVIEWSTYLE
  5
3BE2
102
{ACAD_REACTORS
330
3BE0
102
}
330
3BE0
100
AcDbModelDocViewStyle
 70
     0
  3
Imperial24
290
     0
100
AcDbSectionViewStyle
 70
     0
 71
     0
 90
       78
 71
     1
340
3BCE
 40
0.24
340
0
340
0
 40
0.24
300
I, O, Q, S, X, Z
 40
0.48
 90
        3
 40
0.18
 90
        1
 71
     2
340
3BE1
 90
       25
340
3BD5
 90
       50
 40
0.24
 40
0.0
 40
0.24
 71
     3
340
3BCE
 40
0.24
 90
        1
 40
0.75
 90
        1
300
%<\AcVar ViewType \f "%tc1">% %<\AcVar ViewSectionStartId>%-%<\AcVar ViewSectionEndId>%\PSCALE %<\AcVar ViewScale \f "%sn">%
 71
     4
300
ANSI31
 40
1.0
 90
        0
290
     0
290
     0
 90
        6
 40
0.0
 40
1.570796326794896
 40
0.2617993877991494
 40
1.308996938995747
 40
-0.2617993877991494
 40
1.832595714594046
  0
TABLESTYLE
  5
3BDD
102
{ACAD_XDICTIONARY
360
3CE0
102
}
102
{ACAD_REACTORS
330
3BDC
102
}
330
3BDC
100
AcDbTableStyle
  3
Standard
 70
     0
 71
     0
 40
0.06
 41
0.06
280
     0
281
     0
  7
STANDARD
140
0.18
170
     2
 62
     0
 63
     7
283
     0
274
    -2
284
     1
 64
     0
275
    -2
285
     1
 65
     0
276
    -2
286
     1
 66
     0
277
    -2
287
     1
 67
     0
278
    -2
288
     1
 68
     0
279
    -2
289
     1
 69
     0
  7
STANDARD
140
0.25
170
     5
 62
     0
 63
     7
283
     0
274
    -2
284
     1
 64
     0
275
    -2
285
     1
 65
     0
276
    -2
286
     1
 66
     0
277
    -2
287
     1
 67
     0
278
    -2
288
     1
 68
     0
279
    -2
289
     1
 69
     0
  7
STANDARD
140
0.18
170
     5
 62
     0
 63
     7
283
     0
274
    -2
284
     1
 64
     0
275
    -2
285
     1
 65
     0
276
    -2
286
     1
 66
     0
277
    -2
287
     1
 67
     0
278
    -2
288
     1
 68
     0
279
    -2
289
     1
 69
     0
  0
VISUALSTYLE
  5
3BA8
102
{ACAD_XDICTIONARY
360
3CFF
102
}
102
{ACAD_REACTORS
330
3BA2
102
}
330
3BA2
100
AcDbVisualStyle
  2
2dWireframe
 70
     4
 71
     0
 72
     2
 73
     0
 90
        0
 40
-0.6
 41
-30.0
 62
     5
 63
     7
 74
     1
 91
        4
 64
     7
 65
   257
 75
     1
175
     1
 42
1.0
 92
        0
 66
   257
 43
1.0
 76
     1
 77
     6
 78
     2
 67
     7
 79
     5
170
     0
171
     0
290
     0
174
     0
 93
        1
 44
0.0
173
     0
291
     0
 45
0.0
1001
ACAD
1000
AcDbSavedByObjectVersion
1070
     0
  0
VISUALSTYLE
  5
3BA7
102
{ACAD_XDICTIONARY
360
3CFD
102
}
102
{ACAD_REACTORS
330
3BA2
102
}
330
3BA2
100
AcDbVisualStyle
  2
Basic
 70
     7
 71
     1
 72
     0
 73
     1
 90
        0
 40
-0.6
 41
-30.0
 62
     5
 63
     7
 74
     0
 91
        4
 64
     7
 65
   257
 75
     1
175
     1
 42
1.0
 92
        8
 66
     7
 43
1.0
 76
     1
 77
     6
 78
     2
 67
     7
 79
     5
170
     0
171
     0
290
     0
174
     0
 93
        1
 44
0.0
173
     0
291
     1
 45
0.0
1001
ACAD
1000
AcDbSavedByObjectVersion
1070
     0
  0
VISUALSTYLE
  5
3BAE
102
{ACAD_XDICTIONARY
360
3D0B
102
}
102
{ACAD_REACTORS
330
3BA2
102
}
330
3BA2
100
AcDbVisualStyle
  2
Brighten
 70
    12
 71
     2
 72
     2
 73
     0
 90
        0
 40
-0.6
 41
-30.0
 62
     5
 63
     7
 74
     1
 91
        4
 64
     7
 65
   257
 75
     1
175
     1
 42
1.0
 92
        8
 66
     7
 43
1.0
 76
     1
 77
     6
 78
     2
 67
     7
 79
     5
170
     0
171
     0
290
     0
174
     0
 93
        1
 44
50.0
173
     0
291
     1
 45
0.0
1001
ACAD
1000
AcDbSavedByObjectVersion
1070
     0
  0
VISUALSTYLE
  5
3BB2
102
{ACAD_XDICTIONARY
360
3D13
102
}
102
{ACAD_REACTORS
330
3BA2
102
}
330
3BA2
100
AcDbVisualStyle
  2
ColorChange
 70
    16
 71
     2
 72
     2
 73
     3
 90
        0
 40
-0.6
 41
-30.0
 62
     5
 63
     8
 74
     1
 91
        4
 64
     7
 65
   257
 75
     1
175
     1
 42
1.0
 92
        8
 66
     8
 43
1.0
 76
     1
 77
     6
 78
     2
 67
     7
 79
     5
170
     0
171
     0
290
     0
174
     0
 93
        1
 44
0.0
173
     0
291
     1
 45
0.0
1001
ACAD
1000
AcDbSavedByObjectVersion
1070
     0
  0
VISUALSTYLE
  5
3BAB
102
{ACAD_XDICTIONARY
360
3D05
102
}
102
{ACAD_REACTORS
330
3BA2
102
}
330
3BA2
100
AcDbVisualStyle
  2
Conceptual
 70
     9
 71
     3
 72
     2
 73
     0
 90
        0
 40
-0.6
 41
-30.0
 62
     5
 63
     7
 74
     2
 91
        2
 64
     7
 65
   257
 75
     1
175
     1
 42
179.0
 92
        8
 66
     7
 43
1.0
 76
     1
 77
     6
 78
     2
 67
     7
 79
     3
170
     0
171
     0
290
     0
174
     0
 93
        1
 44
0.0
173
     0
291
     0
 45
0.0
1001
ACAD
1000
AcDbSavedByObjectVersion
1070
     0
  0
VISUALSTYLE
  5
3BAD
102
{ACAD_XDICTIONARY
360
3D09
102
}
102
{ACAD_REACTORS
330
3BA2
102
}
330
3BA2
100
AcDbVisualStyle
  2
Dim
 70
    11
 71
     2
 72
     2
 73
     0
 90
        0
 40
-0.6
 41
-30.0
 62
     5
 63
     7
 74
     1
 91
        4
 64
     7
 65
   257
 75
     1
175
     1
 42
1.0
 92
        8
 66
     7
 43
1.0
 76
     1
 77
     6
 78
     2
 67
     7
 79
     5
170
     0
171
     0
290
     0
174
     0
 93
        1
 44
-50.0
173
     0
291
     1
 45
0.0
1001
ACAD
1000
AcDbSavedByObjectVersion
1070
     0
  0
VISUALSTYLE
  5
3BBA
102
{ACAD_XDICTIONARY
360
3D23
102
}
102
{ACAD_REACTORS
330
3BA2
102
}
330
3BA2
100
AcDbVisualStyle
  2
EdgeColorOff
 70
    22
 71
     2
 72
     2
 73
     0
 90
        0
 40
-0.6
 41
-30.0
 62
     5
 63
     7
 74
     1
 91
        4
 64
     7
 65
   257
 75
     1
175
     1
 42
1.0
 92
        8
 66
     7
 43
1.0
 76
     1
 77
     6
 78
     2
 67
     7
 79
     5
170
     0
171
     0
290
     0
174
     0
 93
        1
 44
0.0
173
     0
291
     1
 45
0.0
1001
ACAD
1000
AcDbSavedByObjectVersion
1070
     0
  0
VISUALSTYLE
  5
3BB1
102
{ACAD_XDICTIONARY
360
3D11
102
}
102
{ACAD_REACTORS
330
3BA2
102
}
330
3BA2
100
AcDbVisualStyle
  2
Facepattern
 70
    15
 71
     2
 72
     2
 73
     0
 90
        0
 40
-0.6
 41
-30.0
 62
     5
 63
     7
 74
     1
 91
        4
 64
     7
 65
   257
 75
     1
175
     1
 42
1.0
 92
        8
 66
     7
 43
1.0
 76
     1
 77
     6
 78
     2
 67
     7
 79
     5
170
     0
171
     0
290
     0
174
     0
 93
        1
 44
0.0
173
     0
291
     1
 45
0.0
1001
ACAD
1000
AcDbSavedByObjectVersion
1070
     0
  0
VISUALSTYLE
  5
3BA3
102
{ACAD_XDICTIONARY
360
3CF5
102
}
102
{ACAD_REACTORS
330
3BA2
102
}
330
3BA2
100
AcDbVisualStyle
  2
Flat
 70
     0
 71
     2
 72
     1
 73
     1
 90
        2
 40
-0.6
 41
30.0
 62
     5
 63
     7
 74
     0
 91
        0
 64
     7
 65
   257
 75
     1
175
     1
 42
1.0
 92
        8
 66
     7
 43
1.0
 76
     1
 77
     6
 78
     2
 67
     7
 79
     5
170
     0
171
     0
290
     0
174
     0
 93
       13
 44
0.0
173
     0
291
     1
 45
0.0
1001
ACAD
1000
AcDbSavedByObjectVersion
1070
     0
  0
VISUALSTYLE
  5
3BA4
102
{ACAD_XDICTIONARY
360
3CF7
102
}
102
{ACAD_REACTORS
330
3BA2
102
}
330
3BA2
100
AcDbVisualStyle
  2
FlatWithEdges
 70
     1
 71
     2
 72
     1
 73
     1
 90
        2
 40
-0.6
 41
30.0
 62
     5
 63
     7
 74
     1
 91
        0
 64
     7
 65
   257
 75
     1
175
     1
 42
1.0
 92
        0
 66
   257
 43
1.0
 76
     1
 77
     6
 78
     2
 67
     7
 79
     5
170
     0
171
     0
290
     0
174
     0
 93
       13
 44
0.0
173
     0
291
     1
 45
0.0
1001
ACAD
1000
AcDbSavedByObjectVersion
1070
     0
  0
VISUALSTYLE
  5
3BA5
102
{ACAD_XDICTIONARY
360
3CF9
102
}
102
{ACAD_REACTORS
330
3BA2
102
}
330
3BA2
100
AcDbVisualStyle
  2
Gouraud
 70
     2
 71
     2
 72
     2
 73
     1
 90
        2
 40
-0.6
 41
30.0
 62
     5
 63
     7
 74
     0
 91
        0
 64
     7
 65
   257
 75
     1
175
     1
 42
1.0
 92
        0
 66
     7
 43
1.0
 76
     1
 77
     6
 78
     2
 67
     7
 79
     5
170
     0
171
     0
290
     0
174
     0
 93
       13
 44
0.0
173
     0
291
     1
 45
0.0
1001
ACAD
1000
AcDbSavedByObjectVersion
1070
     0
  0
VISUALSTYLE
  5
3BA6
102
{ACAD_XDICTIONARY
360
3CFB
102
}
102
{ACAD_REACTORS
330
3BA2
102
}
330
3BA2
100
AcDbVisualStyle
  2
GouraudWithEdges
 70
     3
 71
     2
 72
     2
 73
     1
 90
        2
 40
-0.6
 41
30.0
 62
     5
 63
     7
 74
     1
 91
        0
 64
     7
 65
   257
 75
     1
175
     1
 42
1.0
 92
        0
 66
   257
 43
1.0
 76
     1
 77
     6
 78
     2
 67
     7
 79
     5
170
     0
171
     0
290
     0
174
     0
 93
       13
 44
0.0
173
     0
291
     1
 45
0.0
1001
ACAD
1000
AcDbSavedByObjectVersion
1070
     0
  0
VISUALSTYLE
  5
3BAA
102
{ACAD_XDICTIONARY
360
3D03
102
}
102
{ACAD_REACTORS
330
3BA2
102
}
330
3BA2
100
AcDbVisualStyle
  2
Hidden
 70
     6
 71
     1
 72
     2
 73
     2
 90
        0
 40
-0.6
 41
-30.0
 62
     5
 63
     7
 74
     2
 91
        2
 64
     7
 65
   257
 75
     2
175
     1
 42
40.0
 92
        0
 66
   257
 43
1.0
 76
     1
 77
     6
 78
     2
 67
     7
 79
     3
170
     0
171
     0
290
     0
174
     0
 93
        1
 44
0.0
173
     0
291
     0
 45
0.0
1001
ACAD
1000
AcDbSavedByObjectVersion
1070
     0
  0
VISUALSTYLE
  5
3BB8
102
{ACAD_XDICTIONARY
360
3D1F
102
}
102
{ACAD_REACTORS
330
3BA2
102
}
330
3BA2
100
AcDbVisualStyle
  2
JitterOff
 70
    20
 71
     2
 72
     2
 73
     0
 90
        0
 40
-0.6
 41
-30.0
 62
     5
 63
     7
 74
     1
 91
        4
 64
     7
 65
   257
 75
     1
175
     1
 42
1.0
 92
       10
 66
     7
 43
1.0
 76
     1
 77
     6
 78
     2
 67
     7
 79
     5
170
     0
171
     0
290
     0
174
     0
 93
        1
 44
0.0
173
     0
291
     1
 45
0.0
1001
ACAD
1000
AcDbSavedByObjectVersion
1070
     0
  0
VISUALSTYLE
  5
3BB0
102
{ACAD_XDICTIONARY
360
3D0F
102
}
102
{ACAD_REACTORS
330
3BA2
102
}
330
3BA2
100
AcDbVisualStyle
  2
Linepattern
 70
    14
 71
     2
 72
     2
 73
     0
 90
        0
 40
-0.6
 41
-30.0
 62
     5
 63
     7
 74
     1
 91
        4
 64
     7
 65
   257
 75
     7
175
     7
 42
1.0
 92
        8
 66
     7
 43
1.0
 76
     1
 77
     6
 78
     2
 67
     7
 79
     5
170
     0
171
     0
290
     0
174
     0
 93
        1
 44
0.0
173
     0
291
     1
 45
0.0
1001
ACAD
1000
AcDbSavedByObjectVersion
1070
     0
  0
VISUALSTYLE
  5
3BB9
102
{ACAD_XDICTIONARY
360
3D21
102
}
102
{ACAD_REACTORS
330
3BA2
102
}
330
3BA2
100
AcDbVisualStyle
  2
OverhangOff
 70
    21
 71
     2
 72
     2
 73
     0
 90
        0
 40
-0.6
 41
-30.0
 62
     5
 63
     7
 74
     1
 91
        4
 64
     7
 65
   257
 75
     1
175
     1
 42
1.0
 92
        9
 66
     7
 43
1.0
 76
     1
 77
     6
 78
     2
 67
     7
 79
     5
170
     0
171
     0
290
     0
174
     0
 93
        1
 44
0.0
173
     0
291
     1
 45
0.0
1001
ACAD
1000
AcDbSavedByObjectVersion
1070
     0
  0
VISUALSTYLE
  5
3BAC
102
{ACAD_XDICTIONARY
360
3D07
102
}
102
{ACAD_REACTORS
330
3BA2
102
}
330
3BA2
100
AcDbVisualStyle
  2
Realistic
 70
     8
 71
     2
 72
     3
 73
     0
 90
        2
 40
-0.6
 41
30.0
 62
     5
 63
     7
 74
     0
 91
        0
 64
     7
 65
   257
 75
     1
175
     1
 42
1.0
 92
        8
 66
   257
 43
1.0
 76
     1
 77
     6
 78
     2
 67
     7
 79
     3
170
     0
171
     0
290
     0
174
     0
 93
       13
 44
0.0
173
     0
291
     0
 45
0.0
1001
ACAD
1000
AcDbSavedByObjectVersion
1070
     0
  0
VISUALSTYLE
  5
3BB7
102
{ACAD_XDICTIONARY
360
3D1D
102
}
102
{ACAD_REACTORS
330
3BA2
102
}
330
3BA2
100
AcDbVisualStyle
  2
Shaded
 70
    27
 71
     2
 72
     2
 73
     1
 90
        2
 40
-0.6
 41
30.0
 62
     5
 63
     7
 74
     0
 91
        4
 64
     7
 65
   257
 75
     1
175
     1
 42
1.0
 92
        8
 66
   257
 43
1.0
 76
     1
 77
     6
 78
     2
 67
     8
 79
     3
170
     0
171
     0
290
     0
174
     0
 93
        5
 44
0.0
173
     0
291
     0
 45
0.0
1001
ACAD
1000
AcDbSavedByObjectVersion
1070
     0
  0
VISUALSTYLE
  5
3BB6
102
{ACAD_XDICTIONARY
360
3D1B
102
}
102
{ACAD_REACTORS
330
3BA2
102
}
330
3BA2
100
AcDbVisualStyle
  2
Shaded with edges
 70
    26
 71
     2
 72
     2
 73
     1
 90
        2
 40
-0.6
 41
30.0
 62
     5
 63
     7
 74
     1
 91
       10
 64
     7
 65
   257
 75
     2
175
     1
 42
1.0
 92
        8
 66
   257
 43
1.0
 76
     1
 77
     6
 78
     2
 67
     7
 79
     3
170
     0
171
     0
290
     0
174
     0
 93
        5
 44
0.0
173
     0
291
     0
 45
0.0
1001
ACAD
1000
AcDbSavedByObjectVersion
1070
     0
  0
VISUALSTYLE
  5
3BB3
102
{ACAD_XDICTIONARY
360
3D15
102
}
102
{ACAD_REACTORS
330
3BA2
102
}
330
3BA2
100
AcDbVisualStyle
  2
Shades of Gray
 70
    23
 71
     2
 72
     2
 73
     3
 90
        0
 40
-0.6
 41
-30.0
 62
     5
 63
     7
 74
     2
 91
        2
 64
     7
 65
     7
 75
     1
175
     1
 42
40.0
 92
        8
 66
     7
 43
1.0
 76
     1
 77
     6
 78
     2
 67
     7
 79
     3
170
     0
171
     0
290
     0
174
     0
 93
        1
 44
0.0
173
     0
291
     0
 45
0.0
1001
ACAD
1000
AcDbSavedByObjectVersion
1070
     0
  0
VISUALSTYLE
  5
3BB4
102
{ACAD_XDICTIONARY
360
3D17
102
}
102
{ACAD_REACTORS
330
3BA2
102
}
330
3BA2
100
AcDbVisualStyle
  2
Sketchy
 70
    24
 71
     1
 72
     2
 73
     2
 90
        0
 40
-0.6
 41
-30.0
 62
     5
 63
     7
 74
     2
 91
        2
 64
     7
 65
     7
 75
     1
175
     1
 42
40.0
 92
       11
 66
     7
 43
1.0
 76
     1
 77
     6
 78
     2
 67
     7
 79
     6
170
     0
171
     0
290
     0
174
     0
 93
        1
 44
0.0
173
     0
291
     0
 45
0.0
1001
ACAD
1000
AcDbSavedByObjectVersion
1070
     0
  0
VISUALSTYLE
  5
3BAF
102
{ACAD_XDICTIONARY
360
3D0D
102
}
102
{ACAD_REACTORS
330
3BA2
102
}
330
3BA2
100
AcDbVisualStyle
  2
Thicken
 70
    13
 71
     2
 72
     2
 73
     0
 90
        0
 40
-0.6
 41
-30.0
 62
     5
 63
     7
 74
     1
 91
        4
 64
     7
 65
   257
 75
     1
175
     1
 42
1.0
 92
       12
 66
     7
 43
1.0
 76
     1
 77
     6
 78
     2
 67
     7
 79
     5
170
     0
171
     0
290
     0
174
     0
 93
        1
 44
0.0
173
     0
291
     1
 45
0.0
1001
ACAD
1000
AcDbSavedByObjectVersion
1070
     0
  0
VISUALSTYLE
  5
3BA9
102
{ACAD_XDICTIONARY
360
3D01
102
}
102
{ACAD_REACTORS
330
3BA2
102
}
330
3BA2
100
AcDbVisualStyle
  2
Wireframe
 70
     5
 71
     0
 72
     2
 73
     0
 90
        0
 40
-0.6
 41
-30.0
 62
     5
 63
     7
 74
     1
 91
        4
 64
     7
 65
   257
 75
     1
175
     1
 42
1.0
 92
        0
 66
   257
 43
1.0
 76
     1
 77
     6
 78
     2
 67
     7
 79
     3
170
     0
171
     0
290
     0
174
     0
 93
        1
 44
0.0
173
     0
291
     0
 45
0.0
1001
ACAD
1000
AcDbSavedByObjectVersion
1070
     0
  0
VISUALSTYLE
  5
3BB5
102
{ACAD_XDICTIONARY
360
3D19
102
}
102
{ACAD_REACTORS
330
3BA2
102
}
330
3BA2
100
AcDbVisualStyle
  2
X-Ray
 70
    25
 71
     2
 72
     2
 73
     1
 90
        1
 40
0.5
 41
-30.0
 62
     5
 63
     7
 74
     1
 91
        0
 64
     7
 65
   257
 75
     1
175
     1
 42
1.0
 92
        8
 66
     7
 43
1.0
 76
     1
 77
     6
 78
     2
 67
     7
 79
     3
170
     0
171
     0
290
     0
174
     0
 93
       13
 44
0.0
173
     0
291
     0
 45
0.0
1001
ACAD
1000
AcDbSavedByObjectVersion
1070
     0
  0
DICTIONARYVAR
  5
3CDB
102
{ACAD_REACTORS
330
3CD6
102
}
330
3CD6
100
DictionaryVariables
280
     0
  1
1:1
  0
DICTIONARYVAR
  5
3CD8
102
{ACAD_REACTORS
330
3CD6
102
}
330
3CD6
100
DictionaryVariables
280
     0
  1
STANDARD
  0
DICTIONARYVAR
  5
3CD7
102
{ACAD_REACTORS
330
3CD6
102
}
330
3CD6
100
DictionaryVariables
280
     0
  1
STANDARD
  0
DICTIONARYVAR
  5
3CD9
102
{ACAD_REACTORS
330
3CD6
102
}
330
3CD6
100
DictionaryVariables
280
     0
  1
Imperial24
  0
DICTIONARYVAR
  5
3CDA
102
{ACAD_REACTORS
330
3CD6
102
}
330
3CD6
100
DictionaryVariables
280
     0
  1
Imperial24
  0
DICTIONARYVAR
  5
3CDE
102
{ACAD_REACTORS
330
3CD6
102
}
330
3CD6
100
DictionaryVariables
280
     0
  1
1
  0
DICTIONARYVAR
  5
3CDD
102
{ACAD_REACTORS
330
3CD6
102
}
330
3CD6
100
DictionaryVariables
280
     0
  1
0
  0
DICTIONARYVAR
  5
3CDC
102
{ACAD_REACTORS
330
3CD6
102
}
330
3CD6
100
DictionaryVariables
280
     0
  1
127
  0
DICTIONARYVAR
  5
3CDF
102
{ACAD_REACTORS
330
3CD6
102
}
330
3CD6
100
DictionaryVariables
280
     0
  1
2
  0
DICTIONARY
  5
3CEB
102
{ACAD_REACTORS
330
3CE9
102
}
330
3CE9
100
AcDbDictionary
281
     1
  0
DICTIONARY
  5
3CEA
102
{ACAD_REACTORS
330
3CE9
102
}
330
3CE9
100
AcDbDictionary
281
     1
  3
8796084804800
350
3CE4
  3
8796084804816
350
3CE5
  3
8796084804832
350
3CE6
  3
8796084804848
350
3CE7
  3
8796084804864
350
3CE8
  0
DICTIONARY
  5
3D28
330
3BEC
100
AcDbDictionary
280
     1
281
     1
  3
ACAD_XREC_ROUNDTRIP
360
3D29
  0
DICTIONARY
  5
3D26
330
3BE8
100
AcDbDictionary
280
     1
281
     1
  3
ACAD_XREC_ROUNDTRIP
360
3D27
  0
DICTIONARY
  5
3B93
330
3B92
100
AcDbDictionary
280
     1
281
     1
  3
ACAD_XREC_ROUNDTRIP
360
3CF3
  3
BUMPTILE
360
3B95
  3
DIFFUSETILE
360
3B94
  3
OPACITYTILE
360
3B98
  3
REFLECTIONTILE
360
3B97
  3
REFRACTIONTILE
360
3B99
  3
SPECULARTILE
360
3B96
  0
DICTIONARY
  5
3B8B
330
3B8A
100
AcDbDictionary
280
     1
281
     1
  3
ACAD_XREC_ROUNDTRIP
360
3CF2
  3
BUMPTILE
360
3B8D
  3
DIFFUSETILE
360
3B8C
  3
OPACITYTILE
360
3B90
  3
REFLECTIONTILE
360
3B8F
  3
REFRACTIONTILE
360
3B91
  3
SPECULARTILE
360
3B8E
  0
DICTIONARY
  5
3B9B
330
3B9A
100
AcDbDictionary
280
     1
281
     1
  3
ACAD_XREC_ROUNDTRIP
360
3CF4
  3
BUMPTILE
360
3B9D
  3
DIFFUSETILE
360
3B9C
  3
OPACITYTILE
360
3BA0
  3
REFLECTIONTILE
360
3B9F
  3
REFRACTIONTILE
360
3BA1
  3
SPECULARTILE
360
3B9E
  0
DICTIONARY
  5
3CE0
330
3BDD
100
AcDbDictionary
280
     1
281
     1
  3
ACAD_ROUNDTRIP_2008_TABLESTYLE_CELLSTYLEMAP
360
3CE1
  3
ACAD_XREC_ROUNDTRIP
360
3D25
  0
DICTIONARY
  5
3CFF
330
3BA8
100
AcDbDictionary
280
     1
281
     1
  3
ACAD_XREC_ROUNDTRIP
360
3D00
  0
DICTIONARY
  5
3CFD
330
3BA7
100
AcDbDictionary
280
     1
281
     1
  3
ACAD_XREC_ROUNDTRIP
360
3CFE
  0
DICTIONARY
  5
3D0B
330
3BAE
100
AcDbDictionary
280
     1
281
     1
  3
ACAD_XREC_ROUNDTRIP
360
3D0C
  0
DICTIONARY
  5
3D13
330
3BB2
100
AcDbDictionary
280
     1
281
     1
  3
ACAD_XREC_ROUNDTRIP
360
3D14
  0
DICTIONARY
  5
3D05
330
3BAB
100
AcDbDictionary
280
     1
281
     1
  3
ACAD_XREC_ROUNDTRIP
360
3D06
  0
DICTIONARY
  5
3D09
330
3BAD
100
AcDbDictionary
280
     1
281
     1
  3
ACAD_XREC_ROUNDTRIP
360
3D0A
  0
DICTIONARY
  5
3D23
330
3BBA
100
AcDbDictionary
280
     1
281
     1
  3
ACAD_XREC_ROUNDTRIP
360
3D24
  0
DICTIONARY
  5
3D11
330
3BB1
100
AcDbDictionary
280
     1
281
     1
  3
ACAD_XREC_ROUNDTRIP
360
3D12
  0
DICTIONARY
  5
3CF5
330
3BA3
100
AcDbDictionary
280
     1
281
     1
  3
ACAD_XREC_ROUNDTRIP
360
3CF6
  0
DICTIONARY
  5
3CF7
330
3BA4
100
AcDbDictionary
280
     1
281
     1
  3
ACAD_XREC_ROUNDTRIP
360
3CF8
  0
DICTIONARY
  5
3CF9
330
3BA5
100
AcDbDictionary
280
     1
281
     1
  3
ACAD_XREC_ROUNDTRIP
360
3CFA
  0
DICTIONARY
  5
3CFB
330
3BA6
100
AcDbDictionary
280
     1
281
     1
  3
ACAD_XREC_ROUNDTRIP
360
3CFC
  0
DICTIONARY
  5
3D03
330
3BAA
100
AcDbDictionary
280
     1
281
     1
  3
ACAD_XREC_ROUNDTRIP
360
3D04
  0
DICTIONARY
  5
3D1F
330
3BB8
100
AcDbDictionary
280
     1
281
     1
  3
ACAD_XREC_ROUNDTRIP
360
3D20
  0
DICTIONARY
  5
3D0F
330
3BB0
100
AcDbDictionary
280
     1
281
     1
  3
ACAD_XREC_ROUNDTRIP
360
3D10
  0
DICTIONARY
  5
3D21
330
3BB9
100
AcDbDictionary
280
     1
281
     1
  3
ACAD_XREC_ROUNDTRIP
360
3D22
  0
DICTIONARY
  5
3D07
330
3BAC
100
AcDbDictionary
280
     1
281
     1
  3
ACAD_XREC_ROUNDTRIP
360
3D08
  0
DICTIONARY
  5
3D1D
330
3BB7
100
AcDbDictionary
280
     1
281
     1
  3
ACAD_XREC_ROUNDTRIP
360
3D1E
  0
DICTIONARY
  5
3D1B
330
3BB6
100
AcDbDictionary
280
     1
281
     1
  3
ACAD_XREC_ROUNDTRIP
360
3D1C
  0
DICTIONARY
  5
3D15
330
3BB3
100
AcDbDictionary
280
     1
281
     1
  3
ACAD_XREC_ROUNDTRIP
360
3D16
  0
DICTIONARY
  5
3D17
330
3BB4
100
AcDbDictionary
280
     1
281
     1
  3
ACAD_XREC_ROUNDTRIP
360
3D18
  0
DICTIONARY
  5
3D0D
330
3BAF
100
AcDbDictionary
280
     1
281
     1
  3
ACAD_XREC_ROUNDTRIP
360
3D0E
  0
DICTIONARY
  5
3D01
330
3BA9
100
AcDbDictionary
280
     1
281
     1
  3
ACAD_XREC_ROUNDTRIP
360
3D02
  0
DICTIONARY
  5
3D19
330
3BB5
100
AcDbDictionary
280
     1
281
     1
  3
ACAD_XREC_ROUNDTRIP
360
3D1A
  0
XRECORD
  5
3CE4
102
{ACAD_REACTORS
330
3CEA
102
}
330
3CEA
100
AcDbXrecord
280
     1
  1
AcDb_Thumbnail_Schema
102
{ATTRRECORD
341
3CE5
  2
AcDbDs::TreatedAsObjectData
280
     1
291
     1
102
ATTRRECORD}
102
{ATTRRECORD
341
3CE6
  2
AcDbDs::Legacy
280
     1
291
     1
102
ATTRRECORD}
  2
AcDbDs::ID
280
    10
 91
        8
102
{ATTRRECORD
341
3CE7
  2
AcDs:Indexable
280
     1
291
     1
102
ATTRRECORD}
102
{ATTRRECORD
341
3CE8
  2
AcDbDs::HandleAttribute
280
     7
282
     1
102
ATTRRECORD}
  2
Thumbnail_Data
280
    15
 91
        0
  0
XRECORD
  5
3CE5
102
{ACAD_REACTORS
330
3CEA
102
}
330
3CEA
100
AcDbXrecord
280
     1
  1
AcDbDs::TreatedAsObjectDataSchema
  2
AcDbDs::TreatedAsObjectData
280
     1
 91
        0
  0
XRECORD
  5
3CE6
102
{ACAD_REACTORS
330
3CEA
102
}
330
3CEA
100
AcDbXrecord
280
     1
  1
AcDbDs::LegacySchema
  2
AcDbDs::Legacy
280
     1
 91
        0
  0
XRECORD
  5
3CE7
102
{ACAD_REACTORS
330
3CEA
102
}
330
3CEA
100
AcDbXrecord
280
     1
  1
AcDbDs::IndexedPropertySchema
  2
AcDs:Indexable
280
     1
 91
        0
  0
XRECORD
  5
3CE8
102
{ACAD_REACTORS
330
3CEA
102
}
330
3CEA
100
AcDbXrecord
280
     1
  1
AcDbDs::HandleAttributeSchema
  2
AcDbDs::HandleAttribute
280
     7
 91
        1
284
     1
  0
XRECORD
  5
3D29
102
{ACAD_REACTORS
330
3D28
102
}
330
3D28
100
AcDbXrecord
280
     1
102
SHADEPLOT
 70
     0
102
SHADEPLOTRESLEVEL
 70
     2
102
SHADEPLOTCUSTOMDPI
 70
   300
  0
XRECORD
  5
3D27
102
{ACAD_REACTORS
330
3D26
102
}
330
3D26
100
AcDbXrecord
280
     1
102
SHADEPLOT
 70
     0
102
SHADEPLOTRESLEVEL
 70
     2
102
SHADEPLOTCUSTOMDPI
 70
   300
  0
XRECORD
  5
3CF3
102
{ACAD_REACTORS
330
3B93
102
}
330
3B93
100
AcDbXrecord
280
     1
102
MATERIAL
148
0.0
149
0.0
149
0.0
 93
        0
 94
      127
282
     0
 72
     0
 77
     0
171
     0
175
     0
179
     0
273
     0
  0
XRECORD
  5
3B95
102
{ACAD_REACTORS
330
3B93
102
}
330
3B93
100
AcDbXrecord
280
     1
270
     1
271
     1
  0
XRECORD
  5
3B94
102
{ACAD_REACTORS
330
3B93
102
}
330
3B93
100
AcDbXrecord
280
     1
270
     1
271
     1
  0
XRECORD
  5
3B98
102
{ACAD_REACTORS
330
3B93
102
}
330
3B93
100
AcDbXrecord
280
     1
270
     1
271
     1
  0
XRECORD
  5
3B97
102
{ACAD_REACTORS
330
3B93
102
}
330
3B93
100
AcDbXrecord
280
     1
270
     1
271
     1
  0
XRECORD
  5
3B99
102
{ACAD_REACTORS
330
3B93
102
}
330
3B93
100
AcDbXrecord
280
     1
270
     1
271
     1
  0
XRECORD
  5
3B96
102
{ACAD_REACTORS
330
3B93
102
}
330
3B93
100
AcDbXrecord
280
     1
270
     1
271
     1
  0
XRECORD
  5
3CF2
102
{ACAD_REACTORS
330
3B8B
102
}
330
3B8B
100
AcDbXrecord
280
     1
102
MATERIAL
148
0.0
149
0.0
149
0.0
 93
        0
 94
      127
282
     0
 72
     0
 77
     0
171
     0
175
     0
179
     0
273
     0
  0
XRECORD
  5
3B8D
102
{ACAD_REACTORS
330
3B8B
102
}
330
3B8B
100
AcDbXrecord
280
     1
270
     1
271
     1
  0
XRECORD
  5
3B8C
102
{ACAD_REACTORS
330
3B8B
102
}
330
3B8B
100
AcDbXrecord
280
     1
270
     1
271
     1
  0
XRECORD
  5
3B90
102
{ACAD_REACTORS
330
3B8B
102
}
330
3B8B
100
AcDbXrecord
280
     1
270
     1
271
     1
  0
XRECORD
  5
3B8F
102
{ACAD_REACTORS
330
3B8B
102
}
330
3B8B
100
AcDbXrecord
280
     1
270
     1
271
     1
  0
XRECORD
  5
3B91
102
{ACAD_REACTORS
330
3B8B
102
}
330
3B8B
100
AcDbXrecord
280
     1
270
     1
271
     1
  0
XRECORD
  5
3B8E
102
{ACAD_REACTORS
330
3B8B
102
}
330
3B8B
100
AcDbXrecord
280
     1
270
     1
271
     1
  0
XRECORD
  5
3CF4
102
{ACAD_REACTORS
330
3B9B
102
}
330
3B9B
100
AcDbXrecord
280
     1
102
MATERIAL
148
0.0
149
0.0
149
0.0
 93
        0
 94
      127
282
     0
 72
     0
 77
     0
171
     0
175
     0
179
     0
273
     0
  0
XRECORD
  5
3B9D
102
{ACAD_REACTORS
330
3B9B
102
}
330
3B9B
100
AcDbXrecord
280
     1
270
     1
271
     1
  0
XRECORD
  5
3B9C
102
{ACAD_REACTORS
330
3B9B
102
}
330
3B9B
100
AcDbXrecord
280
     1
270
     1
271
     1
  0
XRECORD
  5
3BA0
102
{ACAD_REACTORS
330
3B9B
102
}
330
3B9B
100
AcDbXrecord
280
     1
270
     1
271
     1
  0
XRECORD
  5
3B9F
102
{ACAD_REACTORS
330
3B9B
102
}
330
3B9B
100
AcDbXrecord
280
     1
270
     1
271
     1
  0
XRECORD
  5
3BA1
102
{ACAD_REACTORS
330
3B9B
102
}
330
3B9B
100
AcDbXrecord
280
     1
270
     1
271
     1
  0
XRECORD
  5
3B9E
102
{ACAD_REACTORS
330
3B9B
102
}
330
3B9B
100
AcDbXrecord
280
     1
270
     1
271
     1
  0
CELLSTYLEMAP
  5
3CE1
102
{ACAD_REACTORS
330
3CE0
102
}
330
3CE0
100
AcDbCellStyleMap
 90
        3
300
CELLSTYLE
  1
TABLEFORMAT_BEGIN
 90
        5
170
     1
 91
        0
 92
    32768
 62
   257
 93
        1
300
CONTENTFORMAT
  1
CONTENTFORMAT_BEGIN
 90
        0
 91
        0
 92
      512
 93
        0
300

 40
0.0
140
1.0
 94
        5
 62
     0
340
3BCE
144
0.25
309
CONTENTFORMAT_END
171
     0
 94
        0
309
TABLEFORMAT_END
  1
CELLSTYLE_BEGIN
 90
        1
 91
        1
300
_TITLE
309
CELLSTYLE_END
300
CELLSTYLE
  1
TABLEFORMAT_BEGIN
 90
        5
170
     1
 91
        0
 92
        0
 62
   257
 93
        1
300
CONTENTFORMAT
  1
CONTENTFORMAT_BEGIN
 90
        0
 91
        0
 92
      512
 93
        0
300

 40
0.0
140
1.0
 94
        5
 62
     0
340
3BCE
144
0.18
309
CONTENTFORMAT_END
171
     0
 94
        0
309
TABLEFORMAT_END
  1
CELLSTYLE_BEGIN
 90
        2
 91
        1
300
_HEADER
309
CELLSTYLE_END
300
CELLSTYLE
  1
TABLEFORMAT_BEGIN
 90
        5
170
     1
 91
        0
 92
        0
 62
   257
 93
        1
300
CONTENTFORMAT
  1
CONTENTFORMAT_BEGIN
 90
        0
 91
        0
 92
      512
 93
        0
300

 40
0.0
140
1.0
 94
        2
 62
     0
340
3BCE
144
0.18
309
CONTENTFORMAT_END
171
     0
 94
        0
309
TABLEFORMAT_END
  1
CELLSTYLE_BEGIN
 90
        3
 91
        2
300
_DATA
309
CELLSTYLE_END
  0
XRECORD
  5
3D25
102
{ACAD_REACTORS
330
3CE0
102
}
330
3CE0
100
AcDbXrecord
280
     1
102
ACAD_ROUNDTRIP_PRE2007_TABLESTYLE
 90
      512
 91
        0
  1

 92
      512
 93
        0
  2

 94
      512
 95
        0
  3

  0
XRECORD
  5
3D00
102
{ACAD_REACTORS
330
3CFF
102
}
330
3CFF
100
AcDbXrecord
280
     1
102
RTVSPost2010Prop28
280
     1
102
RTVSPost2010PropOp28
 70
     1
102
RTVSPost2010Prop29
280
     1
102
RTVSPost2010PropOp29
 70
     1
102
RTVSPost2010Prop30
280
     0
102
RTVSPost2010PropOp30
 70
     1
102
RTVSPost2010Prop31
280
     0
102
RTVSPost2010PropOp31
 70
     1
102
RTVSPost2010Prop32
280
     0
102
RTVSPost2010PropOp32
 70
     1
102
RTVSPost2010Prop33
280
     0
102
RTVSPost2010PropOp33
 70
     1
102
RTVSPost2010Prop34
280
     0
102
RTVSPost2010PropOp34
 70
     1
102
RTVSPost2010Prop35
280
     0
102
RTVSPost2010PropOp35
 70
     1
102
RTVSPost2010Prop36
280
     0
102
RTVSPost2010PropOp36
 70
     1
102
RTVSPost2010Prop37
 90
       50
102
RTVSPost2010PropOp37
 70
     1
102
RTVSPost2010Prop38
140
0.0
102
RTVSPost2010PropOp38
 70
     1
102
RTVSPost2010Prop39
140
1.0
102
RTVSPost2010PropOp39
 70
     1
102
RTVSPost2010Prop40
 90
        0
102
RTVSPost2010PropOp40
 70
     1
102
RTVSPost2010Prop41ColorIndex
 90
       18
102
RTVSPost2010Prop41ColorRGB
 90
        0
102
RTVSPost2010PropOp41
 70
     1
102
RTVSPost2010Prop42
 90
       50
102
RTVSPost2010PropOp42
 70
     1
102
RTVSPost2010Prop43
 90
        3
102
RTVSPost2010PropOp43
 70
     1
102
RTVSPost2010Prop44ColorIndex
 90
        5
102
RTVSPost2010Prop44ColorRGB
 90
      255
102
RTVSPost2010PropOp44
 70
     1
102
RTVSPost2010Prop45
280
     0
102
RTVSPost2010PropOp45
 70
     1
102
RTVSPost2010Prop46
 90
       50
102
RTVSPost2010PropOp46
 70
     1
102
RTVSPost2010Prop47
 90
       50
102
RTVSPost2010PropOp47
 70
     1
102
RTVSPost2010Prop48
 90
       50
102
RTVSPost2010PropOp48
 70
     1
102
RTVSPost2010Prop49
280
     0
102
RTVSPost2010PropOp49
 70
     1
102
RTVSPost2010Prop50
 90
       50
102
RTVSPost2010PropOp50
 70
     1
102
RTVSPost2010Prop51ColorIndex
 90
      256
102
RTVSPost2010Prop51ColorRGB
 90
-16777216
102
RTVSPost2010PropOp51
 70
     0
102
RTVSPost2010Prop52
140
1.0
102
RTVSPost2010PropOp52
 70
     0
102
RTVSPost2010Prop53
 90
        2
102
RTVSPost2010PropOp53
 70
     1
102
RTVSPost2010Prop54
  1
strokes_ogs.tif
102
RTVSPost2010PropOp54
 70
     1
102
RTVSPost2010Prop55
280
     0
102
RTVSPost2010PropOp55
 70
     1
102
RTVSPost2010Prop56
140
1.0
102
RTVSPost2010PropOp56
 70
     1
102
RTVSPost2010Prop57
140
1.0
102
RTVSPost2010PropOp57
 70
     1
102
RTVSPropertyOp0
 70
     1
102
RTVSPropertyOp1
 70
     1
102
RTVSPropertyOp2
 70
     1
102
RTVSPropertyOp3
 70
     1
102
RTVSPropertyOp4
 70
     1
102
RTVSPropertyOp5
 70
     1
102
RTVSPropertyOp6
 70
     1
102
RTVSPropertyOp7
 70
     1
102
RTVSPropertyOp8
 70
     1
102
RTVSPropertyOp9
 70
     1
102
RTVSPropertyOp10
 70
     1
102
RTVSPropertyOp11
 70
     1
102
RTVSPropertyOp12
 70
     1
102
RTVSPropertyOp13
 70
     1
102
RTVSPropertyOp14
 70
     1
102
RTVSPropertyOp15
 70
     1
102
RTVSPropertyOp16
 70
     1
102
RTVSPropertyOp17
 70
     1
102
RTVSPropertyOp18
 70
     1
102
RTVSPropertyOp19
 70
     1
102
RTVSPropertyOp20
 70
     1
102
RTVSPropertyOp21
 70
     1
102
RTVSPropertyOp22
 70
     1
102
RTVSPropertyOp23
 70
     1
102
RTVSPropertyOp24
 70
     1
102
RTVSPropertyOp25
 70
     1
102
RTVSPropertyOp26
 70
     1
102
RTVSPropertyOp27
 70
     1
102
RTVSPropertyOp28
 70
     1
102
RTVSPropertyOp29
 70
     1
102
RTVSPropertyOp30
 70
     1
102
RTVSPropertyOp31
 70
     1
102
RTVSPropertyOp32
 70
     1
102
RTVSPropertyOp33
 70
     1
102
RTVSPropertyOp34
 70
     1
102
RTVSPropertyOp35
 70
     1
102
RTVSPropertyOp36
 70
     1
102
RTVSPropertyOp37
 70
     1
102
RTVSPropertyOp38
 70
     1
102
RTVSPropertyOp39
 70
     1
102
RTVSPropertyOp40
 70
     1
102
RTVSPropertyOp41
 70
     1
102
RTVSPropertyOp42
 70
     1
102
RTVSPropertyOp43
 70
     1
102
RTVSPropertyOp44
 70
     1
102
RTVSPropertyOp45
 70
     1
102
RTVSPropertyOp46
 70
     1
102
RTVSPropertyOp47
 70
     1
102
RTVSPropertyOp48
 70
     1
102
RTVSPropertyOp49
 70
     1
102
RTVSPropertyOp50
 70
     1
102
RTVSPropertyOp51
 70
     0
102
RTVSPropertyOp52
 70
     0
102
RTVSPropertyOp53
 70
     1
102
RTVSPropertyOp54
 70
     1
102
RTVSPropertyOp55
 70
     1
102
RTVSPropertyOp56
 70
     1
102
RTVSPropertyOp57
 70
     1
102
RTVSPropertyOp58
 70
     1
102
RTVSPropertyOp59
 70
     1
102
RTVSPropertyOp60
 70
     1
102
RTVSPropertyOp61
 70
     1
102
RTVSPropertyOp62
 70
     1
  0
XRECORD
  5
3CFE
102
{ACAD_REACTORS
330
3CFD
102
}
330
3CFD
100
AcDbXrecord
280
     1
102
RTVSPost2010Prop28
280
     0
102
RTVSPost2010PropOp28
 70
     1
102
RTVSPost2010Prop29
280
     1
102
RTVSPost2010PropOp29
 70
     1
102
RTVSPost2010Prop30
280
     1
102
RTVSPost2010PropOp30
 70
     1
102
RTVSPost2010Prop31
280
     0
102
RTVSPost2010PropOp31
 70
     1
102
RTVSPost2010Prop32
280
     0
102
RTVSPost2010PropOp32
 70
     1
102
RTVSPost2010Prop33
280
     0
102
RTVSPost2010PropOp33
 70
     1
102
RTVSPost2010Prop34
280
     0
102
RTVSPost2010PropOp34
 70
     1
102
RTVSPost2010Prop35
280
     0
102
RTVSPost2010PropOp35
 70
     1
102
RTVSPost2010Prop36
280
     0
102
RTVSPost2010PropOp36
 70
     1
102
RTVSPost2010Prop37
 90
       50
102
RTVSPost2010PropOp37
 70
     1
102
RTVSPost2010Prop38
140
0.0
102
RTVSPost2010PropOp38
 70
     1
102
RTVSPost2010Prop39
140
1.0
102
RTVSPost2010PropOp39
 70
     1
102
RTVSPost2010Prop40
 90
        0
102
RTVSPost2010PropOp40
 70
     1
102
RTVSPost2010Prop41ColorIndex
 90
       18
102
RTVSPost2010Prop41ColorRGB
 90
        0
102
RTVSPost2010PropOp41
 70
     1
102
RTVSPost2010Prop42
 90
       50
102
RTVSPost2010PropOp42
 70
     1
102
RTVSPost2010Prop43
 90
        3
102
RTVSPost2010PropOp43
 70
     1
102
RTVSPost2010Prop44ColorIndex
 90
        5
102
RTVSPost2010Prop44ColorRGB
 90
      255
102
RTVSPost2010PropOp44
 70
     1
102
RTVSPost2010Prop45
280
     0
102
RTVSPost2010PropOp45
 70
     1
102
RTVSPost2010Prop46
 90
       50
102
RTVSPost2010PropOp46
 70
     1
102
RTVSPost2010Prop47
 90
       50
102
RTVSPost2010PropOp47
 70
     1
102
RTVSPost2010Prop48
 90
       50
102
RTVSPost2010PropOp48
 70
     1
102
RTVSPost2010Prop49
280
     0
102
RTVSPost2010PropOp49
 70
     1
102
RTVSPost2010Prop50
 90
       50
102
RTVSPost2010PropOp50
 70
     1
102
RTVSPost2010Prop51ColorIndex
 90
      256
102
RTVSPost2010Prop51ColorRGB
 90
-16777216
102
RTVSPost2010PropOp51
 70
     0
102
RTVSPost2010Prop52
140
1.0
102
RTVSPost2010PropOp52
 70
     0
102
RTVSPost2010Prop53
 90
        2
102
RTVSPost2010PropOp53
 70
     1
102
RTVSPost2010Prop54
  1
strokes_ogs.tif
102
RTVSPost2010PropOp54
 70
     1
102
RTVSPost2010Prop55
280
     0
102
RTVSPost2010PropOp55
 70
     1
102
RTVSPost2010Prop56
140
1.0
102
RTVSPost2010PropOp56
 70
     1
102
RTVSPost2010Prop57
140
1.0
102
RTVSPost2010PropOp57
 70
     1
102
RTVSPropertyOp0
 70
     1
102
RTVSPropertyOp1
 70
     1
102
RTVSPropertyOp2
 70
     1
102
RTVSPropertyOp3
 70
     1
102
RTVSPropertyOp4
 70
     1
102
RTVSPropertyOp5
 70
     1
102
RTVSPropertyOp6
 70
     1
102
RTVSPropertyOp7
 70
     1
102
RTVSPropertyOp8
 70
     1
102
RTVSPropertyOp9
 70
     1
102
RTVSPropertyOp10
 70
     1
102
RTVSPropertyOp11
 70
     1
102
RTVSPropertyOp12
 70
     1
102
RTVSPropertyOp13
 70
     1
102
RTVSPropertyOp14
 70
     1
102
RTVSPropertyOp15
 70
     1
102
RTVSPropertyOp16
 70
     1
102
RTVSPropertyOp17
 70
     1
102
RTVSPropertyOp18
 70
     1
102
RTVSPropertyOp19
 70
     1
102
RTVSPropertyOp20
 70
     1
102
RTVSPropertyOp21
 70
     1
102
RTVSPropertyOp22
 70
     1
102
RTVSPropertyOp23
 70
     1
102
RTVSPropertyOp24
 70
     1
102
RTVSPropertyOp25
 70
     1
102
RTVSPropertyOp26
 70
     1
102
RTVSPropertyOp27
 70
     1
102
RTVSPropertyOp28
 70
     1
102
RTVSPropertyOp29
 70
     1
102
RTVSPropertyOp30
 70
     1
102
RTVSPropertyOp31
 70
     1
102
RTVSPropertyOp32
 70
     1
102
RTVSPropertyOp33
 70
     1
102
RTVSPropertyOp34
 70
     1
102
RTVSPropertyOp35
 70
     1
102
RTVSPropertyOp36
 70
     1
102
RTVSPropertyOp37
 70
     1
102
RTVSPropertyOp38
 70
     1
102
RTVSPropertyOp39
 70
     1
102
RTVSPropertyOp40
 70
     1
102
RTVSPropertyOp41
 70
     1
102
RTVSPropertyOp42
 70
     1
102
RTVSPropertyOp43
 70
     1
102
RTVSPropertyOp44
 70
     1
102
RTVSPropertyOp45
 70
     1
102
RTVSPropertyOp46
 70
     1
102
RTVSPropertyOp47
 70
     1
102
RTVSPropertyOp48
 70
     1
102
RTVSPropertyOp49
 70
     1
102
RTVSPropertyOp50
 70
     1
102
RTVSPropertyOp51
 70
     0
102
RTVSPropertyOp52
 70
     0
102
RTVSPropertyOp53
 70
     1
102
RTVSPropertyOp54
 70
     1
102
RTVSPropertyOp55
 70
     1
102
RTVSPropertyOp56
 70
     1
102
RTVSPropertyOp57
 70
     1
102
RTVSPropertyOp58
 70
     1
102
RTVSPropertyOp59
 70
     1
102
RTVSPropertyOp60
 70
     1
102
RTVSPropertyOp61
 70
     1
102
RTVSPropertyOp62
 70
     1
  0
XRECORD
  5
3D0C
102
{ACAD_REACTORS
330
3D0B
102
}
330
3D0B
100
AcDbXrecord
280
     1
102
RTVSPost2010Prop28
280
     0
102
RTVSPost2010PropOp28
 70
     1
102
RTVSPost2010Prop29
280
     1
102
RTVSPost2010PropOp29
 70
     1
102
RTVSPost2010Prop30
280
     1
102
RTVSPost2010PropOp30
 70
     1
102
RTVSPost2010Prop31
280
     0
102
RTVSPost2010PropOp31
 70
     1
102
RTVSPost2010Prop32
280
     0
102
RTVSPost2010PropOp32
 70
     1
102
RTVSPost2010Prop33
280
     0
102
RTVSPost2010PropOp33
 70
     1
102
RTVSPost2010Prop34
280
     0
102
RTVSPost2010PropOp34
 70
     1
102
RTVSPost2010Prop35
280
     0
102
RTVSPost2010PropOp35
 70
     1
102
RTVSPost2010Prop36
280
     0
102
RTVSPost2010PropOp36
 70
     1
102
RTVSPost2010Prop37
 90
       50
102
RTVSPost2010PropOp37
 70
     1
102
RTVSPost2010Prop38
140
0.0
102
RTVSPost2010PropOp38
 70
     1
102
RTVSPost2010Prop39
140
1.0
102
RTVSPost2010PropOp39
 70
     1
102
RTVSPost2010Prop40
 90
        0
102
RTVSPost2010PropOp40
 70
     1
102
RTVSPost2010Prop41ColorIndex
 90
       18
102
RTVSPost2010Prop41ColorRGB
 90
        0
102
RTVSPost2010PropOp41
 70
     1
102
RTVSPost2010Prop42
 90
       50
102
RTVSPost2010PropOp42
 70
     1
102
RTVSPost2010Prop43
 90
        3
102
RTVSPost2010PropOp43
 70
     1
102
RTVSPost2010Prop44ColorIndex
 90
        5
102
RTVSPost2010Prop44ColorRGB
 90
      255
102
RTVSPost2010PropOp44
 70
     1
102
RTVSPost2010Prop45
280
     0
102
RTVSPost2010PropOp45
 70
     1
102
RTVSPost2010Prop46
 90
       50
102
RTVSPost2010PropOp46
 70
     1
102
RTVSPost2010Prop47
 90
       50
102
RTVSPost2010PropOp47
 70
     1
102
RTVSPost2010Prop48
 90
       50
102
RTVSPost2010PropOp48
 70
     1
102
RTVSPost2010Prop49
280
     0
102
RTVSPost2010PropOp49
 70
     1
102
RTVSPost2010Prop50
 90
       50
102
RTVSPost2010PropOp50
 70
     1
102
RTVSPost2010Prop51ColorIndex
 90
      256
102
RTVSPost2010Prop51ColorRGB
 90
-16777216
102
RTVSPost2010PropOp51
 70
     0
102
RTVSPost2010Prop52
140
1.0
102
RTVSPost2010PropOp52
 70
     0
102
RTVSPost2010Prop53
 90
        2
102
RTVSPost2010PropOp53
 70
     1
102
RTVSPost2010Prop54
  1
strokes_ogs.tif
102
RTVSPost2010PropOp54
 70
     1
102
RTVSPost2010Prop55
280
     0
102
RTVSPost2010PropOp55
 70
     1
102
RTVSPost2010Prop56
140
1.0
102
RTVSPost2010PropOp56
 70
     1
102
RTVSPost2010Prop57
140
1.0
102
RTVSPost2010PropOp57
 70
     1
102
RTVSPropertyOp0
 70
     1
102
RTVSPropertyOp1
 70
     1
102
RTVSPropertyOp2
 70
     1
102
RTVSPropertyOp3
 70
     1
102
RTVSPropertyOp4
 70
     1
102
RTVSPropertyOp5
 70
     1
102
RTVSPropertyOp6
 70
     1
102
RTVSPropertyOp7
 70
     1
102
RTVSPropertyOp8
 70
     1
102
RTVSPropertyOp9
 70
     1
102
RTVSPropertyOp10
 70
     1
102
RTVSPropertyOp11
 70
     1
102
RTVSPropertyOp12
 70
     1
102
RTVSPropertyOp13
 70
     1
102
RTVSPropertyOp14
 70
     1
102
RTVSPropertyOp15
 70
     1
102
RTVSPropertyOp16
 70
     1
102
RTVSPropertyOp17
 70
     1
102
RTVSPropertyOp18
 70
     1
102
RTVSPropertyOp19
 70
     1
102
RTVSPropertyOp20
 70
     1
102
RTVSPropertyOp21
 70
     1
102
RTVSPropertyOp22
 70
     1
102
RTVSPropertyOp23
 70
     1
102
RTVSPropertyOp24
 70
     1
102
RTVSPropertyOp25
 70
     1
102
RTVSPropertyOp26
 70
     1
102
RTVSPropertyOp27
 70
     1
102
RTVSPropertyOp28
 70
     1
102
RTVSPropertyOp29
 70
     1
102
RTVSPropertyOp30
 70
     1
102
RTVSPropertyOp31
 70
     1
102
RTVSPropertyOp32
 70
     1
102
RTVSPropertyOp33
 70
     1
102
RTVSPropertyOp34
 70
     1
102
RTVSPropertyOp35
 70
     1
102
RTVSPropertyOp36
 70
     1
102
RTVSPropertyOp37
 70
     1
102
RTVSPropertyOp38
 70
     1
102
RTVSPropertyOp39
 70
     1
102
RTVSPropertyOp40
 70
     1
102
RTVSPropertyOp41
 70
     1
102
RTVSPropertyOp42
 70
     1
102
RTVSPropertyOp43
 70
     1
102
RTVSPropertyOp44
 70
     1
102
RTVSPropertyOp45
 70
     1
102
RTVSPropertyOp46
 70
     1
102
RTVSPropertyOp47
 70
     1
102
RTVSPropertyOp48
 70
     1
102
RTVSPropertyOp49
 70
     1
102
RTVSPropertyOp50
 70
     1
102
RTVSPropertyOp51
 70
     0
102
RTVSPropertyOp52
 70
     0
102
RTVSPropertyOp53
 70
     1
102
RTVSPropertyOp54
 70
     1
102
RTVSPropertyOp55
 70
     1
102
RTVSPropertyOp56
 70
     1
102
RTVSPropertyOp57
 70
     1
102
RTVSPropertyOp58
 70
     1
102
RTVSPropertyOp59
 70
     1
102
RTVSPropertyOp60
 70
     1
102
RTVSPropertyOp61
 70
     1
102
RTVSPropertyOp62
 70
     1
  0
XRECORD
  5
3D14
102
{ACAD_REACTORS
330
3D13
102
}
330
3D13
100
AcDbXrecord
280
     1
102
RTVSPost2010Prop28
280
     0
102
RTVSPost2010PropOp28
 70
     1
102
RTVSPost2010Prop29
280
     1
102
RTVSPost2010PropOp29
 70
     1
102
RTVSPost2010Prop30
280
     1
102
RTVSPost2010PropOp30
 70
     1
102
RTVSPost2010Prop31
280
     0
102
RTVSPost2010PropOp31
 70
     1
102
RTVSPost2010Prop32
280
     0
102
RTVSPost2010PropOp32
 70
     1
102
RTVSPost2010Prop33
280
     0
102
RTVSPost2010PropOp33
 70
     1
102
RTVSPost2010Prop34
280
     0
102
RTVSPost2010PropOp34
 70
     1
102
RTVSPost2010Prop35
280
     0
102
RTVSPost2010PropOp35
 70
     1
102
RTVSPost2010Prop36
280
     0
102
RTVSPost2010PropOp36
 70
     1
102
RTVSPost2010Prop37
 90
       50
102
RTVSPost2010PropOp37
 70
     1
102
RTVSPost2010Prop38
140
0.0
102
RTVSPost2010PropOp38
 70
     1
102
RTVSPost2010Prop39
140
1.0
102
RTVSPost2010PropOp39
 70
     1
102
RTVSPost2010Prop40
 90
        0
102
RTVSPost2010PropOp40
 70
     1
102
RTVSPost2010Prop41ColorIndex
 90
       18
102
RTVSPost2010Prop41ColorRGB
 90
        0
102
RTVSPost2010PropOp41
 70
     1
102
RTVSPost2010Prop42
 90
       50
102
RTVSPost2010PropOp42
 70
     1
102
RTVSPost2010Prop43
 90
        3
102
RTVSPost2010PropOp43
 70
     1
102
RTVSPost2010Prop44ColorIndex
 90
        5
102
RTVSPost2010Prop44ColorRGB
 90
      255
102
RTVSPost2010PropOp44
 70
     1
102
RTVSPost2010Prop45
280
     0
102
RTVSPost2010PropOp45
 70
     1
102
RTVSPost2010Prop46
 90
       50
102
RTVSPost2010PropOp46
 70
     1
102
RTVSPost2010Prop47
 90
       50
102
RTVSPost2010PropOp47
 70
     1
102
RTVSPost2010Prop48
 90
       50
102
RTVSPost2010PropOp48
 70
     1
102
RTVSPost2010Prop49
280
     0
102
RTVSPost2010PropOp49
 70
     1
102
RTVSPost2010Prop50
 90
       50
102
RTVSPost2010PropOp50
 70
     1
102
RTVSPost2010Prop51ColorIndex
 90
      256
102
RTVSPost2010Prop51ColorRGB
 90
-16777216
102
RTVSPost2010PropOp51
 70
     0
102
RTVSPost2010Prop52
140
1.0
102
RTVSPost2010PropOp52
 70
     0
102
RTVSPost2010Prop53
 90
        2
102
RTVSPost2010PropOp53
 70
     1
102
RTVSPost2010Prop54
  1
strokes_ogs.tif
102
RTVSPost2010PropOp54
 70
     1
102
RTVSPost2010Prop55
280
     0
102
RTVSPost2010PropOp55
 70
     1
102
RTVSPost2010Prop56
140
1.0
102
RTVSPost2010PropOp56
 70
     1
102
RTVSPost2010Prop57
140
1.0
102
RTVSPost2010PropOp57
 70
     1
102
RTVSPropertyOp0
 70
     1
102
RTVSPropertyOp1
 70
     1
102
RTVSPropertyOp2
 70
     1
102
RTVSPropertyOp3
 70
     1
102
RTVSPropertyOp4
 70
     1
102
RTVSPropertyOp5
 70
     1
102
RTVSPropertyOp6
 70
     1
102
RTVSPropertyOp7
 70
     1
102
RTVSPropertyOp8
 70
     1
102
RTVSPropertyOp9
 70
     1
102
RTVSPropertyOp10
 70
     1
102
RTVSPropertyOp11
 70
     1
102
RTVSPropertyOp12
 70
     1
102
RTVSPropertyOp13
 70
     1
102
RTVSPropertyOp14
 70
     1
102
RTVSPropertyOp15
 70
     1
102
RTVSPropertyOp16
 70
     1
102
RTVSPropertyOp17
 70
     1
102
RTVSPropertyOp18
 70
     1
102
RTVSPropertyOp19
 70
     1
102
RTVSPropertyOp20
 70
     1
102
RTVSPropertyOp21
 70
     1
102
RTVSPropertyOp22
 70
     1
102
RTVSPropertyOp23
 70
     1
102
RTVSPropertyOp24
 70
     1
102
RTVSPropertyOp25
 70
     1
102
RTVSPropertyOp26
 70
     1
102
RTVSPropertyOp27
 70
     1
102
RTVSPropertyOp28
 70
     1
102
RTVSPropertyOp29
 70
     1
102
RTVSPropertyOp30
 70
     1
102
RTVSPropertyOp31
 70
     1
102
RTVSPropertyOp32
 70
     1
102
RTVSPropertyOp33
 70
     1
102
RTVSPropertyOp34
 70
     1
102
RTVSPropertyOp35
 70
     1
102
RTVSPropertyOp36
 70
     1
102
RTVSPropertyOp37
 70
     1
102
RTVSPropertyOp38
 70
     1
102
RTVSPropertyOp39
 70
     1
102
RTVSPropertyOp40
 70
     1
102
RTVSPropertyOp41
 70
     1
102
RTVSPropertyOp42
 70
     1
102
RTVSPropertyOp43
 70
     1
102
RTVSPropertyOp44
 70
     1
102
RTVSPropertyOp45
 70
     1
102
RTVSPropertyOp46
 70
     1
102
RTVSPropertyOp47
 70
     1
102
RTVSPropertyOp48
 70
     1
102
RTVSPropertyOp49
 70
     1
102
RTVSPropertyOp50
 70
     1
102
RTVSPropertyOp51
 70
     0
102
RTVSPropertyOp52
 70
     0
102
RTVSPropertyOp53
 70
     1
102
RTVSPropertyOp54
 70
     1
102
RTVSPropertyOp55
 70
     1
102
RTVSPropertyOp56
 70
     1
102
RTVSPropertyOp57
 70
     1
102
RTVSPropertyOp58
 70
     1
102
RTVSPropertyOp59
 70
     1
102
RTVSPropertyOp60
 70
     1
102
RTVSPropertyOp61
 70
     1
102
RTVSPropertyOp62
 70
     1
  0
XRECORD
  5
3D06
102
{ACAD_REACTORS
330
3D05
102
}
330
3D05
100
AcDbXrecord
280
     1
102
RTVSPost2010Prop28
280
     0
102
RTVSPost2010PropOp28
 70
     1
102
RTVSPost2010Prop29
280
     1
102
RTVSPost2010PropOp29
 70
     1
102
RTVSPost2010Prop30
280
     1
102
RTVSPost2010PropOp30
 70
     1
102
RTVSPost2010Prop31
280
     0
102
RTVSPost2010PropOp31
 70
     1
102
RTVSPost2010Prop32
280
     0
102
RTVSPost2010PropOp32
 70
     1
102
RTVSPost2010Prop33
280
     0
102
RTVSPost2010PropOp33
 70
     1
102
RTVSPost2010Prop34
280
     0
102
RTVSPost2010PropOp34
 70
     1
102
RTVSPost2010Prop35
280
     0
102
RTVSPost2010PropOp35
 70
     1
102
RTVSPost2010Prop36
280
     0
102
RTVSPost2010PropOp36
 70
     1
102
RTVSPost2010Prop37
 90
       50
102
RTVSPost2010PropOp37
 70
     1
102
RTVSPost2010Prop38
140
0.0
102
RTVSPost2010PropOp38
 70
     1
102
RTVSPost2010Prop39
140
1.0
102
RTVSPost2010PropOp39
 70
     1
102
RTVSPost2010Prop40
 90
        0
102
RTVSPost2010PropOp40
 70
     1
102
RTVSPost2010Prop41ColorIndex
 90
       18
102
RTVSPost2010Prop41ColorRGB
 90
        0
102
RTVSPost2010PropOp41
 70
     1
102
RTVSPost2010Prop42
 90
       50
102
RTVSPost2010PropOp42
 70
     1
102
RTVSPost2010Prop43
 90
        3
102
RTVSPost2010PropOp43
 70
     1
102
RTVSPost2010Prop44ColorIndex
 90
        5
102
RTVSPost2010Prop44ColorRGB
 90
      255
102
RTVSPost2010PropOp44
 70
     1
102
RTVSPost2010Prop45
280
     0
102
RTVSPost2010PropOp45
 70
     1
102
RTVSPost2010Prop46
 90
       50
102
RTVSPost2010PropOp46
 70
     1
102
RTVSPost2010Prop47
 90
       50
102
RTVSPost2010PropOp47
 70
     1
102
RTVSPost2010Prop48
 90
       50
102
RTVSPost2010PropOp48
 70
     1
102
RTVSPost2010Prop49
280
     0
102
RTVSPost2010PropOp49
 70
     1
102
RTVSPost2010Prop50
 90
       50
102
RTVSPost2010PropOp50
 70
     1
102
RTVSPost2010Prop51ColorIndex
 90
      256
102
RTVSPost2010Prop51ColorRGB
 90
-16777216
102
RTVSPost2010PropOp51
 70
     0
102
RTVSPost2010Prop52
140
1.0
102
RTVSPost2010PropOp52
 70
     0
102
RTVSPost2010Prop53
 90
        2
102
RTVSPost2010PropOp53
 70
     1
102
RTVSPost2010Prop54
  1
strokes_ogs.tif
102
RTVSPost2010PropOp54
 70
     1
102
RTVSPost2010Prop55
280
     0
102
RTVSPost2010PropOp55
 70
     1
102
RTVSPost2010Prop56
140
1.0
102
RTVSPost2010PropOp56
 70
     1
102
RTVSPost2010Prop57
140
1.0
102
RTVSPost2010PropOp57
 70
     1
102
RTVSPropertyOp0
 70
     1
102
RTVSPropertyOp1
 70
     1
102
RTVSPropertyOp2
 70
     1
102
RTVSPropertyOp3
 70
     1
102
RTVSPropertyOp4
 70
     1
102
RTVSPropertyOp5
 70
     1
102
RTVSPropertyOp6
 70
     1
102
RTVSPropertyOp7
 70
     1
102
RTVSPropertyOp8
 70
     1
102
RTVSPropertyOp9
 70
     1
102
RTVSPropertyOp10
 70
     1
102
RTVSPropertyOp11
 70
     1
102
RTVSPropertyOp12
 70
     1
102
RTVSPropertyOp13
 70
     1
102
RTVSPropertyOp14
 70
     1
102
RTVSPropertyOp15
 70
     1
102
RTVSPropertyOp16
 70
     1
102
RTVSPropertyOp17
 70
     1
102
RTVSPropertyOp18
 70
     1
102
RTVSPropertyOp19
 70
     1
102
RTVSPropertyOp20
 70
     1
102
RTVSPropertyOp21
 70
     1
102
RTVSPropertyOp22
 70
     1
102
RTVSPropertyOp23
 70
     1
102
RTVSPropertyOp24
 70
     1
102
RTVSPropertyOp25
 70
     1
102
RTVSPropertyOp26
 70
     1
102
RTVSPropertyOp27
 70
     1
102
RTVSPropertyOp28
 70
     1
102
RTVSPropertyOp29
 70
     1
102
RTVSPropertyOp30
 70
     1
102
RTVSPropertyOp31
 70
     1
102
RTVSPropertyOp32
 70
     1
102
RTVSPropertyOp33
 70
     1
102
RTVSPropertyOp34
 70
     1
102
RTVSPropertyOp35
 70
     1
102
RTVSPropertyOp36
 70
     1
102
RTVSPropertyOp37
 70
     1
102
RTVSPropertyOp38
 70
     1
102
RTVSPropertyOp39
 70
     1
102
RTVSPropertyOp40
 70
     1
102
RTVSPropertyOp41
 70
     1
102
RTVSPropertyOp42
 70
     1
102
RTVSPropertyOp43
 70
     1
102
RTVSPropertyOp44
 70
     1
102
RTVSPropertyOp45
 70
     1
102
RTVSPropertyOp46
 70
     1
102
RTVSPropertyOp47
 70
     1
102
RTVSPropertyOp48
 70
     1
102
RTVSPropertyOp49
 70
     1
102
RTVSPropertyOp50
 70
     1
102
RTVSPropertyOp51
 70
     0
102
RTVSPropertyOp52
 70
     0
102
RTVSPropertyOp53
 70
     1
102
RTVSPropertyOp54
 70
     1
102
RTVSPropertyOp55
 70
     1
102
RTVSPropertyOp56
 70
     1
102
RTVSPropertyOp57
 70
     1
102
RTVSPropertyOp58
 70
     1
102
RTVSPropertyOp59
 70
     1
102
RTVSPropertyOp60
 70
     1
102
RTVSPropertyOp61
 70
     1
102
RTVSPropertyOp62
 70
     1
  0
XRECORD
  5
3D0A
102
{ACAD_REACTORS
330
3D09
102
}
330
3D09
100
AcDbXrecord
280
     1
102
RTVSPost2010Prop28
280
     0
102
RTVSPost2010PropOp28
 70
     1
102
RTVSPost2010Prop29
280
     1
102
RTVSPost2010PropOp29
 70
     1
102
RTVSPost2010Prop30
280
     1
102
RTVSPost2010PropOp30
 70
     1
102
RTVSPost2010Prop31
280
     0
102
RTVSPost2010PropOp31
 70
     1
102
RTVSPost2010Prop32
280
     0
102
RTVSPost2010PropOp32
 70
     1
102
RTVSPost2010Prop33
280
     0
102
RTVSPost2010PropOp33
 70
     1
102
RTVSPost2010Prop34
280
     0
102
RTVSPost2010PropOp34
 70
     1
102
RTVSPost2010Prop35
280
     0
102
RTVSPost2010PropOp35
 70
     1
102
RTVSPost2010Prop36
280
     0
102
RTVSPost2010PropOp36
 70
     1
102
RTVSPost2010Prop37
 90
       50
102
RTVSPost2010PropOp37
 70
     1
102
RTVSPost2010Prop38
140
0.0
102
RTVSPost2010PropOp38
 70
     1
102
RTVSPost2010Prop39
140
1.0
102
RTVSPost2010PropOp39
 70
     1
102
RTVSPost2010Prop40
 90
        0
102
RTVSPost2010PropOp40
 70
     1
102
RTVSPost2010Prop41ColorIndex
 90
       18
102
RTVSPost2010Prop41ColorRGB
 90
        0
102
RTVSPost2010PropOp41
 70
     1
102
RTVSPost2010Prop42
 90
       50
102
RTVSPost2010PropOp42
 70
     1
102
RTVSPost2010Prop43
 90
        3
102
RTVSPost2010PropOp43
 70
     1
102
RTVSPost2010Prop44ColorIndex
 90
        5
102
RTVSPost2010Prop44ColorRGB
 90
      255
102
RTVSPost2010PropOp44
 70
     1
102
RTVSPost2010Prop45
280
     0
102
RTVSPost2010PropOp45
 70
     1
102
RTVSPost2010Prop46
 90
       50
102
RTVSPost2010PropOp46
 70
     1
102
RTVSPost2010Prop47
 90
       50
102
RTVSPost2010PropOp47
 70
     1
102
RTVSPost2010Prop48
 90
       50
102
RTVSPost2010PropOp48
 70
     1
102
RTVSPost2010Prop49
280
     0
102
RTVSPost2010PropOp49
 70
     1
102
RTVSPost2010Prop50
 90
       50
102
RTVSPost2010PropOp50
 70
     1
102
RTVSPost2010Prop51ColorIndex
 90
      256
102
RTVSPost2010Prop51ColorRGB
 90
-16777216
102
RTVSPost2010PropOp51
 70
     0
102
RTVSPost2010Prop52
140
1.0
102
RTVSPost2010PropOp52
 70
     0
102
RTVSPost2010Prop53
 90
        2
102
RTVSPost2010PropOp53
 70
     1
102
RTVSPost2010Prop54
  1
strokes_ogs.tif
102
RTVSPost2010PropOp54
 70
     1
102
RTVSPost2010Prop55
280
     0
102
RTVSPost2010PropOp55
 70
     1
102
RTVSPost2010Prop56
140
1.0
102
RTVSPost2010PropOp56
 70
     1
102
RTVSPost2010Prop57
140
1.0
102
RTVSPost2010PropOp57
 70
     1
102
RTVSPropertyOp0
 70
     1
102
RTVSPropertyOp1
 70
     1
102
RTVSPropertyOp2
 70
     1
102
RTVSPropertyOp3
 70
     1
102
RTVSPropertyOp4
 70
     1
102
RTVSPropertyOp5
 70
     1
102
RTVSPropertyOp6
 70
     1
102
RTVSPropertyOp7
 70
     1
102
RTVSPropertyOp8
 70
     1
102
RTVSPropertyOp9
 70
     1
102
RTVSPropertyOp10
 70
     1
102
RTVSPropertyOp11
 70
     1
102
RTVSPropertyOp12
 70
     1
102
RTVSPropertyOp13
 70
     1
102
RTVSPropertyOp14
 70
     1
102
RTVSPropertyOp15
 70
     1
102
RTVSPropertyOp16
 70
     1
102
RTVSPropertyOp17
 70
     1
102
RTVSPropertyOp18
 70
     1
102
RTVSPropertyOp19
 70
     1
102
RTVSPropertyOp20
 70
     1
102
RTVSPropertyOp21
 70
     1
102
RTVSPropertyOp22
 70
     1
102
RTVSPropertyOp23
 70
     1
102
RTVSPropertyOp24
 70
     1
102
RTVSPropertyOp25
 70
     1
102
RTVSPropertyOp26
 70
     1
102
RTVSPropertyOp27
 70
     1
102
RTVSPropertyOp28
 70
     1
102
RTVSPropertyOp29
 70
     1
102
RTVSPropertyOp30
 70
     1
102
RTVSPropertyOp31
 70
     1
102
RTVSPropertyOp32
 70
     1
102
RTVSPropertyOp33
 70
     1
102
RTVSPropertyOp34
 70
     1
102
RTVSPropertyOp35
 70
     1
102
RTVSPropertyOp36
 70
     1
102
RTVSPropertyOp37
 70
     1
102
RTVSPropertyOp38
 70
     1
102
RTVSPropertyOp39
 70
     1
102
RTVSPropertyOp40
 70
     1
102
RTVSPropertyOp41
 70
     1
102
RTVSPropertyOp42
 70
     1
102
RTVSPropertyOp43
 70
     1
102
RTVSPropertyOp44
 70
     1
102
RTVSPropertyOp45
 70
     1
102
RTVSPropertyOp46
 70
     1
102
RTVSPropertyOp47
 70
     1
102
RTVSPropertyOp48
 70
     1
102
RTVSPropertyOp49
 70
     1
102
RTVSPropertyOp50
 70
     1
102
RTVSPropertyOp51
 70
     0
102
RTVSPropertyOp52
 70
     0
102
RTVSPropertyOp53
 70
     1
102
RTVSPropertyOp54
 70
     1
102
RTVSPropertyOp55
 70
     1
102
RTVSPropertyOp56
 70
     1
102
RTVSPropertyOp57
 70
     1
102
RTVSPropertyOp58
 70
     1
102
RTVSPropertyOp59
 70
     1
102
RTVSPropertyOp60
 70
     1
102
RTVSPropertyOp61
 70
     1
102
RTVSPropertyOp62
 70
     1
  0
XRECORD
  5
3D24
102
{ACAD_REACTORS
330
3D23
102
}
330
3D23
100
AcDbXrecord
280
     1
102
RTVSPost2010Prop28
280
     0
102
RTVSPost2010PropOp28
 70
     1
102
RTVSPost2010Prop29
280
     1
102
RTVSPost2010PropOp29
 70
     1
102
RTVSPost2010Prop30
280
     1
102
RTVSPost2010PropOp30
 70
     1
102
RTVSPost2010Prop31
280
     0
102
RTVSPost2010PropOp31
 70
     1
102
RTVSPost2010Prop32
280
     0
102
RTVSPost2010PropOp32
 70
     1
102
RTVSPost2010Prop33
280
     0
102
RTVSPost2010PropOp33
 70
     1
102
RTVSPost2010Prop34
280
     0
102
RTVSPost2010PropOp34
 70
     1
102
RTVSPost2010Prop35
280
     0
102
RTVSPost2010PropOp35
 70
     1
102
RTVSPost2010Prop36
280
     0
102
RTVSPost2010PropOp36
 70
     1
102
RTVSPost2010Prop37
 90
       50
102
RTVSPost2010PropOp37
 70
     0
102
RTVSPost2010Prop38
140
0.0
102
RTVSPost2010PropOp38
 70
     0
102
RTVSPost2010Prop39
140
1.0
102
RTVSPost2010PropOp39
 70
     0
102
RTVSPost2010Prop40
 90
        0
102
RTVSPost2010PropOp40
 70
     0
102
RTVSPost2010Prop41ColorIndex
 90
       18
102
RTVSPost2010Prop41ColorRGB
 90
        0
102
RTVSPost2010PropOp41
 70
     0
102
RTVSPost2010Prop42
 90
       50
102
RTVSPost2010PropOp42
 70
     0
102
RTVSPost2010Prop43
 90
        3
102
RTVSPost2010PropOp43
 70
     0
102
RTVSPost2010Prop44ColorIndex
 90
        5
102
RTVSPost2010Prop44ColorRGB
 90
      255
102
RTVSPost2010PropOp44
 70
     0
102
RTVSPost2010Prop45
280
     0
102
RTVSPost2010PropOp45
 70
     1
102
RTVSPost2010Prop46
 90
       50
102
RTVSPost2010PropOp46
 70
     0
102
RTVSPost2010Prop47
 90
       50
102
RTVSPost2010PropOp47
 70
     0
102
RTVSPost2010Prop48
 90
       50
102
RTVSPost2010PropOp48
 70
     0
102
RTVSPost2010Prop49
280
     0
102
RTVSPost2010PropOp49
 70
     1
102
RTVSPost2010Prop50
 90
       50
102
RTVSPost2010PropOp50
 70
     0
102
RTVSPost2010Prop51ColorIndex
 90
      256
102
RTVSPost2010Prop51ColorRGB
 90
-16777216
102
RTVSPost2010PropOp51
 70
     0
102
RTVSPost2010Prop52
140
1.0
102
RTVSPost2010PropOp52
 70
     0
102
RTVSPost2010Prop53
 90
        2
102
RTVSPost2010PropOp53
 70
     0
102
RTVSPost2010Prop54
  1
strokes_ogs.tif
102
RTVSPost2010PropOp54
 70
     0
102
RTVSPost2010Prop55
280
     0
102
RTVSPost2010PropOp55
 70
     1
102
RTVSPost2010Prop56
140
1.0
102
RTVSPost2010PropOp56
 70
     0
102
RTVSPost2010Prop57
140
1.0
102
RTVSPost2010PropOp57
 70
     0
102
RTVSPropertyOp0
 70
     0
102
RTVSPropertyOp1
 70
     0
102
RTVSPropertyOp2
 70
     0
102
RTVSPropertyOp3
 70
     0
102
RTVSPropertyOp4
 70
     0
102
RTVSPropertyOp5
 70
     0
102
RTVSPropertyOp6
 70
     0
102
RTVSPropertyOp7
 70
     0
102
RTVSPropertyOp8
 70
     0
102
RTVSPropertyOp9
 70
     0
102
RTVSPropertyOp10
 70
     0
102
RTVSPropertyOp11
 70
     0
102
RTVSPropertyOp12
 70
     0
102
RTVSPropertyOp13
 70
     0
102
RTVSPropertyOp14
 70
     2
102
RTVSPropertyOp15
 70
     0
102
RTVSPropertyOp16
 70
     0
102
RTVSPropertyOp17
 70
     0
102
RTVSPropertyOp18
 70
     0
102
RTVSPropertyOp19
 70
     0
102
RTVSPropertyOp20
 70
     0
102
RTVSPropertyOp21
 70
     0
102
RTVSPropertyOp22
 70
     0
102
RTVSPropertyOp23
 70
     0
102
RTVSPropertyOp24
 70
     0
102
RTVSPropertyOp25
 70
     0
102
RTVSPropertyOp26
 70
     0
102
RTVSPropertyOp27
 70
     0
102
RTVSPropertyOp28
 70
     1
102
RTVSPropertyOp29
 70
     1
102
RTVSPropertyOp30
 70
     1
102
RTVSPropertyOp31
 70
     1
102
RTVSPropertyOp32
 70
     1
102
RTVSPropertyOp33
 70
     1
102
RTVSPropertyOp34
 70
     1
102
RTVSPropertyOp35
 70
     1
102
RTVSPropertyOp36
 70
     1
102
RTVSPropertyOp37
 70
     0
102
RTVSPropertyOp38
 70
     0
102
RTVSPropertyOp39
 70
     0
102
RTVSPropertyOp40
 70
     0
102
RTVSPropertyOp41
 70
     0
102
RTVSPropertyOp42
 70
     0
102
RTVSPropertyOp43
 70
     0
102
RTVSPropertyOp44
 70
     0
102
RTVSPropertyOp45
 70
     1
102
RTVSPropertyOp46
 70
     0
102
RTVSPropertyOp47
 70
     0
102
RTVSPropertyOp48
 70
     0
102
RTVSPropertyOp49
 70
     1
102
RTVSPropertyOp50
 70
     0
102
RTVSPropertyOp51
 70
     0
102
RTVSPropertyOp52
 70
     0
102
RTVSPropertyOp53
 70
     0
102
RTVSPropertyOp54
 70
     0
102
RTVSPropertyOp55
 70
     1
102
RTVSPropertyOp56
 70
     0
102
RTVSPropertyOp57
 70
     0
102
RTVSPropertyOp58
 70
     0
102
RTVSPropertyOp59
 70
     0
102
RTVSPropertyOp60
 70
     0
102
RTVSPropertyOp61
 70
     0
102
RTVSPropertyOp62
 70
     0
  0
XRECORD
  5
3D12
102
{ACAD_REACTORS
330
3D11
102
}
330
3D11
100
AcDbXrecord
280
     1
102
RTVSPost2010Prop28
280
     0
102
RTVSPost2010PropOp28
 70
     1
102
RTVSPost2010Prop29
280
     1
102
RTVSPost2010PropOp29
 70
     1
102
RTVSPost2010Prop30
280
     1
102
RTVSPost2010PropOp30
 70
     1
102
RTVSPost2010Prop31
280
     0
102
RTVSPost2010PropOp31
 70
     1
102
RTVSPost2010Prop32
280
     0
102
RTVSPost2010PropOp32
 70
     1
102
RTVSPost2010Prop33
280
     0
102
RTVSPost2010PropOp33
 70
     1
102
RTVSPost2010Prop34
280
     0
102
RTVSPost2010PropOp34
 70
     1
102
RTVSPost2010Prop35
280
     0
102
RTVSPost2010PropOp35
 70
     1
102
RTVSPost2010Prop36
280
     0
102
RTVSPost2010PropOp36
 70
     1
102
RTVSPost2010Prop37
 90
       50
102
RTVSPost2010PropOp37
 70
     1
102
RTVSPost2010Prop38
140
0.0
102
RTVSPost2010PropOp38
 70
     1
102
RTVSPost2010Prop39
140
1.0
102
RTVSPost2010PropOp39
 70
     1
102
RTVSPost2010Prop40
 90
        0
102
RTVSPost2010PropOp40
 70
     1
102
RTVSPost2010Prop41ColorIndex
 90
       18
102
RTVSPost2010Prop41ColorRGB
 90
        0
102
RTVSPost2010PropOp41
 70
     1
102
RTVSPost2010Prop42
 90
       50
102
RTVSPost2010PropOp42
 70
     1
102
RTVSPost2010Prop43
 90
        3
102
RTVSPost2010PropOp43
 70
     1
102
RTVSPost2010Prop44ColorIndex
 90
        5
102
RTVSPost2010Prop44ColorRGB
 90
      255
102
RTVSPost2010PropOp44
 70
     1
102
RTVSPost2010Prop45
280
     0
102
RTVSPost2010PropOp45
 70
     1
102
RTVSPost2010Prop46
 90
       50
102
RTVSPost2010PropOp46
 70
     1
102
RTVSPost2010Prop47
 90
       50
102
RTVSPost2010PropOp47
 70
     1
102
RTVSPost2010Prop48
 90
       50
102
RTVSPost2010PropOp48
 70
     1
102
RTVSPost2010Prop49
280
     0
102
RTVSPost2010PropOp49
 70
     1
102
RTVSPost2010Prop50
 90
       50
102
RTVSPost2010PropOp50
 70
     1
102
RTVSPost2010Prop51ColorIndex
 90
      256
102
RTVSPost2010Prop51ColorRGB
 90
-16777216
102
RTVSPost2010PropOp51
 70
     0
102
RTVSPost2010Prop52
140
1.0
102
RTVSPost2010PropOp52
 70
     0
102
RTVSPost2010Prop53
 90
        2
102
RTVSPost2010PropOp53
 70
     1
102
RTVSPost2010Prop54
  1
strokes_ogs.tif
102
RTVSPost2010PropOp54
 70
     1
102
RTVSPost2010Prop55
280
     0
102
RTVSPost2010PropOp55
 70
     1
102
RTVSPost2010Prop56
140
1.0
102
RTVSPost2010PropOp56
 70
     1
102
RTVSPost2010Prop57
140
1.0
102
RTVSPost2010PropOp57
 70
     1
102
RTVSPropertyOp0
 70
     1
102
RTVSPropertyOp1
 70
     1
102
RTVSPropertyOp2
 70
     1
102
RTVSPropertyOp3
 70
     1
102
RTVSPropertyOp4
 70
     1
102
RTVSPropertyOp5
 70
     1
102
RTVSPropertyOp6
 70
     1
102
RTVSPropertyOp7
 70
     1
102
RTVSPropertyOp8
 70
     1
102
RTVSPropertyOp9
 70
     1
102
RTVSPropertyOp10
 70
     1
102
RTVSPropertyOp11
 70
     1
102
RTVSPropertyOp12
 70
     1
102
RTVSPropertyOp13
 70
     1
102
RTVSPropertyOp14
 70
     1
102
RTVSPropertyOp15
 70
     1
102
RTVSPropertyOp16
 70
     1
102
RTVSPropertyOp17
 70
     1
102
RTVSPropertyOp18
 70
     1
102
RTVSPropertyOp19
 70
     1
102
RTVSPropertyOp20
 70
     1
102
RTVSPropertyOp21
 70
     1
102
RTVSPropertyOp22
 70
     1
102
RTVSPropertyOp23
 70
     1
102
RTVSPropertyOp24
 70
     1
102
RTVSPropertyOp25
 70
     1
102
RTVSPropertyOp26
 70
     1
102
RTVSPropertyOp27
 70
     1
102
RTVSPropertyOp28
 70
     1
102
RTVSPropertyOp29
 70
     1
102
RTVSPropertyOp30
 70
     1
102
RTVSPropertyOp31
 70
     1
102
RTVSPropertyOp32
 70
     1
102
RTVSPropertyOp33
 70
     1
102
RTVSPropertyOp34
 70
     1
102
RTVSPropertyOp35
 70
     1
102
RTVSPropertyOp36
 70
     1
102
RTVSPropertyOp37
 70
     1
102
RTVSPropertyOp38
 70
     1
102
RTVSPropertyOp39
 70
     1
102
RTVSPropertyOp40
 70
     1
102
RTVSPropertyOp41
 70
     1
102
RTVSPropertyOp42
 70
     1
102
RTVSPropertyOp43
 70
     1
102
RTVSPropertyOp44
 70
     1
102
RTVSPropertyOp45
 70
     1
102
RTVSPropertyOp46
 70
     1
102
RTVSPropertyOp47
 70
     1
102
RTVSPropertyOp48
 70
     1
102
RTVSPropertyOp49
 70
     1
102
RTVSPropertyOp50
 70
     1
102
RTVSPropertyOp51
 70
     0
102
RTVSPropertyOp52
 70
     0
102
RTVSPropertyOp53
 70
     1
102
RTVSPropertyOp54
 70
     1
102
RTVSPropertyOp55
 70
     1
102
RTVSPropertyOp56
 70
     1
102
RTVSPropertyOp57
 70
     1
102
RTVSPropertyOp58
 70
     1
102
RTVSPropertyOp59
 70
     1
102
RTVSPropertyOp60
 70
     1
102
RTVSPropertyOp61
 70
     1
102
RTVSPropertyOp62
 70
     1
  0
XRECORD
  5
3CF6
102
{ACAD_REACTORS
330
3CF5
102
}
330
3CF5
100
AcDbXrecord
280
     1
102
RTVSPost2010Prop28
280
     0
102
RTVSPost2010PropOp28
 70
     1
102
RTVSPost2010Prop29
280
     1
102
RTVSPost2010PropOp29
 70
     1
102
RTVSPost2010Prop30
280
     1
102
RTVSPost2010PropOp30
 70
     1
102
RTVSPost2010Prop31
280
     0
102
RTVSPost2010PropOp31
 70
     1
102
RTVSPost2010Prop32
280
     0
102
RTVSPost2010PropOp32
 70
     1
102
RTVSPost2010Prop33
280
     0
102
RTVSPost2010PropOp33
 70
     1
102
RTVSPost2010Prop34
280
     0
102
RTVSPost2010PropOp34
 70
     1
102
RTVSPost2010Prop35
280
     0
102
RTVSPost2010PropOp35
 70
     1
102
RTVSPost2010Prop36
280
     0
102
RTVSPost2010PropOp36
 70
     1
102
RTVSPost2010Prop37
 90
       50
102
RTVSPost2010PropOp37
 70
     1
102
RTVSPost2010Prop38
140
0.0
102
RTVSPost2010PropOp38
 70
     1
102
RTVSPost2010Prop39
140
1.0
102
RTVSPost2010PropOp39
 70
     1
102
RTVSPost2010Prop40
 90
        0
102
RTVSPost2010PropOp40
 70
     1
102
RTVSPost2010Prop41ColorIndex
 90
       18
102
RTVSPost2010Prop41ColorRGB
 90
        0
102
RTVSPost2010PropOp41
 70
     1
102
RTVSPost2010Prop42
 90
       50
102
RTVSPost2010PropOp42
 70
     1
102
RTVSPost2010Prop43
 90
        3
102
RTVSPost2010PropOp43
 70
     1
102
RTVSPost2010Prop44ColorIndex
 90
        5
102
RTVSPost2010Prop44ColorRGB
 90
      255
102
RTVSPost2010PropOp44
 70
     1
102
RTVSPost2010Prop45
280
     0
102
RTVSPost2010PropOp45
 70
     1
102
RTVSPost2010Prop46
 90
       50
102
RTVSPost2010PropOp46
 70
     1
102
RTVSPost2010Prop47
 90
       50
102
RTVSPost2010PropOp47
 70
     1
102
RTVSPost2010Prop48
 90
       50
102
RTVSPost2010PropOp48
 70
     1
102
RTVSPost2010Prop49
280
     0
102
RTVSPost2010PropOp49
 70
     1
102
RTVSPost2010Prop50
 90
       50
102
RTVSPost2010PropOp50
 70
     1
102
RTVSPost2010Prop51ColorIndex
 90
      256
102
RTVSPost2010Prop51ColorRGB
 90
-16777216
102
RTVSPost2010PropOp51
 70
     0
102
RTVSPost2010Prop52
140
1.0
102
RTVSPost2010PropOp52
 70
     0
102
RTVSPost2010Prop53
 90
        2
102
RTVSPost2010PropOp53
 70
     1
102
RTVSPost2010Prop54
  1
strokes_ogs.tif
102
RTVSPost2010PropOp54
 70
     1
102
RTVSPost2010Prop55
280
     0
102
RTVSPost2010PropOp55
 70
     1
102
RTVSPost2010Prop56
140
1.0
102
RTVSPost2010PropOp56
 70
     1
102
RTVSPost2010Prop57
140
1.0
102
RTVSPost2010PropOp57
 70
     1
102
RTVSPropertyOp0
 70
     1
102
RTVSPropertyOp1
 70
     1
102
RTVSPropertyOp2
 70
     1
102
RTVSPropertyOp3
 70
     1
102
RTVSPropertyOp4
 70
     1
102
RTVSPropertyOp5
 70
     1
102
RTVSPropertyOp6
 70
     1
102
RTVSPropertyOp7
 70
     1
102
RTVSPropertyOp8
 70
     1
102
RTVSPropertyOp9
 70
     1
102
RTVSPropertyOp10
 70
     1
102
RTVSPropertyOp11
 70
     1
102
RTVSPropertyOp12
 70
     1
102
RTVSPropertyOp13
 70
     1
102
RTVSPropertyOp14
 70
     1
102
RTVSPropertyOp15
 70
     1
102
RTVSPropertyOp16
 70
     1
102
RTVSPropertyOp17
 70
     1
102
RTVSPropertyOp18
 70
     1
102
RTVSPropertyOp19
 70
     1
102
RTVSPropertyOp20
 70
     1
102
RTVSPropertyOp21
 70
     1
102
RTVSPropertyOp22
 70
     1
102
RTVSPropertyOp23
 70
     1
102
RTVSPropertyOp24
 70
     1
102
RTVSPropertyOp25
 70
     1
102
RTVSPropertyOp26
 70
     1
102
RTVSPropertyOp27
 70
     1
102
RTVSPropertyOp28
 70
     1
102
RTVSPropertyOp29
 70
     1
102
RTVSPropertyOp30
 70
     1
102
RTVSPropertyOp31
 70
     1
102
RTVSPropertyOp32
 70
     1
102
RTVSPropertyOp33
 70
     1
102
RTVSPropertyOp34
 70
     1
102
RTVSPropertyOp35
 70
     1
102
RTVSPropertyOp36
 70
     1
102
RTVSPropertyOp37
 70
     1
102
RTVSPropertyOp38
 70
     1
102
RTVSPropertyOp39
 70
     1
102
RTVSPropertyOp40
 70
     1
102
RTVSPropertyOp41
 70
     1
102
RTVSPropertyOp42
 70
     1
102
RTVSPropertyOp43
 70
     1
102
RTVSPropertyOp44
 70
     1
102
RTVSPropertyOp45
 70
     1
102
RTVSPropertyOp46
 70
     1
102
RTVSPropertyOp47
 70
     1
102
RTVSPropertyOp48
 70
     1
102
RTVSPropertyOp49
 70
     1
102
RTVSPropertyOp50
 70
     1
102
RTVSPropertyOp51
 70
     0
102
RTVSPropertyOp52
 70
     0
102
RTVSPropertyOp53
 70
     1
102
RTVSPropertyOp54
 70
     1
102
RTVSPropertyOp55
 70
     1
102
RTVSPropertyOp56
 70
     1
102
RTVSPropertyOp57
 70
     1
102
RTVSPropertyOp58
 70
     1
102
RTVSPropertyOp59
 70
     1
102
RTVSPropertyOp60
 70
     1
102
RTVSPropertyOp61
 70
     1
102
RTVSPropertyOp62
 70
     1
  0
XRECORD
  5
3CF8
102
{ACAD_REACTORS
330
3CF7
102
}
330
3CF7
100
AcDbXrecord
280
     1
102
RTVSPost2010Prop28
280
     0
102
RTVSPost2010PropOp28
 70
     1
102
RTVSPost2010Prop29
280
     1
102
RTVSPost2010PropOp29
 70
     1
102
RTVSPost2010Prop30
280
     1
102
RTVSPost2010PropOp30
 70
     1
102
RTVSPost2010Prop31
280
     0
102
RTVSPost2010PropOp31
 70
     1
102
RTVSPost2010Prop32
280
     0
102
RTVSPost2010PropOp32
 70
     1
102
RTVSPost2010Prop33
280
     0
102
RTVSPost2010PropOp33
 70
     1
102
RTVSPost2010Prop34
280
     0
102
RTVSPost2010PropOp34
 70
     1
102
RTVSPost2010Prop35
280
     0
102
RTVSPost2010PropOp35
 70
     1
102
RTVSPost2010Prop36
280
     0
102
RTVSPost2010PropOp36
 70
     1
102
RTVSPost2010Prop37
 90
       50
102
RTVSPost2010PropOp37
 70
     1
102
RTVSPost2010Prop38
140
0.0
102
RTVSPost2010PropOp38
 70
     1
102
RTVSPost2010Prop39
140
1.0
102
RTVSPost2010PropOp39
 70
     1
102
RTVSPost2010Prop40
 90
        0
102
RTVSPost2010PropOp40
 70
     1
102
RTVSPost2010Prop41ColorIndex
 90
       18
102
RTVSPost2010Prop41ColorRGB
 90
        0
102
RTVSPost2010PropOp41
 70
     1
102
RTVSPost2010Prop42
 90
       50
102
RTVSPost2010PropOp42
 70
     1
102
RTVSPost2010Prop43
 90
        3
102
RTVSPost2010PropOp43
 70
     1
102
RTVSPost2010Prop44ColorIndex
 90
        5
102
RTVSPost2010Prop44ColorRGB
 90
      255
102
RTVSPost2010PropOp44
 70
     1
102
RTVSPost2010Prop45
280
     0
102
RTVSPost2010PropOp45
 70
     1
102
RTVSPost2010Prop46
 90
       50
102
RTVSPost2010PropOp46
 70
     1
102
RTVSPost2010Prop47
 90
       50
102
RTVSPost2010PropOp47
 70
     1
102
RTVSPost2010Prop48
 90
       50
102
RTVSPost2010PropOp48
 70
     1
102
RTVSPost2010Prop49
280
     0
102
RTVSPost2010PropOp49
 70
     1
102
RTVSPost2010Prop50
 90
       50
102
RTVSPost2010PropOp50
 70
     1
102
RTVSPost2010Prop51ColorIndex
 90
      256
102
RTVSPost2010Prop51ColorRGB
 90
-16777216
102
RTVSPost2010PropOp51
 70
     0
102
RTVSPost2010Prop52
140
1.0
102
RTVSPost2010PropOp52
 70
     0
102
RTVSPost2010Prop53
 90
        2
102
RTVSPost2010PropOp53
 70
     1
102
RTVSPost2010Prop54
  1
strokes_ogs.tif
102
RTVSPost2010PropOp54
 70
     1
102
RTVSPost2010Prop55
280
     0
102
RTVSPost2010PropOp55
 70
     1
102
RTVSPost2010Prop56
140
1.0
102
RTVSPost2010PropOp56
 70
     1
102
RTVSPost2010Prop57
140
1.0
102
RTVSPost2010PropOp57
 70
     1
102
RTVSPropertyOp0
 70
     1
102
RTVSPropertyOp1
 70
     1
102
RTVSPropertyOp2
 70
     1
102
RTVSPropertyOp3
 70
     1
102
RTVSPropertyOp4
 70
     1
102
RTVSPropertyOp5
 70
     1
102
RTVSPropertyOp6
 70
     1
102
RTVSPropertyOp7
 70
     1
102
RTVSPropertyOp8
 70
     1
102
RTVSPropertyOp9
 70
     1
102
RTVSPropertyOp10
 70
     1
102
RTVSPropertyOp11
 70
     1
102
RTVSPropertyOp12
 70
     1
102
RTVSPropertyOp13
 70
     1
102
RTVSPropertyOp14
 70
     1
102
RTVSPropertyOp15
 70
     1
102
RTVSPropertyOp16
 70
     1
102
RTVSPropertyOp17
 70
     1
102
RTVSPropertyOp18
 70
     1
102
RTVSPropertyOp19
 70
     1
102
RTVSPropertyOp20
 70
     1
102
RTVSPropertyOp21
 70
     1
102
RTVSPropertyOp22
 70
     1
102
RTVSPropertyOp23
 70
     1
102
RTVSPropertyOp24
 70
     1
102
RTVSPropertyOp25
 70
     1
102
RTVSPropertyOp26
 70
     1
102
RTVSPropertyOp27
 70
     1
102
RTVSPropertyOp28
 70
     1
102
RTVSPropertyOp29
 70
     1
102
RTVSPropertyOp30
 70
     1
102
RTVSPropertyOp31
 70
     1
102
RTVSPropertyOp32
 70
     1
102
RTVSPropertyOp33
 70
     1
102
RTVSPropertyOp34
 70
     1
102
RTVSPropertyOp35
 70
     1
102
RTVSPropertyOp36
 70
     1
102
RTVSPropertyOp37
 70
     1
102
RTVSPropertyOp38
 70
     1
102
RTVSPropertyOp39
 70
     1
102
RTVSPropertyOp40
 70
     1
102
RTVSPropertyOp41
 70
     1
102
RTVSPropertyOp42
 70
     1
102
RTVSPropertyOp43
 70
     1
102
RTVSPropertyOp44
 70
     1
102
RTVSPropertyOp45
 70
     1
102
RTVSPropertyOp46
 70
     1
102
RTVSPropertyOp47
 70
     1
102
RTVSPropertyOp48
 70
     1
102
RTVSPropertyOp49
 70
     1
102
RTVSPropertyOp50
 70
     1
102
RTVSPropertyOp51
 70
     0
102
RTVSPropertyOp52
 70
     0
102
RTVSPropertyOp53
 70
     1
102
RTVSPropertyOp54
 70
     1
102
RTVSPropertyOp55
 70
     1
102
RTVSPropertyOp56
 70
     1
102
RTVSPropertyOp57
 70
     1
102
RTVSPropertyOp58
 70
     1
102
RTVSPropertyOp59
 70
     1
102
RTVSPropertyOp60
 70
     1
102
RTVSPropertyOp61
 70
     1
102
RTVSPropertyOp62
 70
     1
  0
XRECORD
  5
3CFA
102
{ACAD_REACTORS
330
3CF9
102
}
330
3CF9
100
AcDbXrecord
280
     1
102
RTVSPost2010Prop28
280
     0
102
RTVSPost2010PropOp28
 70
     1
102
RTVSPost2010Prop29
280
     1
102
RTVSPost2010PropOp29
 70
     1
102
RTVSPost2010Prop30
280
     1
102
RTVSPost2010PropOp30
 70
     1
102
RTVSPost2010Prop31
280
     0
102
RTVSPost2010PropOp31
 70
     1
102
RTVSPost2010Prop32
280
     0
102
RTVSPost2010PropOp32
 70
     1
102
RTVSPost2010Prop33
280
     0
102
RTVSPost2010PropOp33
 70
     1
102
RTVSPost2010Prop34
280
     0
102
RTVSPost2010PropOp34
 70
     1
102
RTVSPost2010Prop35
280
     0
102
RTVSPost2010PropOp35
 70
     1
102
RTVSPost2010Prop36
280
     0
102
RTVSPost2010PropOp36
 70
     1
102
RTVSPost2010Prop37
 90
       50
102
RTVSPost2010PropOp37
 70
     1
102
RTVSPost2010Prop38
140
0.0
102
RTVSPost2010PropOp38
 70
     1
102
RTVSPost2010Prop39
140
1.0
102
RTVSPost2010PropOp39
 70
     1
102
RTVSPost2010Prop40
 90
        0
102
RTVSPost2010PropOp40
 70
     1
102
RTVSPost2010Prop41ColorIndex
 90
       18
102
RTVSPost2010Prop41ColorRGB
 90
        0
102
RTVSPost2010PropOp41
 70
     1
102
RTVSPost2010Prop42
 90
       50
102
RTVSPost2010PropOp42
 70
     1
102
RTVSPost2010Prop43
 90
        3
102
RTVSPost2010PropOp43
 70
     1
102
RTVSPost2010Prop44ColorIndex
 90
        5
102
RTVSPost2010Prop44ColorRGB
 90
      255
102
RTVSPost2010PropOp44
 70
     1
102
RTVSPost2010Prop45
280
     0
102
RTVSPost2010PropOp45
 70
     1
102
RTVSPost2010Prop46
 90
       50
102
RTVSPost2010PropOp46
 70
     1
102
RTVSPost2010Prop47
 90
       50
102
RTVSPost2010PropOp47
 70
     1
102
RTVSPost2010Prop48
 90
       50
102
RTVSPost2010PropOp48
 70
     1
102
RTVSPost2010Prop49
280
     0
102
RTVSPost2010PropOp49
 70
     1
102
RTVSPost2010Prop50
 90
       50
102
RTVSPost2010PropOp50
 70
     1
102
RTVSPost2010Prop51ColorIndex
 90
      256
102
RTVSPost2010Prop51ColorRGB
 90
-16777216
102
RTVSPost2010PropOp51
 70
     0
102
RTVSPost2010Prop52
140
1.0
102
RTVSPost2010PropOp52
 70
     0
102
RTVSPost2010Prop53
 90
        2
102
RTVSPost2010PropOp53
 70
     1
102
RTVSPost2010Prop54
  1
strokes_ogs.tif
102
RTVSPost2010PropOp54
 70
     1
102
RTVSPost2010Prop55
280
     0
102
RTVSPost2010PropOp55
 70
     1
102
RTVSPost2010Prop56
140
1.0
102
RTVSPost2010PropOp56
 70
     1
102
RTVSPost2010Prop57
140
1.0
102
RTVSPost2010PropOp57
 70
     1
102
RTVSPropertyOp0
 70
     1
102
RTVSPropertyOp1
 70
     1
102
RTVSPropertyOp2
 70
     1
102
RTVSPropertyOp3
 70
     1
102
RTVSPropertyOp4
 70
     1
102
RTVSPropertyOp5
 70
     1
102
RTVSPropertyOp6
 70
     1
102
RTVSPropertyOp7
 70
     1
102
RTVSPropertyOp8
 70
     1
102
RTVSPropertyOp9
 70
     1
102
RTVSPropertyOp10
 70
     1
102
RTVSPropertyOp11
 70
     1
102
RTVSPropertyOp12
 70
     1
102
RTVSPropertyOp13
 70
     1
102
RTVSPropertyOp14
 70
     1
102
RTVSPropertyOp15
 70
     1
102
RTVSPropertyOp16
 70
     1
102
RTVSPropertyOp17
 70
     1
102
RTVSPropertyOp18
 70
     1
102
RTVSPropertyOp19
 70
     1
102
RTVSPropertyOp20
 70
     1
102
RTVSPropertyOp21
 70
     1
102
RTVSPropertyOp22
 70
     1
102
RTVSPropertyOp23
 70
     1
102
RTVSPropertyOp24
 70
     1
102
RTVSPropertyOp25
 70
     1
102
RTVSPropertyOp26
 70
     1
102
RTVSPropertyOp27
 70
     1
102
RTVSPropertyOp28
 70
     1
102
RTVSPropertyOp29
 70
     1
102
RTVSPropertyOp30
 70
     1
102
RTVSPropertyOp31
 70
     1
102
RTVSPropertyOp32
 70
     1
102
RTVSPropertyOp33
 70
     1
102
RTVSPropertyOp34
 70
     1
102
RTVSPropertyOp35
 70
     1
102
RTVSPropertyOp36
 70
     1
102
RTVSPropertyOp37
 70
     1
102
RTVSPropertyOp38
 70
     1
102
RTVSPropertyOp39
 70
     1
102
RTVSPropertyOp40
 70
     1
102
RTVSPropertyOp41
 70
     1
102
RTVSPropertyOp42
 70
     1
102
RTVSPropertyOp43
 70
     1
102
RTVSPropertyOp44
 70
     1
102
RTVSPropertyOp45
 70
     1
102
RTVSPropertyOp46
 70
     1
102
RTVSPropertyOp47
 70
     1
102
RTVSPropertyOp48
 70
     1
102
RTVSPropertyOp49
 70
     1
102
RTVSPropertyOp50
 70
     1
102
RTVSPropertyOp51
 70
     0
102
RTVSPropertyOp52
 70
     0
102
RTVSPropertyOp53
 70
     1
102
RTVSPropertyOp54
 70
     1
102
RTVSPropertyOp55
 70
     1
102
RTVSPropertyOp56
 70
     1
102
RTVSPropertyOp57
 70
     1
102
RTVSPropertyOp58
 70
     1
102
RTVSPropertyOp59
 70
     1
102
RTVSPropertyOp60
 70
     1
102
RTVSPropertyOp61
 70
     1
102
RTVSPropertyOp62
 70
     1
  0
XRECORD
  5
3CFC
102
{ACAD_REACTORS
330
3CFB
102
}
330
3CFB
100
AcDbXrecord
280
     1
102
RTVSPost2010Prop28
280
     0
102
RTVSPost2010PropOp28
 70
     1
102
RTVSPost2010Prop29
280
     1
102
RTVSPost2010PropOp29
 70
     1
102
RTVSPost2010Prop30
280
     1
102
RTVSPost2010PropOp30
 70
     1
102
RTVSPost2010Prop31
280
     0
102
RTVSPost2010PropOp31
 70
     1
102
RTVSPost2010Prop32
280
     0
102
RTVSPost2010PropOp32
 70
     1
102
RTVSPost2010Prop33
280
     0
102
RTVSPost2010PropOp33
 70
     1
102
RTVSPost2010Prop34
280
     0
102
RTVSPost2010PropOp34
 70
     1
102
RTVSPost2010Prop35
280
     0
102
RTVSPost2010PropOp35
 70
     1
102
RTVSPost2010Prop36
280
     0
102
RTVSPost2010PropOp36
 70
     1
102
RTVSPost2010Prop37
 90
       50
102
RTVSPost2010PropOp37
 70
     1
102
RTVSPost2010Prop38
140
0.0
102
RTVSPost2010PropOp38
 70
     1
102
RTVSPost2010Prop39
140
1.0
102
RTVSPost2010PropOp39
 70
     1
102
RTVSPost2010Prop40
 90
        0
102
RTVSPost2010PropOp40
 70
     1
102
RTVSPost2010Prop41ColorIndex
 90
       18
102
RTVSPost2010Prop41ColorRGB
 90
        0
102
RTVSPost2010PropOp41
 70
     1
102
RTVSPost2010Prop42
 90
       50
102
RTVSPost2010PropOp42
 70
     1
102
RTVSPost2010Prop43
 90
        3
102
RTVSPost2010PropOp43
 70
     1
102
RTVSPost2010Prop44ColorIndex
 90
        5
102
RTVSPost2010Prop44ColorRGB
 90
      255
102
RTVSPost2010PropOp44
 70
     1
102
RTVSPost2010Prop45
280
     0
102
RTVSPost2010PropOp45
 70
     1
102
RTVSPost2010Prop46
 90
       50
102
RTVSPost2010PropOp46
 70
     1
102
RTVSPost2010Prop47
 90
       50
102
RTVSPost2010PropOp47
 70
     1
102
RTVSPost2010Prop48
 90
       50
102
RTVSPost2010PropOp48
 70
     1
102
RTVSPost2010Prop49
280
     0
102
RTVSPost2010PropOp49
 70
     1
102
RTVSPost2010Prop50
 90
       50
102
RTVSPost2010PropOp50
 70
     1
102
RTVSPost2010Prop51ColorIndex
 90
      256
102
RTVSPost2010Prop51ColorRGB
 90
-16777216
102
RTVSPost2010PropOp51
 70
     0
102
RTVSPost2010Prop52
140
1.0
102
RTVSPost2010PropOp52
 70
     0
102
RTVSPost2010Prop53
 90
        2
102
RTVSPost2010PropOp53
 70
     1
102
RTVSPost2010Prop54
  1
strokes_ogs.tif
102
RTVSPost2010PropOp54
 70
     1
102
RTVSPost2010Prop55
280
     0
102
RTVSPost2010PropOp55
 70
     1
102
RTVSPost2010Prop56
140
1.0
102
RTVSPost2010PropOp56
 70
     1
102
RTVSPost2010Prop57
140
1.0
102
RTVSPost2010PropOp57
 70
     1
102
RTVSPropertyOp0
 70
     1
102
RTVSPropertyOp1
 70
     1
102
RTVSPropertyOp2
 70
     1
102
RTVSPropertyOp3
 70
     1
102
RTVSPropertyOp4
 70
     1
102
RTVSPropertyOp5
 70
     1
102
RTVSPropertyOp6
 70
     1
102
RTVSPropertyOp7
 70
     1
102
RTVSPropertyOp8
 70
     1
102
RTVSPropertyOp9
 70
     1
102
RTVSPropertyOp10
 70
     1
102
RTVSPropertyOp11
 70
     1
102
RTVSPropertyOp12
 70
     1
102
RTVSPropertyOp13
 70
     1
102
RTVSPropertyOp14
 70
     1
102
RTVSPropertyOp15
 70
     1
102
RTVSPropertyOp16
 70
     1
102
RTVSPropertyOp17
 70
     1
102
RTVSPropertyOp18
 70
     1
102
RTVSPropertyOp19
 70
     1
102
RTVSPropertyOp20
 70
     1
102
RTVSPropertyOp21
 70
     1
102
RTVSPropertyOp22
 70
     1
102
RTVSPropertyOp23
 70
     1
102
RTVSPropertyOp24
 70
     1
102
RTVSPropertyOp25
 70
     1
102
RTVSPropertyOp26
 70
     1
102
RTVSPropertyOp27
 70
     1
102
RTVSPropertyOp28
 70
     1
102
RTVSPropertyOp29
 70
     1
102
RTVSPropertyOp30
 70
     1
102
RTVSPropertyOp31
 70
     1
102
RTVSPropertyOp32
 70
     1
102
RTVSPropertyOp33
 70
     1
102
RTVSPropertyOp34
 70
     1
102
RTVSPropertyOp35
 70
     1
102
RTVSPropertyOp36
 70
     1
102
RTVSPropertyOp37
 70
     1
102
RTVSPropertyOp38
 70
     1
102
RTVSPropertyOp39
 70
     1
102
RTVSPropertyOp40
 70
     1
102
RTVSPropertyOp41
 70
     1
102
RTVSPropertyOp42
 70
     1
102
RTVSPropertyOp43
 70
     1
102
RTVSPropertyOp44
 70
     1
102
RTVSPropertyOp45
 70
     1
102
RTVSPropertyOp46
 70
     1
102
RTVSPropertyOp47
 70
     1
102
RTVSPropertyOp48
 70
     1
102
RTVSPropertyOp49
 70
     1
102
RTVSPropertyOp50
 70
     1
102
RTVSPropertyOp51
 70
     0
102
RTVSPropertyOp52
 70
     0
102
RTVSPropertyOp53
 70
     1
102
RTVSPropertyOp54
 70
     1
102
RTVSPropertyOp55
 70
     1
102
RTVSPropertyOp56
 70
     1
102
RTVSPropertyOp57
 70
     1
102
RTVSPropertyOp58
 70
     1
102
RTVSPropertyOp59
 70
     1
102
RTVSPropertyOp60
 70
     1
102
RTVSPropertyOp61
 70
     1
102
RTVSPropertyOp62
 70
     1
  0
XRECORD
  5
3D04
102
{ACAD_REACTORS
330
3D03
102
}
330
3D03
100
AcDbXrecord
280
     1
102
RTVSPost2010Prop28
280
     0
102
RTVSPost2010PropOp28
 70
     1
102
RTVSPost2010Prop29
280
     1
102
RTVSPost2010PropOp29
 70
     1
102
RTVSPost2010Prop30
280
     1
102
RTVSPost2010PropOp30
 70
     1
102
RTVSPost2010Prop31
280
     0
102
RTVSPost2010PropOp31
 70
     1
102
RTVSPost2010Prop32
280
     0
102
RTVSPost2010PropOp32
 70
     1
102
RTVSPost2010Prop33
280
     0
102
RTVSPost2010PropOp33
 70
     1
102
RTVSPost2010Prop34
280
     0
102
RTVSPost2010PropOp34
 70
     1
102
RTVSPost2010Prop35
280
     0
102
RTVSPost2010PropOp35
 70
     1
102
RTVSPost2010Prop36
280
     0
102
RTVSPost2010PropOp36
 70
     1
102
RTVSPost2010Prop37
 90
       50
102
RTVSPost2010PropOp37
 70
     1
102
RTVSPost2010Prop38
140
0.0
102
RTVSPost2010PropOp38
 70
     1
102
RTVSPost2010Prop39
140
1.0
102
RTVSPost2010PropOp39
 70
     1
102
RTVSPost2010Prop40
 90
        0
102
RTVSPost2010PropOp40
 70
     1
102
RTVSPost2010Prop41ColorIndex
 90
       18
102
RTVSPost2010Prop41ColorRGB
 90
        0
102
RTVSPost2010PropOp41
 70
     1
102
RTVSPost2010Prop42
 90
       50
102
RTVSPost2010PropOp42
 70
     1
102
RTVSPost2010Prop43
 90
        3
102
RTVSPost2010PropOp43
 70
     1
102
RTVSPost2010Prop44ColorIndex
 90
        5
102
RTVSPost2010Prop44ColorRGB
 90
      255
102
RTVSPost2010PropOp44
 70
     1
102
RTVSPost2010Prop45
280
     0
102
RTVSPost2010PropOp45
 70
     1
102
RTVSPost2010Prop46
 90
       50
102
RTVSPost2010PropOp46
 70
     1
102
RTVSPost2010Prop47
 90
       50
102
RTVSPost2010PropOp47
 70
     1
102
RTVSPost2010Prop48
 90
       50
102
RTVSPost2010PropOp48
 70
     1
102
RTVSPost2010Prop49
280
     0
102
RTVSPost2010PropOp49
 70
     1
102
RTVSPost2010Prop50
 90
       50
102
RTVSPost2010PropOp50
 70
     1
102
RTVSPost2010Prop51ColorIndex
 90
      256
102
RTVSPost2010Prop51ColorRGB
 90
-16777216
102
RTVSPost2010PropOp51
 70
     0
102
RTVSPost2010Prop52
140
1.0
102
RTVSPost2010PropOp52
 70
     0
102
RTVSPost2010Prop53
 90
        2
102
RTVSPost2010PropOp53
 70
     1
102
RTVSPost2010Prop54
  1
strokes_ogs.tif
102
RTVSPost2010PropOp54
 70
     1
102
RTVSPost2010Prop55
280
     0
102
RTVSPost2010PropOp55
 70
     1
102
RTVSPost2010Prop56
140
1.0
102
RTVSPost2010PropOp56
 70
     1
102
RTVSPost2010Prop57
140
1.0
102
RTVSPost2010PropOp57
 70
     1
102
RTVSPropertyOp0
 70
     1
102
RTVSPropertyOp1
 70
     1
102
RTVSPropertyOp2
 70
     1
102
RTVSPropertyOp3
 70
     1
102
RTVSPropertyOp4
 70
     1
102
RTVSPropertyOp5
 70
     1
102
RTVSPropertyOp6
 70
     1
102
RTVSPropertyOp7
 70
     1
102
RTVSPropertyOp8
 70
     1
102
RTVSPropertyOp9
 70
     1
102
RTVSPropertyOp10
 70
     1
102
RTVSPropertyOp11
 70
     1
102
RTVSPropertyOp12
 70
     1
102
RTVSPropertyOp13
 70
     1
102
RTVSPropertyOp14
 70
     1
102
RTVSPropertyOp15
 70
     1
102
RTVSPropertyOp16
 70
     1
102
RTVSPropertyOp17
 70
     1
102
RTVSPropertyOp18
 70
     1
102
RTVSPropertyOp19
 70
     1
102
RTVSPropertyOp20
 70
     1
102
RTVSPropertyOp21
 70
     1
102
RTVSPropertyOp22
 70
     1
102
RTVSPropertyOp23
 70
     1
102
RTVSPropertyOp24
 70
     1
102
RTVSPropertyOp25
 70
     1
102
RTVSPropertyOp26
 70
     1
102
RTVSPropertyOp27
 70
     1
102
RTVSPropertyOp28
 70
     1
102
RTVSPropertyOp29
 70
     1
102
RTVSPropertyOp30
 70
     1
102
RTVSPropertyOp31
 70
     1
102
RTVSPropertyOp32
 70
     1
102
RTVSPropertyOp33
 70
     1
102
RTVSPropertyOp34
 70
     1
102
RTVSPropertyOp35
 70
     1
102
RTVSPropertyOp36
 70
     1
102
RTVSPropertyOp37
 70
     1
102
RTVSPropertyOp38
 70
     1
102
RTVSPropertyOp39
 70
     1
102
RTVSPropertyOp40
 70
     1
102
RTVSPropertyOp41
 70
     1
102
RTVSPropertyOp42
 70
     1
102
RTVSPropertyOp43
 70
     1
102
RTVSPropertyOp44
 70
     1
102
RTVSPropertyOp45
 70
     1
102
RTVSPropertyOp46
 70
     1
102
RTVSPropertyOp47
 70
     1
102
RTVSPropertyOp48
 70
     1
102
RTVSPropertyOp49
 70
     1
102
RTVSPropertyOp50
 70
     1
102
RTVSPropertyOp51
 70
     0
102
RTVSPropertyOp52
 70
     0
102
RTVSPropertyOp53
 70
     1
102
RTVSPropertyOp54
 70
     1
102
RTVSPropertyOp55
 70
     1
102
RTVSPropertyOp56
 70
     1
102
RTVSPropertyOp57
 70
     1
102
RTVSPropertyOp58
 70
     1
102
RTVSPropertyOp59
 70
     1
102
RTVSPropertyOp60
 70
     1
102
RTVSPropertyOp61
 70
     1
102
RTVSPropertyOp62
 70
     1
  0
XRECORD
  5
3D20
102
{ACAD_REACTORS
330
3D1F
102
}
330
3D1F
100
AcDbXrecord
280
     1
102
RTVSPost2010Prop28
280
     0
102
RTVSPost2010PropOp28
 70
     1
102
RTVSPost2010Prop29
280
     1
102
RTVSPost2010PropOp29
 70
     1
102
RTVSPost2010Prop30
280
     1
102
RTVSPost2010PropOp30
 70
     1
102
RTVSPost2010Prop31
280
     0
102
RTVSPost2010PropOp31
 70
     1
102
RTVSPost2010Prop32
280
     0
102
RTVSPost2010PropOp32
 70
     1
102
RTVSPost2010Prop33
280
     0
102
RTVSPost2010PropOp33
 70
     1
102
RTVSPost2010Prop34
280
     0
102
RTVSPost2010PropOp34
 70
     1
102
RTVSPost2010Prop35
280
     0
102
RTVSPost2010PropOp35
 70
     1
102
RTVSPost2010Prop36
280
     0
102
RTVSPost2010PropOp36
 70
     1
102
RTVSPost2010Prop37
 90
       50
102
RTVSPost2010PropOp37
 70
     0
102
RTVSPost2010Prop38
140
0.0
102
RTVSPost2010PropOp38
 70
     0
102
RTVSPost2010Prop39
140
1.0
102
RTVSPost2010PropOp39
 70
     0
102
RTVSPost2010Prop40
 90
        0
102
RTVSPost2010PropOp40
 70
     0
102
RTVSPost2010Prop41ColorIndex
 90
       18
102
RTVSPost2010Prop41ColorRGB
 90
        0
102
RTVSPost2010PropOp41
 70
     0
102
RTVSPost2010Prop42
 90
       50
102
RTVSPost2010PropOp42
 70
     0
102
RTVSPost2010Prop43
 90
        3
102
RTVSPost2010PropOp43
 70
     0
102
RTVSPost2010Prop44ColorIndex
 90
        5
102
RTVSPost2010Prop44ColorRGB
 90
      255
102
RTVSPost2010PropOp44
 70
     0
102
RTVSPost2010Prop45
280
     0
102
RTVSPost2010PropOp45
 70
     1
102
RTVSPost2010Prop46
 90
       50
102
RTVSPost2010PropOp46
 70
     0
102
RTVSPost2010Prop47
 90
       50
102
RTVSPost2010PropOp47
 70
     0
102
RTVSPost2010Prop48
 90
       50
102
RTVSPost2010PropOp48
 70
     0
102
RTVSPost2010Prop49
280
     0
102
RTVSPost2010PropOp49
 70
     1
102
RTVSPost2010Prop50
 90
       50
102
RTVSPost2010PropOp50
 70
     0
102
RTVSPost2010Prop51ColorIndex
 90
      256
102
RTVSPost2010Prop51ColorRGB
 90
-16777216
102
RTVSPost2010PropOp51
 70
     0
102
RTVSPost2010Prop52
140
1.0
102
RTVSPost2010PropOp52
 70
     0
102
RTVSPost2010Prop53
 90
        2
102
RTVSPost2010PropOp53
 70
     0
102
RTVSPost2010Prop54
  1
strokes_ogs.tif
102
RTVSPost2010PropOp54
 70
     0
102
RTVSPost2010Prop55
280
     0
102
RTVSPost2010PropOp55
 70
     1
102
RTVSPost2010Prop56
140
1.0
102
RTVSPost2010PropOp56
 70
     0
102
RTVSPost2010Prop57
140
1.0
102
RTVSPost2010PropOp57
 70
     0
102
RTVSPropertyOp0
 70
     0
102
RTVSPropertyOp1
 70
     0
102
RTVSPropertyOp2
 70
     0
102
RTVSPropertyOp3
 70
     0
102
RTVSPropertyOp4
 70
     0
102
RTVSPropertyOp5
 70
     0
102
RTVSPropertyOp6
 70
     0
102
RTVSPropertyOp7
 70
     0
102
RTVSPropertyOp8
 70
     0
102
RTVSPropertyOp9
 70
     0
102
RTVSPropertyOp10
 70
     0
102
RTVSPropertyOp11
 70
     0
102
RTVSPropertyOp12
 70
     0
102
RTVSPropertyOp13
 70
     0
102
RTVSPropertyOp14
 70
     2
102
RTVSPropertyOp15
 70
     0
102
RTVSPropertyOp16
 70
     0
102
RTVSPropertyOp17
 70
     0
102
RTVSPropertyOp18
 70
     0
102
RTVSPropertyOp19
 70
     0
102
RTVSPropertyOp20
 70
     0
102
RTVSPropertyOp21
 70
     0
102
RTVSPropertyOp22
 70
     0
102
RTVSPropertyOp23
 70
     0
102
RTVSPropertyOp24
 70
     0
102
RTVSPropertyOp25
 70
     0
102
RTVSPropertyOp26
 70
     0
102
RTVSPropertyOp27
 70
     0
102
RTVSPropertyOp28
 70
     1
102
RTVSPropertyOp29
 70
     1
102
RTVSPropertyOp30
 70
     1
102
RTVSPropertyOp31
 70
     1
102
RTVSPropertyOp32
 70
     1
102
RTVSPropertyOp33
 70
     1
102
RTVSPropertyOp34
 70
     1
102
RTVSPropertyOp35
 70
     1
102
RTVSPropertyOp36
 70
     1
102
RTVSPropertyOp37
 70
     0
102
RTVSPropertyOp38
 70
     0
102
RTVSPropertyOp39
 70
     0
102
RTVSPropertyOp40
 70
     0
102
RTVSPropertyOp41
 70
     0
102
RTVSPropertyOp42
 70
     0
102
RTVSPropertyOp43
 70
     0
102
RTVSPropertyOp44
 70
     0
102
RTVSPropertyOp45
 70
     1
102
RTVSPropertyOp46
 70
     0
102
RTVSPropertyOp47
 70
     0
102
RTVSPropertyOp48
 70
     0
102
RTVSPropertyOp49
 70
     1
102
RTVSPropertyOp50
 70
     0
102
RTVSPropertyOp51
 70
     0
102
RTVSPropertyOp52
 70
     0
102
RTVSPropertyOp53
 70
     0
102
RTVSPropertyOp54
 70
     0
102
RTVSPropertyOp55
 70
     1
102
RTVSPropertyOp56
 70
     0
102
RTVSPropertyOp57
 70
     0
102
RTVSPropertyOp58
 70
     0
102
RTVSPropertyOp59
 70
     0
102
RTVSPropertyOp60
 70
     0
102
RTVSPropertyOp61
 70
     0
102
RTVSPropertyOp62
 70
     0
  0
XRECORD
  5
3D10
102
{ACAD_REACTORS
330
3D0F
102
}
330
3D0F
100
AcDbXrecord
280
     1
102
RTVSPost2010Prop28
280
     0
102
RTVSPost2010PropOp28
 70
     1
102
RTVSPost2010Prop29
280
     1
102
RTVSPost2010PropOp29
 70
     1
102
RTVSPost2010Prop30
280
     1
102
RTVSPost2010PropOp30
 70
     1
102
RTVSPost2010Prop31
280
     0
102
RTVSPost2010PropOp31
 70
     1
102
RTVSPost2010Prop32
280
     0
102
RTVSPost2010PropOp32
 70
     1
102
RTVSPost2010Prop33
280
     0
102
RTVSPost2010PropOp33
 70
     1
102
RTVSPost2010Prop34
280
     0
102
RTVSPost2010PropOp34
 70
     1
102
RTVSPost2010Prop35
280
     0
102
RTVSPost2010PropOp35
 70
     1
102
RTVSPost2010Prop36
280
     0
102
RTVSPost2010PropOp36
 70
     1
102
RTVSPost2010Prop37
 90
       50
102
RTVSPost2010PropOp37
 70
     1
102
RTVSPost2010Prop38
140
0.0
102
RTVSPost2010PropOp38
 70
     1
102
RTVSPost2010Prop39
140
1.0
102
RTVSPost2010PropOp39
 70
     1
102
RTVSPost2010Prop40
 90
        0
102
RTVSPost2010PropOp40
 70
     1
102
RTVSPost2010Prop41ColorIndex
 90
       18
102
RTVSPost2010Prop41ColorRGB
 90
        0
102
RTVSPost2010PropOp41
 70
     1
102
RTVSPost2010Prop42
 90
       50
102
RTVSPost2010PropOp42
 70
     1
102
RTVSPost2010Prop43
 90
        3
102
RTVSPost2010PropOp43
 70
     1
102
RTVSPost2010Prop44ColorIndex
 90
        5
102
RTVSPost2010Prop44ColorRGB
 90
      255
102
RTVSPost2010PropOp44
 70
     1
102
RTVSPost2010Prop45
280
     0
102
RTVSPost2010PropOp45
 70
     1
102
RTVSPost2010Prop46
 90
       50
102
RTVSPost2010PropOp46
 70
     1
102
RTVSPost2010Prop47
 90
       50
102
RTVSPost2010PropOp47
 70
     1
102
RTVSPost2010Prop48
 90
       50
102
RTVSPost2010PropOp48
 70
     1
102
RTVSPost2010Prop49
280
     0
102
RTVSPost2010PropOp49
 70
     1
102
RTVSPost2010Prop50
 90
       50
102
RTVSPost2010PropOp50
 70
     1
102
RTVSPost2010Prop51ColorIndex
 90
      256
102
RTVSPost2010Prop51ColorRGB
 90
-16777216
102
RTVSPost2010PropOp51
 70
     0
102
RTVSPost2010Prop52
140
1.0
102
RTVSPost2010PropOp52
 70
     0
102
RTVSPost2010Prop53
 90
        2
102
RTVSPost2010PropOp53
 70
     1
102
RTVSPost2010Prop54
  1
strokes_ogs.tif
102
RTVSPost2010PropOp54
 70
     1
102
RTVSPost2010Prop55
280
     0
102
RTVSPost2010PropOp55
 70
     1
102
RTVSPost2010Prop56
140
1.0
102
RTVSPost2010PropOp56
 70
     1
102
RTVSPost2010Prop57
140
1.0
102
RTVSPost2010PropOp57
 70
     1
102
RTVSPropertyOp0
 70
     1
102
RTVSPropertyOp1
 70
     1
102
RTVSPropertyOp2
 70
     1
102
RTVSPropertyOp3
 70
     1
102
RTVSPropertyOp4
 70
     1
102
RTVSPropertyOp5
 70
     1
102
RTVSPropertyOp6
 70
     1
102
RTVSPropertyOp7
 70
     1
102
RTVSPropertyOp8
 70
     1
102
RTVSPropertyOp9
 70
     1
102
RTVSPropertyOp10
 70
     1
102
RTVSPropertyOp11
 70
     1
102
RTVSPropertyOp12
 70
     1
102
RTVSPropertyOp13
 70
     1
102
RTVSPropertyOp14
 70
     1
102
RTVSPropertyOp15
 70
     1
102
RTVSPropertyOp16
 70
     1
102
RTVSPropertyOp17
 70
     1
102
RTVSPropertyOp18
 70
     1
102
RTVSPropertyOp19
 70
     1
102
RTVSPropertyOp20
 70
     1
102
RTVSPropertyOp21
 70
     1
102
RTVSPropertyOp22
 70
     1
102
RTVSPropertyOp23
 70
     1
102
RTVSPropertyOp24
 70
     1
102
RTVSPropertyOp25
 70
     1
102
RTVSPropertyOp26
 70
     1
102
RTVSPropertyOp27
 70
     1
102
RTVSPropertyOp28
 70
     1
102
RTVSPropertyOp29
 70
     1
102
RTVSPropertyOp30
 70
     1
102
RTVSPropertyOp31
 70
     1
102
RTVSPropertyOp32
 70
     1
102
RTVSPropertyOp33
 70
     1
102
RTVSPropertyOp34
 70
     1
102
RTVSPropertyOp35
 70
     1
102
RTVSPropertyOp36
 70
     1
102
RTVSPropertyOp37
 70
     1
102
RTVSPropertyOp38
 70
     1
102
RTVSPropertyOp39
 70
     1
102
RTVSPropertyOp40
 70
     1
102
RTVSPropertyOp41
 70
     1
102
RTVSPropertyOp42
 70
     1
102
RTVSPropertyOp43
 70
     1
102
RTVSPropertyOp44
 70
     1
102
RTVSPropertyOp45
 70
     1
102
RTVSPropertyOp46
 70
     1
102
RTVSPropertyOp47
 70
     1
102
RTVSPropertyOp48
 70
     1
102
RTVSPropertyOp49
 70
     1
102
RTVSPropertyOp50
 70
     1
102
RTVSPropertyOp51
 70
     0
102
RTVSPropertyOp52
 70
     0
102
RTVSPropertyOp53
 70
     1
102
RTVSPropertyOp54
 70
     1
102
RTVSPropertyOp55
 70
     1
102
RTVSPropertyOp56
 70
     1
102
RTVSPropertyOp57
 70
     1
102
RTVSPropertyOp58
 70
     1
102
RTVSPropertyOp59
 70
     1
102
RTVSPropertyOp60
 70
     1
102
RTVSPropertyOp61
 70
     1
102
RTVSPropertyOp62
 70
     1
  0
XRECORD
  5
3D22
102
{ACAD_REACTORS
330
3D21
102
}
330
3D21
100
AcDbXrecord
280
     1
102
RTVSPost2010Prop28
280
     0
102
RTVSPost2010PropOp28
 70
     1
102
RTVSPost2010Prop29
280
     1
102
RTVSPost2010PropOp29
 70
     1
102
RTVSPost2010Prop30
280
     1
102
RTVSPost2010PropOp30
 70
     1
102
RTVSPost2010Prop31
280
     0
102
RTVSPost2010PropOp31
 70
     1
102
RTVSPost2010Prop32
280
     0
102
RTVSPost2010PropOp32
 70
     1
102
RTVSPost2010Prop33
280
     0
102
RTVSPost2010PropOp33
 70
     1
102
RTVSPost2010Prop34
280
     0
102
RTVSPost2010PropOp34
 70
     1
102
RTVSPost2010Prop35
280
     0
102
RTVSPost2010PropOp35
 70
     1
102
RTVSPost2010Prop36
280
     0
102
RTVSPost2010PropOp36
 70
     1
102
RTVSPost2010Prop37
 90
       50
102
RTVSPost2010PropOp37
 70
     0
102
RTVSPost2010Prop38
140
0.0
102
RTVSPost2010PropOp38
 70
     0
102
RTVSPost2010Prop39
140
1.0
102
RTVSPost2010PropOp39
 70
     0
102
RTVSPost2010Prop40
 90
        0
102
RTVSPost2010PropOp40
 70
     0
102
RTVSPost2010Prop41ColorIndex
 90
       18
102
RTVSPost2010Prop41ColorRGB
 90
        0
102
RTVSPost2010PropOp41
 70
     0
102
RTVSPost2010Prop42
 90
       50
102
RTVSPost2010PropOp42
 70
     0
102
RTVSPost2010Prop43
 90
        3
102
RTVSPost2010PropOp43
 70
     0
102
RTVSPost2010Prop44ColorIndex
 90
        5
102
RTVSPost2010Prop44ColorRGB
 90
      255
102
RTVSPost2010PropOp44
 70
     0
102
RTVSPost2010Prop45
280
     0
102
RTVSPost2010PropOp45
 70
     1
102
RTVSPost2010Prop46
 90
       50
102
RTVSPost2010PropOp46
 70
     0
102
RTVSPost2010Prop47
 90
       50
102
RTVSPost2010PropOp47
 70
     0
102
RTVSPost2010Prop48
 90
       50
102
RTVSPost2010PropOp48
 70
     0
102
RTVSPost2010Prop49
280
     0
102
RTVSPost2010PropOp49
 70
     1
102
RTVSPost2010Prop50
 90
       50
102
RTVSPost2010PropOp50
 70
     0
102
RTVSPost2010Prop51ColorIndex
 90
      256
102
RTVSPost2010Prop51ColorRGB
 90
-16777216
102
RTVSPost2010PropOp51
 70
     0
102
RTVSPost2010Prop52
140
1.0
102
RTVSPost2010PropOp52
 70
     0
102
RTVSPost2010Prop53
 90
        2
102
RTVSPost2010PropOp53
 70
     0
102
RTVSPost2010Prop54
  1
strokes_ogs.tif
102
RTVSPost2010PropOp54
 70
     0
102
RTVSPost2010Prop55
280
     0
102
RTVSPost2010PropOp55
 70
     1
102
RTVSPost2010Prop56
140
1.0
102
RTVSPost2010PropOp56
 70
     0
102
RTVSPost2010Prop57
140
1.0
102
RTVSPost2010PropOp57
 70
     0
102
RTVSPropertyOp0
 70
     0
102
RTVSPropertyOp1
 70
     0
102
RTVSPropertyOp2
 70
     0
102
RTVSPropertyOp3
 70
     0
102
RTVSPropertyOp4
 70
     0
102
RTVSPropertyOp5
 70
     0
102
RTVSPropertyOp6
 70
     0
102
RTVSPropertyOp7
 70
     0
102
RTVSPropertyOp8
 70
     0
102
RTVSPropertyOp9
 70
     0
102
RTVSPropertyOp10
 70
     0
102
RTVSPropertyOp11
 70
     0
102
RTVSPropertyOp12
 70
     0
102
RTVSPropertyOp13
 70
     0
102
RTVSPropertyOp14
 70
     2
102
RTVSPropertyOp15
 70
     0
102
RTVSPropertyOp16
 70
     0
102
RTVSPropertyOp17
 70
     0
102
RTVSPropertyOp18
 70
     0
102
RTVSPropertyOp19
 70
     0
102
RTVSPropertyOp20
 70
     0
102
RTVSPropertyOp21
 70
     0
102
RTVSPropertyOp22
 70
     0
102
RTVSPropertyOp23
 70
     0
102
RTVSPropertyOp24
 70
     0
102
RTVSPropertyOp25
 70
     0
102
RTVSPropertyOp26
 70
     0
102
RTVSPropertyOp27
 70
     0
102
RTVSPropertyOp28
 70
     1
102
RTVSPropertyOp29
 70
     1
102
RTVSPropertyOp30
 70
     1
102
RTVSPropertyOp31
 70
     1
102
RTVSPropertyOp32
 70
     1
102
RTVSPropertyOp33
 70
     1
102
RTVSPropertyOp34
 70
     1
102
RTVSPropertyOp35
 70
     1
102
RTVSPropertyOp36
 70
     1
102
RTVSPropertyOp37
 70
     0
102
RTVSPropertyOp38
 70
     0
102
RTVSPropertyOp39
 70
     0
102
RTVSPropertyOp40
 70
     0
102
RTVSPropertyOp41
 70
     0
102
RTVSPropertyOp42
 70
     0
102
RTVSPropertyOp43
 70
     0
102
RTVSPropertyOp44
 70
     0
102
RTVSPropertyOp45
 70
     1
102
RTVSPropertyOp46
 70
     0
102
RTVSPropertyOp47
 70
     0
102
RTVSPropertyOp48
 70
     0
102
RTVSPropertyOp49
 70
     1
102
RTVSPropertyOp50
 70
     0
102
RTVSPropertyOp51
 70
     0
102
RTVSPropertyOp52
 70
     0
102
RTVSPropertyOp53
 70
     0
102
RTVSPropertyOp54
 70
     0
102
RTVSPropertyOp55
 70
     1
102
RTVSPropertyOp56
 70
     0
102
RTVSPropertyOp57
 70
     0
102
RTVSPropertyOp58
 70
     0
102
RTVSPropertyOp59
 70
     0
102
RTVSPropertyOp60
 70
     0
102
RTVSPropertyOp61
 70
     0
102
RTVSPropertyOp62
 70
     0
  0
XRECORD
  5
3D08
102
{ACAD_REACTORS
330
3D07
102
}
330
3D07
100
AcDbXrecord
280
     1
102
RTVSPost2010Prop28
280
     0
102
RTVSPost2010PropOp28
 70
     1
102
RTVSPost2010Prop29
280
     1
102
RTVSPost2010PropOp29
 70
     1
102
RTVSPost2010Prop30
280
     1
102
RTVSPost2010PropOp30
 70
     1
102
RTVSPost2010Prop31
280
     0
102
RTVSPost2010PropOp31
 70
     1
102
RTVSPost2010Prop32
280
     0
102
RTVSPost2010PropOp32
 70
     1
102
RTVSPost2010Prop33
280
     0
102
RTVSPost2010PropOp33
 70
     1
102
RTVSPost2010Prop34
280
     0
102
RTVSPost2010PropOp34
 70
     1
102
RTVSPost2010Prop35
280
     0
102
RTVSPost2010PropOp35
 70
     1
102
RTVSPost2010Prop36
280
     0
102
RTVSPost2010PropOp36
 70
     1
102
RTVSPost2010Prop37
 90
       50
102
RTVSPost2010PropOp37
 70
     1
102
RTVSPost2010Prop38
140
0.0
102
RTVSPost2010PropOp38
 70
     1
102
RTVSPost2010Prop39
140
1.0
102
RTVSPost2010PropOp39
 70
     1
102
RTVSPost2010Prop40
 90
        0
102
RTVSPost2010PropOp40
 70
     1
102
RTVSPost2010Prop41ColorIndex
 90
       18
102
RTVSPost2010Prop41ColorRGB
 90
        0
102
RTVSPost2010PropOp41
 70
     1
102
RTVSPost2010Prop42
 90
       50
102
RTVSPost2010PropOp42
 70
     1
102
RTVSPost2010Prop43
 90
        3
102
RTVSPost2010PropOp43
 70
     1
102
RTVSPost2010Prop44ColorIndex
 90
        5
102
RTVSPost2010Prop44ColorRGB
 90
      255
102
RTVSPost2010PropOp44
 70
     1
102
RTVSPost2010Prop45
280
     0
102
RTVSPost2010PropOp45
 70
     1
102
RTVSPost2010Prop46
 90
       50
102
RTVSPost2010PropOp46
 70
     1
102
RTVSPost2010Prop47
 90
       50
102
RTVSPost2010PropOp47
 70
     1
102
RTVSPost2010Prop48
 90
       50
102
RTVSPost2010PropOp48
 70
     1
102
RTVSPost2010Prop49
280
     0
102
RTVSPost2010PropOp49
 70
     1
102
RTVSPost2010Prop50
 90
       50
102
RTVSPost2010PropOp50
 70
     1
102
RTVSPost2010Prop51ColorIndex
 90
      256
102
RTVSPost2010Prop51ColorRGB
 90
-16777216
102
RTVSPost2010PropOp51
 70
     0
102
RTVSPost2010Prop52
140
1.0
102
RTVSPost2010PropOp52
 70
     0
102
RTVSPost2010Prop53
 90
        2
102
RTVSPost2010PropOp53
 70
     1
102
RTVSPost2010Prop54
  1
strokes_ogs.tif
102
RTVSPost2010PropOp54
 70
     1
102
RTVSPost2010Prop55
280
     0
102
RTVSPost2010PropOp55
 70
     1
102
RTVSPost2010Prop56
140
1.0
102
RTVSPost2010PropOp56
 70
     1
102
RTVSPost2010Prop57
140
1.0
102
RTVSPost2010PropOp57
 70
     1
102
RTVSPropertyOp0
 70
     1
102
RTVSPropertyOp1
 70
     1
102
RTVSPropertyOp2
 70
     1
102
RTVSPropertyOp3
 70
     1
102
RTVSPropertyOp4
 70
     1
102
RTVSPropertyOp5
 70
     1
102
RTVSPropertyOp6
 70
     1
102
RTVSPropertyOp7
 70
     1
102
RTVSPropertyOp8
 70
     1
102
RTVSPropertyOp9
 70
     1
102
RTVSPropertyOp10
 70
     1
102
RTVSPropertyOp11
 70
     1
102
RTVSPropertyOp12
 70
     1
102
RTVSPropertyOp13
 70
     1
102
RTVSPropertyOp14
 70
     1
102
RTVSPropertyOp15
 70
     1
102
RTVSPropertyOp16
 70
     1
102
RTVSPropertyOp17
 70
     1
102
RTVSPropertyOp18
 70
     1
102
RTVSPropertyOp19
 70
     1
102
RTVSPropertyOp20
 70
     1
102
RTVSPropertyOp21
 70
     1
102
RTVSPropertyOp22
 70
     1
102
RTVSPropertyOp23
 70
     1
102
RTVSPropertyOp24
 70
     1
102
RTVSPropertyOp25
 70
     1
102
RTVSPropertyOp26
 70
     1
102
RTVSPropertyOp27
 70
     1
102
RTVSPropertyOp28
 70
     1
102
RTVSPropertyOp29
 70
     1
102
RTVSPropertyOp30
 70
     1
102
RTVSPropertyOp31
 70
     1
102
RTVSPropertyOp32
 70
     1
102
RTVSPropertyOp33
 70
     1
102
RTVSPropertyOp34
 70
     1
102
RTVSPropertyOp35
 70
     1
102
RTVSPropertyOp36
 70
     1
102
RTVSPropertyOp37
 70
     1
102
RTVSPropertyOp38
 70
     1
102
RTVSPropertyOp39
 70
     1
102
RTVSPropertyOp40
 70
     1
102
RTVSPropertyOp41
 70
     1
102
RTVSPropertyOp42
 70
     1
102
RTVSPropertyOp43
 70
     1
102
RTVSPropertyOp44
 70
     1
102
RTVSPropertyOp45
 70
     1
102
RTVSPropertyOp46
 70
     1
102
RTVSPropertyOp47
 70
     1
102
RTVSPropertyOp48
 70
     1
102
RTVSPropertyOp49
 70
     1
102
RTVSPropertyOp50
 70
     1
102
RTVSPropertyOp51
 70
     0
102
RTVSPropertyOp52
 70
     0
102
RTVSPropertyOp53
 70
     1
102
RTVSPropertyOp54
 70
     1
102
RTVSPropertyOp55
 70
     1
102
RTVSPropertyOp56
 70
     1
102
RTVSPropertyOp57
 70
     1
102
RTVSPropertyOp58
 70
     1
102
RTVSPropertyOp59
 70
     1
102
RTVSPropertyOp60
 70
     1
102
RTVSPropertyOp61
 70
     1
102
RTVSPropertyOp62
 70
     1
  0
XRECORD
  5
3D1E
102
{ACAD_REACTORS
330
3D1D
102
}
330
3D1D
100
AcDbXrecord
280
     1
102
RTVSPost2010Prop28
280
     0
102
RTVSPost2010PropOp28
 70
     1
102
RTVSPost2010Prop29
280
     1
102
RTVSPost2010PropOp29
 70
     1
102
RTVSPost2010Prop30
280
     1
102
RTVSPost2010PropOp30
 70
     1
102
RTVSPost2010Prop31
280
     0
102
RTVSPost2010PropOp31
 70
     1
102
RTVSPost2010Prop32
280
     0
102
RTVSPost2010PropOp32
 70
     1
102
RTVSPost2010Prop33
280
     0
102
RTVSPost2010PropOp33
 70
     1
102
RTVSPost2010Prop34
280
     0
102
RTVSPost2010PropOp34
 70
     1
102
RTVSPost2010Prop35
280
     0
102
RTVSPost2010PropOp35
 70
     1
102
RTVSPost2010Prop36
280
     0
102
RTVSPost2010PropOp36
 70
     1
102
RTVSPost2010Prop37
 90
       50
102
RTVSPost2010PropOp37
 70
     1
102
RTVSPost2010Prop38
140
0.0
102
RTVSPost2010PropOp38
 70
     1
102
RTVSPost2010Prop39
140
1.0
102
RTVSPost2010PropOp39
 70
     1
102
RTVSPost2010Prop40
 90
        0
102
RTVSPost2010PropOp40
 70
     1
102
RTVSPost2010Prop41ColorIndex
 90
       18
102
RTVSPost2010Prop41ColorRGB
 90
        0
102
RTVSPost2010PropOp41
 70
     1
102
RTVSPost2010Prop42
 90
       50
102
RTVSPost2010PropOp42
 70
     1
102
RTVSPost2010Prop43
 90
        3
102
RTVSPost2010PropOp43
 70
     1
102
RTVSPost2010Prop44ColorIndex
 90
        5
102
RTVSPost2010Prop44ColorRGB
 90
      255
102
RTVSPost2010PropOp44
 70
     1
102
RTVSPost2010Prop45
280
     0
102
RTVSPost2010PropOp45
 70
     1
102
RTVSPost2010Prop46
 90
       50
102
RTVSPost2010PropOp46
 70
     1
102
RTVSPost2010Prop47
 90
       50
102
RTVSPost2010PropOp47
 70
     1
102
RTVSPost2010Prop48
 90
       50
102
RTVSPost2010PropOp48
 70
     1
102
RTVSPost2010Prop49
280
     0
102
RTVSPost2010PropOp49
 70
     1
102
RTVSPost2010Prop50
 90
       50
102
RTVSPost2010PropOp50
 70
     1
102
RTVSPost2010Prop51ColorIndex
 90
      256
102
RTVSPost2010Prop51ColorRGB
 90
-16777216
102
RTVSPost2010PropOp51
 70
     0
102
RTVSPost2010Prop52
140
1.0
102
RTVSPost2010PropOp52
 70
     0
102
RTVSPost2010Prop53
 90
        2
102
RTVSPost2010PropOp53
 70
     1
102
RTVSPost2010Prop54
  1
strokes_ogs.tif
102
RTVSPost2010PropOp54
 70
     1
102
RTVSPost2010Prop55
280
     0
102
RTVSPost2010PropOp55
 70
     1
102
RTVSPost2010Prop56
140
1.0
102
RTVSPost2010PropOp56
 70
     1
102
RTVSPost2010Prop57
140
1.0
102
RTVSPost2010PropOp57
 70
     1
102
RTVSPropertyOp0
 70
     1
102
RTVSPropertyOp1
 70
     1
102
RTVSPropertyOp2
 70
     1
102
RTVSPropertyOp3
 70
     1
102
RTVSPropertyOp4
 70
     1
102
RTVSPropertyOp5
 70
     1
102
RTVSPropertyOp6
 70
     1
102
RTVSPropertyOp7
 70
     1
102
RTVSPropertyOp8
 70
     1
102
RTVSPropertyOp9
 70
     1
102
RTVSPropertyOp10
 70
     1
102
RTVSPropertyOp11
 70
     1
102
RTVSPropertyOp12
 70
     1
102
RTVSPropertyOp13
 70
     1
102
RTVSPropertyOp14
 70
     1
102
RTVSPropertyOp15
 70
     1
102
RTVSPropertyOp16
 70
     1
102
RTVSPropertyOp17
 70
     1
102
RTVSPropertyOp18
 70
     1
102
RTVSPropertyOp19
 70
     1
102
RTVSPropertyOp20
 70
     1
102
RTVSPropertyOp21
 70
     1
102
RTVSPropertyOp22
 70
     1
102
RTVSPropertyOp23
 70
     1
102
RTVSPropertyOp24
 70
     1
102
RTVSPropertyOp25
 70
     1
102
RTVSPropertyOp26
 70
     1
102
RTVSPropertyOp27
 70
     1
102
RTVSPropertyOp28
 70
     1
102
RTVSPropertyOp29
 70
     1
102
RTVSPropertyOp30
 70
     1
102
RTVSPropertyOp31
 70
     1
102
RTVSPropertyOp32
 70
     1
102
RTVSPropertyOp33
 70
     1
102
RTVSPropertyOp34
 70
     1
102
RTVSPropertyOp35
 70
     1
102
RTVSPropertyOp36
 70
     1
102
RTVSPropertyOp37
 70
     1
102
RTVSPropertyOp38
 70
     1
102
RTVSPropertyOp39
 70
     1
102
RTVSPropertyOp40
 70
     1
102
RTVSPropertyOp41
 70
     1
102
RTVSPropertyOp42
 70
     1
102
RTVSPropertyOp43
 70
     1
102
RTVSPropertyOp44
 70
     1
102
RTVSPropertyOp45
 70
     1
102
RTVSPropertyOp46
 70
     1
102
RTVSPropertyOp47
 70
     1
102
RTVSPropertyOp48
 70
     1
102
RTVSPropertyOp49
 70
     1
102
RTVSPropertyOp50
 70
     1
102
RTVSPropertyOp51
 70
     0
102
RTVSPropertyOp52
 70
     0
102
RTVSPropertyOp53
 70
     1
102
RTVSPropertyOp54
 70
     1
102
RTVSPropertyOp55
 70
     1
102
RTVSPropertyOp56
 70
     1
102
RTVSPropertyOp57
 70
     1
102
RTVSPropertyOp58
 70
     1
102
RTVSPropertyOp59
 70
     1
102
RTVSPropertyOp60
 70
     1
102
RTVSPropertyOp61
 70
     1
102
RTVSPropertyOp62
 70
     1
  0
XRECORD
  5
3D1C
102
{ACAD_REACTORS
330
3D1B
102
}
330
3D1B
100
AcDbXrecord
280
     1
102
RTVSPost2010Prop28
280
     0
102
RTVSPost2010PropOp28
 70
     1
102
RTVSPost2010Prop29
280
     1
102
RTVSPost2010PropOp29
 70
     1
102
RTVSPost2010Prop30
280
     1
102
RTVSPost2010PropOp30
 70
     1
102
RTVSPost2010Prop31
280
     0
102
RTVSPost2010PropOp31
 70
     1
102
RTVSPost2010Prop32
280
     0
102
RTVSPost2010PropOp32
 70
     1
102
RTVSPost2010Prop33
280
     0
102
RTVSPost2010PropOp33
 70
     1
102
RTVSPost2010Prop34
280
     0
102
RTVSPost2010PropOp34
 70
     1
102
RTVSPost2010Prop35
280
     0
102
RTVSPost2010PropOp35
 70
     1
102
RTVSPost2010Prop36
280
     0
102
RTVSPost2010PropOp36
 70
     1
102
RTVSPost2010Prop37
 90
       50
102
RTVSPost2010PropOp37
 70
     1
102
RTVSPost2010Prop38
140
0.0
102
RTVSPost2010PropOp38
 70
     1
102
RTVSPost2010Prop39
140
1.0
102
RTVSPost2010PropOp39
 70
     1
102
RTVSPost2010Prop40
 90
        0
102
RTVSPost2010PropOp40
 70
     1
102
RTVSPost2010Prop41ColorIndex
 90
       18
102
RTVSPost2010Prop41ColorRGB
 90
        0
102
RTVSPost2010PropOp41
 70
     1
102
RTVSPost2010Prop42
 90
       50
102
RTVSPost2010PropOp42
 70
     1
102
RTVSPost2010Prop43
 90
        3
102
RTVSPost2010PropOp43
 70
     1
102
RTVSPost2010Prop44ColorIndex
 90
        5
102
RTVSPost2010Prop44ColorRGB
 90
      255
102
RTVSPost2010PropOp44
 70
     1
102
RTVSPost2010Prop45
280
     0
102
RTVSPost2010PropOp45
 70
     1
102
RTVSPost2010Prop46
 90
       50
102
RTVSPost2010PropOp46
 70
     1
102
RTVSPost2010Prop47
 90
       50
102
RTVSPost2010PropOp47
 70
     1
102
RTVSPost2010Prop48
 90
       50
102
RTVSPost2010PropOp48
 70
     1
102
RTVSPost2010Prop49
280
     0
102
RTVSPost2010PropOp49
 70
     1
102
RTVSPost2010Prop50
 90
       50
102
RTVSPost2010PropOp50
 70
     1
102
RTVSPost2010Prop51ColorIndex
 90
      256
102
RTVSPost2010Prop51ColorRGB
 90
-16777216
102
RTVSPost2010PropOp51
 70
     0
102
RTVSPost2010Prop52
140
1.0
102
RTVSPost2010PropOp52
 70
     0
102
RTVSPost2010Prop53
 90
        2
102
RTVSPost2010PropOp53
 70
     1
102
RTVSPost2010Prop54
  1
strokes_ogs.tif
102
RTVSPost2010PropOp54
 70
     1
102
RTVSPost2010Prop55
280
     0
102
RTVSPost2010PropOp55
 70
     1
102
RTVSPost2010Prop56
140
1.0
102
RTVSPost2010PropOp56
 70
     1
102
RTVSPost2010Prop57
140
1.0
102
RTVSPost2010PropOp57
 70
     1
102
RTVSPropertyOp0
 70
     1
102
RTVSPropertyOp1
 70
     1
102
RTVSPropertyOp2
 70
     1
102
RTVSPropertyOp3
 70
     1
102
RTVSPropertyOp4
 70
     1
102
RTVSPropertyOp5
 70
     1
102
RTVSPropertyOp6
 70
     1
102
RTVSPropertyOp7
 70
     1
102
RTVSPropertyOp8
 70
     1
102
RTVSPropertyOp9
 70
     1
102
RTVSPropertyOp10
 70
     1
102
RTVSPropertyOp11
 70
     1
102
RTVSPropertyOp12
 70
     1
102
RTVSPropertyOp13
 70
     1
102
RTVSPropertyOp14
 70
     1
102
RTVSPropertyOp15
 70
     1
102
RTVSPropertyOp16
 70
     1
102
RTVSPropertyOp17
 70
     1
102
RTVSPropertyOp18
 70
     1
102
RTVSPropertyOp19
 70
     1
102
RTVSPropertyOp20
 70
     1
102
RTVSPropertyOp21
 70
     1
102
RTVSPropertyOp22
 70
     1
102
RTVSPropertyOp23
 70
     1
102
RTVSPropertyOp24
 70
     1
102
RTVSPropertyOp25
 70
     1
102
RTVSPropertyOp26
 70
     1
102
RTVSPropertyOp27
 70
     1
102
RTVSPropertyOp28
 70
     1
102
RTVSPropertyOp29
 70
     1
102
RTVSPropertyOp30
 70
     1
102
RTVSPropertyOp31
 70
     1
102
RTVSPropertyOp32
 70
     1
102
RTVSPropertyOp33
 70
     1
102
RTVSPropertyOp34
 70
     1
102
RTVSPropertyOp35
 70
     1
102
RTVSPropertyOp36
 70
     1
102
RTVSPropertyOp37
 70
     1
102
RTVSPropertyOp38
 70
     1
102
RTVSPropertyOp39
 70
     1
102
RTVSPropertyOp40
 70
     1
102
RTVSPropertyOp41
 70
     1
102
RTVSPropertyOp42
 70
     1
102
RTVSPropertyOp43
 70
     1
102
RTVSPropertyOp44
 70
     1
102
RTVSPropertyOp45
 70
     1
102
RTVSPropertyOp46
 70
     1
102
RTVSPropertyOp47
 70
     1
102
RTVSPropertyOp48
 70
     1
102
RTVSPropertyOp49
 70
     1
102
RTVSPropertyOp50
 70
     1
102
RTVSPropertyOp51
 70
     0
102
RTVSPropertyOp52
 70
     0
102
RTVSPropertyOp53
 70
     1
102
RTVSPropertyOp54
 70
     1
102
RTVSPropertyOp55
 70
     1
102
RTVSPropertyOp56
 70
     1
102
RTVSPropertyOp57
 70
     1
102
RTVSPropertyOp58
 70
     1
102
RTVSPropertyOp59
 70
     1
102
RTVSPropertyOp60
 70
     1
102
RTVSPropertyOp61
 70
     1
102
RTVSPropertyOp62
 70
     1
  0
XRECORD
  5
3D16
102
{ACAD_REACTORS
330
3D15
102
}
330
3D15
100
AcDbXrecord
280
     1
102
RTVSPost2010Prop28
280
     0
102
RTVSPost2010PropOp28
 70
     1
102
RTVSPost2010Prop29
280
     1
102
RTVSPost2010PropOp29
 70
     1
102
RTVSPost2010Prop30
280
     1
102
RTVSPost2010PropOp30
 70
     1
102
RTVSPost2010Prop31
280
     0
102
RTVSPost2010PropOp31
 70
     1
102
RTVSPost2010Prop32
280
     0
102
RTVSPost2010PropOp32
 70
     1
102
RTVSPost2010Prop33
280
     0
102
RTVSPost2010PropOp33
 70
     1
102
RTVSPost2010Prop34
280
     0
102
RTVSPost2010PropOp34
 70
     1
102
RTVSPost2010Prop35
280
     0
102
RTVSPost2010PropOp35
 70
     1
102
RTVSPost2010Prop36
280
     0
102
RTVSPost2010PropOp36
 70
     1
102
RTVSPost2010Prop37
 90
       50
102
RTVSPost2010PropOp37
 70
     1
102
RTVSPost2010Prop38
140
0.0
102
RTVSPost2010PropOp38
 70
     1
102
RTVSPost2010Prop39
140
1.0
102
RTVSPost2010PropOp39
 70
     1
102
RTVSPost2010Prop40
 90
        0
102
RTVSPost2010PropOp40
 70
     1
102
RTVSPost2010Prop41ColorIndex
 90
       18
102
RTVSPost2010Prop41ColorRGB
 90
        0
102
RTVSPost2010PropOp41
 70
     1
102
RTVSPost2010Prop42
 90
       50
102
RTVSPost2010PropOp42
 70
     1
102
RTVSPost2010Prop43
 90
        3
102
RTVSPost2010PropOp43
 70
     1
102
RTVSPost2010Prop44ColorIndex
 90
        5
102
RTVSPost2010Prop44ColorRGB
 90
      255
102
RTVSPost2010PropOp44
 70
     1
102
RTVSPost2010Prop45
280
     0
102
RTVSPost2010PropOp45
 70
     1
102
RTVSPost2010Prop46
 90
       50
102
RTVSPost2010PropOp46
 70
     1
102
RTVSPost2010Prop47
 90
       50
102
RTVSPost2010PropOp47
 70
     1
102
RTVSPost2010Prop48
 90
       50
102
RTVSPost2010PropOp48
 70
     1
102
RTVSPost2010Prop49
280
     0
102
RTVSPost2010PropOp49
 70
     1
102
RTVSPost2010Prop50
 90
       50
102
RTVSPost2010PropOp50
 70
     1
102
RTVSPost2010Prop51ColorIndex
 90
      256
102
RTVSPost2010Prop51ColorRGB
 90
-16777216
102
RTVSPost2010PropOp51
 70
     0
102
RTVSPost2010Prop52
140
1.0
102
RTVSPost2010PropOp52
 70
     0
102
RTVSPost2010Prop53
 90
        2
102
RTVSPost2010PropOp53
 70
     1
102
RTVSPost2010Prop54
  1
strokes_ogs.tif
102
RTVSPost2010PropOp54
 70
     1
102
RTVSPost2010Prop55
280
     0
102
RTVSPost2010PropOp55
 70
     1
102
RTVSPost2010Prop56
140
1.0
102
RTVSPost2010PropOp56
 70
     1
102
RTVSPost2010Prop57
140
1.0
102
RTVSPost2010PropOp57
 70
     1
102
RTVSPropertyOp0
 70
     1
102
RTVSPropertyOp1
 70
     1
102
RTVSPropertyOp2
 70
     1
102
RTVSPropertyOp3
 70
     1
102
RTVSPropertyOp4
 70
     1
102
RTVSPropertyOp5
 70
     1
102
RTVSPropertyOp6
 70
     1
102
RTVSPropertyOp7
 70
     1
102
RTVSPropertyOp8
 70
     1
102
RTVSPropertyOp9
 70
     1
102
RTVSPropertyOp10
 70
     1
102
RTVSPropertyOp11
 70
     1
102
RTVSPropertyOp12
 70
     1
102
RTVSPropertyOp13
 70
     1
102
RTVSPropertyOp14
 70
     1
102
RTVSPropertyOp15
 70
     1
102
RTVSPropertyOp16
 70
     1
102
RTVSPropertyOp17
 70
     1
102
RTVSPropertyOp18
 70
     1
102
RTVSPropertyOp19
 70
     1
102
RTVSPropertyOp20
 70
     1
102
RTVSPropertyOp21
 70
     1
102
RTVSPropertyOp22
 70
     1
102
RTVSPropertyOp23
 70
     1
102
RTVSPropertyOp24
 70
     1
102
RTVSPropertyOp25
 70
     1
102
RTVSPropertyOp26
 70
     1
102
RTVSPropertyOp27
 70
     1
102
RTVSPropertyOp28
 70
     1
102
RTVSPropertyOp29
 70
     1
102
RTVSPropertyOp30
 70
     1
102
RTVSPropertyOp31
 70
     1
102
RTVSPropertyOp32
 70
     1
102
RTVSPropertyOp33
 70
     1
102
RTVSPropertyOp34
 70
     1
102
RTVSPropertyOp35
 70
     1
102
RTVSPropertyOp36
 70
     1
102
RTVSPropertyOp37
 70
     1
102
RTVSPropertyOp38
 70
     1
102
RTVSPropertyOp39
 70
     1
102
RTVSPropertyOp40
 70
     1
102
RTVSPropertyOp41
 70
     1
102
RTVSPropertyOp42
 70
     1
102
RTVSPropertyOp43
 70
     1
102
RTVSPropertyOp44
 70
     1
102
RTVSPropertyOp45
 70
     1
102
RTVSPropertyOp46
 70
     1
102
RTVSPropertyOp47
 70
     1
102
RTVSPropertyOp48
 70
     1
102
RTVSPropertyOp49
 70
     1
102
RTVSPropertyOp50
 70
     1
102
RTVSPropertyOp51
 70
     0
102
RTVSPropertyOp52
 70
     0
102
RTVSPropertyOp53
 70
     1
102
RTVSPropertyOp54
 70
     1
102
RTVSPropertyOp55
 70
     1
102
RTVSPropertyOp56
 70
     1
102
RTVSPropertyOp57
 70
     1
102
RTVSPropertyOp58
 70
     1
102
RTVSPropertyOp59
 70
     1
102
RTVSPropertyOp60
 70
     1
102
RTVSPropertyOp61
 70
     1
102
RTVSPropertyOp62
 70
     1
  0
XRECORD
  5
3D18
102
{ACAD_REACTORS
330
3D17
102
}
330
3D17
100
AcDbXrecord
280
     1
102
RTVSPost2010Prop28
280
     0
102
RTVSPost2010PropOp28
 70
     1
102
RTVSPost2010Prop29
280
     1
102
RTVSPost2010PropOp29
 70
     1
102
RTVSPost2010Prop30
280
     1
102
RTVSPost2010PropOp30
 70
     1
102
RTVSPost2010Prop31
280
     0
102
RTVSPost2010PropOp31
 70
     1
102
RTVSPost2010Prop32
280
     0
102
RTVSPost2010PropOp32
 70
     1
102
RTVSPost2010Prop33
280
     0
102
RTVSPost2010PropOp33
 70
     1
102
RTVSPost2010Prop34
280
     0
102
RTVSPost2010PropOp34
 70
     1
102
RTVSPost2010Prop35
280
     0
102
RTVSPost2010PropOp35
 70
     1
102
RTVSPost2010Prop36
280
     0
102
RTVSPost2010PropOp36
 70
     1
102
RTVSPost2010Prop37
 90
       50
102
RTVSPost2010PropOp37
 70
     1
102
RTVSPost2010Prop38
140
0.0
102
RTVSPost2010PropOp38
 70
     1
102
RTVSPost2010Prop39
140
1.0
102
RTVSPost2010PropOp39
 70
     1
102
RTVSPost2010Prop40
 90
        0
102
RTVSPost2010PropOp40
 70
     1
102
RTVSPost2010Prop41ColorIndex
 90
       18
102
RTVSPost2010Prop41ColorRGB
 90
        0
102
RTVSPost2010PropOp41
 70
     1
102
RTVSPost2010Prop42
 90
       50
102
RTVSPost2010PropOp42
 70
     1
102
RTVSPost2010Prop43
 90
        3
102
RTVSPost2010PropOp43
 70
     1
102
RTVSPost2010Prop44ColorIndex
 90
        5
102
RTVSPost2010Prop44ColorRGB
 90
      255
102
RTVSPost2010PropOp44
 70
     1
102
RTVSPost2010Prop45
280
     0
102
RTVSPost2010PropOp45
 70
     1
102
RTVSPost2010Prop46
 90
       50
102
RTVSPost2010PropOp46
 70
     1
102
RTVSPost2010Prop47
 90
       50
102
RTVSPost2010PropOp47
 70
     1
102
RTVSPost2010Prop48
 90
       50
102
RTVSPost2010PropOp48
 70
     1
102
RTVSPost2010Prop49
280
     0
102
RTVSPost2010PropOp49
 70
     1
102
RTVSPost2010Prop50
 90
       50
102
RTVSPost2010PropOp50
 70
     1
102
RTVSPost2010Prop51ColorIndex
 90
      256
102
RTVSPost2010Prop51ColorRGB
 90
-16777216
102
RTVSPost2010PropOp51
 70
     0
102
RTVSPost2010Prop52
140
1.0
102
RTVSPost2010PropOp52
 70
     0
102
RTVSPost2010Prop53
 90
        2
102
RTVSPost2010PropOp53
 70
     1
102
RTVSPost2010Prop54
  1
strokes_ogs.tif
102
RTVSPost2010PropOp54
 70
     1
102
RTVSPost2010Prop55
280
     0
102
RTVSPost2010PropOp55
 70
     1
102
RTVSPost2010Prop56
140
1.0
102
RTVSPost2010PropOp56
 70
     1
102
RTVSPost2010Prop57
140
1.0
102
RTVSPost2010PropOp57
 70
     1
102
RTVSPropertyOp0
 70
     1
102
RTVSPropertyOp1
 70
     1
102
RTVSPropertyOp2
 70
     1
102
RTVSPropertyOp3
 70
     1
102
RTVSPropertyOp4
 70
     1
102
RTVSPropertyOp5
 70
     1
102
RTVSPropertyOp6
 70
     1
102
RTVSPropertyOp7
 70
     1
102
RTVSPropertyOp8
 70
     1
102
RTVSPropertyOp9
 70
     1
102
RTVSPropertyOp10
 70
     1
102
RTVSPropertyOp11
 70
     1
102
RTVSPropertyOp12
 70
     1
102
RTVSPropertyOp13
 70
     1
102
RTVSPropertyOp14
 70
     1
102
RTVSPropertyOp15
 70
     1
102
RTVSPropertyOp16
 70
     1
102
RTVSPropertyOp17
 70
     1
102
RTVSPropertyOp18
 70
     1
102
RTVSPropertyOp19
 70
     1
102
RTVSPropertyOp20
 70
     1
102
RTVSPropertyOp21
 70
     1
102
RTVSPropertyOp22
 70
     1
102
RTVSPropertyOp23
 70
     1
102
RTVSPropertyOp24
 70
     1
102
RTVSPropertyOp25
 70
     1
102
RTVSPropertyOp26
 70
     1
102
RTVSPropertyOp27
 70
     1
102
RTVSPropertyOp28
 70
     1
102
RTVSPropertyOp29
 70
     1
102
RTVSPropertyOp30
 70
     1
102
RTVSPropertyOp31
 70
     1
102
RTVSPropertyOp32
 70
     1
102
RTVSPropertyOp33
 70
     1
102
RTVSPropertyOp34
 70
     1
102
RTVSPropertyOp35
 70
     1
102
RTVSPropertyOp36
 70
     1
102
RTVSPropertyOp37
 70
     1
102
RTVSPropertyOp38
 70
     1
102
RTVSPropertyOp39
 70
     1
102
RTVSPropertyOp40
 70
     1
102
RTVSPropertyOp41
 70
     1
102
RTVSPropertyOp42
 70
     1
102
RTVSPropertyOp43
 70
     1
102
RTVSPropertyOp44
 70
     1
102
RTVSPropertyOp45
 70
     1
102
RTVSPropertyOp46
 70
     1
102
RTVSPropertyOp47
 70
     1
102
RTVSPropertyOp48
 70
     1
102
RTVSPropertyOp49
 70
     1
102
RTVSPropertyOp50
 70
     1
102
RTVSPropertyOp51
 70
     0
102
RTVSPropertyOp52
 70
     0
102
RTVSPropertyOp53
 70
     1
102
RTVSPropertyOp54
 70
     1
102
RTVSPropertyOp55
 70
     1
102
RTVSPropertyOp56
 70
     1
102
RTVSPropertyOp57
 70
     1
102
RTVSPropertyOp58
 70
     1
102
RTVSPropertyOp59
 70
     1
102
RTVSPropertyOp60
 70
     1
102
RTVSPropertyOp61
 70
     1
102
RTVSPropertyOp62
 70
     1
  0
XRECORD
  5
3D0E
102
{ACAD_REACTORS
330
3D0D
102
}
330
3D0D
100
AcDbXrecord
280
     1
102
RTVSPost2010Prop28
280
     0
102
RTVSPost2010PropOp28
 70
     1
102
RTVSPost2010Prop29
280
     1
102
RTVSPost2010PropOp29
 70
     1
102
RTVSPost2010Prop30
280
     1
102
RTVSPost2010PropOp30
 70
     1
102
RTVSPost2010Prop31
280
     0
102
RTVSPost2010PropOp31
 70
     1
102
RTVSPost2010Prop32
280
     0
102
RTVSPost2010PropOp32
 70
     1
102
RTVSPost2010Prop33
280
     0
102
RTVSPost2010PropOp33
 70
     1
102
RTVSPost2010Prop34
280
     0
102
RTVSPost2010PropOp34
 70
     1
102
RTVSPost2010Prop35
280
     0
102
RTVSPost2010PropOp35
 70
     1
102
RTVSPost2010Prop36
280
     0
102
RTVSPost2010PropOp36
 70
     1
102
RTVSPost2010Prop37
 90
       50
102
RTVSPost2010PropOp37
 70
     1
102
RTVSPost2010Prop38
140
0.0
102
RTVSPost2010PropOp38
 70
     1
102
RTVSPost2010Prop39
140
1.0
102
RTVSPost2010PropOp39
 70
     1
102
RTVSPost2010Prop40
 90
        0
102
RTVSPost2010PropOp40
 70
     1
102
RTVSPost2010Prop41ColorIndex
 90
       18
102
RTVSPost2010Prop41ColorRGB
 90
        0
102
RTVSPost2010PropOp41
 70
     1
102
RTVSPost2010Prop42
 90
       50
102
RTVSPost2010PropOp42
 70
     1
102
RTVSPost2010Prop43
 90
        3
102
RTVSPost2010PropOp43
 70
     1
102
RTVSPost2010Prop44ColorIndex
 90
        5
102
RTVSPost2010Prop44ColorRGB
 90
      255
102
RTVSPost2010PropOp44
 70
     1
102
RTVSPost2010Prop45
280
     0
102
RTVSPost2010PropOp45
 70
     1
102
RTVSPost2010Prop46
 90
       50
102
RTVSPost2010PropOp46
 70
     1
102
RTVSPost2010Prop47
 90
       50
102
RTVSPost2010PropOp47
 70
     1
102
RTVSPost2010Prop48
 90
       50
102
RTVSPost2010PropOp48
 70
     1
102
RTVSPost2010Prop49
280
     0
102
RTVSPost2010PropOp49
 70
     1
102
RTVSPost2010Prop50
 90
       50
102
RTVSPost2010PropOp50
 70
     1
102
RTVSPost2010Prop51ColorIndex
 90
      256
102
RTVSPost2010Prop51ColorRGB
 90
-16777216
102
RTVSPost2010PropOp51
 70
     0
102
RTVSPost2010Prop52
140
1.0
102
RTVSPost2010PropOp52
 70
     0
102
RTVSPost2010Prop53
 90
        2
102
RTVSPost2010PropOp53
 70
     1
102
RTVSPost2010Prop54
  1
strokes_ogs.tif
102
RTVSPost2010PropOp54
 70
     1
102
RTVSPost2010Prop55
280
     0
102
RTVSPost2010PropOp55
 70
     1
102
RTVSPost2010Prop56
140
1.0
102
RTVSPost2010PropOp56
 70
     1
102
RTVSPost2010Prop57
140
1.0
102
RTVSPost2010PropOp57
 70
     1
102
RTVSPropertyOp0
 70
     1
102
RTVSPropertyOp1
 70
     1
102
RTVSPropertyOp2
 70
     1
102
RTVSPropertyOp3
 70
     1
102
RTVSPropertyOp4
 70
     1
102
RTVSPropertyOp5
 70
     1
102
RTVSPropertyOp6
 70
     1
102
RTVSPropertyOp7
 70
     1
102
RTVSPropertyOp8
 70
     1
102
RTVSPropertyOp9
 70
     1
102
RTVSPropertyOp10
 70
     1
102
RTVSPropertyOp11
 70
     1
102
RTVSPropertyOp12
 70
     1
102
RTVSPropertyOp13
 70
     1
102
RTVSPropertyOp14
 70
     1
102
RTVSPropertyOp15
 70
     1
102
RTVSPropertyOp16
 70
     1
102
RTVSPropertyOp17
 70
     1
102
RTVSPropertyOp18
 70
     1
102
RTVSPropertyOp19
 70
     1
102
RTVSPropertyOp20
 70
     1
102
RTVSPropertyOp21
 70
     1
102
RTVSPropertyOp22
 70
     1
102
RTVSPropertyOp23
 70
     1
102
RTVSPropertyOp24
 70
     1
102
RTVSPropertyOp25
 70
     1
102
RTVSPropertyOp26
 70
     1
102
RTVSPropertyOp27
 70
     1
102
RTVSPropertyOp28
 70
     1
102
RTVSPropertyOp29
 70
     1
102
RTVSPropertyOp30
 70
     1
102
RTVSPropertyOp31
 70
     1
102
RTVSPropertyOp32
 70
     1
102
RTVSPropertyOp33
 70
     1
102
RTVSPropertyOp34
 70
     1
102
RTVSPropertyOp35
 70
     1
102
RTVSPropertyOp36
 70
     1
102
RTVSPropertyOp37
 70
     1
102
RTVSPropertyOp38
 70
     1
102
RTVSPropertyOp39
 70
     1
102
RTVSPropertyOp40
 70
     1
102
RTVSPropertyOp41
 70
     1
102
RTVSPropertyOp42
 70
     1
102
RTVSPropertyOp43
 70
     1
102
RTVSPropertyOp44
 70
     1
102
RTVSPropertyOp45
 70
     1
102
RTVSPropertyOp46
 70
     1
102
RTVSPropertyOp47
 70
     1
102
RTVSPropertyOp48
 70
     1
102
RTVSPropertyOp49
 70
     1
102
RTVSPropertyOp50
 70
     1
102
RTVSPropertyOp51
 70
     0
102
RTVSPropertyOp52
 70
     0
102
RTVSPropertyOp53
 70
     1
102
RTVSPropertyOp54
 70
     1
102
RTVSPropertyOp55
 70
     1
102
RTVSPropertyOp56
 70
     1
102
RTVSPropertyOp57
 70
     1
102
RTVSPropertyOp58
 70
     1
102
RTVSPropertyOp59
 70
     1
102
RTVSPropertyOp60
 70
     1
102
RTVSPropertyOp61
 70
     1
102
RTVSPropertyOp62
 70
     1
  0
XRECORD
  5
3D02
102
{ACAD_REACTORS
330
3D01
102
}
330
3D01
100
AcDbXrecord
280
     1
102
RTVSPost2010Prop28
280
     0
102
RTVSPost2010PropOp28
 70
     1
102
RTVSPost2010Prop29
280
     1
102
RTVSPost2010PropOp29
 70
     1
102
RTVSPost2010Prop30
280
     1
102
RTVSPost2010PropOp30
 70
     1
102
RTVSPost2010Prop31
280
     0
102
RTVSPost2010PropOp31
 70
     1
102
RTVSPost2010Prop32
280
     0
102
RTVSPost2010PropOp32
 70
     1
102
RTVSPost2010Prop33
280
     0
102
RTVSPost2010PropOp33
 70
     1
102
RTVSPost2010Prop34
280
     0
102
RTVSPost2010PropOp34
 70
     1
102
RTVSPost2010Prop35
280
     0
102
RTVSPost2010PropOp35
 70
     1
102
RTVSPost2010Prop36
280
     0
102
RTVSPost2010PropOp36
 70
     1
102
RTVSPost2010Prop37
 90
       50
102
RTVSPost2010PropOp37
 70
     1
102
RTVSPost2010Prop38
140
0.0
102
RTVSPost2010PropOp38
 70
     1
102
RTVSPost2010Prop39
140
1.0
102
RTVSPost2010PropOp39
 70
     1
102
RTVSPost2010Prop40
 90
        0
102
RTVSPost2010PropOp40
 70
     1
102
RTVSPost2010Prop41ColorIndex
 90
       18
102
RTVSPost2010Prop41ColorRGB
 90
        0
102
RTVSPost2010PropOp41
 70
     1
102
RTVSPost2010Prop42
 90
       50
102
RTVSPost2010PropOp42
 70
     1
102
RTVSPost2010Prop43
 90
        3
102
RTVSPost2010PropOp43
 70
     1
102
RTVSPost2010Prop44ColorIndex
 90
        5
102
RTVSPost2010Prop44ColorRGB
 90
      255
102
RTVSPost2010PropOp44
 70
     1
102
RTVSPost2010Prop45
280
     0
102
RTVSPost2010PropOp45
 70
     1
102
RTVSPost2010Prop46
 90
       50
102
RTVSPost2010PropOp46
 70
     1
102
RTVSPost2010Prop47
 90
       50
102
RTVSPost2010PropOp47
 70
     1
102
RTVSPost2010Prop48
 90
       50
102
RTVSPost2010PropOp48
 70
     1
102
RTVSPost2010Prop49
280
     0
102
RTVSPost2010PropOp49
 70
     1
102
RTVSPost2010Prop50
 90
       50
102
RTVSPost2010PropOp50
 70
     1
102
RTVSPost2010Prop51ColorIndex
 90
      256
102
RTVSPost2010Prop51ColorRGB
 90
-16777216
102
RTVSPost2010PropOp51
 70
     0
102
RTVSPost2010Prop52
140
1.0
102
RTVSPost2010PropOp52
 70
     0
102
RTVSPost2010Prop53
 90
        2
102
RTVSPost2010PropOp53
 70
     1
102
RTVSPost2010Prop54
  1
strokes_ogs.tif
102
RTVSPost2010PropOp54
 70
     1
102
RTVSPost2010Prop55
280
     0
102
RTVSPost2010PropOp55
 70
     1
102
RTVSPost2010Prop56
140
1.0
102
RTVSPost2010PropOp56
 70
     1
102
RTVSPost2010Prop57
140
1.0
102
RTVSPost2010PropOp57
 70
     1
102
RTVSPropertyOp0
 70
     1
102
RTVSPropertyOp1
 70
     1
102
RTVSPropertyOp2
 70
     1
102
RTVSPropertyOp3
 70
     1
102
RTVSPropertyOp4
 70
     1
102
RTVSPropertyOp5
 70
     1
102
RTVSPropertyOp6
 70
     1
102
RTVSPropertyOp7
 70
     1
102
RTVSPropertyOp8
 70
     1
102
RTVSPropertyOp9
 70
     1
102
RTVSPropertyOp10
 70
     1
102
RTVSPropertyOp11
 70
     1
102
RTVSPropertyOp12
 70
     1
102
RTVSPropertyOp13
 70
     1
102
RTVSPropertyOp14
 70
     1
102
RTVSPropertyOp15
 70
     1
102
RTVSPropertyOp16
 70
     1
102
RTVSPropertyOp17
 70
     1
102
RTVSPropertyOp18
 70
     1
102
RTVSPropertyOp19
 70
     1
102
RTVSPropertyOp20
 70
     1
102
RTVSPropertyOp21
 70
     1
102
RTVSPropertyOp22
 70
     1
102
RTVSPropertyOp23
 70
     1
102
RTVSPropertyOp24
 70
     1
102
RTVSPropertyOp25
 70
     1
102
RTVSPropertyOp26
 70
     1
102
RTVSPropertyOp27
 70
     1
102
RTVSPropertyOp28
 70
     1
102
RTVSPropertyOp29
 70
     1
102
RTVSPropertyOp30
 70
     1
102
RTVSPropertyOp31
 70
     1
102
RTVSPropertyOp32
 70
     1
102
RTVSPropertyOp33
 70
     1
102
RTVSPropertyOp34
 70
     1
102
RTVSPropertyOp35
 70
     1
102
RTVSPropertyOp36
 70
     1
102
RTVSPropertyOp37
 70
     1
102
RTVSPropertyOp38
 70
     1
102
RTVSPropertyOp39
 70
     1
102
RTVSPropertyOp40
 70
     1
102
RTVSPropertyOp41
 70
     1
102
RTVSPropertyOp42
 70
     1
102
RTVSPropertyOp43
 70
     1
102
RTVSPropertyOp44
 70
     1
102
RTVSPropertyOp45
 70
     1
102
RTVSPropertyOp46
 70
     1
102
RTVSPropertyOp47
 70
     1
102
RTVSPropertyOp48
 70
     1
102
RTVSPropertyOp49
 70
     1
102
RTVSPropertyOp50
 70
     1
102
RTVSPropertyOp51
 70
     0
102
RTVSPropertyOp52
 70
     0
102
RTVSPropertyOp53
 70
     1
102
RTVSPropertyOp54
 70
     1
102
RTVSPropertyOp55
 70
     1
102
RTVSPropertyOp56
 70
     1
102
RTVSPropertyOp57
 70
     1
102
RTVSPropertyOp58
 70
     1
102
RTVSPropertyOp59
 70
     1
102
RTVSPropertyOp60
 70
     1
102
RTVSPropertyOp61
 70
     1
102
RTVSPropertyOp62
 70
     1
  0
XRECORD
  5
3D1A
102
{ACAD_REACTORS
330
3D19
102
}
330
3D19
100
AcDbXrecord
280
     1
102
RTVSPost2010Prop28
280
     0
102
RTVSPost2010PropOp28
 70
     1
102
RTVSPost2010Prop29
280
     1
102
RTVSPost2010PropOp29
 70
     1
102
RTVSPost2010Prop30
280
     1
102
RTVSPost2010PropOp30
 70
     1
102
RTVSPost2010Prop31
280
     0
102
RTVSPost2010PropOp31
 70
     1
102
RTVSPost2010Prop32
280
     0
102
RTVSPost2010PropOp32
 70
     1
102
RTVSPost2010Prop33
280
     0
102
RTVSPost2010PropOp33
 70
     1
102
RTVSPost2010Prop34
280
     0
102
RTVSPost2010PropOp34
 70
     1
102
RTVSPost2010Prop35
280
     0
102
RTVSPost2010PropOp35
 70
     1
102
RTVSPost2010Prop36
280
     0
102
RTVSPost2010PropOp36
 70
     1
102
RTVSPost2010Prop37
 90
       50
102
RTVSPost2010PropOp37
 70
     1
102
RTVSPost2010Prop38
140
0.0
102
RTVSPost2010PropOp38
 70
     1
102
RTVSPost2010Prop39
140
1.0
102
RTVSPost2010PropOp39
 70
     1
102
RTVSPost2010Prop40
 90
        0
102
RTVSPost2010PropOp40
 70
     1
102
RTVSPost2010Prop41ColorIndex
 90
       18
102
RTVSPost2010Prop41ColorRGB
 90
        0
102
RTVSPost2010PropOp41
 70
     1
102
RTVSPost2010Prop42
 90
       50
102
RTVSPost2010PropOp42
 70
     1
102
RTVSPost2010Prop43
 90
        3
102
RTVSPost2010PropOp43
 70
     1
102
RTVSPost2010Prop44ColorIndex
 90
        5
102
RTVSPost2010Prop44ColorRGB
 90
      255
102
RTVSPost2010PropOp44
 70
     1
102
RTVSPost2010Prop45
280
     0
102
RTVSPost2010PropOp45
 70
     1
102
RTVSPost2010Prop46
 90
       50
102
RTVSPost2010PropOp46
 70
     1
102
RTVSPost2010Prop47
 90
       50
102
RTVSPost2010PropOp47
 70
     1
102
RTVSPost2010Prop48
 90
       50
102
RTVSPost2010PropOp48
 70
     1
102
RTVSPost2010Prop49
280
     0
102
RTVSPost2010PropOp49
 70
     1
102
RTVSPost2010Prop50
 90
       50
102
RTVSPost2010PropOp50
 70
     1
102
RTVSPost2010Prop51ColorIndex
 90
      256
102
RTVSPost2010Prop51ColorRGB
 90
-16777216
102
RTVSPost2010PropOp51
 70
     0
102
RTVSPost2010Prop52
140
1.0
102
RTVSPost2010PropOp52
 70
     0
102
RTVSPost2010Prop53
 90
        2
102
RTVSPost2010PropOp53
 70
     1
102
RTVSPost2010Prop54
  1
strokes_ogs.tif
102
RTVSPost2010PropOp54
 70
     1
102
RTVSPost2010Prop55
280
     0
102
RTVSPost2010PropOp55
 70
     1
102
RTVSPost2010Prop56
140
1.0
102
RTVSPost2010PropOp56
 70
     1
102
RTVSPost2010Prop57
140
1.0
102
RTVSPost2010PropOp57
 70
     1
102
RTVSPropertyOp0
 70
     1
102
RTVSPropertyOp1
 70
     1
102
RTVSPropertyOp2
 70
     1
102
RTVSPropertyOp3
 70
     1
102
RTVSPropertyOp4
 70
     1
102
RTVSPropertyOp5
 70
     1
102
RTVSPropertyOp6
 70
     1
102
RTVSPropertyOp7
 70
     1
102
RTVSPropertyOp8
 70
     1
102
RTVSPropertyOp9
 70
     1
102
RTVSPropertyOp10
 70
     1
102
RTVSPropertyOp11
 70
     1
102
RTVSPropertyOp12
 70
     1
102
RTVSPropertyOp13
 70
     1
102
RTVSPropertyOp14
 70
     1
102
RTVSPropertyOp15
 70
     1
102
RTVSPropertyOp16
 70
     1
102
RTVSPropertyOp17
 70
     1
102
RTVSPropertyOp18
 70
     1
102
RTVSPropertyOp19
 70
     1
102
RTVSPropertyOp20
 70
     1
102
RTVSPropertyOp21
 70
     1
102
RTVSPropertyOp22
 70
     1
102
RTVSPropertyOp23
 70
     1
102
RTVSPropertyOp24
 70
     1
102
RTVSPropertyOp25
 70
     1
102
RTVSPropertyOp26
 70
     1
102
RTVSPropertyOp27
 70
     1
102
RTVSPropertyOp28
 70
     1
102
RTVSPropertyOp29
 70
     1
102
RTVSPropertyOp30
 70
     1
102
RTVSPropertyOp31
 70
     1
102
RTVSPropertyOp32
 70
     1
102
RTVSPropertyOp33
 70
     1
102
RTVSPropertyOp34
 70
     1
102
RTVSPropertyOp35
 70
     1
102
RTVSPropertyOp36
 70
     1
102
RTVSPropertyOp37
 70
     1
102
RTVSPropertyOp38
 70
     1
102
RTVSPropertyOp39
 70
     1
102
RTVSPropertyOp40
 70
     1
102
RTVSPropertyOp41
 70
     1
102
RTVSPropertyOp42
 70
     1
102
RTVSPropertyOp43
 70
     1
102
RTVSPropertyOp44
 70
     1
102
RTVSPropertyOp45
 70
     1
102
RTVSPropertyOp46
 70
     1
102
RTVSPropertyOp47
 70
     1
102
RTVSPropertyOp48
 70
     1
102
RTVSPropertyOp49
 70
     1
102
RTVSPropertyOp50
 70
     1
102
RTVSPropertyOp51
 70
     0
102
RTVSPropertyOp52
 70
     0
102
RTVSPropertyOp53
 70
     1
102
RTVSPropertyOp54
 70
     1
102
RTVSPropertyOp55
 70
     1
102
RTVSPropertyOp56
 70
     1
102
RTVSPropertyOp57
 70
     1
102
RTVSPropertyOp58
 70
     1
102
RTVSPropertyOp59
 70
     1
102
RTVSPropertyOp60
 70
     1
102
RTVSPropertyOp61
 70
     1
102
RTVSPropertyOp62
 70
     1
  0
ENDSEC
  0
EOF
