  0
SECTION
  2
HEADER
  9
$ACADVER
  1
AC1014
  9
$ACADMAINTVER
 70
     9
  9
$DWGCODEPAGE
  3
ANSI_932
  9
$INSBASE
 10
0.0
 20
0.0
 30
0.0
  9
$EXTMIN
 10
109.3683006601104
 20
70.24873790387278
 30
0.0
  9
$EXTMAX
 10
614.7455745400051
 20
557.5558647598386
 30
0.0
  9
$LIMMIN
 10
0.0
 20
0.0
  9
$LIMMAX
 10
10000.0
 20
10000.0
  9
$ORTHOMODE
 70
     1
  9
$REGENMODE
 70
     1
  9
$FILLMODE
 70
     1
  9
$QTEXTMODE
 70
     0
  9
$MIRRTEXT
 70
     1
  9
$DRAGMODE
 70
     2
  9
$LTSCALE
 40
1.0
  9
$OSMODE
 70
    32
  9
$ATTMODE
 70
     1
  9
$TEXTSIZE
 40
3.5
  9
$TRACEWID
 40
1.0
  9
$TEXTSTYLE
  7
AD-STANDARD
  9
$CLAYER
  8
1
  9
$CELTYPE
  6
BYLAYER
  9
$CECOLOR
 62
   256
  9
$CELTSCALE
 40
1.0
  9
$DELOBJ
 70
     1
  9
$DISPSILH
 70
     0
  9
$DIMSCALE
 40
1.0
  9
$DIMASZ
 40
0.18
  9
$DIMEXO
 40
0.0625
  9
$DIMDLI
 40
0.38
  9
$DIMRND
 40
0.0
  9
$DIMDLE
 40
0.0
  9
$DIMEXE
 40
0.18
  9
$DIMTP
 40
0.0
  9
$DIMTM
 40
0.0
  9
$DIMTXT
 40
0.18
  9
$DIMCEN
 40
0.09
  9
$DIMTSZ
 40
0.0
  9
$DIMTOL
 70
     0
  9
$DIMLIM
 70
     0
  9
$DIMTIH
 70
     1
  9
$DIMTOH
 70
     1
  9
$DIMSE1
 70
     0
  9
$DIMSE2
 70
     0
  9
$DIMTAD
 70
     0
  9
$DIMZIN
 70
     0
  9
$DIMBLK
  1

  9
$DIMASO
 70
     1
  9
$DIMSHO
 70
     1
  9
$DIMPOST
  1

  9
$DIMAPOST
  1

  9
$DIMALT
 70
     0
  9
$DIMALTD
 70
     2
  9
$DIMALTF
 40
25.4
  9
$DIMLFAC
 40
1.0
  9
$DIMTOFL
 70
     0
  9
$DIMTVP
 40
0.0
  9
$DIMTIX
 70
     0
  9
$DIMSOXD
 70
     0
  9
$DIMSAH
 70
     0
  9
$DIMBLK1
  1

  9
$DIMBLK2
  1

  9
$DIMSTYLE
  2
STANDARD
  9
$DIMCLRD
 70
     0
  9
$DIMCLRE
 70
     0
  9
$DIMCLRT
 70
     0
  9
$DIMTFAC
 40
1.0
  9
$DIMGAP
 40
0.09
  9
$DIMJUST
 70
     0
  9
$DIMSD1
 70
     0
  9
$DIMSD2
 70
     0
  9
$DIMTOLJ
 70
     1
  9
$DIMTZIN
 70
     0
  9
$DIMALTZ
 70
     0
  9
$DIMALTTZ
 70
     0
  9
$DIMFIT
 70
     3
  9
$DIMUPT
 70
     0
  9
$DIMUNIT
 70
     2
  9
$DIMDEC
 70
     4
  9
$DIMTDEC
 70
     4
  9
$DIMALTU
 70
     2
  9
$DIMALTTD
 70
     2
  9
$DIMTXSTY
  7
STANDARD
  9
$DIMAUNIT
 70
     0
  9
$LUNITS
 70
     2
  9
$LUPREC
 70
     4
  9
$SKETCHINC
 40
1.0
  9
$FILLETRAD
 40
0.5
  9
$AUNITS
 70
     0
  9
$AUPREC
 70
     0
  9
$MENU
  1
.
  9
$ELEVATION
 40
0.0
  9
$PELEVATION
 40
0.0
  9
$THICKNESS
 40
0.0
  9
$LIMCHECK
 70
     0
  9
$BLIPMODE
 70
     0
  9
$CHAMFERA
 40
0.0
  9
$CHAMFERB
 40
0.0
  9
$CHAMFERC
 40
673.4006734006733
  9
$CHAMFERD
 40
0.0
  9
$SKPOLY
 70
     0
  9
$TDCREATE
 40
2451428.386184838
  9
$TDUPDATE
 40
2453992.472569571
  9
$TDINDWG
 40
1.5860574421
  9
$TDUSRTIMER
 40
1.5860574421
  9
$USRTIMER
 70
     1
  9
$ANGBASE
 50
0.0
  9
$ANGDIR
 70
     0
  9
$PDMODE
 70
     0
  9
$PDSIZE
 40
0.0
  9
$PLINEWID
 40
0.0
  9
$COORDS
 70
     1
  9
$SPLFRAME
 70
     0
  9
$SPLINETYPE
 70
     6
  9
$SPLINESEGS
 70
     8
  9
$ATTDIA
 70
     0
  9
$ATTREQ
 70
     1
  9
$HANDLING
 70
 10241
  9
$HANDSEED
  5
3B5C
  9
$SURFTAB1
 70
     6
  9
$SURFTAB2
 70
     6
  9
$SURFTYPE
 70
     6
  9
$SURFU
 70
     6
  9
$SURFV
 70
     6
  9
$UCSNAME
  2

  9
$UCSORG
 10
0.0
 20
0.0
 30
0.0
  9
$UCSXDIR
 10
1.0
 20
0.0
 30
0.0
  9
$UCSYDIR
 10
0.0
 20
1.0
 30
0.0
  9
$PUCSNAME
  2

  9
$PUCSORG
 10
0.0
 20
0.0
 30
0.0
  9
$PUCSXDIR
 10
1.0
 20
0.0
 30
0.0
  9
$PUCSYDIR
 10
0.0
 20
1.0
 30
0.0
  9
$USERI1
 70
     0
  9
$USERI2
 70
     0
  9
$USERI3
 70
     0
  9
$USERI4
 70
     0
  9
$USERI5
 70
     0
  9
$USERR1
 40
0.0
  9
$USERR2
 40
0.0
  9
$USERR3
 40
0.0
  9
$USERR4
 40
0.0
  9
$USERR5
 40
0.0
  9
$WORLDVIEW
 70
     1
  9
$SHADEDGE
 70
     3
  9
$SHADEDIF
 70
    70
  9
$TILEMODE
 70
     1
  9
$MAXACTVP
 70
    16
  9
$PINSBASE
 10
0.0
 20
0.0
 30
0.0
  9
$PLIMCHECK
 70
     0
  9
$PEXTMIN
 10
20.00000000000003
 20
16.99999999999994
 30
0.0
  9
$PEXTMAX
 10
405.0
 20
281.9999999999999
 30
0.0
  9
$PLIMMIN
 10
-5.873748779296875
 20
-5.873749732971191
  9
$PLIMMAX
 10
414.0729064941406
 20
291.0522451400757
  9
$UNITMODE
 70
     0
  9
$VISRETAIN
 70
     0
  9
$PLINEGEN
 70
     0
  9
$PSLTSCALE
 70
     0
  9
$TREEDEPTH
 70
  3020
  9
$PICKSTYLE
 70
     1
  9
$CMLSTYLE
  2
STANDARD
  9
$CMLJUST
 70
     0
  9
$CMLSCALE
 40
1.0
  9
$PROXYGRAPHICS
 70
     1
  9
$MEASUREMENT
 70
     1
  0
ENDSEC
  0
SECTION
  2
CLASSES
  0
CLASS
  1
LWPOLYLINE
  2
AcDbPolyline
  3
AutoCAD 2000
 90
        0
280
     0
281
     1
  0
CLASS
  1
OLE2FRAME
  2
AcDbOle2Frame
  3
AutoCAD 2000
 90
        0
280
     0
281
     1
  0
CLASS
  1
ACDBDICTIONARYWDFLT
  2
AcDbDictionaryWithDefault
  3
AutoCAD 2000
 90
        0
280
     0
281
     0
  0
CLASS
  1
ACDBPLACEHOLDER
  2
AcDbPlaceHolder
  3
AutoCAD 2000
 90
        0
280
     0
281
     0
  0
CLASS
  1
LAYOUT
  2
AcDbLayout
  3
AutoCAD 2000
 90
        0
280
     0
281
     0
  0
CLASS
  1
LONG_TRANSACTION
  2
AcDbLongTransaction
  3
AutoCAD 2000
 90
        0
280
     0
281
     0
  0
CLASS
  1
LWPOLYLINE
  2
AcDbPolyline
  3
AutoCAD 2000
 90
        0
280
     0
281
     1
  0
CLASS
  1
HATCH
  2
AcDbHatch
  3
AutoCAD 2000
 90
        0
280
     0
281
     1
  0
CLASS
  1
XRECORD
  2
AcDbXrecord
  3
AutoCAD 2000
 90
        0
280
     0
281
     0
  0
CLASS
  1
LONG_TRANSACTION
  2
AcDbLongTransaction
  3
AutoCAD 2000
 90
        0
280
     0
281
     0
  0
CLASS
  1
LWPOLYLINE
  2
AcDbPolyline
  3
AutoCAD 2000
 90
        0
280
     0
281
     1
  0
CLASS
  1
HATCH
  2
AcDbHatch
  3
AutoCAD 2000
 90
        0
280
     0
281
     1
  0
CLASS
  1
XRECORD
  2
AcDbXrecord
  3
AutoCAD 2000
 90
        0
280
     0
281
     0
  0
CLASS
  1
LONG_TRANSACTION
  2
AcDbLongTransaction
  3
AutoCAD 2000
 90
        0
280
     0
281
     0
  0
CLASS
  1
LWPOLYLINE
  2
AcDbPolyline
  3
AutoCAD 2000
 90
        0
280
     0
281
     1
  0
CLASS
  1
HATCH
  2
AcDbHatch
  3
AutoCAD 2000
 90
        0
280
     0
281
     1
  0
CLASS
  1
XRECORD
  2
AcDbXrecord
  3
AutoCAD 2000
 90
        0
280
     0
281
     0
  0
CLASS
  1
LONG_TRANSACTION
  2
AcDbLongTransaction
  3
AutoCAD 2000
 90
        0
280
     0
281
     0
  0
CLASS
  1
LWPOLYLINE
  2
AcDbPolyline
  3
AutoCAD 2000
 90
        0
280
     0
281
     1
  0
CLASS
  1
HATCH
  2
AcDbHatch
  3
AutoCAD 2000
 90
        0
280
     0
281
     1
  0
CLASS
  1
XRECORD
  2
AcDbXrecord
  3
AutoCAD 2000
 90
        0
280
     0
281
     0
  0
CLASS
  1
LONG_TRANSACTION
  2
AcDbLongTransaction
  3
AutoCAD 2000
 90
        0
280
     0
281
     0
  0
CLASS
  1
LWPOLYLINE
  2
AcDbPolyline
  3
AutoCAD 2000
 90
        0
280
     0
281
     1
  0
CLASS
  1
HATCH
  2
AcDbHatch
  3
AutoCAD 2000
 90
        0
280
     0
281
     1
  0
CLASS
  1
XRECORD
  2
AcDbXrecord
  3
AutoCAD 2000
 90
        0
280
     0
281
     0
  0
CLASS
  1
LONG_TRANSACTION
  2
AcDbLongTransaction
  3
AutoCAD 2000
 90
        0
280
     0
281
     0
  0
CLASS
  1
LWPOLYLINE
  2
AcDbPolyline
  3
AutoCAD 2000
 90
        0
280
     0
281
     1
  0
CLASS
  1
HATCH
  2
AcDbHatch
  3
AutoCAD 2000
 90
        0
280
     0
281
     1
  0
CLASS
  1
XRECORD
  2
AcDbXrecord
  3
AutoCAD 2000
 90
        0
280
     0
281
     0
  0
CLASS
  1
LONG_TRANSACTION
  2
AcDbLongTransaction
  3
AutoCAD 2000
 90
        0
280
     0
281
     0
  0
CLASS
  1
LWPOLYLINE
  2
AcDbPolyline
  3
AutoCAD 2000
 90
        0
280
     0
281
     1
  0
CLASS
  1
HATCH
  2
AcDbHatch
  3
AutoCAD 2000
 90
        0
280
     0
281
     1
  0
CLASS
  1
XRECORD
  2
AcDbXrecord
  3
AutoCAD 2000
 90
        0
280
     0
281
     0
  0
CLASS
  1
LONG_TRANSACTION
  2
AcDbLongTransaction
  3
AutoCAD 2000
 90
        0
280
     0
281
     0
  0
CLASS
  1
LWPOLYLINE
  2
AcDbPolyline
  3
AutoCAD 2000
 90
        0
280
     0
281
     1
  0
CLASS
  1
HATCH
  2
AcDbHatch
  3
AutoCAD 2000
 90
        0
280
     0
281
     1
  0
CLASS
  1
XRECORD
  2
AcDbXrecord
  3
AutoCAD 2000
 90
        0
280
     0
281
     0
  0
CLASS
  1
LONG_TRANSACTION
  2
AcDbLongTransaction
  3
AutoCAD 2000
 90
        0
280
     0
281
     0
  0
CLASS
  1
LWPOLYLINE
  2
AcDbPolyline
  3
AutoCAD 2000
 90
        0
280
     0
281
     1
  0
CLASS
  1
HATCH
  2
AcDbHatch
  3
AutoCAD 2000
 90
        0
280
     0
281
     1
  0
CLASS
  1
XRECORD
  2
AcDbXrecord
  3
AutoCAD 2000
 90
        0
280
     0
281
     0
  0
CLASS
  1
LONG_TRANSACTION
  2
AcDbLongTransaction
  3
AutoCAD 2000
 90
        0
280
     0
281
     0
  0
CLASS
  1
LWPOLYLINE
  2
AcDbPolyline
  3
AutoCAD 2000
 90
        0
280
     0
281
     1
  0
CLASS
  1
HATCH
  2
AcDbHatch
  3
AutoCAD 2000
 90
        0
280
     0
281
     1
  0
CLASS
  1
XRECORD
  2
AcDbXrecord
  3
AutoCAD 2000
 90
        0
280
     0
281
     0
  0
CLASS
  1
LONG_TRANSACTION
  2
AcDbLongTransaction
  3
AutoCAD 2000
 90
        0
280
     0
281
     0
  0
CLASS
  1
LWPOLYLINE
  2
AcDbPolyline
  3
AutoCAD 2000
 90
        0
280
     0
281
     1
  0
CLASS
  1
HATCH
  2
AcDbHatch
  3
AutoCAD 2000
 90
        0
280
     0
281
     1
  0
CLASS
  1
XRECORD
  2
AcDbXrecord
  3
AutoCAD 2000
 90
        0
280
     0
281
     0
  0
CLASS
  1
LONG_TRANSACTION
  2
AcDbLongTransaction
  3
AutoCAD 2000
 90
        0
280
     0
281
     0
  0
CLASS
  1
LWPOLYLINE
  2
AcDbPolyline
  3
AutoCAD 2000
 90
        0
280
     0
281
     1
  0
CLASS
  1
HATCH
  2
AcDbHatch
  3
AutoCAD 2000
 90
        0
280
     0
281
     1
  0
CLASS
  1
XRECORD
  2
AcDbXrecord
  3
AutoCAD 2000
 90
        0
280
     0
281
     0
  0
CLASS
  1
LONG_TRANSACTION
  2
AcDbLongTransaction
  3
AutoCAD 2000
 90
        0
280
     0
281
     0
  0
CLASS
  1
LWPOLYLINE
  2
AcDbPolyline
  3
AutoCAD 2000
 90
        0
280
     0
281
     1
  0
CLASS
  1
HATCH
  2
AcDbHatch
  3
AutoCAD 2000
 90
        0
280
     0
281
     1
  0
CLASS
  1
XRECORD
  2
AcDbXrecord
  3
AutoCAD 2000
 90
        0
280
     0
281
     0
  0
CLASS
  1
LONG_TRANSACTION
  2
AcDbLongTransaction
  3
AutoCAD 2000
 90
        0
280
     0
281
     0
  0
CLASS
  1
LWPOLYLINE
  2
AcDbPolyline
  3
AutoCAD 2000
 90
        0
280
     0
281
     1
  0
CLASS
  1
HATCH
  2
AcDbHatch
  3
AutoCAD 2000
 90
        0
280
     0
281
     1
  0
CLASS
  1
XRECORD
  2
AcDbXrecord
  3
AutoCAD 2000
 90
        0
280
     0
281
     0
  0
CLASS
  1
LONG_TRANSACTION
  2
AcDbLongTransaction
  3
AutoCAD 2000
 90
        0
280
     0
281
     0
  0
CLASS
  1
LWPOLYLINE
  2
AcDbPolyline
  3
AutoCAD 2000
 90
        0
280
     0
281
     1
  0
CLASS
  1
HATCH
  2
AcDbHatch
  3
AutoCAD 2000
 90
        0
280
     0
281
     1
  0
CLASS
  1
XRECORD
  2
AcDbXrecord
  3
AutoCAD 2000
 90
        0
280
     0
281
     0
  0
CLASS
  1
LONG_TRANSACTION
  2
AcDbLongTransaction
  3
AutoCAD 2000
 90
        0
280
     0
281
     0
  0
CLASS
  1
LWPOLYLINE
  2
AcDbPolyline
  3
AutoCAD 2000
 90
        0
280
     0
281
     1
  0
CLASS
  1
HATCH
  2
AcDbHatch
  3
AutoCAD 2000
 90
        0
280
     0
281
     1
  0
CLASS
  1
XRECORD
  2
AcDbXrecord
  3
AutoCAD 2000
 90
        0
280
     0
281
     0
  0
ENDSEC
  0
SECTION
  2
TABLES
  0
TABLE
  2
VPORT
  5
8
330
0
100
AcDbSymbolTable
 70
     5
  0
VPORT
  5
3B39
330
8
100
AcDbSymbolTableRecord
100
AcDbViewportTableRecord
  2
*ACTIVE
 70
     0
 10
0.0
 20
0.0
 11
1.0
 21
1.0
 12
310.318980629258
 22
300.0543638007847
 13
0.0
 23
0.0
 14
168.0
 24
168.0
 15
0.0
 25
0.0
 16
0.0
 26
0.0
 36
1.0
 17
0.0
 27
0.0
 37
0.0
 40
560.518872506785
 41
1.602080624187256
 42
50.0
 43
0.0
 44
0.0
 50
0.0
 51
0.0
 71
     0
 72
   100
 73
     1
 74
     0
 75
     0
 76
     0
 77
     0
 78
     1
  0
ENDTAB
  0
TABLE
  2
LTYPE
  5
5
330
0
100
AcDbSymbolTable
 70
     4
  0
LTYPE
  5
14
330
5
100
AcDbSymbolTableRecord
100
AcDbLinetypeTableRecord
  2
BYBLOCK
 70
     0
  3

 72
    65
 73
     0
 40
0.0
  0
LTYPE
  5
15
330
5
100
AcDbSymbolTableRecord
100
AcDbLinetypeTableRecord
  2
BYLAYER
 70
     0
  3

 72
    65
 73
     0
 40
0.0
  0
LTYPE
  5
16
330
5
100
AcDbSymbolTableRecord
100
AcDbLinetypeTableRecord
  2
CONTINUOUS
 70
     0
  3
Solid line
 72
    65
 73
     0
 40
0.0
  0
LTYPE
  5
6E
330
5
100
AcDbSymbolTableRecord
100
AcDbLinetypeTableRecord
  2
CENTER
 70
     0
  3
____ _ ____ _ ____ _ ____ _ ____ _ ____ _ ____ 
 72
    65
 73
     4
 40
2.0
 49
1.25
 74
     0
 49
-0.25
 74
     0
 49
0.25
 74
     0
 49
-0.25
 74
     0
  0
LTYPE
  5
6F
330
5
100
AcDbSymbolTableRecord
100
AcDbLinetypeTableRecord
  2
HIDDEN
 70
     0
  3
__ __ __ __ __ __ __ __ __ __ __ __ __ __ __ __
 72
    65
 73
     2
 40
0.375
 49
0.25
 74
     0
 49
-0.125
 74
     0
  0
ENDTAB
  0
TABLE
  2
LAYER
  5
2
330
0
100
AcDbSymbolTable
 70
     6
  0
LAYER
  5
F
330
2
100
AcDbSymbolTableRecord
100
AcDbLayerTableRecord
  2
0
 70
     0
 62
     7
  6
CONTINUOUS
  0
LAYER
  5
72
330
2
100
AcDbSymbolTableRecord
100
AcDbLayerTableRecord
  2
DEFPOINTS
 70
     0
 62
     7
  6
CONTINUOUS
  0
LAYER
  5
74
330
2
100
AcDbSymbolTableRecord
100
AcDbLayerTableRecord
  2
CENTER
 70
     0
 62
     9
  6
CENTER
  0
LAYER
  5
3AD9
330
2
100
AcDbSymbolTableRecord
100
AcDbLayerTableRecord
  2
1
 70
     0
 62
     7
  6
CONTINUOUS
  0
ENDTAB
  0
TABLE
  2
STYLE
  5
3
330
0
100
AcDbSymbolTable
 70
     5
  0
STYLE
  5
10
330
3
100
AcDbSymbolTableRecord
100
AcDbTextStyleTableRecord
  2
STANDARD
 70
     0
 40
0.0
 41
0.8
 50
0.0
 71
     0
 42
84.17508417508416
  3
TXT
  4
bigfont.shx
  0
STYLE
  5
63
330
3
100
AcDbSymbolTableRecord
100
AcDbTextStyleTableRecord
  2
AD-STANDARD
 70
     0
 40
0.0
 41
0.8
 50
0.0
 71
     0
 42
3.5
  3
C:\Program Files\AutoCAD LT\romans.shx
  4
bigfont.shx
  0
ENDTAB
  0
TABLE
  2
VIEW
  5
6
330
0
100
AcDbSymbolTable
 70
     0
  0
ENDTAB
  0
TABLE
  2
UCS
  5
7
330
0
100
AcDbSymbolTable
 70
     0
  0
ENDTAB
  0
TABLE
  2
APPID
  5
9
330
0
100
AcDbSymbolTable
 70
     5
  0
APPID
  5
11
330
9
100
AcDbSymbolTableRecord
100
AcDbRegAppTableRecord
  2
ACAD
 70
     0
  0
APPID
  5
22A
330
9
100
AcDbSymbolTableRecord
100
AcDbRegAppTableRecord
  2
CONTENTTABDATA
 70
     0
  0
APPID
  5
22B
330
9
100
AcDbSymbolTableRecord
100
AcDbRegAppTableRecord
  2
CONTENTCURRENTTAB
 70
     0
  0
APPID
  5
232
330
9
100
AcDbSymbolTableRecord
100
AcDbRegAppTableRecord
  2
CONTENTBLOCKDESCRIPTION
 70
     0
  0
APPID
  5
233
330
9
100
AcDbSymbolTableRecord
100
AcDbRegAppTableRecord
  2
CONTENTBLOCKICON
 70
     0
  0
ENDTAB
  0
TABLE
  2
DIMSTYLE
  5
A
330
0
100
AcDbSymbolTable
 70
     2
  0
DIMSTYLE
105
1D
330
A
100
AcDbSymbolTableRecord
100
AcDbDimStyleTableRecord
  2
STANDARD
 70
     0
  3

  4

  5

  6

  7

 40
1.0
 41
0.18
 42
0.0625
 43
0.38
 44
0.18
 45
0.0
 46
0.0
 47
0.0
 48
0.0
140
0.18
141
0.09
142
0.0
143
25.4
144
1.0
145
0.0
146
1.0
147
0.09
 71
     0
 72
     0
 73
     1
 74
     1
 75
     0
 76
     0
 77
     0
 78
     0
170
     0
171
     2
172
     0
173
     0
174
     0
175
     0
176
     0
177
     0
178
     0
270
     2
271
     4
272
     4
273
     2
274
     2
340
10
275
     0
280
     0
281
     0
282
     0
283
     1
284
     0
285
     0
286
     0
287
     3
288
     0
  0
ENDTAB
  0
TABLE
  2
BLOCK_RECORD
  5
1
330
0
100
AcDbSymbolTable
 70
    25
  0
BLOCK_RECORD
  5
1A
102
{ACAD_XDICTIONARY
360
F6B
102
}
330
1
100
AcDbSymbolTableRecord
100
AcDbBlockTableRecord
  2
*MODEL_SPACE
  0
BLOCK_RECORD
  5
17
102
{ACAD_XDICTIONARY
360
F69
102
}
330
1
100
AcDbSymbolTableRecord
100
AcDbBlockTableRecord
  2
*PAPER_SPACE
  0
ENDTAB
  0
ENDSEC
  0
SECTION
  2
BLOCKS
  0
BLOCK
  5
1B
330
1A
100
AcDbEntity
  8
0
100
AcDbBlockBegin
  2
*MODEL_SPACE
 70
     0
 10
0.0
 20
0.0
 30
0.0
  3
*MODEL_SPACE
  1

  0
ENDBLK
  5
1C
330
1A
100
AcDbEntity
  8
0
100
AcDbBlockEnd
  0
BLOCK
  5
18
330
17
100
AcDbEntity
 67
     1
  8
0
100
AcDbBlockBegin
  2
*PAPER_SPACE
 70
     0
 10
0.0
 20
0.0
 30
0.0
  3
*PAPER_SPACE
  1

  0
ENDBLK
  5
19
330
17
100
AcDbEntity
 67
     1
  8
0
100
AcDbBlockEnd
  0
ENDSEC
  0
SECTION
  2
ENTITIES
  0
LINE
  5
3022
330
1A
100
AcDbEntity
  8
1
100
AcDbLine
 10
405.8079528261601
 20
203.8125472364295
 30
0.0
 11
421.8079528261601
 21
202.8125472364294
 31
0.0
  0
LINE
  5
3023
330
1A
100
AcDbEntity
  8
1
100
AcDbLine
 10
405.8079528261601
 20
221.8164420794637
 30
0.0
 11
421.8079528261601
 21
222.8164420794637
 31
0.0
  0
LINE
  5
3024
330
1A
100
AcDbEntity
  8
1
100
AcDbLine
 10
405.745574540005
 20
202.8144946579466
 30
0.0
 11
421.745574540005
 21
201.8144946579466
 31
0.0
  0
LINE
  5
3025
330
1A
100
AcDbEntity
  8
1
100
AcDbLine
 10
405.745574540005
 20
222.8144946579466
 30
0.0
 11
421.745574540005
 21
223.8144946579466
 31
0.0
  0
ARC
  5
3029
330
1A
100
AcDbEntity
  8
1
100
AcDbCircle
 10
227.3999200243244
 20
447.745331743457
 30
0.0
 40
59.25
100
AcDbArc
 50
183.1443846095167
 51
176.8556153904832
  0
LINE
  5
302A
330
1A
100
AcDbEntity
  8
1
100
AcDbLine
 10
117.3999200243245
 20
372.7453317434573
 30
0.0
 11
117.3999200243245
 21
552.7453317434569
 31
0.0
  0
LINE
  5
302B
330
1A
100
AcDbEntity
  8
1
100
AcDbLine
 10
337.3999200243245
 20
372.745331743457
 30
0.0
 11
337.3999200243245
 21
552.745331743457
 31
0.0
  0
LINE
  5
302C
330
1A
100
AcDbEntity
  8
1
100
AcDbLine
 10
182.8999200243245
 20
129.8144946579464
 30
0.0
 11
271.8999200243245
 21
129.8144946579465
 31
0.0
  0
LINE
  5
302D
330
1A
100
AcDbEntity
  8
1
100
AcDbLine
 10
182.8999200243245
 20
131.8144946579465
 30
0.0
 11
271.8999200243245
 21
131.8144946579464
 31
0.0
  0
LINE
  5
3030
330
1A
100
AcDbEntity
  8
1
100
AcDbLine
 10
183.6189153921584
 20
135.8144946579465
 30
0.0
 11
271.1809246564902
 21
135.8144946579465
 31
0.0
  0
LINE
  5
3031
330
1A
100
AcDbEntity
  8
1
100
AcDbLine
 10
186.3999200243245
 20
126.8144946579466
 30
0.0
 11
268.3999200243245
 21
126.8144946579466
 31
0.0
  0
LINE
  5
3032
330
1A
100
AcDbEntity
  8
1
100
AcDbLine
 10
283.3999200243244
 20
110.8144946579467
 30
0.0
 11
171.3999200243245
 21
110.8144946579466
 31
0.0
  0
LINE
  5
3033
330
1A
100
AcDbEntity
  8
1
100
AcDbLine
 10
283.3999200243244
 20
285.8144946579466
 30
0.0
 11
171.3999200243245
 21
285.8144946579466
 31
0.0
  0
CIRCLE
  5
3034
330
1A
100
AcDbEntity
  8
1
100
AcDbCircle
 10
227.3999200243244
 20
212.8144946579465
 30
0.0
 40
8.0
  0
CIRCLE
  5
3035
330
1A
100
AcDbEntity
  8
1
100
AcDbCircle
 10
227.3999200243244
 20
212.8144946579465
 30
0.0
 40
10.0
  0
CIRCLE
  5
3036
330
1A
100
AcDbEntity
  8
1
100
AcDbCircle
 10
227.3999200243244
 20
212.8144946579465
 30
0.0
 40
11.0
  0
CIRCLE
  5
3037
330
1A
100
AcDbEntity
  8
1
100
AcDbCircle
 10
227.3999200243244
 20
212.8144946579465
 30
0.0
 40
21.0
  0
CIRCLE
  5
3038
330
1A
100
AcDbEntity
  8
1
100
AcDbCircle
 10
227.3999200243244
 20
212.8144946579465
 30
0.0
 40
25.0
  0
LINE
  5
3039
330
1A
100
AcDbEntity
  8
1
100
AcDbLine
 10
186.3999200243245
 20
120.8144946579466
 30
0.0
 11
268.3999200243245
 21
120.8144946579466
 31
0.0
  0
LINE
  5
303A
330
1A
100
AcDbEntity
  8
1
100
AcDbLine
 10
186.3999200243245
 20
118.8144946579466
 30
0.0
 11
268.3999200243245
 21
118.8144946579466
 31
0.0
  0
LINE
  5
303B
330
1A
100
AcDbEntity
  8
1
100
AcDbLine
 10
197.3999200243245
 20
277.8144946579463
 30
0.0
 11
257.3999200243245
 21
277.8144946579465
 31
0.0
  0
LINE
  5
303C
330
1A
100
AcDbEntity
  8
1
100
AcDbLine
 10
197.3999200243245
 20
275.8144946579463
 30
0.0
 11
257.3999200243245
 21
275.8144946579465
 31
0.0
  0
LINE
  5
303D
330
1A
100
AcDbEntity
  8
1
100
AcDbLine
 10
197.3999200243245
 20
269.8144946579465
 30
0.0
 11
257.3999200243245
 21
269.8144946579465
 31
0.0
  0
LINE
  5
303E
330
1A
100
AcDbEntity
  8
1
100
AcDbLine
 10
183.3999200243244
 20
153.8144946579465
 30
0.0
 11
271.3999200243244
 21
153.8144946579466
 31
0.0
  0
LINE
  5
303F
330
1A
100
AcDbEntity
  8
1
100
AcDbLine
 10
184.8999200243245
 20
259.8144946579465
 30
0.0
 11
269.8999200243245
 21
259.8144946579465
 31
0.0
  0
LINE
  5
3040
330
1A
100
AcDbEntity
  8
1
100
AcDbLine
 10
173.3999200243244
 20
112.8144946579466
 30
0.0
 11
281.3999200243245
 21
112.8144946579467
 31
0.0
  0
LINE
  5
3041
330
1A
100
AcDbEntity
  8
1
100
AcDbLine
 10
173.3999200243244
 20
283.8144946579466
 30
0.0
 11
281.3999200243245
 21
283.8144946579466
 31
0.0
  0
LINE
  5
3042
330
1A
100
AcDbEntity
  8
1
100
AcDbLine
 10
117.3999200243245
 20
86.81449465794669
 30
0.0
 11
337.3999200243245
 21
86.81449465794674
 31
0.0
  0
LINE
  5
3043
330
1A
100
AcDbEntity
  8
1
100
AcDbLine
 10
117.3999200243245
 20
74.81449465794662
 30
0.0
 11
337.3999200243245
 21
74.81449465794662
 31
0.0
  0
LINE
  5
3044
330
1A
100
AcDbEntity
  8
1
100
AcDbLine
 10
117.3999200243245
 20
309.8144946579466
 30
0.0
 11
337.3999200243245
 21
309.8144946579466
 31
0.0
  0
LINE
  5
3045
330
1A
100
AcDbEntity
  8
1
100
AcDbLine
 10
117.3999200243245
 20
321.8144946579465
 30
0.0
 11
337.3999200243245
 21
321.8144946579466
 31
0.0
  0
LINE
  5
3046
330
1A
100
AcDbEntity
  8
1
100
AcDbLine
 10
237.3999200243245
 20
349.7453317434572
 30
0.0
 11
217.3999200243244
 21
349.7453317434572
 31
0.0
  0
LINE
  5
3047
330
1A
100
AcDbEntity
  8
1
100
AcDbLine
 10
238.3999200243244
 20
365.6384033250121
 30
0.0
 11
216.3999200243245
 21
365.7453317434572
 31
0.0
  0
LINE
  5
3048
330
1A
100
AcDbEntity
  8
1
100
AcDbLine
 10
117.3999200243245
 20
372.7453317434572
 30
0.0
 11
337.3999200243245
 21
372.745331743457
 31
0.0
  0
LINE
  5
3049
330
1A
100
AcDbEntity
  8
1
100
AcDbLine
 10
182.8999200243245
 20
257.8144946579465
 30
0.0
 11
182.8999200243245
 21
236.3144946579465
 31
0.0
  0
LINE
  5
304A
330
1A
100
AcDbEntity
  8
1
100
AcDbLine
 10
184.8999200243245
 20
131.8144946579465
 30
0.0
 11
184.8999200243245
 21
133.8144946579465
 31
0.0
  0
LINE
  5
304B
330
1A
100
AcDbEntity
  8
1
100
AcDbLine
 10
182.8999200243245
 20
129.8144946579464
 30
0.0
 11
182.8999200243245
 21
131.8144946579465
 31
0.0
  0
ARC
  5
3052
330
1A
100
AcDbEntity
  8
1
100
AcDbCircle
 10
183.3999200243244
 20
154.3144946579465
 30
0.0
 40
0.5
100
AcDbArc
 50
270.0
 51
0.0
  0
ARC
  5
3053
330
1A
100
AcDbEntity
  8
1
100
AcDbCircle
 10
183.3999200243244
 20
136.2639844007296
 30
0.0
 40
0.5
100
AcDbArc
 50
180.0
 51
258.4630409671852
  0
ARC
  5
3054
330
1A
100
AcDbEntity
  8
1
100
AcDbCircle
 10
182.8999200243245
 20
133.8144946579465
 30
0.0
 40
2.0
100
AcDbArc
 50
0.0
 51
78.46304096718522
  0
ARC
  5
3055
330
1A
100
AcDbEntity
  8
1
100
AcDbCircle
 10
183.8999200243245
 20
126.9369936571458
 30
0.0
 40
1.0
100
AcDbArc
 50
308.6821874534895
 51
0.0
  0
LINE
  5
3056
330
1A
100
AcDbEntity
  8
1
100
AcDbLine
 10
184.8999200243245
 20
126.9369936571458
 30
0.0
 11
184.8999200243245
 21
129.8144946579464
 31
0.0
  0
ARC
  5
3057
330
1A
100
AcDbEntity
  8
1
100
AcDbCircle
 10
183.3999200243244
 20
236.3144946579465
 30
0.0
 40
0.5
100
AcDbArc
 50
180.0
 51
270.0
  0
ARC
  5
3058
330
1A
100
AcDbEntity
  8
1
100
AcDbCircle
 10
183.3999200243244
 20
235.3144946579465
 30
0.0
 40
0.5
100
AcDbArc
 50
0.0
 51
90.0
  0
ARC
  5
3059
330
1A
100
AcDbEntity
  8
1
100
AcDbCircle
 10
183.3999200243244
 20
153.3144946579465
 30
0.0
 40
0.5
100
AcDbArc
 50
90.0
 51
180.0
  0
LINE
  5
305A
330
1A
100
AcDbEntity
  8
1
100
AcDbLine
 10
173.3999200243244
 20
112.8144946579466
 30
0.0
 11
171.3999200243245
 21
110.8144946579466
 31
0.0
  0
CIRCLE
  5
305B
330
1A
100
AcDbEntity
  8
1
100
AcDbCircle
 10
211.3999200243244
 20
212.8144946579465
 30
0.0
 40
3.5
  0
ARC
  5
305C
330
1A
100
AcDbEntity
  8
1
100
AcDbCircle
 10
186.3999200243245
 20
115.8144946579467
 30
0.0
 40
2.999999999999943
100
AcDbArc
 50
90.0
 51
180.0
  0
ARC
  5
305D
330
1A
100
AcDbEntity
  8
1
100
AcDbCircle
 10
186.3999200243245
 20
119.8144946579466
 30
0.0
 40
1.0
100
AcDbArc
 50
270.0
 51
90.0
  0
ARC
  5
305E
330
1A
100
AcDbEntity
  8
1
100
AcDbCircle
 10
186.3999200243245
 20
123.8144946579466
 30
0.0
 40
3.0
100
AcDbArc
 50
128.6821874534894
 51
270.0
  0
LINE
  5
305F
330
1A
100
AcDbEntity
  8
1
100
AcDbLine
 10
183.3999200243244
 20
112.8144946579467
 30
0.0
 11
183.3999200243244
 21
115.8144946579467
 31
0.0
  0
LINE
  5
3060
330
1A
100
AcDbEntity
  8
1
100
AcDbLine
 10
182.8999200243245
 20
153.3144946579465
 30
0.0
 11
182.8999200243245
 21
136.2639844007296
 31
0.0
  0
LINE
  5
3061
330
1A
100
AcDbEntity
  8
1
100
AcDbLine
 10
171.3999200243245
 20
110.8144946579466
 30
0.0
 11
171.3999200243245
 21
86.81449465794669
 31
0.0
  0
LINE
  5
3062
330
1A
100
AcDbEntity
  8
1
100
AcDbLine
 10
117.3999200243245
 20
86.81449465794674
 30
0.0
 11
117.3999200243245
 21
74.81449465794662
 31
0.0
  0
LINE
  5
3063
330
1A
100
AcDbEntity
  8
1
100
AcDbLine
 10
183.3999200243244
 20
235.8144946579465
 30
0.0
 11
183.3999200243244
 21
235.8144946579465
 31
0.0
  0
LINE
  5
3064
330
1A
100
AcDbEntity
  8
1
100
AcDbLine
 10
183.8999200243245
 20
235.3144946579465
 30
0.0
 11
183.8999200243245
 21
154.3144946579465
 31
0.0
  0
LINE
  5
3065
330
1A
100
AcDbEntity
  8
CENTER
 62
     9
100
AcDbLine
 10
142.3999200243245
 20
405.7453317434571
 30
0.0
 11
142.3999200243245
 21
411.7453317434572
 31
0.0
  0
LINE
  5
3066
330
1A
100
AcDbEntity
  8
CENTER
 62
     9
100
AcDbLine
 10
142.3999200243245
 20
389.7453317434571
 30
0.0
 11
142.3999200243245
 21
383.7453317434571
 31
0.0
  0
LINE
  5
3067
330
1A
100
AcDbEntity
  8
CENTER
 62
     9
100
AcDbLine
 10
150.3999200243244
 20
397.7453317434571
 30
0.0
 11
156.3999200243245
 21
397.7453317434571
 31
0.0
  0
LINE
  5
3068
330
1A
100
AcDbEntity
  8
CENTER
 62
     9
100
AcDbLine
 10
134.3999200243245
 20
397.7453317434571
 30
0.0
 11
128.3999200243244
 21
397.7453317434571
 31
0.0
  0
LINE
  5
3069
330
1A
100
AcDbEntity
  8
CENTER
 62
     9
100
AcDbLine
 10
142.3999200243245
 20
393.7453317434572
 30
0.0
 11
142.3999200243245
 21
401.7453317434571
 31
0.0
  0
LINE
  5
306A
330
1A
100
AcDbEntity
  8
CENTER
 62
     9
100
AcDbLine
 10
138.3999200243245
 20
397.7453317434571
 30
0.0
 11
146.3999200243245
 21
397.7453317434571
 31
0.0
  0
LINE
  5
306B
330
1A
100
AcDbEntity
  8
1
100
AcDbLine
 10
171.3999200243245
 20
285.8144946579466
 30
0.0
 11
173.3999200243244
 21
283.8144946579466
 31
0.0
  0
CIRCLE
  5
306C
330
1A
100
AcDbEntity
  8
1
100
AcDbCircle
 10
192.8999200243245
 20
252.8144946579465
 30
0.0
 40
7.0
  0
ARC
  5
306D
330
1A
100
AcDbEntity
  8
1
100
AcDbCircle
 10
197.3999200243245
 20
280.8144946579465
 30
0.0
 40
3.0
100
AcDbArc
 50
180.0
 51
270.0
  0
ARC
  5
306E
330
1A
100
AcDbEntity
  8
1
100
AcDbCircle
 10
197.3999200243245
 20
276.8144946579464
 30
0.0
 40
1.0
100
AcDbArc
 50
270.0
 51
90.0
  0
ARC
  5
306F
330
1A
100
AcDbEntity
  8
1
100
AcDbCircle
 10
197.3999200243245
 20
272.8144946579465
 30
0.0
 40
3.0
100
AcDbArc
 50
90.0
 51
270.0
  0
ARC
  5
3070
330
1A
100
AcDbEntity
  8
1
100
AcDbCircle
 10
200.3999200243244
 20
267.8144946579465
 30
0.0
 40
2.0
100
AcDbArc
 50
0.0
 51
90.0
  0
LINE
  5
3071
330
1A
100
AcDbEntity
  8
1
100
AcDbLine
 10
194.3999200243245
 20
280.8144946579465
 30
0.0
 11
194.3999200243245
 21
283.8144946579466
 31
0.0
  0
ARC
  5
3072
330
1A
100
AcDbEntity
  8
1
100
AcDbCircle
 10
200.3999200243244
 20
261.8144946579465
 30
0.0
 40
2.0
100
AcDbArc
 50
270.0
 51
0.0
  0
ARC
  5
3073
330
1A
100
AcDbEntity
  8
1
100
AcDbCircle
 10
184.8999200243245
 20
257.8144946579465
 30
0.0
 40
2.0
100
AcDbArc
 50
90.0
 51
180.0
  0
LINE
  5
3074
330
1A
100
AcDbEntity
  8
1
100
AcDbLine
 10
202.3999200243244
 20
267.8144946579466
 30
0.0
 11
202.3999200243244
 21
261.8144946579465
 31
0.0
  0
LINE
  5
3075
330
1A
100
AcDbEntity
  8
1
100
AcDbLine
 10
171.3999200243245
 20
309.8144946579466
 30
0.0
 11
171.3999200243245
 21
285.8144946579466
 31
0.0
  0
LINE
  5
3076
330
1A
100
AcDbEntity
  8
1
100
AcDbLine
 10
117.3999200243245
 20
321.8144946579465
 30
0.0
 11
117.3999200243245
 21
309.8144946579466
 31
0.0
  0
LINE
  5
3077
330
1A
100
AcDbEntity
  8
1
100
AcDbLine
 10
217.3999200243244
 20
349.7453317434572
 30
0.0
 11
216.3999200243245
 21
365.7453317434572
 31
0.0
  0
LINE
  5
3078
330
1A
100
AcDbEntity
  8
1
100
AcDbLine
 10
216.3999200243245
 20
365.7453317434572
 30
0.0
 11
216.3999200243245
 21
372.7453317434572
 31
0.0
  0
CIRCLE
  5
3079
330
1A
100
AcDbEntity
  8
1
100
AcDbCircle
 10
142.3999200243245
 20
397.7453317434571
 30
0.0
 40
10.0
  0
LINE
  5
307A
330
1A
100
AcDbEntity
  8
1
100
AcDbLine
 10
271.8999200243245
 20
257.8144946579465
 30
0.0
 11
271.8999200243245
 21
236.3144946579465
 31
0.0
  0
LINE
  5
307B
330
1A
100
AcDbEntity
  8
1
100
AcDbLine
 10
269.8999200243245
 20
131.8144946579464
 30
0.0
 11
269.8999200243245
 21
133.8144946579463
 31
0.0
  0
LINE
  5
307C
330
1A
100
AcDbEntity
  8
1
100
AcDbLine
 10
271.8999200243245
 20
129.8144946579465
 30
0.0
 11
271.8999200243245
 21
131.8144946579464
 31
0.0
  0
ARC
  5
3088
330
1A
100
AcDbEntity
  8
1
100
AcDbCircle
 10
271.3999200243244
 20
154.3144946579465
 30
0.0
 40
0.5
100
AcDbArc
 50
180.0
 51
270.0
  0
ARC
  5
3089
330
1A
100
AcDbEntity
  8
1
100
AcDbCircle
 10
271.3999200243244
 20
136.2639844007295
 30
0.0
 40
0.5
100
AcDbArc
 50
281.5369590328147
 51
0.0
  0
ARC
  5
308A
330
1A
100
AcDbEntity
  8
1
100
AcDbCircle
 10
554.245574540005
 20
133.8144946579464
 30
0.0
 40
2.0
100
AcDbArc
 50
101.5369590328163
 51
180.0
  0
ARC
  5
308B
330
1A
100
AcDbEntity
  8
1
100
AcDbCircle
 10
270.8999200243245
 20
126.9369936571458
 30
0.0
 40
1.0
100
AcDbArc
 50
180.0
 51
231.3178125465105
  0
LINE
  5
308C
330
1A
100
AcDbEntity
  8
1
100
AcDbLine
 10
269.8999200243245
 20
126.9369936571458
 30
0.0
 11
269.8999200243245
 21
129.8144946579465
 31
0.0
  0
ARC
  5
308D
330
1A
100
AcDbEntity
  8
1
100
AcDbCircle
 10
271.3999200243244
 20
236.3144946579465
 30
0.0
 40
0.5
100
AcDbArc
 50
270.0
 51
0.0
  0
ARC
  5
308E
330
1A
100
AcDbEntity
  8
1
100
AcDbCircle
 10
271.3999200243244
 20
235.3144946579465
 30
0.0
 40
0.5
100
AcDbArc
 50
89.99999999999674
 51
180.0
  0
ARC
  5
308F
330
1A
100
AcDbEntity
  8
1
100
AcDbCircle
 10
271.3999200243244
 20
153.3144946579466
 30
0.0
 40
0.5
100
AcDbArc
 50
0.0
 51
90.0
  0
LINE
  5
3090
330
1A
100
AcDbEntity
  8
1
100
AcDbLine
 10
281.3999200243245
 20
112.8144946579467
 30
0.0
 11
283.3999200243244
 21
110.8144946579467
 31
0.0
  0
CIRCLE
  5
3091
330
1A
100
AcDbEntity
  8
1
100
AcDbCircle
 10
243.3999200243245
 20
212.8144946579465
 30
0.0
 40
3.5
  0
CIRCLE
  5
3092
330
1A
100
AcDbEntity
  8
1
100
AcDbCircle
 10
227.3999200243244
 20
212.8144946579465
 30
0.0
 40
4.0
  0
CIRCLE
  5
3093
330
1A
100
AcDbEntity
  8
1
100
AcDbCircle
 10
227.3999200243244
 20
212.8144946579465
 30
0.0
 40
5.5
  0
LINE
  5
3094
330
1A
100
AcDbEntity
  8
1
100
AcDbLine
 10
271.3999200243244
 20
235.8144946579465
 30
0.0
 11
271.3999200243244
 21
235.8144946579465
 31
0.0
  0
ARC
  5
3095
330
1A
100
AcDbEntity
  8
1
100
AcDbCircle
 10
268.3999200243245
 20
115.8144946579466
 30
0.0
 40
3.0
100
AcDbArc
 50
0.0
 51
90.0
  0
ARC
  5
3096
330
1A
100
AcDbEntity
  8
1
100
AcDbCircle
 10
268.3999200243245
 20
119.8144946579466
 30
0.0
 40
1.0
100
AcDbArc
 50
90.0
 51
270.0
  0
ARC
  5
3097
330
1A
100
AcDbEntity
  8
1
100
AcDbCircle
 10
268.3999200243245
 20
123.8144946579466
 30
0.0
 40
2.999999999999943
100
AcDbArc
 50
270.0
 51
51.31781254651052
  0
LINE
  5
3098
330
1A
100
AcDbEntity
  8
1
100
AcDbLine
 10
271.3999200243244
 20
112.8144946579466
 30
0.0
 11
271.3999200243244
 21
115.8144946579466
 31
0.0
  0
LINE
  5
3099
330
1A
100
AcDbEntity
  8
1
100
AcDbLine
 10
271.8999200243245
 20
153.3144946579466
 30
0.0
 11
271.8999200243245
 21
136.2639844007295
 31
0.0
  0
LINE
  5
309A
330
1A
100
AcDbEntity
  8
1
100
AcDbLine
 10
283.3999200243244
 20
110.8144946579467
 30
0.0
 11
283.3999200243244
 21
86.81449465794674
 31
0.0
  0
LINE
  5
309B
330
1A
100
AcDbEntity
  8
1
100
AcDbLine
 10
270.8999200243245
 20
235.3144946579465
 30
0.0
 11
270.8999200243245
 21
154.3144946579465
 31
0.0
  0
LINE
  5
309D
330
1A
100
AcDbEntity
  8
1
100
AcDbLine
 10
341.803682266732
 20
208.8144946579466
 30
0.0
 11
375.745574540005
 21
208.8144946579467
 31
0.0
  0
LINE
  5
309E
330
1A
100
AcDbEntity
  8
1
100
AcDbLine
 10
341.803682266732
 20
216.8144946579466
 30
0.0
 11
375.745574540005
 21
216.8144946579466
 31
0.0
  0
LINE
  5
309F
330
1A
100
AcDbEntity
  8
1
100
AcDbLine
 10
375.745574540005
 20
207.3144946579465
 30
0.0
 11
405.7455745400051
 21
207.3144946579465
 31
0.0
  0
LINE
  5
30A0
330
1A
100
AcDbEntity
  8
1
100
AcDbLine
 10
375.745574540005
 20
218.3144946579465
 30
0.0
 11
405.7455745400051
 21
218.3144946579465
 31
0.0
  0
LINE
  5
30A1
330
1A
100
AcDbEntity
  8
1
100
AcDbLine
 10
375.745574540005
 20
218.3144946579465
 30
0.0
 11
375.745574540005
 21
207.3144946579465
 31
0.0
  0
LINE
  5
30A2
330
1A
100
AcDbEntity
  8
1
100
AcDbLine
 10
405.7455745400051
 20
222.8144946579466
 30
0.0
 11
405.7455745400051
 21
202.8144946579466
 31
0.0
  0
LINE
  5
30A3
330
1A
100
AcDbEntity
  8
1
100
AcDbLine
 10
337.3999200243245
 20
86.81449465794669
 30
0.0
 11
337.3999200243245
 21
74.81449465794668
 31
0.0
  0
LINE
  5
30A6
330
1A
100
AcDbEntity
  8
CENTER
 62
     9
100
AcDbLine
 10
312.3999200243245
 20
405.7453317434571
 30
0.0
 11
312.3999200243245
 21
411.7453317434572
 31
0.0
  0
LINE
  5
30A7
330
1A
100
AcDbEntity
  8
CENTER
 62
     9
100
AcDbLine
 10
312.3999200243245
 20
389.7453317434571
 30
0.0
 11
312.3999200243245
 21
383.7453317434571
 31
0.0
  0
LINE
  5
30A8
330
1A
100
AcDbEntity
  8
CENTER
 62
     9
100
AcDbLine
 10
320.3999200243245
 20
397.7453317434571
 30
0.0
 11
326.3999200243245
 21
397.7453317434571
 31
0.0
  0
LINE
  5
30A9
330
1A
100
AcDbEntity
  8
CENTER
 62
     9
100
AcDbLine
 10
304.3999200243244
 20
397.7453317434571
 30
0.0
 11
294.2963349711603
 21
397.7453317434571
 31
0.0
  0
LINE
  5
30AA
330
1A
100
AcDbEntity
  8
CENTER
 62
     9
100
AcDbLine
 10
312.3999200243245
 20
393.7453317434572
 30
0.0
 11
312.3999200243245
 21
401.7453317434571
 31
0.0
  0
LINE
  5
30AB
330
1A
100
AcDbEntity
  8
CENTER
 62
     9
100
AcDbLine
 10
308.3999200243245
 20
397.7453317434571
 30
0.0
 11
316.3999200243245
 21
397.7453317434571
 31
0.0
  0
LINE
  5
30AC
330
1A
100
AcDbEntity
  8
1
100
AcDbLine
 10
283.3999200243244
 20
285.8144946579466
 30
0.0
 11
281.3999200243245
 21
283.8144946579466
 31
0.0
  0
CIRCLE
  5
30AD
330
1A
100
AcDbEntity
  8
1
100
AcDbCircle
 10
261.8999200243245
 20
252.8144946579465
 30
0.0
 40
7.0
  0
ARC
  5
30AE
330
1A
100
AcDbEntity
  8
1
100
AcDbCircle
 10
257.3999200243245
 20
280.8144946579465
 30
0.0
 40
3.0
100
AcDbArc
 50
270.0
 51
0.0
  0
ARC
  5
30AF
330
1A
100
AcDbEntity
  8
1
100
AcDbCircle
 10
257.3999200243245
 20
276.8144946579464
 30
0.0
 40
1.0
100
AcDbArc
 50
90.0
 51
270.0
  0
ARC
  5
30B0
330
1A
100
AcDbEntity
  8
1
100
AcDbCircle
 10
257.3999200243245
 20
272.8144946579465
 30
0.0
 40
3.0
100
AcDbArc
 50
270.0
 51
90.0
  0
ARC
  5
30B1
330
1A
100
AcDbEntity
  8
1
100
AcDbCircle
 10
254.3999200243244
 20
267.8144946579465
 30
0.0
 40
2.0
100
AcDbArc
 50
90.0
 51
180.0
  0
LINE
  5
30B2
330
1A
100
AcDbEntity
  8
1
100
AcDbLine
 10
260.3999200243245
 20
280.8144946579465
 30
0.0
 11
260.3999200243245
 21
283.8144946579466
 31
0.0
  0
ARC
  5
30B3
330
1A
100
AcDbEntity
  8
1
100
AcDbCircle
 10
254.3999200243244
 20
261.8144946579465
 30
0.0
 40
2.0
100
AcDbArc
 50
180.0
 51
270.0
  0
ARC
  5
30B4
330
1A
100
AcDbEntity
  8
1
100
AcDbCircle
 10
269.8999200243245
 20
257.8144946579465
 30
0.0
 40
2.0
100
AcDbArc
 50
0.0
 51
90.0
  0
LINE
  5
30B5
330
1A
100
AcDbEntity
  8
1
100
AcDbLine
 10
252.3999200243244
 20
267.8144946579465
 30
0.0
 11
252.3999200243244
 21
261.8144946579465
 31
0.0
  0
LINE
  5
30B6
330
1A
100
AcDbEntity
  8
1
100
AcDbLine
 10
283.3999200243244
 20
309.8144946579466
 30
0.0
 11
283.3999200243244
 21
285.8144946579466
 31
0.0
  0
LINE
  5
30B7
330
1A
100
AcDbEntity
  8
1
100
AcDbLine
 10
238.3999200243244
 20
365.6384033250121
 30
0.0
 11
237.3999200243245
 21
349.7453317434572
 31
0.0
  0
LINE
  5
30B8
330
1A
100
AcDbEntity
  8
1
100
AcDbLine
 10
238.3999200243244
 20
372.745331743457
 30
0.0
 11
238.3999200243244
 21
365.6384033250121
 31
0.0
  0
CIRCLE
  5
30B9
330
1A
100
AcDbEntity
  8
1
100
AcDbCircle
 10
312.3999200243245
 20
397.7453317434571
 30
0.0
 40
10.0
  0
LINE
  5
30BA
330
1A
100
AcDbEntity
  8
1
100
AcDbLine
 10
337.3999200243245
 20
321.8144946579466
 30
0.0
 11
337.3999200243245
 21
309.8144946579466
 31
0.0
  0
LINE
  5
30BB
330
1A
100
AcDbEntity
  8
1
  6
HIDDEN
 48
40.0
100
AcDbLine
 10
117.3999200243245
 20
522.7453317434572
 30
0.0
 11
337.3999200243245
 21
522.745331743457
 31
0.0
  0
CIRCLE
  5
30BE
330
1A
100
AcDbEntity
  8
1
100
AcDbCircle
 10
227.3999200243244
 20
522.7453317434573
 30
0.0
 40
8.0
  0
LINE
  5
30BF
330
1A
100
AcDbEntity
  8
1
100
AcDbLine
 10
117.3999200243245
 20
552.7453317434569
 30
0.0
 11
337.3999200243245
 21
552.745331743457
 31
0.0
  0
LINE
  5
30C7
330
1A
100
AcDbEntity
  8
CENTER
 62
     9
100
AcDbLine
 10
142.3999200243245
 20
505.7453317434571
 30
0.0
 11
142.3999200243245
 21
511.7453317434572
 31
0.0
  0
LINE
  5
30C8
330
1A
100
AcDbEntity
  8
CENTER
 62
     9
100
AcDbLine
 10
142.3999200243245
 20
489.7453317434572
 30
0.0
 11
142.3999200243245
 21
483.7453317434571
 31
0.0
  0
LINE
  5
30C9
330
1A
100
AcDbEntity
  8
CENTER
 62
     9
100
AcDbLine
 10
150.3999200243244
 20
497.7453317434572
 30
0.0
 11
156.3999200243245
 21
497.7453317434572
 31
0.0
  0
LINE
  5
30CA
330
1A
100
AcDbEntity
  8
CENTER
 62
     9
100
AcDbLine
 10
134.3999200243245
 20
497.7453317434572
 30
0.0
 11
128.3999200243244
 21
497.7453317434572
 31
0.0
  0
LINE
  5
30CB
330
1A
100
AcDbEntity
  8
CENTER
 62
     9
100
AcDbLine
 10
142.3999200243245
 20
493.7453317434572
 30
0.0
 11
142.3999200243245
 21
501.7453317434571
 31
0.0
  0
LINE
  5
30CC
330
1A
100
AcDbEntity
  8
CENTER
 62
     9
100
AcDbLine
 10
138.3999200243245
 20
497.7453317434572
 30
0.0
 11
146.3999200243245
 21
497.7453317434572
 31
0.0
  0
ARC
  5
30CD
330
1A
100
AcDbEntity
  8
1
100
AcDbCircle
 10
157.1499200243245
 20
447.4953317434571
 30
0.0
 40
3.0
100
AcDbArc
 50
180.0
 51
270.0
  0
ARC
  5
30CE
330
1A
100
AcDbEntity
  8
1
100
AcDbCircle
 10
157.1499200243245
 20
447.9953317434572
 30
0.0
 40
3.0
100
AcDbArc
 50
90.0
 51
180.0
  0
LINE
  5
30CF
330
1A
100
AcDbEntity
  8
1
100
AcDbLine
 10
154.1499200243245
 20
447.4953317434571
 30
0.0
 11
154.1499200243245
 21
447.9953317434572
 31
0.0
  0
LINE
  5
30D0
330
1A
100
AcDbEntity
  8
1
100
AcDbLine
 10
157.1499200243245
 20
444.4953317434571
 30
0.0
 11
168.2391221933283
 21
444.4953317434571
 31
0.0
  0
LINE
  5
30D1
330
1A
100
AcDbEntity
  8
1
100
AcDbLine
 10
157.1499200243245
 20
450.9953317434572
 30
0.0
 11
168.2391221933283
 21
450.9953317434571
 31
0.0
  0
CIRCLE
  5
30D2
330
1A
100
AcDbEntity
  8
1
100
AcDbCircle
 10
142.3999200243245
 20
497.7453317434572
 30
0.0
 40
10.0
  0
LINE
  5
30DB
330
1A
100
AcDbEntity
  8
CENTER
 62
     9
100
AcDbLine
 10
227.3999200243244
 20
518.7453317434573
 30
0.0
 11
227.3999200243244
 21
526.7453317434573
 31
0.0
  0
LINE
  5
30DC
330
1A
100
AcDbEntity
  8
CENTER
 62
     9
100
AcDbLine
 10
223.3999200243244
 20
522.7453317434573
 30
0.0
 11
231.3999200243245
 21
522.7453317434573
 31
0.0
  0
LINE
  5
30DD
330
1A
100
AcDbEntity
  8
CENTER
 62
     9
100
AcDbLine
 10
312.3999200243245
 20
505.7453317434571
 30
0.0
 11
312.3999200243245
 21
511.7453317434572
 31
0.0
  0
LINE
  5
30DE
330
1A
100
AcDbEntity
  8
CENTER
 62
     9
100
AcDbLine
 10
312.3999200243245
 20
489.7453317434572
 30
0.0
 11
312.3999200243245
 21
483.7453317434571
 31
0.0
  0
LINE
  5
30DF
330
1A
100
AcDbEntity
  8
CENTER
 62
     9
100
AcDbLine
 10
320.3999200243245
 20
497.7453317434572
 30
0.0
 11
326.3999200243245
 21
497.7453317434572
 31
0.0
  0
LINE
  5
30E0
330
1A
100
AcDbEntity
  8
CENTER
 62
     9
100
AcDbLine
 10
304.3999200243244
 20
497.7453317434572
 30
0.0
 11
294.2963349711603
 21
497.7453317434572
 31
0.0
  0
LINE
  5
30E1
330
1A
100
AcDbEntity
  8
CENTER
 62
     9
100
AcDbLine
 10
312.3999200243245
 20
493.7453317434572
 30
0.0
 11
312.3999200243245
 21
501.7453317434571
 31
0.0
  0
LINE
  5
30E2
330
1A
100
AcDbEntity
  8
CENTER
 62
     9
100
AcDbLine
 10
308.3999200243245
 20
497.7453317434572
 30
0.0
 11
316.3999200243245
 21
497.7453317434572
 31
0.0
  0
CIRCLE
  5
30E3
330
1A
100
AcDbEntity
  8
1
100
AcDbCircle
 10
312.3999200243245
 20
497.7453317434572
 30
0.0
 40
10.0
  0
ARC
  5
30F9
330
1A
100
AcDbEntity
  8
1
100
AcDbCircle
 10
458.745574540005
 20
243.8144946579465
 30
0.0
 40
2.0
100
AcDbArc
 50
0.0
 51
89.99999999999674
  0
LINE
  5
30FA
330
1A
100
AcDbEntity
  8
1
100
AcDbLine
 10
554.745574540005
 20
257.8144946579467
 30
0.0
 11
554.745574540005
 21
236.3144946579467
 31
0.0
  0
LINE
  5
30FB
330
1A
100
AcDbEntity
  8
1
100
AcDbLine
 10
460.7455745400049
 20
257.8144946579466
 30
0.0
 11
460.745574540005
 21
154.3144946579465
 31
0.0
  0
LINE
  5
30FF
330
1A
100
AcDbEntity
  8
1
100
AcDbLine
 10
453.745574540005
 20
110.8144946579468
 30
0.0
 11
565.7455745400051
 21
110.8144946579467
 31
0.0
  0
LINE
  5
3103
330
1A
100
AcDbEntity
  8
1
100
AcDbLine
 10
460.245574540005
 20
153.8144946579465
 30
0.0
 11
554.245574540005
 21
153.8144946579466
 31
0.0
  0
LINE
  5
3104
330
1A
100
AcDbEntity
  8
1
100
AcDbLine
 10
460.7455745400049
 20
235.8144946579466
 30
0.0
 11
554.245574540005
 21
235.8144946579467
 31
0.0
  0
LINE
  5
3105
330
1A
100
AcDbEntity
  8
1
100
AcDbLine
 10
460.245574540005
 20
135.8144946579466
 30
0.0
 11
554.4645699078391
 21
135.8144946579467
 31
0.0
  0
LINE
  5
3106
330
1A
100
AcDbEntity
  8
1
100
AcDbLine
 10
455.745574540005
 20
112.8144946579468
 30
0.0
 11
563.7455745400051
 21
112.8144946579467
 31
0.0
  0
LINE
  5
3107
330
1A
100
AcDbEntity
  8
1
100
AcDbLine
 10
434.745574540005
 20
86.81449465794674
 30
0.0
 11
584.745574540005
 21
86.81449465794679
 31
0.0
  0
LINE
  5
3108
330
1A
100
AcDbEntity
  8
1
100
AcDbLine
 10
434.745574540005
 20
74.81449465794668
 30
0.0
 11
584.745574540005
 21
74.81449465794668
 31
0.0
  0
LINE
  5
310B
330
1A
100
AcDbEntity
  8
1
100
AcDbLine
 10
453.745574540005
 20
110.8144946579468
 30
0.0
 11
455.745574540005
 21
112.8144946579468
 31
0.0
  0
LINE
  5
310C
330
1A
100
AcDbEntity
  8
1
100
AcDbLine
 10
421.7455745400045
 20
201.8144946579466
 30
0.0
 11
431.745574540005
 21
201.8144946579467
 31
0.0
  0
LINE
  5
310D
330
1A
100
AcDbEntity
  8
1
100
AcDbLine
 10
421.7455745400061
 20
223.8144946579466
 30
0.0
 11
431.745574540005
 21
223.8144946579466
 31
0.0
  0
LINE
  5
310E
330
1A
100
AcDbEntity
  8
1
100
AcDbLine
 10
427.7455745400049
 20
209.3144946579466
 30
0.0
 11
431.7455745400049
 21
209.3144946579465
 31
0.0
  0
LINE
  5
310F
330
1A
100
AcDbEntity
  8
1
100
AcDbLine
 10
427.7455745400049
 20
216.3144946579466
 30
0.0
 11
431.7455745400049
 21
216.3144946579466
 31
0.0
  0
ARC
  5
3110
330
1A
100
AcDbEntity
  8
1
100
AcDbCircle
 10
436.2455745400049
 20
236.3144946579466
 30
0.0
 40
1.5
100
AcDbArc
 50
0.0
 51
180.0
  0
ARC
  5
3111
330
1A
100
AcDbEntity
  8
1
100
AcDbCircle
 10
436.2455745400049
 20
189.3144946579466
 30
0.0
 40
1.5
100
AcDbArc
 50
180.0
 51
0.0
  0
ARC
  5
3112
330
1A
100
AcDbEntity
  8
1
100
AcDbCircle
 10
438.745574540005
 20
188.8144946579466
 30
0.0
 40
1.0
100
AcDbArc
 50
180.0
 51
0.0
  0
ARC
  5
3113
330
1A
100
AcDbEntity
  8
1
100
AcDbCircle
 10
433.745574540005
 20
188.8144946579466
 30
0.0
 40
1.0
100
AcDbArc
 50
180.0
 51
0.0
  0
ARC
  5
3114
330
1A
100
AcDbEntity
  8
1
100
AcDbCircle
 10
433.745574540005
 20
236.8144946579466
 30
0.0
 40
1.0
100
AcDbArc
 50
0.0
 51
180.0
  0
ARC
  5
3115
330
1A
100
AcDbEntity
  8
1
100
AcDbCircle
 10
438.745574540005
 20
236.8144946579466
 30
0.0
 40
1.0
100
AcDbArc
 50
0.0
 51
180.0
  0
LINE
  5
3116
330
1A
100
AcDbEntity
  8
1
100
AcDbLine
 10
431.745574540005
 20
191.8144946579467
 30
0.0
 11
432.745574540005
 21
191.8144946579467
 31
0.0
  0
LINE
  5
3117
330
1A
100
AcDbEntity
  8
1
100
AcDbLine
 10
431.745574540005
 20
233.8144946579467
 30
0.0
 11
432.745574540005
 21
233.8144946579468
 31
0.0
  0
ARC
  5
3118
330
1A
100
AcDbEntity
  8
1
100
AcDbCircle
 10
458.745574540005
 20
187.8144946579466
 30
0.0
 40
2.0
100
AcDbArc
 50
0.0
 51
90.0
  0
ARC
  5
3119
330
1A
100
AcDbEntity
  8
1
100
AcDbCircle
 10
458.745574540005
 20
237.8144946579467
 30
0.0
 40
2.0
100
AcDbArc
 50
270.0
 51
0.0
  0
LINE
  5
311A
330
1A
100
AcDbEntity
  8
1
100
AcDbLine
 10
439.745574540005
 20
189.8144946579466
 30
0.0
 11
458.745574540005
 21
189.8144946579466
 31
0.0
  0
LINE
  5
311B
330
1A
100
AcDbEntity
  8
1
100
AcDbLine
 10
439.745574540005
 20
235.8144946579467
 30
0.0
 11
458.745574540005
 21
235.8144946579467
 31
0.0
  0
LINE
  5
311C
330
1A
100
AcDbEntity
  8
1
100
AcDbLine
 10
421.745574540005
 20
223.8144946579466
 30
0.0
 11
421.745574540005
 21
201.8144946579466
 31
0.0
  0
LINE
  5
311D
330
1A
100
AcDbEntity
  8
1
100
AcDbLine
 10
427.7455745400049
 20
216.3144946579466
 30
0.0
 11
427.7455745400049
 21
209.3144946579466
 31
0.0
  0
LINE
  5
311E
330
1A
100
AcDbEntity
  8
1
100
AcDbLine
 10
431.7455745400049
 20
233.8144946579467
 30
0.0
 11
431.745574540005
 21
191.8144946579466
 31
0.0
  0
LINE
  5
311F
330
1A
100
AcDbEntity
  8
1
100
AcDbLine
 10
432.745574540005
 20
236.8144946579466
 30
0.0
 11
432.7455745400051
 21
188.8144946579466
 31
0.0
  0
LINE
  5
3120
330
1A
100
AcDbEntity
  8
1
100
AcDbLine
 10
434.745574540005
 20
236.8144946579466
 30
0.0
 11
434.7455745400051
 21
188.8144946579466
 31
0.0
  0
LINE
  5
3121
330
1A
100
AcDbEntity
  8
1
100
AcDbLine
 10
437.745574540005
 20
236.8144946579466
 30
0.0
 11
437.7455745400051
 21
188.8144946579466
 31
0.0
  0
LINE
  5
3122
330
1A
100
AcDbEntity
  8
1
100
AcDbLine
 10
439.745574540005
 20
236.8144946579466
 30
0.0
 11
439.745574540005
 21
188.8144946579466
 31
0.0
  0
ARC
  5
3123
330
1A
100
AcDbEntity
  8
1
100
AcDbCircle
 10
460.245574540005
 20
154.3144946579465
 30
0.0
 40
0.5
100
AcDbArc
 50
270.0
 51
0.0
  0
ARC
  5
3124
330
1A
100
AcDbEntity
  8
1
100
AcDbCircle
 10
460.245574540005
 20
153.3144946579465
 30
0.0
 40
0.5
100
AcDbArc
 50
90.0
 51
180.0
  0
ARC
  5
3125
330
1A
100
AcDbEntity
  8
1
100
AcDbCircle
 10
460.245574540005
 20
136.3144946579466
 30
0.0
 40
0.5
100
AcDbArc
 50
180.0
 51
270.0
  0
LINE
  5
3127
330
1A
100
AcDbEntity
  8
1
100
AcDbLine
 10
459.745574540005
 20
153.3144946579465
 30
0.0
 11
459.745574540005
 21
136.3144946579466
 31
0.0
  0
LINE
  5
312E
330
1A
100
AcDbEntity
  8
1
100
AcDbLine
 10
453.745574540005
 20
110.8144946579468
 30
0.0
 11
453.745574540005
 21
86.81449465794674
 31
0.0
  0
LINE
  5
312F
330
1A
100
AcDbEntity
  8
1
100
AcDbLine
 10
434.745574540005
 20
86.81449465794669
 30
0.0
 11
434.745574540005
 21
74.81449465794668
 31
0.0
  0
LINE
  5
3138
330
1A
100
AcDbEntity
  8
1
100
AcDbLine
 10
565.7455745400051
 20
110.8144946579467
 30
0.0
 11
563.7455745400051
 21
112.8144946579467
 31
0.0
  0
LINE
  5
3139
330
1A
100
AcDbEntity
  8
1
100
AcDbLine
 10
556.7455745400049
 20
158.8144946579466
 30
0.0
 11
553.745574540005
 21
155.8144946579466
 31
0.0
  0
LINE
  5
313A
330
1A
100
AcDbEntity
  8
1
100
AcDbLine
 10
553.745574540005
 20
233.8144946579467
 30
0.0
 11
556.7455745400049
 21
230.8144946579466
 31
0.0
  0
LINE
  5
313B
330
1A
100
AcDbEntity
  8
1
100
AcDbLine
 10
556.7455745400049
 20
230.8144946579467
 30
0.0
 11
556.7455745400049
 21
158.8144946579466
 31
0.0
  0
ARC
  5
313C
330
1A
100
AcDbEntity
  8
1
100
AcDbCircle
 10
554.245574540005
 20
235.3144946579467
 30
0.0
 40
0.5
100
AcDbArc
 50
90.00000000000651
 51
180.0
  0
ARC
  5
313D
330
1A
100
AcDbEntity
  8
1
100
AcDbCircle
 10
554.245574540005
 20
236.3144946579467
 30
0.0
 40
0.5
100
AcDbArc
 50
270.0
 51
0.0
  0
ARC
  5
313E
330
1A
100
AcDbEntity
  8
1
100
AcDbCircle
 10
554.245574540005
 20
154.3144946579465
 30
0.0
 40
0.5
100
AcDbArc
 50
180.0
 51
270.0
  0
ARC
  5
313F
330
1A
100
AcDbEntity
  8
1
100
AcDbCircle
 10
554.245574540005
 20
136.2639844007297
 30
0.0
 40
0.5
100
AcDbArc
 50
281.5369590328181
 51
0.0
  0
ARC
  5
3140
330
1A
100
AcDbEntity
  8
1
100
AcDbCircle
 10
554.245574540005
 20
153.3144946579466
 30
0.0
 40
0.5
100
AcDbArc
 50
0.0
 51
90.0
  0
LINE
  5
3142
330
1A
100
AcDbEntity
  8
1
100
AcDbLine
 10
553.745574540005
 20
235.3144946579467
 30
0.0
 11
553.745574540005
 21
154.3144946579465
 31
0.0
  0
LINE
  5
3143
330
1A
100
AcDbEntity
  8
1
100
AcDbLine
 10
554.745574540005
 20
153.3144946579466
 30
0.0
 11
554.745574540005
 21
136.2639844007297
 31
0.0
  0
LINE
  5
314A
330
1A
100
AcDbEntity
  8
1
100
AcDbLine
 10
565.7455745400051
 20
110.8144946579467
 30
0.0
 11
565.7455745400049
 21
86.81449465794674
 31
0.0
  0
LINE
  5
314B
330
1A
100
AcDbEntity
  8
1
100
AcDbLine
 10
584.745574540005
 20
86.81449465794674
 30
0.0
 11
584.745574540005
 21
74.81449465794668
 31
0.0
  0
LINE
  5
314F
330
1A
100
AcDbEntity
  8
1
100
AcDbLine
 10
453.745574540005
 20
285.8144946579466
 30
0.0
 11
565.7455745400049
 21
285.8144946579467
 31
0.0
  0
LINE
  5
3150
330
1A
100
AcDbEntity
  8
1
100
AcDbLine
 10
479.745574540005
 20
277.8144946579466
 30
0.0
 11
539.745574540005
 21
277.8144946579467
 31
0.0
  0
LINE
  5
3151
330
1A
100
AcDbEntity
  8
1
100
AcDbLine
 10
479.745574540005
 20
275.8144946579466
 30
0.0
 11
539.745574540005
 21
275.8144946579467
 31
0.0
  0
LINE
  5
3152
330
1A
100
AcDbEntity
  8
1
100
AcDbLine
 10
479.745574540005
 20
269.8144946579466
 30
0.0
 11
539.745574540005
 21
269.8144946579467
 31
0.0
  0
LINE
  5
3153
330
1A
100
AcDbEntity
  8
1
100
AcDbLine
 10
457.745574540005
 20
259.8144946579465
 30
0.0
 11
552.7455745400049
 21
259.8144946579467
 31
0.0
  0
LINE
  5
3154
330
1A
100
AcDbEntity
  8
1
100
AcDbLine
 10
455.7455745400051
 20
283.8144946579466
 30
0.0
 11
563.745574540005
 21
283.8144946579467
 31
0.0
  0
LINE
  5
3155
330
1A
100
AcDbEntity
  8
1
100
AcDbLine
 10
434.745574540005
 20
309.8144946579467
 30
0.0
 11
614.745574540005
 21
309.8144946579467
 31
0.0
  0
LINE
  5
3156
330
1A
100
AcDbEntity
  8
1
100
AcDbLine
 10
434.745574540005
 20
321.8144946579466
 30
0.0
 11
614.745574540005
 21
321.8144946579466
 31
0.0
  0
LINE
  5
3164
330
1A
100
AcDbEntity
  8
1
100
AcDbLine
 10
453.745574540005
 20
285.8144946579466
 30
0.0
 11
455.7455745400051
 21
283.8144946579466
 31
0.0
  0
ARC
  5
3165
330
1A
100
AcDbEntity
  8
1
100
AcDbCircle
 10
457.745574540005
 20
247.8144946579465
 30
0.0
 40
2.0
100
AcDbArc
 50
180.0
 51
270.0
  0
ARC
  5
3166
330
1A
100
AcDbEntity
  8
1
100
AcDbCircle
 10
457.745574540005
 20
257.8144946579465
 30
0.0
 40
2.0
100
AcDbArc
 50
90.0
 51
180.0
  0
LINE
  5
3167
330
1A
100
AcDbEntity
  8
1
100
AcDbLine
 10
457.745574540005
 20
245.8144946579465
 30
0.0
 11
458.745574540005
 21
245.8144946579464
 31
0.0
  0
LINE
  5
3168
330
1A
100
AcDbEntity
  8
1
100
AcDbLine
 10
455.745574540005
 20
257.8144946579465
 30
0.0
 11
455.745574540005
 21
247.8144946579465
 31
0.0
  0
ARC
  5
3169
330
1A
100
AcDbEntity
  8
1
100
AcDbCircle
 10
468.1938282866313
 20
245.0214796714413
 30
0.0
 40
14.8033008588991
100
AcDbArc
 50
87.86398615350849
 51
120.2085007823445
  0
ARC
  5
316A
330
1A
100
AcDbEntity
  8
1
100
AcDbCircle
 10
482.745574540005
 20
267.8144946579466
 30
0.0
 40
2.0
100
AcDbArc
 50
0.0
 51
90.0
  0
ARC
  5
316B
330
1A
100
AcDbEntity
  8
1
100
AcDbCircle
 10
482.745574540005
 20
261.8144946579466
 30
0.0
 40
2.0
100
AcDbArc
 50
270.0
 51
0.0
  0
LINE
  5
316C
330
1A
100
AcDbEntity
  8
1
100
AcDbLine
 10
484.745574540005
 20
267.8144946579466
 30
0.0
 11
484.745574540005
 21
261.8144946579466
 31
0.0
  0
ARC
  5
316D
330
1A
100
AcDbEntity
  8
1
100
AcDbCircle
 10
479.745574540005
 20
272.8144946579466
 30
0.0
 40
3.0
100
AcDbArc
 50
90.0
 51
270.0
  0
ARC
  5
316E
330
1A
100
AcDbEntity
  8
1
100
AcDbCircle
 10
479.745574540005
 20
276.8144946579466
 30
0.0
 40
1.0
100
AcDbArc
 50
270.0
 51
90.0
  0
ARC
  5
316F
330
1A
100
AcDbEntity
  8
1
100
AcDbCircle
 10
479.745574540005
 20
280.8144946579466
 30
0.0
 40
3.0
100
AcDbArc
 50
180.0
 51
270.0
  0
LINE
  5
3170
330
1A
100
AcDbEntity
  8
1
100
AcDbLine
 10
476.745574540005
 20
283.8144946579466
 30
0.0
 11
476.745574540005
 21
280.8144946579466
 31
0.0
  0
LINE
  5
3171
330
1A
100
AcDbEntity
  8
1
100
AcDbLine
 10
453.745574540005
 20
309.8144946579468
 30
0.0
 11
453.745574540005
 21
285.8144946579466
 31
0.0
  0
LINE
  5
3172
330
1A
100
AcDbEntity
  8
1
100
AcDbLine
 10
434.745574540005
 20
321.8144946579467
 30
0.0
 11
434.745574540005
 21
309.8144946579467
 31
0.0
  0
LINE
  5
317F
330
1A
100
AcDbEntity
  8
1
100
AcDbLine
 10
565.7455745400049
 20
285.8144946579467
 30
0.0
 11
563.745574540005
 21
283.8144946579467
 31
0.0
  0
ARC
  5
3180
330
1A
100
AcDbEntity
  8
1
100
AcDbCircle
 10
552.7455745400049
 20
257.8144946579467
 30
0.0
 40
2.0
100
AcDbArc
 50
0.0
 51
90.0
  0
ARC
  5
3181
330
1A
100
AcDbEntity
  8
1
100
AcDbCircle
 10
536.7455745400049
 20
261.8144946579467
 30
0.0
 40
2.0
100
AcDbArc
 50
180.0
 51
270.0
  0
ARC
  5
3182
330
1A
100
AcDbEntity
  8
1
100
AcDbCircle
 10
536.7455745400049
 20
267.8144946579467
 30
0.0
 40
2.0
100
AcDbArc
 50
90.0
 51
180.0
  0
LINE
  5
3183
330
1A
100
AcDbEntity
  8
1
100
AcDbLine
 10
534.745574540005
 20
267.8144946579467
 30
0.0
 11
534.745574540005
 21
261.8144946579466
 31
0.0
  0
ARC
  5
3184
330
1A
100
AcDbEntity
  8
1
100
AcDbCircle
 10
539.745574540005
 20
272.8144946579467
 30
0.0
 40
3.0
100
AcDbArc
 50
270.0
 51
90.0
  0
ARC
  5
3185
330
1A
100
AcDbEntity
  8
1
100
AcDbCircle
 10
539.745574540005
 20
276.8144946579467
 30
0.0
 40
1.0
100
AcDbArc
 50
90.0
 51
270.0
  0
ARC
  5
3186
330
1A
100
AcDbEntity
  8
1
100
AcDbCircle
 10
539.745574540005
 20
280.8144946579467
 30
0.0
 40
3.0
100
AcDbArc
 50
270.0
 51
0.0
  0
LINE
  5
3187
330
1A
100
AcDbEntity
  8
1
100
AcDbLine
 10
542.745574540005
 20
283.8144946579467
 30
0.0
 11
542.745574540005
 21
280.8144946579467
 31
0.0
  0
LINE
  5
3188
330
1A
100
AcDbEntity
  8
1
100
AcDbLine
 10
565.7455745400049
 20
309.8144946579468
 30
0.0
 11
565.7455745400049
 21
285.8144946579467
 31
0.0
  0
LINE
  5
3189
330
1A
100
AcDbEntity
  8
1
100
AcDbLine
 10
614.745574540005
 20
321.8144946579465
 30
0.0
 11
614.7455745400051
 21
309.8144946579467
 31
0.0
  0
LINE
  5
33AA
330
1A
100
AcDbEntity
  8
CENTER
 48
10.0
100
AcDbLine
 10
509.745574540005
 20
70.24873790387278
 30
0.0
 11
509.745574540005
 21
351.2664038681314
 31
0.0
  0
LINE
  5
33AB
330
1A
100
AcDbEntity
  8
CENTER
 48
10.0
100
AcDbLine
 10
337.0593381912101
 20
212.8144946579465
 30
0.0
 11
565.6600447579892
 21
212.8144946579465
 31
0.0
  0
LINE
  5
33AC
330
1A
100
AcDbEntity
  8
CENTER
 48
10.0
100
AcDbLine
 10
277.6815201777963
 20
212.8144946579465
 30
0.0
 11
176.6962719959628
 21
212.8144946579465
 31
0.0
  0
LINE
  5
33AD
330
1A
100
AcDbEntity
  8
CENTER
 48
10.0
100
AcDbLine
 10
227.3999200243244
 20
71.74349461821726
 30
0.0
 11
227.3999200243244
 21
557.5558647598386
 31
0.0
  0
LINE
  5
33AE
330
1A
100
AcDbEntity
  8
CENTER
 48
10.0
100
AcDbLine
 10
341.7357673572471
 20
447.745331743457
 30
0.0
 11
109.3683006601104
 21
447.745331743457
 31
0.0
  0
LINE
  5
36A8
330
1A
100
AcDbEntity
  8
1
100
AcDbLine
 10
467.245574540005
 20
131.8144946579465
 30
0.0
 11
467.245574540005
 21
133.8144946579465
 31
0.0
  0
LINE
  5
36A9
330
1A
100
AcDbEntity
  8
1
100
AcDbLine
 10
465.2455745400049
 20
129.8144946579464
 30
0.0
 11
465.2455745400049
 21
131.8144946579466
 31
0.0
  0
ARC
  5
36AA
330
1A
100
AcDbEntity
  8
1
100
AcDbCircle
 10
466.245574540005
 20
126.9369936571459
 30
0.0
 40
1.0
100
AcDbArc
 50
308.6821874534895
 51
0.0
  0
LINE
  5
36AB
330
1A
100
AcDbEntity
  8
1
100
AcDbLine
 10
467.245574540005
 20
126.9369936571459
 30
0.0
 11
467.245574540005
 21
129.8144946579465
 31
0.0
  0
ARC
  5
36AC
330
1A
100
AcDbEntity
  8
1
100
AcDbCircle
 10
468.745574540005
 20
115.8144946579468
 30
0.0
 40
2.999999999999943
100
AcDbArc
 50
90.0
 51
180.0
  0
ARC
  5
36AD
330
1A
100
AcDbEntity
  8
1
100
AcDbCircle
 10
468.745574540005
 20
119.8144946579467
 30
0.0
 40
1.0
100
AcDbArc
 50
270.0
 51
90.0
  0
ARC
  5
36AE
330
1A
100
AcDbEntity
  8
1
100
AcDbCircle
 10
468.745574540005
 20
123.8144946579467
 30
0.0
 40
3.0
100
AcDbArc
 50
128.6821874534894
 51
270.0
  0
LINE
  5
36AF
330
1A
100
AcDbEntity
  8
1
100
AcDbLine
 10
465.7455745400049
 20
112.8144946579468
 30
0.0
 11
465.7455745400049
 21
115.8144946579468
 31
0.0
  0
LINE
  5
36B0
330
1A
100
AcDbEntity
  8
1
100
AcDbLine
 10
465.2455745400049
 20
131.8144946579465
 30
0.0
 11
554.245574540005
 21
131.8144946579465
 31
0.0
  0
LINE
  5
36B1
330
1A
100
AcDbEntity
  8
1
100
AcDbLine
 10
465.2455745400049
 20
129.8144946579465
 30
0.0
 11
554.245574540005
 21
129.8144946579465
 31
0.0
  0
LINE
  5
36B2
330
1A
100
AcDbEntity
  8
1
100
AcDbLine
 10
468.745574540005
 20
118.8144946579467
 30
0.0
 11
550.745574540005
 21
118.8144946579467
 31
0.0
  0
LINE
  5
36B3
330
1A
100
AcDbEntity
  8
1
100
AcDbLine
 10
468.745574540005
 20
120.8144946579467
 30
0.0
 11
550.745574540005
 21
120.8144946579467
 31
0.0
  0
LINE
  5
36B4
330
1A
100
AcDbEntity
  8
1
100
AcDbLine
 10
468.745574540005
 20
126.8144946579467
 30
0.0
 11
550.745574540005
 21
126.8144946579467
 31
0.0
  0
ARC
  5
36B5
330
1A
100
AcDbEntity
  8
1
100
AcDbCircle
 10
550.745574540005
 20
119.8144946579467
 30
0.0
 40
1.0
100
AcDbArc
 50
90.0
 51
270.0
  0
LINE
  5
36B6
330
1A
100
AcDbEntity
  8
1
100
AcDbLine
 10
552.245574540005
 20
131.8144946579465
 30
0.0
 11
552.245574540005
 21
133.8144946579464
 31
0.0
  0
LINE
  5
36B7
330
1A
100
AcDbEntity
  8
1
100
AcDbLine
 10
554.245574540005
 20
129.8144946579465
 30
0.0
 11
554.245574540005
 21
131.8144946579465
 31
0.0
  0
ARC
  5
36B8
330
1A
100
AcDbEntity
  8
1
100
AcDbCircle
 10
553.2455745400049
 20
126.9369936571459
 30
0.0
 40
1.0
100
AcDbArc
 50
180.0
 51
231.3178125465105
  0
LINE
  5
36B9
330
1A
100
AcDbEntity
  8
1
100
AcDbLine
 10
552.245574540005
 20
126.9369936571459
 30
0.0
 11
552.245574540005
 21
129.8144946579465
 31
0.0
  0
ARC
  5
36BA
330
1A
100
AcDbEntity
  8
1
100
AcDbCircle
 10
550.745574540005
 20
115.8144946579467
 30
0.0
 40
3.0
100
AcDbArc
 50
0.0
 51
90.0
  0
ARC
  5
36BB
330
1A
100
AcDbEntity
  8
1
100
AcDbCircle
 10
550.745574540005
 20
123.8144946579467
 30
0.0
 40
2.999999999999943
100
AcDbArc
 50
270.0
 51
51.31781254651052
  0
LINE
  5
36BC
330
1A
100
AcDbEntity
  8
1
100
AcDbLine
 10
553.745574540005
 20
112.8144946579467
 30
0.0
 11
553.745574540005
 21
115.8144946579467
 31
0.0
  0
ARC
  5
36BD
330
1A
100
AcDbEntity
  8
1
100
AcDbCircle
 10
465.2455745400049
 20
133.8144946579465
 30
0.0
 40
2.0
100
AcDbArc
 50
0.0
 51
78.46304096718522
  0
ARC
  5
36BE
330
1A
100
AcDbEntity
  8
1
100
AcDbCircle
 10
271.8999200243245
 20
133.8144946579463
 30
0.0
 40
2.0
100
AcDbArc
 50
101.5369590328163
 51
180.0
  0
VIEWPORT
  5
22
330
17
100
AcDbEntity
 67
     1
  8
0
100
AcDbViewport
 10
204.0995788574218
 20
142.5892477035522
 30
0.0
 40
503.2899474294437
 41
314.1477025756835
 68
     1
 69
     1
1001
ACAD
1000
MVIEW
1002
{
1070
    16
1010
0.0
1020
0.0
1030
0.0
1010
0.0
1020
0.0
1030
1.0
1040
0.0
1040
314.1477025756835
1040
204.0995788574218
1040
142.5892477035522
1040
50.0
1040
0.0
1040
0.0
1070
     0
1070
   100
1070
     1
1070
     0
1070
     0
1070
     0
1070
     0
1070
     0
1040
0.0
1040
0.0
1040
0.0
1040
1.0
1040
1.0
1040
10.0
1040
10.0
1070
     0
1002
{
1002
}
1002
}
  0
VIEWPORT
  5
2CF
330
17
100
AcDbEntity
 67
     1
  8
DEFPOINTS
100
AcDbViewport
 10
212.5
 20
149.4999999999999
 30
0.0
 40
384.9999999999999
 41
265.0
 68
     2
 69
     2
1001
ACAD
1000
MVIEW
1002
{
1070
    16
1010
0.0
1020
0.0
1030
0.0
1010
0.0
1020
0.0
1030
1.0
1040
0.0
1040
662.5000030640119
1040
321.3614226974844
1040
307.1960410557944
1040
50.0
1040
0.0
1040
0.0
1070
     0
1070
   100
1070
     1
1070
     0
1070
     0
1070
     0
1070
     0
1070
     1
1040
0.0
1040
0.0
1040
0.0
1040
168.0
1040
168.0
1040
0.0
1040
0.0
1070
     0
1002
{
1002
}
1002
}
  0
ENDSEC
  0
SECTION
  2
OBJECTS
  0
DICTIONARY
  5
C
330
0
100
AcDbDictionary
  3
ACAD_GROUP
350
D
  3
ACAD_LAYOUT
350
F3D
  3
ACAD_MLINESTYLE
350
E
  3
ACAD_PLOTSETTINGS
350
F3E
  3
ACAD_PLOTSTYLENAME
350
F3B
  3
ACADDIM
350
2939
  3
CONTENTDICTIONARY
350
234
  3
ACDBHEADERROUNDTRIPXREC
350
3B3A
  0
DICTIONARY
  5
F6B
330
1A
100
AcDbDictionary
280
     1
  3
ACAD_LAYOUTSELFREF
360
3B5B
  0
DICTIONARY
  5
F69
330
17
100
AcDbDictionary
280
     1
  3
ACAD_LAYOUTSELFREF
360
3B5A
  0
DICTIONARY
  5
D
102
{ACAD_REACTORS
330
C
102
}
330
C
100
AcDbDictionary
  3
*A1
350
36C
  3
*A2
350
377
  3
*A3
350
419
  3
*A4
350
41A
  3
*A5
350
621
  3
*A6
350
630
  3
*A7
350
682
  3
*A8
350
84A
  0
DICTIONARY
  5
F3D
102
{ACAD_REACTORS
330
C
102
}
330
C
100
AcDbDictionary
  0
DICTIONARY
  5
E
102
{ACAD_REACTORS
330
C
102
}
330
C
100
AcDbDictionary
  3
STANDARD
350
13
  0
DICTIONARY
  5
F3E
102
{ACAD_REACTORS
330
C
102
}
330
C
100
AcDbDictionary
  0
ACDBDICTIONARYWDFLT
  5
F3B
102
{ACAD_REACTORS
330
C
102
}
330
C
100
AcDbDictionary
281
     1
  3
Normal
350
F3C
100
AcDbDictionaryWithDefault
340
F3C
  0
XRECORD
  5
2939
102
{ACAD_REACTORS
330
C
102
}
330
C
100
AcDbXrecord
 90
   990106
  3

 60
     0
 61
     0
 62
     1
 63
     3
 64
     1
 65
     0
 66
     0
 67
     3
 68
     1
 69
     0
 70
     0
 71
     0
 72
     0
 40
0.0
170
     2
340
3416
  0
DICTIONARY
  5
234
102
{ACAD_REACTORS
330
C
102
}
330
C
100
AcDbDictionary
  0
DICTIONARY
  5
3B3A
102
{ACAD_REACTORS
330
C
102
}
330
C
100
AcDbDictionary
  3
TSTACKALIGN
350
3B3B
  3
TSTACKSIZE
350
3B3C
  3
HYPERLINKBASE
350
3B3D
  3
STYLESHEET
350
3B3E
  3
LAYOUTDICT
350
3B3F
  3
PLOTSETDICT
350
3B40
  3
PLOTSTYLNAMDICT
350
3B41
  3
LWETCUNION
350
3B42
  3
INSUNITS
350
3B43
  3
CEPSNTYPE
350
3B44
  3
FINGERPRINTGUID
350
3B45
  3
VERSIONGUID
350
3B46
  3
PSVPSCALE
350
3B47
  3
PUCSORTHOREF
350
3B48
  3
PUCSORTHOVIEW
350
3B49
  3
PUCSBASE
350
3B4A
  3
PUCSORGTOP
350
3B4B
  3
PUCSORGBOTTOM
350
3B4C
  3
PUCSORGLEFT
350
3B4D
  3
PUCSORGRIGHT
350
3B4E
  3
PUCSORGFRONT
350
3B4F
  3
PUCSORGBACK
350
3B50
  3
UCSORTHOREF
350
3B51
  3
UCSORTHOVIEW
350
3B52
  3
UCSBASE
350
3B53
  3
UCSORGTOP
350
3B54
  3
UCSORGBOTTOM
350
3B55
  3
UCSORGLEFT
350
3B56
  3
UCSORGRIGHT
350
3B57
  3
UCSORGFRONT
350
3B58
  3
UCSORGBACK
350
3B59
  0
XRECORD
  5
3B5B
102
{ACAD_REACTORS
330
F6B
102
}
330
F6B
100
AcDbXrecord
340
1A
  0
XRECORD
  5
3B5A
102
{ACAD_REACTORS
330
F69
102
}
330
F69
100
AcDbXrecord
340
17
  0
GROUP
  5
36C
102
{ACAD_REACTORS
330
D
102
}
330
D
100
AcDbGroup
300

 70
     1
 71
     1
  0
GROUP
  5
377
102
{ACAD_REACTORS
330
D
102
}
330
D
100
AcDbGroup
300

 70
     1
 71
     1
  0
GROUP
  5
419
102
{ACAD_REACTORS
330
D
102
}
330
D
100
AcDbGroup
300

 70
     1
 71
     1
  0
GROUP
  5
41A
102
{ACAD_REACTORS
330
D
102
}
330
D
100
AcDbGroup
300

 70
     1
 71
     1
  0
GROUP
  5
621
102
{ACAD_REACTORS
330
D
102
}
330
D
100
AcDbGroup
300

 70
     1
 71
     1
  0
GROUP
  5
630
102
{ACAD_REACTORS
330
D
102
}
330
D
100
AcDbGroup
300

 70
     1
 71
     1
  0
GROUP
  5
682
102
{ACAD_REACTORS
330
D
102
}
330
D
100
AcDbGroup
300

 70
     1
 71
     1
  0
GROUP
  5
84A
102
{ACAD_REACTORS
330
D
102
}
330
D
100
AcDbGroup
300

 70
     1
 71
     1
  0
MLINESTYLE
  5
13
102
{ACAD_REACTORS
330
E
102
}
330
E
100
AcDbMlineStyle
  2
STANDARD
 70
     0
  3

 62
     0
 51
90.0
 52
90.0
 71
     2
 49
0.5
 62
   256
  6
BYLAYER
 49
-0.5
 62
   256
  6
BYLAYER
  0
ACDBPLACEHOLDER
  5
F3C
102
{ACAD_REACTORS
330
F3B
102
}
330
F3B
100
AcDbPlaceHolder
280
     0
  0
XRECORD
  5
3B3B
102
{ACAD_REACTORS
330
3B3A
102
}
330
3B3A
100
AcDbXrecord
 90
        1
  0
XRECORD
  5
3B3C
102
{ACAD_REACTORS
330
3B3A
102
}
330
3B3A
100
AcDbXrecord
 90
       70
  0
XRECORD
  5
3B3D
102
{ACAD_REACTORS
330
3B3A
102
}
330
3B3A
100
AcDbXrecord
  1

  0
XRECORD
  5
3B3E
102
{ACAD_REACTORS
330
3B3A
102
}
330
3B3A
100
AcDbXrecord
  1

  0
XRECORD
  5
3B3F
102
{ACAD_REACTORS
330
3B3A
102
}
330
3B3A
100
AcDbXrecord
340
F3D
  0
XRECORD
  5
3B40
102
{ACAD_REACTORS
330
3B3A
102
}
330
3B3A
100
AcDbXrecord
340
F3E
  0
XRECORD
  5
3B41
102
{ACAD_REACTORS
330
3B3A
102
}
330
3B3A
100
AcDbXrecord
340
F3B
  0
XRECORD
  5
3B42
102
{ACAD_REACTORS
330
3B3A
102
}
330
3B3A
100
AcDbXrecord
 90
    10781
  0
XRECORD
  5
3B43
102
{ACAD_REACTORS
330
3B3A
102
}
330
3B3A
100
AcDbXrecord
 90
        0
  0
XRECORD
  5
3B44
102
{ACAD_REACTORS
330
3B3A
102
}
330
3B3A
100
AcDbXrecord
 90
        0
  0
XRECORD
  5
3B45
102
{ACAD_REACTORS
330
3B3A
102
}
330
3B3A
100
AcDbXrecord
  1
{792B2680-90AD-11D4-9803-00E029225608}
  0
XRECORD
  5
3B46
102
{ACAD_REACTORS
330
3B3A
102
}
330
3B3A
100
AcDbXrecord
  1
{1442E8AF-0F45-438B-AD93-D01C40354601}
  0
XRECORD
  5
3B47
102
{ACAD_REACTORS
330
3B3A
102
}
330
3B3A
100
AcDbXrecord
 40
0.0
  0
XRECORD
  5
3B48
102
{ACAD_REACTORS
330
3B3A
102
}
330
3B3A
100
AcDbXrecord
340
0
  0
XRECORD
  5
3B49
102
{ACAD_REACTORS
330
3B3A
102
}
330
3B3A
100
AcDbXrecord
 70
     0
  0
XRECORD
  5
3B4A
102
{ACAD_REACTORS
330
3B3A
102
}
330
3B3A
100
AcDbXrecord
340
0
  0
XRECORD
  5
3B4B
102
{ACAD_REACTORS
330
3B3A
102
}
330
3B3A
100
AcDbXrecord
 10
0.0
 20
0.0
 30
0.0
  0
XRECORD
  5
3B4C
102
{ACAD_REACTORS
330
3B3A
102
}
330
3B3A
100
AcDbXrecord
 10
0.0
 20
0.0
 30
0.0
  0
XRECORD
  5
3B4D
102
{ACAD_REACTORS
330
3B3A
102
}
330
3B3A
100
AcDbXrecord
 10
0.0
 20
0.0
 30
0.0
  0
XRECORD
  5
3B4E
102
{ACAD_REACTORS
330
3B3A
102
}
330
3B3A
100
AcDbXrecord
 10
0.0
 20
0.0
 30
0.0
  0
XRECORD
  5
3B4F
102
{ACAD_REACTORS
330
3B3A
102
}
330
3B3A
100
AcDbXrecord
 10
0.0
 20
0.0
 30
0.0
  0
XRECORD
  5
3B50
102
{ACAD_REACTORS
330
3B3A
102
}
330
3B3A
100
AcDbXrecord
 10
0.0
 20
0.0
 30
0.0
  0
XRECORD
  5
3B51
102
{ACAD_REACTORS
330
3B3A
102
}
330
3B3A
100
AcDbXrecord
340
0
  0
XRECORD
  5
3B52
102
{ACAD_REACTORS
330
3B3A
102
}
330
3B3A
100
AcDbXrecord
 70
     0
  0
XRECORD
  5
3B53
102
{ACAD_REACTORS
330
3B3A
102
}
330
3B3A
100
AcDbXrecord
340
0
  0
XRECORD
  5
3B54
102
{ACAD_REACTORS
330
3B3A
102
}
330
3B3A
100
AcDbXrecord
 10
0.0
 20
0.0
 30
0.0
  0
XRECORD
  5
3B55
102
{ACAD_REACTORS
330
3B3A
102
}
330
3B3A
100
AcDbXrecord
 10
0.0
 20
0.0
 30
0.0
  0
XRECORD
  5
3B56
102
{ACAD_REACTORS
330
3B3A
102
}
330
3B3A
100
AcDbXrecord
 10
0.0
 20
0.0
 30
0.0
  0
XRECORD
  5
3B57
102
{ACAD_REACTORS
330
3B3A
102
}
330
3B3A
100
AcDbXrecord
 10
0.0
 20
0.0
 30
0.0
  0
XRECORD
  5
3B58
102
{ACAD_REACTORS
330
3B3A
102
}
330
3B3A
100
AcDbXrecord
 10
0.0
 20
0.0
 30
0.0
  0
XRECORD
  5
3B59
102
{ACAD_REACTORS
330
3B3A
102
}
330
3B3A
100
AcDbXrecord
 10
0.0
 20
0.0
 30
0.0
  0
ENDSEC
  0
EOF
