  0
SECTION
  2
HEADER
  9
$ACADVER
  1
AC1014
  9
$ACADMAINTVER
 70
     9
  9
$DWGCODEPAGE
  3
ANSI_932
  9
$INSBASE
 10
0.0
 20
0.0
 30
0.0
  9
$EXTMIN
 10
73.61792302793128
 20
69.68098858637574
 30
0.0
  9
$EXTMAX
 10
495.6431942683155
 20
482.7407159306052
 30
0.0
  9
$LIMMIN
 10
0.0
 20
0.0
  9
$LIMMAX
 10
10000.0
 20
10000.0
  9
$ORTHOMODE
 70
     1
  9
$REGENMODE
 70
     1
  9
$FILLMODE
 70
     1
  9
$QTEXTMODE
 70
     0
  9
$MIRRTEXT
 70
     1
  9
$DRAGMODE
 70
     2
  9
$LTSCALE
 40
1.0
  9
$OSMODE
 70
    32
  9
$ATTMODE
 70
     1
  9
$TEXTSIZE
 40
3.5
  9
$TRACEWID
 40
1.0
  9
$TEXTSTYLE
  7
AD-STANDARD
  9
$CLAYER
  8
1
  9
$CELTYPE
  6
BYLAYER
  9
$CECOLOR
 62
   256
  9
$CELTSCALE
 40
1.0
  9
$DELOBJ
 70
     1
  9
$DISPSILH
 70
     0
  9
$DIMSCALE
 40
1.0
  9
$DIMASZ
 40
0.18
  9
$DIMEXO
 40
0.0625
  9
$DIMDLI
 40
0.38
  9
$DIMRND
 40
0.0
  9
$DIMDLE
 40
0.0
  9
$DIMEXE
 40
0.18
  9
$DIMTP
 40
0.0
  9
$DIMTM
 40
0.0
  9
$DIMTXT
 40
0.18
  9
$DIMCEN
 40
0.09
  9
$DIMTSZ
 40
0.0
  9
$DIMTOL
 70
     0
  9
$DIMLIM
 70
     0
  9
$DIMTIH
 70
     1
  9
$DIMTOH
 70
     1
  9
$DIMSE1
 70
     0
  9
$DIMSE2
 70
     0
  9
$DIMTAD
 70
     0
  9
$DIMZIN
 70
     0
  9
$DIMBLK
  1

  9
$DIMASO
 70
     1
  9
$DIMSHO
 70
     1
  9
$DIMPOST
  1

  9
$DIMAPOST
  1

  9
$DIMALT
 70
     0
  9
$DIMALTD
 70
     2
  9
$DIMALTF
 40
25.4
  9
$DIMLFAC
 40
1.0
  9
$DIMTOFL
 70
     0
  9
$DIMTVP
 40
0.0
  9
$DIMTIX
 70
     0
  9
$DIMSOXD
 70
     0
  9
$DIMSAH
 70
     0
  9
$DIMBLK1
  1

  9
$DIMBLK2
  1

  9
$DIMSTYLE
  2
STANDARD
  9
$DIMCLRD
 70
     0
  9
$DIMCLRE
 70
     0
  9
$DIMCLRT
 70
     0
  9
$DIMTFAC
 40
1.0
  9
$DIMGAP
 40
0.09
  9
$DIMJUST
 70
     0
  9
$DIMSD1
 70
     0
  9
$DIMSD2
 70
     0
  9
$DIMTOLJ
 70
     1
  9
$DIMTZIN
 70
     0
  9
$DIMALTZ
 70
     0
  9
$DIMALTTZ
 70
     0
  9
$DIMFIT
 70
     3
  9
$DIMUPT
 70
     0
  9
$DIMUNIT
 70
     2
  9
$DIMDEC
 70
     4
  9
$DIMTDEC
 70
     4
  9
$DIMALTU
 70
     2
  9
$DIMALTTD
 70
     2
  9
$DIMTXSTY
  7
STANDARD
  9
$DIMAUNIT
 70
     0
  9
$LUNITS
 70
     2
  9
$LUPREC
 70
     4
  9
$SKETCHINC
 40
1.0
  9
$FILLETRAD
 40
0.5
  9
$AUNITS
 70
     0
  9
$AUPREC
 70
     0
  9
$MENU
  1
.
  9
$ELEVATION
 40
0.0
  9
$PELEVATION
 40
0.0
  9
$THICKNESS
 40
0.0
  9
$LIMCHECK
 70
     0
  9
$BLIPMODE
 70
     0
  9
$CHAMFERA
 40
0.0
  9
$CHAMFERB
 40
0.0
  9
$CHAMFERC
 40
673.4006734006733
  9
$CHAMFERD
 40
0.0
  9
$SKPOLY
 70
     0
  9
$TDCREATE
 40
2451428.386184838
  9
$TDUPDATE
 40
2453992.465897476
  9
$TDINDWG
 40
1.5622614815
  9
$TDUSRTIMER
 40
1.5622614815
  9
$USRTIMER
 70
     1
  9
$ANGBASE
 50
0.0
  9
$ANGDIR
 70
     0
  9
$PDMODE
 70
     0
  9
$PDSIZE
 40
0.0
  9
$PLINEWID
 40
0.0
  9
$COORDS
 70
     1
  9
$SPLFRAME
 70
     0
  9
$SPLINETYPE
 70
     6
  9
$SPLINESEGS
 70
     8
  9
$ATTDIA
 70
     0
  9
$ATTREQ
 70
     1
  9
$HANDLING
 70
 10241
  9
$HANDSEED
  5
2D5C
  9
$SURFTAB1
 70
     6
  9
$SURFTAB2
 70
     6
  9
$SURFTYPE
 70
     6
  9
$SURFU
 70
     6
  9
$SURFV
 70
     6
  9
$UCSNAME
  2

  9
$UCSORG
 10
0.0
 20
0.0
 30
0.0
  9
$UCSXDIR
 10
1.0
 20
0.0
 30
0.0
  9
$UCSYDIR
 10
0.0
 20
1.0
 30
0.0
  9
$PUCSNAME
  2

  9
$PUCSORG
 10
0.0
 20
0.0
 30
0.0
  9
$PUCSXDIR
 10
1.0
 20
0.0
 30
0.0
  9
$PUCSYDIR
 10
0.0
 20
1.0
 30
0.0
  9
$USERI1
 70
     0
  9
$USERI2
 70
     0
  9
$USERI3
 70
     0
  9
$USERI4
 70
     0
  9
$USERI5
 70
     0
  9
$USERR1
 40
0.0
  9
$USERR2
 40
0.0
  9
$USERR3
 40
0.0
  9
$USERR4
 40
0.0
  9
$USERR5
 40
0.0
  9
$WORLDVIEW
 70
     1
  9
$SHADEDGE
 70
     3
  9
$SHADEDIF
 70
    70
  9
$TILEMODE
 70
     1
  9
$MAXACTVP
 70
    16
  9
$PINSBASE
 10
0.0
 20
0.0
 30
0.0
  9
$PLIMCHECK
 70
     0
  9
$PEXTMIN
 10
20.00000000000003
 20
16.99999999999994
 30
0.0
  9
$PEXTMAX
 10
405.0
 20
281.9999999999999
 30
0.0
  9
$PLIMMIN
 10
-5.873748779296875
 20
-5.873749732971191
  9
$PLIMMAX
 10
414.0729064941406
 20
291.0522451400757
  9
$UNITMODE
 70
     0
  9
$VISRETAIN
 70
     0
  9
$PLINEGEN
 70
     0
  9
$PSLTSCALE
 70
     0
  9
$TREEDEPTH
 70
  3020
  9
$PICKSTYLE
 70
     1
  9
$CMLSTYLE
  2
STANDARD
  9
$CMLJUST
 70
     0
  9
$CMLSCALE
 40
1.0
  9
$PROXYGRAPHICS
 70
     1
  9
$MEASUREMENT
 70
     1
  0
ENDSEC
  0
SECTION
  2
CLASSES
  0
CLASS
  1
LWPOLYLINE
  2
AcDbPolyline
  3
AutoCAD 2000
 90
        0
280
     0
281
     1
  0
CLASS
  1
OLE2FRAME
  2
AcDbOle2Frame
  3
AutoCAD 2000
 90
        0
280
     0
281
     1
  0
CLASS
  1
ACDBDICTIONARYWDFLT
  2
AcDbDictionaryWithDefault
  3
AutoCAD 2000
 90
        0
280
     0
281
     0
  0
CLASS
  1
ACDBPLACEHOLDER
  2
AcDbPlaceHolder
  3
AutoCAD 2000
 90
        0
280
     0
281
     0
  0
CLASS
  1
LAYOUT
  2
AcDbLayout
  3
AutoCAD 2000
 90
        0
280
     0
281
     0
  0
CLASS
  1
LONG_TRANSACTION
  2
AcDbLongTransaction
  3
AutoCAD 2000
 90
        0
280
     0
281
     0
  0
CLASS
  1
LWPOLYLINE
  2
AcDbPolyline
  3
AutoCAD 2000
 90
        0
280
     0
281
     1
  0
CLASS
  1
HATCH
  2
AcDbHatch
  3
AutoCAD 2000
 90
        0
280
     0
281
     1
  0
CLASS
  1
XRECORD
  2
AcDbXrecord
  3
AutoCAD 2000
 90
        0
280
     0
281
     0
  0
CLASS
  1
LONG_TRANSACTION
  2
AcDbLongTransaction
  3
AutoCAD 2000
 90
        0
280
     0
281
     0
  0
CLASS
  1
LWPOLYLINE
  2
AcDbPolyline
  3
AutoCAD 2000
 90
        0
280
     0
281
     1
  0
CLASS
  1
HATCH
  2
AcDbHatch
  3
AutoCAD 2000
 90
        0
280
     0
281
     1
  0
CLASS
  1
XRECORD
  2
AcDbXrecord
  3
AutoCAD 2000
 90
        0
280
     0
281
     0
  0
CLASS
  1
LONG_TRANSACTION
  2
AcDbLongTransaction
  3
AutoCAD 2000
 90
        0
280
     0
281
     0
  0
CLASS
  1
LWPOLYLINE
  2
AcDbPolyline
  3
AutoCAD 2000
 90
        0
280
     0
281
     1
  0
CLASS
  1
HATCH
  2
AcDbHatch
  3
AutoCAD 2000
 90
        0
280
     0
281
     1
  0
CLASS
  1
XRECORD
  2
AcDbXrecord
  3
AutoCAD 2000
 90
        0
280
     0
281
     0
  0
CLASS
  1
LONG_TRANSACTION
  2
AcDbLongTransaction
  3
AutoCAD 2000
 90
        0
280
     0
281
     0
  0
CLASS
  1
LWPOLYLINE
  2
AcDbPolyline
  3
AutoCAD 2000
 90
        0
280
     0
281
     1
  0
CLASS
  1
HATCH
  2
AcDbHatch
  3
AutoCAD 2000
 90
        0
280
     0
281
     1
  0
CLASS
  1
XRECORD
  2
AcDbXrecord
  3
AutoCAD 2000
 90
        0
280
     0
281
     0
  0
CLASS
  1
LONG_TRANSACTION
  2
AcDbLongTransaction
  3
AutoCAD 2000
 90
        0
280
     0
281
     0
  0
CLASS
  1
LWPOLYLINE
  2
AcDbPolyline
  3
AutoCAD 2000
 90
        0
280
     0
281
     1
  0
CLASS
  1
HATCH
  2
AcDbHatch
  3
AutoCAD 2000
 90
        0
280
     0
281
     1
  0
CLASS
  1
XRECORD
  2
AcDbXrecord
  3
AutoCAD 2000
 90
        0
280
     0
281
     0
  0
CLASS
  1
LONG_TRANSACTION
  2
AcDbLongTransaction
  3
AutoCAD 2000
 90
        0
280
     0
281
     0
  0
CLASS
  1
LWPOLYLINE
  2
AcDbPolyline
  3
AutoCAD 2000
 90
        0
280
     0
281
     1
  0
CLASS
  1
HATCH
  2
AcDbHatch
  3
AutoCAD 2000
 90
        0
280
     0
281
     1
  0
CLASS
  1
XRECORD
  2
AcDbXrecord
  3
AutoCAD 2000
 90
        0
280
     0
281
     0
  0
CLASS
  1
LONG_TRANSACTION
  2
AcDbLongTransaction
  3
AutoCAD 2000
 90
        0
280
     0
281
     0
  0
CLASS
  1
LWPOLYLINE
  2
AcDbPolyline
  3
AutoCAD 2000
 90
        0
280
     0
281
     1
  0
CLASS
  1
HATCH
  2
AcDbHatch
  3
AutoCAD 2000
 90
        0
280
     0
281
     1
  0
CLASS
  1
XRECORD
  2
AcDbXrecord
  3
AutoCAD 2000
 90
        0
280
     0
281
     0
  0
CLASS
  1
LONG_TRANSACTION
  2
AcDbLongTransaction
  3
AutoCAD 2000
 90
        0
280
     0
281
     0
  0
CLASS
  1
LWPOLYLINE
  2
AcDbPolyline
  3
AutoCAD 2000
 90
        0
280
     0
281
     1
  0
CLASS
  1
HATCH
  2
AcDbHatch
  3
AutoCAD 2000
 90
        0
280
     0
281
     1
  0
CLASS
  1
XRECORD
  2
AcDbXrecord
  3
AutoCAD 2000
 90
        0
280
     0
281
     0
  0
CLASS
  1
LONG_TRANSACTION
  2
AcDbLongTransaction
  3
AutoCAD 2000
 90
        0
280
     0
281
     0
  0
CLASS
  1
LWPOLYLINE
  2
AcDbPolyline
  3
AutoCAD 2000
 90
        0
280
     0
281
     1
  0
CLASS
  1
HATCH
  2
AcDbHatch
  3
AutoCAD 2000
 90
        0
280
     0
281
     1
  0
CLASS
  1
XRECORD
  2
AcDbXrecord
  3
AutoCAD 2000
 90
        0
280
     0
281
     0
  0
CLASS
  1
LONG_TRANSACTION
  2
AcDbLongTransaction
  3
AutoCAD 2000
 90
        0
280
     0
281
     0
  0
CLASS
  1
LWPOLYLINE
  2
AcDbPolyline
  3
AutoCAD 2000
 90
        0
280
     0
281
     1
  0
CLASS
  1
HATCH
  2
AcDbHatch
  3
AutoCAD 2000
 90
        0
280
     0
281
     1
  0
CLASS
  1
XRECORD
  2
AcDbXrecord
  3
AutoCAD 2000
 90
        0
280
     0
281
     0
  0
CLASS
  1
LONG_TRANSACTION
  2
AcDbLongTransaction
  3
AutoCAD 2000
 90
        0
280
     0
281
     0
  0
CLASS
  1
LWPOLYLINE
  2
AcDbPolyline
  3
AutoCAD 2000
 90
        0
280
     0
281
     1
  0
CLASS
  1
HATCH
  2
AcDbHatch
  3
AutoCAD 2000
 90
        0
280
     0
281
     1
  0
CLASS
  1
XRECORD
  2
AcDbXrecord
  3
AutoCAD 2000
 90
        0
280
     0
281
     0
  0
CLASS
  1
LONG_TRANSACTION
  2
AcDbLongTransaction
  3
AutoCAD 2000
 90
        0
280
     0
281
     0
  0
CLASS
  1
LWPOLYLINE
  2
AcDbPolyline
  3
AutoCAD 2000
 90
        0
280
     0
281
     1
  0
CLASS
  1
HATCH
  2
AcDbHatch
  3
AutoCAD 2000
 90
        0
280
     0
281
     1
  0
CLASS
  1
XRECORD
  2
AcDbXrecord
  3
AutoCAD 2000
 90
        0
280
     0
281
     0
  0
CLASS
  1
LONG_TRANSACTION
  2
AcDbLongTransaction
  3
AutoCAD 2000
 90
        0
280
     0
281
     0
  0
CLASS
  1
LWPOLYLINE
  2
AcDbPolyline
  3
AutoCAD 2000
 90
        0
280
     0
281
     1
  0
CLASS
  1
HATCH
  2
AcDbHatch
  3
AutoCAD 2000
 90
        0
280
     0
281
     1
  0
CLASS
  1
XRECORD
  2
AcDbXrecord
  3
AutoCAD 2000
 90
        0
280
     0
281
     0
  0
CLASS
  1
LONG_TRANSACTION
  2
AcDbLongTransaction
  3
AutoCAD 2000
 90
        0
280
     0
281
     0
  0
CLASS
  1
LWPOLYLINE
  2
AcDbPolyline
  3
AutoCAD 2000
 90
        0
280
     0
281
     1
  0
CLASS
  1
HATCH
  2
AcDbHatch
  3
AutoCAD 2000
 90
        0
280
     0
281
     1
  0
CLASS
  1
XRECORD
  2
AcDbXrecord
  3
AutoCAD 2000
 90
        0
280
     0
281
     0
  0
CLASS
  1
LONG_TRANSACTION
  2
AcDbLongTransaction
  3
AutoCAD 2000
 90
        0
280
     0
281
     0
  0
CLASS
  1
LWPOLYLINE
  2
AcDbPolyline
  3
AutoCAD 2000
 90
        0
280
     0
281
     1
  0
CLASS
  1
HATCH
  2
AcDbHatch
  3
AutoCAD 2000
 90
        0
280
     0
281
     1
  0
CLASS
  1
XRECORD
  2
AcDbXrecord
  3
AutoCAD 2000
 90
        0
280
     0
281
     0
  0
CLASS
  1
LONG_TRANSACTION
  2
AcDbLongTransaction
  3
AutoCAD 2000
 90
        0
280
     0
281
     0
  0
CLASS
  1
LWPOLYLINE
  2
AcDbPolyline
  3
AutoCAD 2000
 90
        0
280
     0
281
     1
  0
CLASS
  1
HATCH
  2
AcDbHatch
  3
AutoCAD 2000
 90
        0
280
     0
281
     1
  0
CLASS
  1
XRECORD
  2
AcDbXrecord
  3
AutoCAD 2000
 90
        0
280
     0
281
     0
  0
CLASS
  1
LONG_TRANSACTION
  2
AcDbLongTransaction
  3
AutoCAD 2000
 90
        0
280
     0
281
     0
  0
CLASS
  1
LWPOLYLINE
  2
AcDbPolyline
  3
AutoCAD 2000
 90
        0
280
     0
281
     1
  0
CLASS
  1
HATCH
  2
AcDbHatch
  3
AutoCAD 2000
 90
        0
280
     0
281
     1
  0
CLASS
  1
XRECORD
  2
AcDbXrecord
  3
AutoCAD 2000
 90
        0
280
     0
281
     0
  0
ENDSEC
  0
SECTION
  2
TABLES
  0
TABLE
  2
VPORT
  5
8
330
0
100
AcDbSymbolTable
 70
     6
  0
VPORT
  5
2D39
330
8
100
AcDbSymbolTableRecord
100
AcDbViewportTableRecord
  2
*ACTIVE
 70
     0
 10
0.0
 20
0.0
 11
1.0
 21
1.0
 12
272.5934742460876
 22
258.2405793094161
 13
0.0
 23
0.0
 14
168.0
 24
168.0
 15
0.0
 25
0.0
 16
0.0
 26
0.0
 36
1.0
 17
0.0
 27
0.0
 37
0.0
 40
895.2890833539585
 41
1.602080624187256
 42
50.0
 43
0.0
 44
0.0
 50
0.0
 51
0.0
 71
     0
 72
   100
 73
     1
 74
     0
 75
     0
 76
     0
 77
     0
 78
     1
  0
ENDTAB
  0
TABLE
  2
LTYPE
  5
5
330
0
100
AcDbSymbolTable
 70
     2
  0
LTYPE
  5
14
330
5
100
AcDbSymbolTableRecord
100
AcDbLinetypeTableRecord
  2
BYBLOCK
 70
     0
  3

 72
    65
 73
     0
 40
0.0
  0
LTYPE
  5
15
330
5
100
AcDbSymbolTableRecord
100
AcDbLinetypeTableRecord
  2
BYLAYER
 70
     0
  3

 72
    65
 73
     0
 40
0.0
  0
LTYPE
  5
16
330
5
100
AcDbSymbolTableRecord
100
AcDbLinetypeTableRecord
  2
CONTINUOUS
 70
     0
  3
Solid line
 72
    65
 73
     0
 40
0.0
  0
LTYPE
  5
6E
330
5
100
AcDbSymbolTableRecord
100
AcDbLinetypeTableRecord
  2
CENTER
 70
     0
  3
____ _ ____ _ ____ _ ____ _ ____ _ ____ _ ____ 
 72
    65
 73
     4
 40
2.0
 49
1.25
 74
     0
 49
-0.25
 74
     0
 49
0.25
 74
     0
 49
-0.25
 74
     0
  0
ENDTAB
  0
TABLE
  2
LAYER
  5
2
330
0
100
AcDbSymbolTable
 70
     6
  0
LAYER
  5
F
330
2
100
AcDbSymbolTableRecord
100
AcDbLayerTableRecord
  2
0
 70
     0
 62
     7
  6
CONTINUOUS
  0
LAYER
  5
72
330
2
100
AcDbSymbolTableRecord
100
AcDbLayerTableRecord
  2
DEFPOINTS
 70
     0
 62
     7
  6
CONTINUOUS
  0
LAYER
  5
74
330
2
100
AcDbSymbolTableRecord
100
AcDbLayerTableRecord
  2
CENTER
 70
     0
 62
     9
  6
CENTER
  0
LAYER
  5
2CD8
330
2
100
AcDbSymbolTableRecord
100
AcDbLayerTableRecord
  2
1
 70
     0
 62
     7
  6
CONTINUOUS
  0
ENDTAB
  0
TABLE
  2
STYLE
  5
3
330
0
100
AcDbSymbolTable
 70
     5
  0
STYLE
  5
10
330
3
100
AcDbSymbolTableRecord
100
AcDbTextStyleTableRecord
  2
STANDARD
 70
     0
 40
0.0
 41
0.8
 50
0.0
 71
     0
 42
84.17508417508416
  3
TXT
  4
bigfont.shx
  0
STYLE
  5
63
330
3
100
AcDbSymbolTableRecord
100
AcDbTextStyleTableRecord
  2
AD-STANDARD
 70
     0
 40
0.0
 41
0.8
 50
0.0
 71
     0
 42
3.5
  3
C:\Program Files\AutoCAD LT\romans.shx
  4
bigfont.shx
  0
ENDTAB
  0
TABLE
  2
VIEW
  5
6
330
0
100
AcDbSymbolTable
 70
     0
  0
ENDTAB
  0
TABLE
  2
UCS
  5
7
330
0
100
AcDbSymbolTable
 70
     0
  0
ENDTAB
  0
TABLE
  2
APPID
  5
9
330
0
100
AcDbSymbolTable
 70
     5
  0
APPID
  5
11
330
9
100
AcDbSymbolTableRecord
100
AcDbRegAppTableRecord
  2
ACAD
 70
     0
  0
APPID
  5
22A
330
9
100
AcDbSymbolTableRecord
100
AcDbRegAppTableRecord
  2
CONTENTTABDATA
 70
     0
  0
APPID
  5
22B
330
9
100
AcDbSymbolTableRecord
100
AcDbRegAppTableRecord
  2
CONTENTCURRENTTAB
 70
     0
  0
APPID
  5
232
330
9
100
AcDbSymbolTableRecord
100
AcDbRegAppTableRecord
  2
CONTENTBLOCKDESCRIPTION
 70
     0
  0
APPID
  5
233
330
9
100
AcDbSymbolTableRecord
100
AcDbRegAppTableRecord
  2
CONTENTBLOCKICON
 70
     0
  0
ENDTAB
  0
TABLE
  2
DIMSTYLE
  5
A
330
0
100
AcDbSymbolTable
 70
     2
  0
DIMSTYLE
105
1D
330
A
100
AcDbSymbolTableRecord
100
AcDbDimStyleTableRecord
  2
STANDARD
 70
     0
  3

  4

  5

  6

  7

 40
1.0
 41
0.18
 42
0.0625
 43
0.38
 44
0.18
 45
0.0
 46
0.0
 47
0.0
 48
0.0
140
0.18
141
0.09
142
0.0
143
25.4
144
1.0
145
0.0
146
1.0
147
0.09
 71
     0
 72
     0
 73
     1
 74
     1
 75
     0
 76
     0
 77
     0
 78
     0
170
     0
171
     2
172
     0
173
     0
174
     0
175
     0
176
     0
177
     0
178
     0
270
     2
271
     4
272
     4
273
     2
274
     2
340
10
275
     0
280
     0
281
     0
282
     0
283
     1
284
     0
285
     0
286
     0
287
     3
288
     0
  0
ENDTAB
  0
TABLE
  2
BLOCK_RECORD
  5
1
330
0
100
AcDbSymbolTable
 70
    22
  0
BLOCK_RECORD
  5
1A
102
{ACAD_XDICTIONARY
360
F6B
102
}
330
1
100
AcDbSymbolTableRecord
100
AcDbBlockTableRecord
  2
*MODEL_SPACE
  0
BLOCK_RECORD
  5
17
102
{ACAD_XDICTIONARY
360
F69
102
}
330
1
100
AcDbSymbolTableRecord
100
AcDbBlockTableRecord
  2
*PAPER_SPACE
  0
ENDTAB
  0
ENDSEC
  0
SECTION
  2
BLOCKS
  0
BLOCK
  5
1B
330
1A
100
AcDbEntity
  8
0
100
AcDbBlockBegin
  2
*MODEL_SPACE
 70
     0
 10
0.0
 20
0.0
 30
0.0
  3
*MODEL_SPACE
  1

  0
ENDBLK
  5
1C
330
1A
100
AcDbEntity
  8
0
100
AcDbBlockEnd
  0
BLOCK
  5
18
330
17
100
AcDbEntity
 67
     1
  8
0
100
AcDbBlockBegin
  2
*PAPER_SPACE
 70
     0
 10
0.0
 20
0.0
 30
0.0
  3
*PAPER_SPACE
  1

  0
ENDBLK
  5
19
330
17
100
AcDbEntity
 67
     1
  8
0
100
AcDbBlockEnd
  0
ENDSEC
  0
SECTION
  2
ENTITIES
  0
LINE
  5
21E6
330
1A
100
AcDbEntity
  8
1
100
AcDbLine
 10
322.7055725544706
 20
189.5660438328715
 30
0.0
 11
338.7055725544706
 21
188.5660438328715
 31
0.0
  0
LINE
  5
21E7
330
1A
100
AcDbEntity
  8
1
100
AcDbLine
 10
322.7055725544706
 20
207.5699386759057
 30
0.0
 11
338.7055725544706
 21
208.5699386759057
 31
0.0
  0
LINE
  5
21E8
330
1A
100
AcDbEntity
  8
1
100
AcDbLine
 10
322.6431942683154
 20
188.5679912543886
 30
0.0
 11
338.6431942683155
 21
187.5679912543886
 31
0.0
  0
LINE
  5
21E9
330
1A
100
AcDbEntity
  8
1
100
AcDbLine
 10
322.6431942683154
 20
208.5679912543886
 30
0.0
 11
338.6431942683155
 21
209.5679912543886
 31
0.0
  0
LINE
  5
21EA
330
1A
100
AcDbEntity
  8
CENTER
 48
10.0
100
AcDbLine
 10
280.0832753000461
 20
198.5679912543886
 30
0.0
 11
472.3079197150073
 21
198.5679912543886
 31
0.0
  0
LINE
  5
21EB
330
1A
100
AcDbEntity
  8
CENTER
 48
10.0
100
AcDbLine
 10
73.61792302793128
 20
402.0448755788327
 30
0.0
 11
285.0307873464966
 21
402.0448755788325
 31
0.0
  0
LINE
  5
21ED
330
1A
100
AcDbEntity
  8
CENTER
 48
10.0
100
AcDbLine
 10
180.4134759531082
 20
69.68098858637574
 30
0.0
 11
180.4134759531082
 21
482.7407159306052
 31
0.0
  0
ARC
  5
21EE
330
1A
100
AcDbEntity
  8
1
100
AcDbCircle
 10
180.4134759531082
 20
402.0448755788326
 30
0.0
 40
49.0
100
AcDbArc
 50
28.6516590280128
 51
331.3483409719871
  0
LINE
  5
21EF
330
1A
100
AcDbEntity
  8
1
100
AcDbLine
 10
223.4134759531082
 20
425.539555827774
 30
0.0
 11
223.4134759531082
 21
378.5501953298911
 31
0.0
  0
LINE
  5
21F0
330
1A
100
AcDbEntity
  8
1
100
AcDbLine
 10
223.9134759531082
 20
425.341871093276
 30
0.0
 11
223.9134759531082
 21
378.7478800643891
 31
0.0
  0
ARC
  5
21F1
330
1A
100
AcDbEntity
  8
1
100
AcDbCircle
 10
180.4134759531082
 20
402.0448755788326
 30
0.0
 40
50.0
100
AcDbArc
 50
31.17883553865627
 51
328.8211644613436
  0
LINE
  5
21F3
330
1A
100
AcDbEntity
  8
1
100
AcDbLine
 10
280.4134759531082
 20
327.0448755788322
 30
0.0
 11
280.4134759531082
 21
477.0448755788322
 31
0.0
  0
LINE
  5
21F4
330
1A
100
AcDbEntity
  8
1
100
AcDbLine
 10
80.41347595310822
 20
327.0448755788324
 30
0.0
 11
80.41347595310822
 21
477.0448755788321
 31
0.0
  0
LINE
  5
21F6
330
1A
100
AcDbEntity
  8
1
 62
     9
100
AcDbLine
 10
164.2309482902192
 20
311.556128457135
 30
0.0
 11
195.7668016017519
 21
306.3811264728998
 31
0.0
  0
LINE
  5
21F7
330
1A
100
AcDbEntity
  8
1
 62
     9
100
AcDbLine
 10
164.3928814663947
 20
312.5429301831437
 30
0.0
 11
195.9287347779275
 21
307.3679281989085
 31
0.0
  0
LINE
  5
21F8
330
1A
100
AcDbEntity
  8
1
100
AcDbLine
 10
223.4134759531082
 20
105.5679912543887
 30
0.0
 11
134.4134759531082
 21
105.5679912543886
 31
0.0
  0
LINE
  5
21F9
330
1A
100
AcDbEntity
  8
1
100
AcDbLine
 10
136.4134759531082
 20
107.5679912543886
 30
0.0
 11
223.4134759531082
 21
107.5679912543887
 31
0.0
  0
LINE
  5
21FA
330
1A
100
AcDbEntity
  8
1
100
AcDbLine
 10
136.4134759531082
 20
265.5679912543886
 30
0.0
 11
223.4134759531082
 21
265.5679912543886
 31
0.0
  0
LINE
  5
21FB
330
1A
100
AcDbEntity
  8
1
100
AcDbLine
 10
223.4134759531082
 20
267.5679912543886
 30
0.0
 11
134.4134759531082
 21
267.5679912543886
 31
0.0
  0
LINE
  5
21FD
330
1A
100
AcDbEntity
  8
1
100
AcDbLine
 10
141.4134759531082
 20
125.5679912543884
 30
0.0
 11
219.4134759531082
 21
125.5679912543885
 31
0.0
  0
LINE
  5
21FE
330
1A
100
AcDbEntity
  8
1
100
AcDbLine
 10
141.4134759531082
 20
127.5679912543885
 30
0.0
 11
219.4134759531082
 21
127.5679912543884
 31
0.0
  0
LINE
  5
21FF
330
1A
100
AcDbEntity
  8
1
100
AcDbLine
 10
142.1324713209421
 20
131.5679912543885
 30
0.0
 11
218.6944805852739
 21
131.5679912543885
 31
0.0
  0
LINE
  5
2200
330
1A
100
AcDbEntity
  8
1
100
AcDbLine
 10
144.9134759531082
 20
122.5679912543886
 30
0.0
 11
215.9134759531082
 21
122.5679912543886
 31
0.0
  0
CIRCLE
  5
2201
330
1A
100
AcDbEntity
  8
1
100
AcDbCircle
 10
180.4134759531082
 20
198.5679912543885
 30
0.0
 40
8.0
  0
CIRCLE
  5
2202
330
1A
100
AcDbEntity
  8
1
100
AcDbCircle
 10
180.4134759531082
 20
198.5679912543885
 30
0.0
 40
10.0
  0
CIRCLE
  5
2203
330
1A
100
AcDbEntity
  8
1
100
AcDbCircle
 10
180.4134759531082
 20
198.5679912543885
 30
0.0
 40
11.0
  0
CIRCLE
  5
2204
330
1A
100
AcDbEntity
  8
1
100
AcDbCircle
 10
180.4134759531082
 20
198.5679912543885
 30
0.0
 40
21.0
  0
CIRCLE
  5
2205
330
1A
100
AcDbEntity
  8
1
100
AcDbCircle
 10
180.4134759531082
 20
198.5679912543885
 30
0.0
 40
25.0
  0
LINE
  5
2206
330
1A
100
AcDbEntity
  8
1
100
AcDbLine
 10
144.9134759531082
 20
116.5679912543886
 30
0.0
 11
215.9134759531082
 21
116.5679912543886
 31
0.0
  0
LINE
  5
2207
330
1A
100
AcDbEntity
  8
1
100
AcDbLine
 10
144.9134759531082
 20
114.5679912543886
 30
0.0
 11
215.9134759531082
 21
114.5679912543886
 31
0.0
  0
LINE
  5
2208
330
1A
100
AcDbEntity
  8
1
100
AcDbLine
 10
150.4134759531082
 20
258.5679912543884
 30
0.0
 11
210.4134759531082
 21
258.5679912543885
 31
0.0
  0
LINE
  5
2209
330
1A
100
AcDbEntity
  8
1
100
AcDbLine
 10
150.4134759531082
 20
256.5679912543884
 30
0.0
 11
210.4134759531082
 21
256.5679912543885
 31
0.0
  0
LINE
  5
220A
330
1A
100
AcDbEntity
  8
1
100
AcDbLine
 10
150.4134759531082
 20
250.5679912543885
 30
0.0
 11
210.4134759531082
 21
250.5679912543885
 31
0.0
  0
LINE
  5
220B
330
1A
100
AcDbEntity
  8
1
100
AcDbLine
 10
141.9134759531082
 20
144.5679912543885
 30
0.0
 11
218.9134759531082
 21
144.5679912543886
 31
0.0
  0
LINE
  5
220C
330
1A
100
AcDbEntity
  8
1
100
AcDbLine
 10
143.4134759531082
 20
241.5679912543885
 30
0.0
 11
217.4134759531082
 21
241.5679912543885
 31
0.0
  0
LINE
  5
220D
330
1A
100
AcDbEntity
  8
1
100
AcDbLine
 10
80.41347595310822
 20
84.56799125438868
 30
0.0
 11
280.4134759531082
 21
84.56799125438875
 31
0.0
  0
LINE
  5
220E
330
1A
100
AcDbEntity
  8
1
100
AcDbLine
 10
80.41347595310822
 20
72.56799125438863
 30
0.0
 11
280.4134759531082
 21
72.56799125438863
 31
0.0
  0
LINE
  5
220F
330
1A
100
AcDbEntity
  8
1
100
AcDbLine
 10
80.41347595310822
 20
288.5679912543886
 30
0.0
 11
280.4134759531082
 21
288.5679912543886
 31
0.0
  0
LINE
  5
2210
330
1A
100
AcDbEntity
  8
1
100
AcDbLine
 10
80.41347595310822
 20
300.5679912543885
 30
0.0
 11
280.4134759531082
 21
300.5679912543886
 31
0.0
  0
LINE
  5
2212
330
1A
100
AcDbEntity
  8
1
100
AcDbLine
 10
191.4134759531082
 20
319.9379471603873
 30
0.0
 11
169.4134759531082
 21
320.0448755788323
 31
0.0
  0
LINE
  5
2213
330
1A
100
AcDbEntity
  8
1
100
AcDbLine
 10
80.41347595310822
 20
327.0448755788323
 30
0.0
 11
280.4134759531082
 21
327.0448755788322
 31
0.0
  0
LINE
  5
2214
330
1A
100
AcDbEntity
  8
1
100
AcDbLine
 10
141.4134759531082
 20
239.5679912543885
 30
0.0
 11
141.4134759531082
 21
218.0679912543885
 31
0.0
  0
LINE
  5
2215
330
1A
100
AcDbEntity
  8
1
100
AcDbLine
 10
141.9134759531082
 20
107.5679912543887
 30
0.0
 11
141.9134759531082
 21
111.5679912543887
 31
0.0
  0
LINE
  5
2216
330
1A
100
AcDbEntity
  8
1
100
AcDbLine
 10
136.4134759531082
 20
107.5679912543886
 30
0.0
 11
134.4134759531082
 21
105.5679912543886
 31
0.0
  0
LINE
  5
2217
330
1A
100
AcDbEntity
  8
1
100
AcDbLine
 10
134.4134759531082
 20
105.5679912543886
 30
0.0
 11
134.4134759531082
 21
84.56799125438868
 31
0.0
  0
LINE
  5
2219
330
1A
100
AcDbEntity
  8
1
100
AcDbLine
 10
143.4134759531082
 20
127.5679912543885
 30
0.0
 11
143.4134759531082
 21
129.5679912543885
 31
0.0
  0
LINE
  5
221A
330
1A
100
AcDbEntity
  8
1
100
AcDbLine
 10
141.4134759531082
 20
125.5679912543884
 30
0.0
 11
141.4134759531082
 21
127.5679912543885
 31
0.0
  0
ARC
  5
221C
330
1A
100
AcDbEntity
  8
1
100
AcDbCircle
 10
141.9134759531082
 20
145.0679912543885
 30
0.0
 40
0.5
100
AcDbArc
 50
270.0
 51
0.0
  0
ARC
  5
221D
330
1A
100
AcDbEntity
  8
1
100
AcDbCircle
 10
141.9134759531081
 20
132.0174809971716
 30
0.0
 40
0.5
100
AcDbArc
 50
180.0
 51
258.4630409671852
  0
ARC
  5
221E
330
1A
100
AcDbEntity
  8
1
100
AcDbCircle
 10
141.4134759531082
 20
129.5679912543885
 30
0.0
 40
2.0
100
AcDbArc
 50
0.0
 51
78.46304096718522
  0
ARC
  5
221F
330
1A
100
AcDbEntity
  8
1
100
AcDbCircle
 10
142.4134759531082
 20
122.6904902535878
 30
0.0
 40
1.0
100
AcDbArc
 50
308.6821874534895
 51
0.0
  0
LINE
  5
2220
330
1A
100
AcDbEntity
  8
1
100
AcDbLine
 10
143.4134759531082
 20
122.6904902535878
 30
0.0
 11
143.4134759531082
 21
125.5679912543884
 31
0.0
  0
ARC
  5
2221
330
1A
100
AcDbEntity
  8
1
100
AcDbCircle
 10
141.9134759531082
 20
218.0679912543885
 30
0.0
 40
0.5
100
AcDbArc
 50
180.0
 51
270.0
  0
ARC
  5
2222
330
1A
100
AcDbEntity
  8
1
100
AcDbCircle
 10
141.9134759531082
 20
217.0679912543885
 30
0.0
 40
0.5
100
AcDbArc
 50
0.0
 51
90.0
  0
ARC
  5
2223
330
1A
100
AcDbEntity
  8
1
100
AcDbCircle
 10
141.9134759531082
 20
144.0679912543885
 30
0.0
 40
0.5
100
AcDbArc
 50
90.0
 51
180.0
  0
CIRCLE
  5
2224
330
1A
100
AcDbEntity
  8
1
100
AcDbCircle
 10
164.4134759531082
 20
198.5679912543885
 30
0.0
 40
3.5
  0
ARC
  5
2225
330
1A
100
AcDbEntity
  8
1
100
AcDbCircle
 10
144.9134759531082
 20
111.5679912543887
 30
0.0
 40
2.999999999999943
100
AcDbArc
 50
90.0
 51
180.0
  0
ARC
  5
2226
330
1A
100
AcDbEntity
  8
1
100
AcDbCircle
 10
144.9134759531082
 20
115.5679912543886
 30
0.0
 40
1.0
100
AcDbArc
 50
270.0
 51
90.0
  0
ARC
  5
2227
330
1A
100
AcDbEntity
  8
1
100
AcDbCircle
 10
144.9134759531082
 20
119.5679912543886
 30
0.0
 40
3.0
100
AcDbArc
 50
128.6821874534894
 51
270.0
  0
LINE
  5
2228
330
1A
100
AcDbEntity
  8
1
100
AcDbLine
 10
141.4134759531082
 20
144.0679912543885
 30
0.0
 11
141.4134759531082
 21
132.0174809971716
 31
0.0
  0
LINE
  5
2229
330
1A
100
AcDbEntity
  8
1
100
AcDbLine
 10
80.41347595310822
 20
84.56799125438875
 30
0.0
 11
80.41347595310822
 21
72.56799125438863
 31
0.0
  0
LINE
  5
222A
330
1A
100
AcDbEntity
  8
1
100
AcDbLine
 10
141.9134759531082
 20
217.5679912543885
 30
0.0
 11
141.9134759531082
 21
217.5679912543885
 31
0.0
  0
LINE
  5
222B
330
1A
100
AcDbEntity
  8
1
100
AcDbLine
 10
142.4134759531082
 20
217.0679912543885
 30
0.0
 11
142.4134759531082
 21
145.0679912543885
 31
0.0
  0
CIRCLE
  5
222E
330
1A
100
AcDbEntity
  8
1
 62
     9
100
AcDbCircle
 10
139.4134759531082
 20
344.0448755788326
 30
0.0
 40
4.0
  0
CIRCLE
  5
222F
330
1A
100
AcDbEntity
  8
1
100
AcDbCircle
 10
139.4134759531082
 20
344.0448755788326
 30
0.0
 40
5.0
  0
CIRCLE
  5
2230
330
1A
100
AcDbEntity
  8
1
100
AcDbCircle
 10
139.4134759531082
 20
344.0448755788326
 30
0.0
 40
3.0
  0
LINE
  5
2231
330
1A
100
AcDbEntity
  8
1
100
AcDbLine
 10
147.4134759531082
 20
261.5679912543885
 30
0.0
 11
147.4134759531082
 21
265.5679912543886
 31
0.0
  0
LINE
  5
2232
330
1A
100
AcDbEntity
  8
1
100
AcDbLine
 10
134.4134759531082
 20
267.5679912543886
 30
0.0
 11
136.4134759531082
 21
265.5679912543886
 31
0.0
  0
LINE
  5
2233
330
1A
100
AcDbEntity
  8
1
100
AcDbLine
 10
134.4134759531082
 20
288.5679912543886
 30
0.0
 11
134.4134759531082
 21
267.5679912543886
 31
0.0
  0
LINE
  5
2234
330
1A
100
AcDbEntity
  8
CENTER
 62
     9
100
AcDbLine
 10
110.4134759531082
 20
360.0448755788324
 30
0.0
 11
110.4134759531082
 21
366.0448755788323
 31
0.0
  0
LINE
  5
2235
330
1A
100
AcDbEntity
  8
CENTER
 62
     9
100
AcDbLine
 10
110.4134759531082
 20
344.0448755788323
 30
0.0
 11
110.4134759531082
 21
338.0448755788323
 31
0.0
  0
LINE
  5
2236
330
1A
100
AcDbEntity
  8
CENTER
 62
     9
100
AcDbLine
 10
118.4134759531082
 20
352.0448755788323
 30
0.0
 11
124.4134759531082
 21
352.0448755788323
 31
0.0
  0
LINE
  5
2237
330
1A
100
AcDbEntity
  8
CENTER
 62
     9
100
AcDbLine
 10
102.4134759531082
 20
352.0448755788323
 30
0.0
 11
96.41347595310822
 21
352.0448755788323
 31
0.0
  0
LINE
  5
2238
330
1A
100
AcDbEntity
  8
CENTER
 62
     9
100
AcDbLine
 10
110.4134759531082
 20
348.0448755788323
 30
0.0
 11
110.4134759531082
 21
356.0448755788323
 31
0.0
  0
LINE
  5
2239
330
1A
100
AcDbEntity
  8
CENTER
 62
     9
100
AcDbLine
 10
106.4134759531082
 20
352.0448755788323
 30
0.0
 11
114.4134759531082
 21
352.0448755788323
 31
0.0
  0
CIRCLE
  5
223A
330
1A
100
AcDbEntity
  8
1
100
AcDbCircle
 10
151.4134759531082
 20
234.5679912543885
 30
0.0
 40
7.0
  0
ARC
  5
223B
330
1A
100
AcDbEntity
  8
1
100
AcDbCircle
 10
150.4134759531082
 20
261.5679912543885
 30
0.0
 40
3.0
100
AcDbArc
 50
180.0
 51
270.0
  0
ARC
  5
223C
330
1A
100
AcDbEntity
  8
1
100
AcDbCircle
 10
150.4134759531082
 20
257.5679912543885
 30
0.0
 40
1.0
100
AcDbArc
 50
270.0
 51
90.0
  0
ARC
  5
223D
330
1A
100
AcDbEntity
  8
1
100
AcDbCircle
 10
150.4134759531082
 20
253.5679912543885
 30
0.0
 40
3.0
100
AcDbArc
 50
90.0
 51
270.0
  0
ARC
  5
223E
330
1A
100
AcDbEntity
  8
1
100
AcDbCircle
 10
153.4134759531082
 20
248.5679912543885
 30
0.0
 40
2.0
100
AcDbArc
 50
0.0
 51
90.0
  0
ARC
  5
223F
330
1A
100
AcDbEntity
  8
1
100
AcDbCircle
 10
153.4134759531082
 20
243.5679912543885
 30
0.0
 40
2.0
100
AcDbArc
 50
270.0
 51
0.0
  0
ARC
  5
2240
330
1A
100
AcDbEntity
  8
1
100
AcDbCircle
 10
143.4134759531082
 20
239.5679912543885
 30
0.0
 40
2.0
100
AcDbArc
 50
90.0
 51
180.0
  0
LINE
  5
2241
330
1A
100
AcDbEntity
  8
1
100
AcDbLine
 10
155.4134759531082
 20
248.5679912543886
 30
0.0
 11
155.4134759531082
 21
243.5679912543885
 31
0.0
  0
LINE
  5
2242
330
1A
100
AcDbEntity
  8
1
100
AcDbLine
 10
80.41347595310822
 20
300.5679912543885
 30
0.0
 11
80.41347595310822
 21
288.5679912543886
 31
0.0
  0
LINE
  5
2243
330
1A
100
AcDbEntity
  8
1
100
AcDbLine
 10
169.9392319507554
 20
311.6327796164764
 30
0.0
 11
169.4134759531082
 21
320.0448755788323
 31
0.0
  0
LINE
  5
2244
330
1A
100
AcDbEntity
  8
1
100
AcDbLine
 10
169.4134759531082
 20
320.0448755788323
 30
0.0
 11
169.4134759531082
 21
327.0448755788323
 31
0.0
  0
CIRCLE
  5
2245
330
1A
100
AcDbEntity
  8
1
100
AcDbCircle
 10
110.4134759531082
 20
352.0448755788323
 30
0.0
 40
10.0
  0
LINE
  5
2246
330
1A
100
AcDbEntity
  8
1
100
AcDbLine
 10
219.4134759531082
 20
239.5679912543885
 30
0.0
 11
219.4134759531082
 21
218.0679912543885
 31
0.0
  0
LINE
  5
2248
330
1A
100
AcDbEntity
  8
1
100
AcDbLine
 10
223.4134759531082
 20
107.5679912543886
 30
0.0
 11
223.4134759531082
 21
84.56799125438875
 31
0.0
  0
LINE
  5
2249
330
1A
100
AcDbEntity
  8
1
100
AcDbLine
 10
218.9134759531082
 20
107.5679912543886
 30
0.0
 11
218.9134759531082
 21
111.5679912543886
 31
0.0
  0
LINE
  5
224B
330
1A
100
AcDbEntity
  8
1
100
AcDbLine
 10
217.4134759531082
 20
127.5679912543884
 30
0.0
 11
217.4134759531082
 21
129.5679912543883
 31
0.0
  0
LINE
  5
224C
330
1A
100
AcDbEntity
  8
1
100
AcDbLine
 10
219.4134759531082
 20
125.5679912543885
 30
0.0
 11
219.4134759531082
 21
127.5679912543884
 31
0.0
  0
ARC
  5
224F
330
1A
100
AcDbEntity
  8
1
100
AcDbCircle
 10
218.9134759531082
 20
145.0679912543885
 30
0.0
 40
0.5
100
AcDbArc
 50
180.0
 51
270.0
  0
ARC
  5
2250
330
1A
100
AcDbEntity
  8
1
100
AcDbCircle
 10
218.9134759531082
 20
132.0174809971714
 30
0.0
 40
0.5
100
AcDbArc
 50
281.5369590328147
 51
0.0
  0
ARC
  5
2251
330
1A
100
AcDbEntity
  8
1
100
AcDbCircle
 10
219.4134759531082
 20
129.5679912543883
 30
0.0
 40
2.0
100
AcDbArc
 50
101.5369590328155
 51
180.0
  0
ARC
  5
2252
330
1A
100
AcDbEntity
  8
1
100
AcDbCircle
 10
218.4134759531082
 20
122.6904902535878
 30
0.0
 40
1.0
100
AcDbArc
 50
180.0
 51
231.3178125465105
  0
LINE
  5
2253
330
1A
100
AcDbEntity
  8
1
100
AcDbLine
 10
217.4134759531082
 20
122.6904902535878
 30
0.0
 11
217.4134759531082
 21
125.5679912543885
 31
0.0
  0
ARC
  5
2254
330
1A
100
AcDbEntity
  8
1
100
AcDbCircle
 10
218.9134759531082
 20
218.0679912543885
 30
0.0
 40
0.5
100
AcDbArc
 50
270.0
 51
0.0
  0
ARC
  5
2255
330
1A
100
AcDbEntity
  8
1
100
AcDbCircle
 10
218.9134759531082
 20
217.0679912543885
 30
0.0
 40
0.5
100
AcDbArc
 50
89.99999999999674
 51
180.0
  0
ARC
  5
2256
330
1A
100
AcDbEntity
  8
1
100
AcDbCircle
 10
218.9134759531082
 20
144.0679912543886
 30
0.0
 40
0.5
100
AcDbArc
 50
0.0
 51
90.0
  0
CIRCLE
  5
2257
330
1A
100
AcDbEntity
  8
1
100
AcDbCircle
 10
196.4134759531082
 20
198.5679912543885
 30
0.0
 40
3.5
  0
CIRCLE
  5
2258
330
1A
100
AcDbEntity
  8
1
100
AcDbCircle
 10
180.4134759531082
 20
198.5679912543885
 30
0.0
 40
4.0
  0
CIRCLE
  5
2259
330
1A
100
AcDbEntity
  8
1
100
AcDbCircle
 10
180.4134759531082
 20
198.5679912543885
 30
0.0
 40
5.5
  0
LINE
  5
225A
330
1A
100
AcDbEntity
  8
1
100
AcDbLine
 10
218.9134759531082
 20
217.5679912543885
 30
0.0
 11
218.9134759531082
 21
217.5679912543885
 31
0.0
  0
ARC
  5
225B
330
1A
100
AcDbEntity
  8
1
100
AcDbCircle
 10
215.9134759531082
 20
111.5679912543886
 30
0.0
 40
3.0
100
AcDbArc
 50
0.0
 51
90.0
  0
ARC
  5
225C
330
1A
100
AcDbEntity
  8
1
100
AcDbCircle
 10
215.9134759531082
 20
115.5679912543886
 30
0.0
 40
1.0
100
AcDbArc
 50
90.0
 51
270.0
  0
ARC
  5
225D
330
1A
100
AcDbEntity
  8
1
100
AcDbCircle
 10
215.9134759531082
 20
119.5679912543886
 30
0.0
 40
2.999999999999943
100
AcDbArc
 50
270.0
 51
51.31781254651052
  0
LINE
  5
225E
330
1A
100
AcDbEntity
  8
1
100
AcDbLine
 10
219.4134759531082
 20
144.0679912543886
 30
0.0
 11
219.4134759531082
 21
132.0174809971714
 31
0.0
  0
LINE
  5
225F
330
1A
100
AcDbEntity
  8
1
100
AcDbLine
 10
218.4134759531082
 20
217.0679912543885
 30
0.0
 11
218.4134759531082
 21
145.0679912543885
 31
0.0
  0
LINE
  5
2260
330
1A
100
AcDbEntity
  8
1
100
AcDbLine
 10
280.0832753000461
 20
194.5679912543886
 30
0.0
 11
292.6431942683155
 21
194.5679912543886
 31
0.0
  0
LINE
  5
2261
330
1A
100
AcDbEntity
  8
1
100
AcDbLine
 10
280.0832753000461
 20
202.5679912543886
 30
0.0
 11
292.6431942683155
 21
202.5679912543886
 31
0.0
  0
LINE
  5
2262
330
1A
100
AcDbEntity
  8
1
100
AcDbLine
 10
292.6431942683155
 20
193.0679912543885
 30
0.0
 11
322.6431942683155
 21
193.0679912543885
 31
0.0
  0
LINE
  5
2263
330
1A
100
AcDbEntity
  8
1
100
AcDbLine
 10
292.6431942683155
 20
204.0679912543885
 30
0.0
 11
322.6431942683155
 21
204.0679912543885
 31
0.0
  0
LINE
  5
2264
330
1A
100
AcDbEntity
  8
1
100
AcDbLine
 10
292.6431942683155
 20
204.0679912543885
 30
0.0
 11
292.6431942683155
 21
193.0679912543885
 31
0.0
  0
LINE
  5
2265
330
1A
100
AcDbEntity
  8
1
100
AcDbLine
 10
322.6431942683155
 20
208.5679912543886
 30
0.0
 11
322.6431942683155
 21
188.5679912543886
 31
0.0
  0
LINE
  5
2266
330
1A
100
AcDbEntity
  8
1
100
AcDbLine
 10
280.4134759531082
 20
84.56799125438868
 30
0.0
 11
280.4134759531082
 21
72.56799125438869
 31
0.0
  0
CIRCLE
  5
226B
330
1A
100
AcDbEntity
  8
1
100
AcDbCircle
 10
221.4134759531082
 20
344.0448755788326
 30
0.0
 40
3.0
  0
CIRCLE
  5
226C
330
1A
100
AcDbEntity
  8
1
100
AcDbCircle
 10
221.4134759531082
 20
344.0448755788326
 30
0.0
 40
5.0
  0
CIRCLE
  5
226D
330
1A
100
AcDbEntity
  8
1
 62
     9
100
AcDbCircle
 10
221.4134759531082
 20
344.0448755788326
 30
0.0
 40
4.0
  0
ARC
  5
2270
330
1A
100
AcDbEntity
  8
1
100
AcDbCircle
 10
218.9134759531082
 20
378.7478800643891
 30
0.0
 40
5.0
100
AcDbArc
 50
328.8211644613436
 51
0.0
  0
LINE
  5
2271
330
1A
100
AcDbEntity
  8
1
100
AcDbLine
 10
223.4134759531082
 20
288.5679912543886
 30
0.0
 11
223.4134759531082
 21
265.5679912543885
 31
0.0
  0
LINE
  5
2272
330
1A
100
AcDbEntity
  8
1
100
AcDbLine
 10
213.4134759531082
 20
261.5679912543885
 30
0.0
 11
213.4134759531082
 21
265.5679912543886
 31
0.0
  0
LINE
  5
2274
330
1A
100
AcDbEntity
  8
CENTER
 62
     9
100
AcDbLine
 10
250.4134759531082
 20
360.0448755788324
 30
0.0
 11
250.4134759531082
 21
366.0448755788323
 31
0.0
  0
LINE
  5
2275
330
1A
100
AcDbEntity
  8
CENTER
 62
     9
100
AcDbLine
 10
250.4134759531082
 20
344.0448755788323
 30
0.0
 11
250.4134759531082
 21
338.0448755788323
 31
0.0
  0
LINE
  5
2276
330
1A
100
AcDbEntity
  8
CENTER
 62
     9
100
AcDbLine
 10
258.4134759531082
 20
352.0448755788323
 30
0.0
 11
264.4134759531082
 21
352.0448755788323
 31
0.0
  0
LINE
  5
2277
330
1A
100
AcDbEntity
  8
CENTER
 62
     9
100
AcDbLine
 10
242.4134759531082
 20
352.0448755788323
 30
0.0
 11
236.4134759531082
 21
352.0448755788323
 31
0.0
  0
LINE
  5
2278
330
1A
100
AcDbEntity
  8
CENTER
 62
     9
100
AcDbLine
 10
250.4134759531082
 20
348.0448755788323
 30
0.0
 11
250.4134759531082
 21
356.0448755788323
 31
0.0
  0
LINE
  5
2279
330
1A
100
AcDbEntity
  8
CENTER
 62
     9
100
AcDbLine
 10
246.4134759531082
 20
352.0448755788323
 30
0.0
 11
254.4134759531082
 21
352.0448755788323
 31
0.0
  0
CIRCLE
  5
227A
330
1A
100
AcDbEntity
  8
1
100
AcDbCircle
 10
209.4134759531082
 20
234.5679912543885
 30
0.0
 40
7.0
  0
ARC
  5
227B
330
1A
100
AcDbEntity
  8
1
100
AcDbCircle
 10
210.4134759531082
 20
261.5679912543885
 30
0.0
 40
3.0
100
AcDbArc
 50
270.0
 51
0.0
  0
ARC
  5
227C
330
1A
100
AcDbEntity
  8
1
100
AcDbCircle
 10
210.4134759531082
 20
257.5679912543885
 30
0.0
 40
1.0
100
AcDbArc
 50
90.0
 51
270.0
  0
ARC
  5
227D
330
1A
100
AcDbEntity
  8
1
100
AcDbCircle
 10
210.4134759531082
 20
253.5679912543885
 30
0.0
 40
3.0
100
AcDbArc
 50
270.0
 51
90.0
  0
ARC
  5
227E
330
1A
100
AcDbEntity
  8
1
100
AcDbCircle
 10
207.4134759531082
 20
248.5679912543885
 30
0.0
 40
2.0
100
AcDbArc
 50
90.0
 51
180.0
  0
ARC
  5
227F
330
1A
100
AcDbEntity
  8
1
100
AcDbCircle
 10
207.4134759531082
 20
243.5679912543885
 30
0.0
 40
2.0
100
AcDbArc
 50
180.0
 51
270.0
  0
ARC
  5
2280
330
1A
100
AcDbEntity
  8
1
100
AcDbCircle
 10
217.4134759531082
 20
239.5679912543885
 30
0.0
 40
2.0
100
AcDbArc
 50
0.0
 51
90.0
  0
LINE
  5
2281
330
1A
100
AcDbEntity
  8
1
100
AcDbLine
 10
205.4134759531082
 20
248.5679912543885
 30
0.0
 11
205.4134759531082
 21
243.5679912543885
 31
0.0
  0
LINE
  5
2282
330
1A
100
AcDbEntity
  8
1
100
AcDbLine
 10
191.4134759531082
 20
319.9379471603873
 30
0.0
 11
190.6767914018112
 21
308.2297668535979
 31
0.0
  0
LINE
  5
2283
330
1A
100
AcDbEntity
  8
1
100
AcDbLine
 10
191.4134759531082
 20
327.0448755788322
 30
0.0
 11
191.4134759531082
 21
319.9379471603873
 31
0.0
  0
CIRCLE
  5
2284
330
1A
100
AcDbEntity
  8
1
100
AcDbCircle
 10
250.4134759531082
 20
352.0448755788323
 30
0.0
 40
10.0
  0
LINE
  5
2285
330
1A
100
AcDbEntity
  8
1
100
AcDbLine
 10
280.4134759531082
 20
300.5679912543886
 30
0.0
 11
280.4134759531082
 21
288.5679912543886
 31
0.0
  0
LINE
  5
2288
330
1A
100
AcDbEntity
  8
1
100
AcDbLine
 10
80.41347595310822
 20
477.0448755788321
 30
0.0
 11
280.4134759531082
 21
477.0448755788322
 31
0.0
  0
CIRCLE
  5
2289
330
1A
100
AcDbEntity
  8
1
100
AcDbCircle
 10
139.4134759531082
 20
460.0448755788326
 30
0.0
 40
3.0
  0
CIRCLE
  5
228A
330
1A
100
AcDbEntity
  8
1
100
AcDbCircle
 10
139.4134759531082
 20
460.0448755788326
 30
0.0
 40
5.0
  0
CIRCLE
  5
228B
330
1A
100
AcDbEntity
  8
1
 62
     9
100
AcDbCircle
 10
139.4134759531082
 20
460.0448755788326
 30
0.0
 40
4.0
  0
LINE
  5
2291
330
1A
100
AcDbEntity
  8
CENTER
 62
     9
100
AcDbLine
 10
110.4134759531082
 20
460.0448755788323
 30
0.0
 11
110.4134759531082
 21
466.0448755788324
 31
0.0
  0
LINE
  5
2292
330
1A
100
AcDbEntity
  8
CENTER
 62
     9
100
AcDbLine
 10
110.4134759531082
 20
444.0448755788323
 30
0.0
 11
110.4134759531082
 21
438.0448755788323
 31
0.0
  0
LINE
  5
2293
330
1A
100
AcDbEntity
  8
CENTER
 62
     9
100
AcDbLine
 10
118.4134759531082
 20
452.0448755788323
 30
0.0
 11
124.4134759531082
 21
452.0448755788323
 31
0.0
  0
LINE
  5
2294
330
1A
100
AcDbEntity
  8
CENTER
 62
     9
100
AcDbLine
 10
102.4134759531082
 20
452.0448755788323
 30
0.0
 11
96.41347595310822
 21
452.0448755788323
 31
0.0
  0
LINE
  5
2295
330
1A
100
AcDbEntity
  8
CENTER
 62
     9
100
AcDbLine
 10
110.4134759531082
 20
448.0448755788323
 30
0.0
 11
110.4134759531082
 21
456.0448755788323
 31
0.0
  0
LINE
  5
2296
330
1A
100
AcDbEntity
  8
CENTER
 62
     9
100
AcDbLine
 10
106.4134759531082
 20
452.0448755788323
 30
0.0
 11
114.4134759531082
 21
452.0448755788323
 31
0.0
  0
CIRCLE
  5
2297
330
1A
100
AcDbEntity
  8
1
100
AcDbCircle
 10
110.4134759531082
 20
452.0448755788323
 30
0.0
 40
10.0
  0
CIRCLE
  5
229C
330
1A
100
AcDbEntity
  8
1
 62
     9
100
AcDbCircle
 10
221.4134759531082
 20
460.0448755788326
 30
0.0
 40
4.0
  0
CIRCLE
  5
229D
330
1A
100
AcDbEntity
  8
1
100
AcDbCircle
 10
221.4134759531082
 20
460.0448755788326
 30
0.0
 40
5.0
  0
CIRCLE
  5
229E
330
1A
100
AcDbEntity
  8
1
100
AcDbCircle
 10
221.4134759531082
 20
460.0448755788326
 30
0.0
 40
3.0
  0
ARC
  5
229F
330
1A
100
AcDbEntity
  8
1
100
AcDbCircle
 10
218.9134759531082
 20
425.341871093276
 30
0.0
 40
5.0
100
AcDbArc
 50
0.0
 51
31.17883553865627
  0
LINE
  5
22A1
330
1A
100
AcDbEntity
  8
CENTER
 62
     9
100
AcDbLine
 10
250.4134759531082
 20
460.0448755788323
 30
0.0
 11
250.4134759531082
 21
466.0448755788324
 31
0.0
  0
LINE
  5
22A2
330
1A
100
AcDbEntity
  8
CENTER
 62
     9
100
AcDbLine
 10
250.4134759531082
 20
444.0448755788323
 30
0.0
 11
250.4134759531082
 21
438.0448755788323
 31
0.0
  0
LINE
  5
22A3
330
1A
100
AcDbEntity
  8
CENTER
 62
     9
100
AcDbLine
 10
258.4134759531082
 20
452.0448755788323
 30
0.0
 11
264.4134759531082
 21
452.0448755788323
 31
0.0
  0
LINE
  5
22A4
330
1A
100
AcDbEntity
  8
CENTER
 62
     9
100
AcDbLine
 10
242.4134759531082
 20
452.0448755788323
 30
0.0
 11
236.4134759531082
 21
452.0448755788323
 31
0.0
  0
LINE
  5
22A5
330
1A
100
AcDbEntity
  8
CENTER
 62
     9
100
AcDbLine
 10
250.4134759531082
 20
448.0448755788323
 30
0.0
 11
250.4134759531082
 21
456.0448755788323
 31
0.0
  0
LINE
  5
22A6
330
1A
100
AcDbEntity
  8
CENTER
 62
     9
100
AcDbLine
 10
246.4134759531082
 20
452.0448755788323
 30
0.0
 11
254.4134759531082
 21
452.0448755788323
 31
0.0
  0
CIRCLE
  5
22A7
330
1A
100
AcDbEntity
  8
1
100
AcDbCircle
 10
250.4134759531082
 20
452.0448755788323
 30
0.0
 40
10.0
  0
ARC
  5
22AF
330
1A
100
AcDbEntity
  8
1
100
AcDbCircle
 10
375.6431942683154
 20
225.5679912543886
 30
0.0
 40
2.0
100
AcDbArc
 50
0.0
 51
89.99999999999674
  0
LINE
  5
22B0
330
1A
100
AcDbEntity
  8
1
100
AcDbLine
 10
459.6431942683154
 20
239.5679912543887
 30
0.0
 11
459.6431942683154
 21
218.0679912543887
 31
0.0
  0
LINE
  5
22B1
330
1A
100
AcDbEntity
  8
1
100
AcDbLine
 10
377.6431942683154
 20
239.5679912543886
 30
0.0
 11
377.6431942683155
 21
145.0679912543885
 31
0.0
  0
LINE
  5
22B2
330
1A
100
AcDbEntity
  8
CENTER
 48
10.0
100
AcDbLine
 10
420.6431942683154
 20
324.9280664799679
 30
0.0
 11
420.6431942683154
 21
69.68098858637574
 31
0.0
  0
LINE
  5
22B3
330
1A
100
AcDbEntity
  8
1
100
AcDbLine
 10
376.6431942683154
 20
107.5679912543888
 30
0.0
 11
464.6431942683156
 21
107.5679912543887
 31
0.0
  0
LINE
  5
22B4
330
1A
100
AcDbEntity
  8
1
100
AcDbLine
 10
374.6431942683154
 20
105.5679912543888
 30
0.0
 11
404.3030596299473
 21
105.5679912543888
 31
0.0
  0
LINE
  5
22B6
330
1A
100
AcDbEntity
  8
1
100
AcDbLine
 10
381.6431942683154
 20
125.5679912543886
 30
0.0
 11
459.6431942683154
 21
125.5679912543887
 31
0.0
  0
LINE
  5
22B7
330
1A
100
AcDbEntity
  8
1
100
AcDbLine
 10
381.6431942683154
 20
127.5679912543886
 30
0.0
 11
459.6431942683154
 21
127.5679912543887
 31
0.0
  0
LINE
  5
22B8
330
1A
100
AcDbEntity
  8
1
100
AcDbLine
 10
385.1431942683154
 20
122.5679912543887
 30
0.0
 11
456.1431942683155
 21
122.5679912543887
 31
0.0
  0
LINE
  5
22B9
330
1A
100
AcDbEntity
  8
1
100
AcDbLine
 10
385.1431942683154
 20
116.5679912543888
 30
0.0
 11
456.1431942683155
 21
116.5679912543888
 31
0.0
  0
LINE
  5
22BA
330
1A
100
AcDbEntity
  8
1
100
AcDbLine
 10
385.1431942683154
 20
114.5679912543888
 30
0.0
 11
456.1431942683155
 21
114.5679912543888
 31
0.0
  0
LINE
  5
22BB
330
1A
100
AcDbEntity
  8
1
100
AcDbLine
 10
377.1431942683154
 20
144.5679912543885
 30
0.0
 11
459.1431942683154
 21
144.5679912543886
 31
0.0
  0
LINE
  5
22BC
330
1A
100
AcDbEntity
  8
1
100
AcDbLine
 10
377.6431942683154
 20
217.5679912543886
 30
0.0
 11
459.1431942683154
 21
217.5679912543887
 31
0.0
  0
LINE
  5
22BD
330
1A
100
AcDbEntity
  8
1
100
AcDbLine
 10
377.1431942683154
 20
131.5679912543886
 30
0.0
 11
458.9241989004813
 21
131.5679912543887
 31
0.0
  0
LINE
  5
22BE
330
1A
100
AcDbEntity
  8
1
100
AcDbLine
 10
345.6431942683154
 20
84.56799125438875
 30
0.0
 11
495.6431942683154
 21
84.5679912543888
 31
0.0
  0
LINE
  5
22BF
330
1A
100
AcDbEntity
  8
1
100
AcDbLine
 10
345.6431942683154
 20
72.56799125438869
 30
0.0
 11
495.6431942683154
 21
72.56799125438869
 31
0.0
  0
LINE
  5
22C0
330
1A
100
AcDbEntity
  8
1
100
AcDbLine
 10
382.1431942683155
 20
111.5679912543888
 30
0.0
 11
382.1431942683155
 21
107.5679912543888
 31
0.0
  0
LINE
  5
22C1
330
1A
100
AcDbEntity
  8
1
100
AcDbLine
 10
374.6431942683154
 20
105.5679912543888
 30
0.0
 11
376.6431942683154
 21
107.5679912543888
 31
0.0
  0
LINE
  5
22C2
330
1A
100
AcDbEntity
  8
1
100
AcDbLine
 10
374.6431942683154
 20
105.5679912543888
 30
0.0
 11
374.6431942683154
 21
84.56799125438875
 31
0.0
  0
LINE
  5
22C3
330
1A
100
AcDbEntity
  8
1
100
AcDbLine
 10
383.6431942683154
 20
125.5679912543886
 30
0.0
 11
383.6431942683154
 21
122.690490253588
 31
0.0
  0
LINE
  5
22C4
330
1A
100
AcDbEntity
  8
1
100
AcDbLine
 10
381.6431942683154
 20
127.5679912543886
 30
0.0
 11
381.6431942683154
 21
125.5679912543886
 31
0.0
  0
LINE
  5
22C5
330
1A
100
AcDbEntity
  8
1
100
AcDbLine
 10
338.643194268315
 20
187.5679912543887
 30
0.0
 11
348.6431942683155
 21
187.5679912543887
 31
0.0
  0
LINE
  5
22C6
330
1A
100
AcDbEntity
  8
1
100
AcDbLine
 10
338.6431942683166
 20
209.5679912543886
 30
0.0
 11
348.6431942683155
 21
209.5679912543886
 31
0.0
  0
LINE
  5
22C7
330
1A
100
AcDbEntity
  8
1
100
AcDbLine
 10
344.6431942683155
 20
195.0679912543886
 30
0.0
 11
348.6431942683154
 21
195.0679912543885
 31
0.0
  0
LINE
  5
22C8
330
1A
100
AcDbEntity
  8
1
100
AcDbLine
 10
344.6431942683155
 20
202.0679912543887
 30
0.0
 11
348.6431942683154
 21
202.0679912543886
 31
0.0
  0
ARC
  5
22C9
330
1A
100
AcDbEntity
  8
1
100
AcDbCircle
 10
353.1431942683155
 20
222.0679912543886
 30
0.0
 40
1.5
100
AcDbArc
 50
0.0
 51
180.0
  0
ARC
  5
22CA
330
1A
100
AcDbEntity
  8
1
100
AcDbCircle
 10
353.1431942683155
 20
175.0679912543886
 30
0.0
 40
1.5
100
AcDbArc
 50
180.0
 51
0.0
  0
ARC
  5
22CB
330
1A
100
AcDbEntity
  8
1
100
AcDbCircle
 10
355.6431942683154
 20
174.5679912543886
 30
0.0
 40
1.0
100
AcDbArc
 50
180.0
 51
0.0
  0
ARC
  5
22CC
330
1A
100
AcDbEntity
  8
1
100
AcDbCircle
 10
350.6431942683154
 20
174.5679912543886
 30
0.0
 40
1.0
100
AcDbArc
 50
180.0
 51
0.0
  0
ARC
  5
22CD
330
1A
100
AcDbEntity
  8
1
100
AcDbCircle
 10
350.6431942683154
 20
222.5679912543886
 30
0.0
 40
1.0
100
AcDbArc
 50
0.0
 51
180.0
  0
ARC
  5
22CE
330
1A
100
AcDbEntity
  8
1
100
AcDbCircle
 10
355.6431942683154
 20
222.5679912543886
 30
0.0
 40
1.0
100
AcDbArc
 50
0.0
 51
180.0
  0
LINE
  5
22CF
330
1A
100
AcDbEntity
  8
1
100
AcDbLine
 10
348.6431942683155
 20
177.5679912543887
 30
0.0
 11
349.6431942683155
 21
177.5679912543887
 31
0.0
  0
LINE
  5
22D0
330
1A
100
AcDbEntity
  8
1
100
AcDbLine
 10
348.6431942683155
 20
219.5679912543887
 30
0.0
 11
349.6431942683154
 21
219.5679912543888
 31
0.0
  0
ARC
  5
22D1
330
1A
100
AcDbEntity
  8
1
100
AcDbCircle
 10
375.6431942683155
 20
173.5679912543886
 30
0.0
 40
2.0
100
AcDbArc
 50
0.0
 51
90.0
  0
ARC
  5
22D2
330
1A
100
AcDbEntity
  8
1
100
AcDbCircle
 10
375.6431942683155
 20
223.5679912543887
 30
0.0
 40
2.0
100
AcDbArc
 50
270.0
 51
0.0
  0
LINE
  5
22D3
330
1A
100
AcDbEntity
  8
1
100
AcDbLine
 10
356.6431942683155
 20
175.5679912543886
 30
0.0
 11
375.6431942683155
 21
175.5679912543886
 31
0.0
  0
LINE
  5
22D4
330
1A
100
AcDbEntity
  8
1
100
AcDbLine
 10
356.6431942683155
 20
221.5679912543886
 30
0.0
 11
375.6431942683155
 21
221.5679912543886
 31
0.0
  0
LINE
  5
22D5
330
1A
100
AcDbEntity
  8
1
100
AcDbLine
 10
338.6431942683155
 20
209.5679912543886
 30
0.0
 11
338.6431942683155
 21
187.5679912543886
 31
0.0
  0
LINE
  5
22D6
330
1A
100
AcDbEntity
  8
1
100
AcDbLine
 10
344.6431942683155
 20
202.0679912543887
 30
0.0
 11
344.6431942683155
 21
195.0679912543886
 31
0.0
  0
LINE
  5
22D7
330
1A
100
AcDbEntity
  8
1
100
AcDbLine
 10
348.6431942683154
 20
219.5679912543888
 30
0.0
 11
348.6431942683155
 21
177.5679912543886
 31
0.0
  0
LINE
  5
22D8
330
1A
100
AcDbEntity
  8
1
100
AcDbLine
 10
349.6431942683154
 20
222.5679912543886
 30
0.0
 11
349.6431942683155
 21
174.5679912543886
 31
0.0
  0
LINE
  5
22D9
330
1A
100
AcDbEntity
  8
1
100
AcDbLine
 10
351.6431942683154
 20
222.5679912543886
 30
0.0
 11
351.6431942683155
 21
174.5679912543886
 31
0.0
  0
LINE
  5
22DA
330
1A
100
AcDbEntity
  8
1
100
AcDbLine
 10
354.6431942683154
 20
222.5679912543886
 30
0.0
 11
354.6431942683156
 21
174.5679912543886
 31
0.0
  0
LINE
  5
22DB
330
1A
100
AcDbEntity
  8
1
100
AcDbLine
 10
356.6431942683154
 20
222.5679912543886
 30
0.0
 11
356.6431942683156
 21
174.5679912543886
 31
0.0
  0
ARC
  5
22DC
330
1A
100
AcDbEntity
  8
1
100
AcDbCircle
 10
377.1431942683154
 20
145.0679912543885
 30
0.0
 40
0.5
100
AcDbArc
 50
270.0
 51
0.0
  0
ARC
  5
22DD
330
1A
100
AcDbEntity
  8
1
100
AcDbCircle
 10
377.1431942683154
 20
144.0679912543885
 30
0.0
 40
0.5
100
AcDbArc
 50
90.0
 51
180.0
  0
ARC
  5
22DE
330
1A
100
AcDbEntity
  8
1
100
AcDbCircle
 10
377.1431942683154
 20
132.0679912543886
 30
0.0
 40
0.5
100
AcDbArc
 50
180.0
 51
270.0
  0
ARC
  5
22DF
330
1A
100
AcDbEntity
  8
1
100
AcDbCircle
 10
381.6431942683153
 20
129.5679912543885
 30
0.0
 40
2.0
100
AcDbArc
 50
0.0
 51
90.0
  0
LINE
  5
22E0
330
1A
100
AcDbEntity
  8
1
100
AcDbLine
 10
376.6431942683154
 20
144.0679912543885
 30
0.0
 11
376.6431942683154
 21
132.0679912543886
 31
0.0
  0
ARC
  5
22E1
330
1A
100
AcDbEntity
  8
1
100
AcDbCircle
 10
382.6431942683155
 20
122.690490253588
 30
0.0
 40
1.0
100
AcDbArc
 50
308.6821874534895
 51
0.0
  0
ARC
  5
22E2
330
1A
100
AcDbEntity
  8
1
100
AcDbCircle
 10
385.1431942683154
 20
111.5679912543888
 30
0.0
 40
3.0
100
AcDbArc
 50
90.0
 51
180.0
  0
ARC
  5
22E3
330
1A
100
AcDbEntity
  8
1
100
AcDbCircle
 10
385.1431942683154
 20
115.5679912543888
 30
0.0
 40
1.0
100
AcDbArc
 50
270.0
 51
90.0
  0
ARC
  5
22E4
330
1A
100
AcDbEntity
  8
1
100
AcDbCircle
 10
385.1431942683154
 20
119.5679912543887
 30
0.0
 40
3.0
100
AcDbArc
 50
128.6821874534894
 51
270.0
  0
LINE
  5
22E5
330
1A
100
AcDbEntity
  8
1
100
AcDbLine
 10
383.6431942683154
 20
129.5679912543885
 30
0.0
 11
383.6431942683154
 21
127.5679912543886
 31
0.0
  0
LINE
  5
22E6
330
1A
100
AcDbEntity
  8
1
100
AcDbLine
 10
345.6431942683154
 20
84.56799125438868
 30
0.0
 11
345.6431942683154
 21
72.56799125438869
 31
0.0
  0
LINE
  5
22E8
330
1A
100
AcDbEntity
  8
1
100
AcDbLine
 10
459.1431942683154
 20
111.5679912543888
 30
0.0
 11
459.1431942683154
 21
107.5679912543888
 31
0.0
  0
LINE
  5
22EB
330
1A
100
AcDbEntity
  8
1
100
AcDbLine
 10
466.6431942683155
 20
105.5679912543887
 30
0.0
 11
464.6431942683156
 21
107.5679912543887
 31
0.0
  0
LINE
  5
22EC
330
1A
100
AcDbEntity
  8
1
100
AcDbLine
 10
466.6431942683155
 20
105.5679912543887
 30
0.0
 11
466.6431942683154
 21
84.56799125438875
 31
0.0
  0
LINE
  5
22EE
330
1A
100
AcDbEntity
  8
1
100
AcDbLine
 10
457.6431942683155
 20
125.5679912543886
 30
0.0
 11
457.6431942683155
 21
122.6904902535878
 31
0.0
  0
LINE
  5
22EF
330
1A
100
AcDbEntity
  8
1
100
AcDbLine
 10
459.6431942683154
 20
127.5679912543887
 30
0.0
 11
459.6431942683154
 21
125.5679912543887
 31
0.0
  0
LINE
  5
22F0
330
1A
100
AcDbEntity
  8
1
100
AcDbLine
 10
461.6431942683155
 20
149.5679912543886
 30
0.0
 11
458.6431942683154
 21
146.5679912543886
 31
0.0
  0
LINE
  5
22F1
330
1A
100
AcDbEntity
  8
1
100
AcDbLine
 10
458.6431942683154
 20
215.5679912543887
 30
0.0
 11
461.6431942683155
 21
212.5679912543886
 31
0.0
  0
LINE
  5
22F2
330
1A
100
AcDbEntity
  8
1
100
AcDbLine
 10
461.6431942683155
 20
212.5679912543887
 30
0.0
 11
461.6431942683155
 21
149.5679912543886
 31
0.0
  0
ARC
  5
22F3
330
1A
100
AcDbEntity
  8
1
100
AcDbCircle
 10
459.1431942683154
 20
217.0679912543887
 30
0.0
 40
0.5
100
AcDbArc
 50
90.00000000000651
 51
180.0
  0
ARC
  5
22F4
330
1A
100
AcDbEntity
  8
1
100
AcDbCircle
 10
459.1431942683154
 20
218.0679912543887
 30
0.0
 40
0.5
100
AcDbArc
 50
270.0
 51
0.0
  0
ARC
  5
22F5
330
1A
100
AcDbEntity
  8
1
100
AcDbCircle
 10
459.1431942683154
 20
145.0679912543885
 30
0.0
 40
0.5
100
AcDbArc
 50
180.0
 51
270.0
  0
ARC
  5
22F6
330
1A
100
AcDbEntity
  8
1
100
AcDbCircle
 10
459.1431942683154
 20
132.0174809971717
 30
0.0
 40
0.5
100
AcDbArc
 50
281.5369590328181
 51
0.0
  0
ARC
  5
22F7
330
1A
100
AcDbEntity
  8
1
100
AcDbCircle
 10
459.1431942683154
 20
144.0679912543886
 30
0.0
 40
0.5
100
AcDbArc
 50
0.0
 51
90.0
  0
ARC
  5
22F8
330
1A
100
AcDbEntity
  8
1
100
AcDbCircle
 10
459.6431942683154
 20
129.5679912543886
 30
0.0
 40
2.0
100
AcDbArc
 50
101.5369590328147
 51
180.0
  0
LINE
  5
22F9
330
1A
100
AcDbEntity
  8
1
100
AcDbLine
 10
458.6431942683154
 20
217.0679912543887
 30
0.0
 11
458.6431942683154
 21
145.0679912543885
 31
0.0
  0
LINE
  5
22FA
330
1A
100
AcDbEntity
  8
1
100
AcDbLine
 10
459.6431942683154
 20
144.0679912543886
 30
0.0
 11
459.6431942683154
 21
132.0174809971717
 31
0.0
  0
ARC
  5
22FB
330
1A
100
AcDbEntity
  8
1
100
AcDbCircle
 10
458.6431942683154
 20
122.6904902535878
 30
0.0
 40
1.0
100
AcDbArc
 50
180.0
 51
231.3178125465105
  0
ARC
  5
22FC
330
1A
100
AcDbEntity
  8
1
100
AcDbCircle
 10
456.1431942683155
 20
119.5679912543887
 30
0.0
 40
2.999999999999943
100
AcDbArc
 50
270.0
 51
51.31781254651052
  0
ARC
  5
22FD
330
1A
100
AcDbEntity
  8
1
100
AcDbCircle
 10
456.1431942683155
 20
115.5679912543887
 30
0.0
 40
1.0
100
AcDbArc
 50
90.0
 51
270.0
  0
ARC
  5
22FE
330
1A
100
AcDbEntity
  8
1
100
AcDbCircle
 10
456.1431942683155
 20
111.5679912543887
 30
0.0
 40
3.0
100
AcDbArc
 50
0.0
 51
90.0
  0
LINE
  5
22FF
330
1A
100
AcDbEntity
  8
1
100
AcDbLine
 10
457.6431942683155
 20
129.5679912543886
 30
0.0
 11
457.6431942683155
 21
127.5679912543887
 31
0.0
  0
LINE
  5
2300
330
1A
100
AcDbEntity
  8
1
100
AcDbLine
 10
495.6431942683154
 20
84.56799125438875
 30
0.0
 11
495.6431942683154
 21
72.56799125438869
 31
0.0
  0
LINE
  5
2301
330
1A
100
AcDbEntity
  8
1
100
AcDbLine
 10
376.6431942683155
 20
265.5679912543886
 30
0.0
 11
464.6431942683155
 21
265.5679912543887
 31
0.0
  0
LINE
  5
2302
330
1A
100
AcDbEntity
  8
1
100
AcDbLine
 10
374.6431942683155
 20
267.5679912543886
 30
0.0
 11
404.3030596299471
 21
267.5679912543886
 31
0.0
  0
LINE
  5
2304
330
1A
100
AcDbEntity
  8
1
100
AcDbLine
 10
345.6431942683154
 20
300.5679912543886
 30
0.0
 11
495.6431942683154
 21
300.5679912543886
 31
0.0
  0
LINE
  5
2305
330
1A
100
AcDbEntity
  8
1
100
AcDbLine
 10
345.6431942683154
 20
288.5679912543887
 30
0.0
 11
495.6431942683154
 21
288.5679912543887
 31
0.0
  0
LINE
  5
2307
330
1A
100
AcDbEntity
  8
1
100
AcDbLine
 10
390.6431942683155
 20
258.5679912543886
 30
0.0
 11
450.6431942683154
 21
258.5679912543887
 31
0.0
  0
LINE
  5
2308
330
1A
100
AcDbEntity
  8
1
100
AcDbLine
 10
390.6431942683155
 20
256.5679912543886
 30
0.0
 11
450.6431942683154
 21
256.5679912543887
 31
0.0
  0
LINE
  5
2309
330
1A
100
AcDbEntity
  8
1
100
AcDbLine
 10
390.6431942683155
 20
250.5679912543886
 30
0.0
 11
450.6431942683154
 21
250.5679912543887
 31
0.0
  0
LINE
  5
230A
330
1A
100
AcDbEntity
  8
1
100
AcDbLine
 10
374.6431942683154
 20
241.5679912543885
 30
0.0
 11
457.6431942683155
 21
241.5679912543887
 31
0.0
  0
LINE
  5
230B
330
1A
100
AcDbEntity
  8
1
100
AcDbLine
 10
387.6431942683154
 20
265.5679912543886
 30
0.0
 11
387.6431942683154
 21
261.5679912543886
 31
0.0
  0
LINE
  5
230C
330
1A
100
AcDbEntity
  8
1
100
AcDbLine
 10
374.6431942683155
 20
267.5679912543886
 30
0.0
 11
376.6431942683155
 21
265.5679912543886
 31
0.0
  0
LINE
  5
230D
330
1A
100
AcDbEntity
  8
1
100
AcDbLine
 10
374.6431942683154
 20
288.5679912543888
 30
0.0
 11
374.6431942683155
 21
267.5679912543886
 31
0.0
  0
ARC
  5
2311
330
1A
100
AcDbEntity
  8
1
100
AcDbCircle
 10
374.6431942683154
 20
229.5679912543885
 30
0.0
 40
2.0
100
AcDbArc
 50
180.0
 51
270.0
  0
ARC
  5
2312
330
1A
100
AcDbEntity
  8
1
100
AcDbCircle
 10
374.6431942683154
 20
239.5679912543885
 30
0.0
 40
2.0
100
AcDbArc
 50
90.0
 51
180.0
  0
LINE
  5
2313
330
1A
100
AcDbEntity
  8
1
100
AcDbLine
 10
374.6431942683154
 20
227.5679912543885
 30
0.0
 11
375.6431942683154
 21
227.5679912543884
 31
0.0
  0
LINE
  5
2314
330
1A
100
AcDbEntity
  8
1
100
AcDbLine
 10
372.6431942683154
 20
239.5679912543885
 30
0.0
 11
372.6431942683154
 21
229.5679912543885
 31
0.0
  0
ARC
  5
2315
330
1A
100
AcDbEntity
  8
1
100
AcDbCircle
 10
379.6431942683154
 20
239.5679912543886
 30
0.0
 40
2.0
100
AcDbArc
 50
90.0
 51
180.0
  0
ARC
  5
2316
330
1A
100
AcDbEntity
  8
1
100
AcDbCircle
 10
393.6431942683154
 20
248.5679912543886
 30
0.0
 40
2.0
100
AcDbArc
 50
0.0
 51
90.0
  0
ARC
  5
2317
330
1A
100
AcDbEntity
  8
1
100
AcDbCircle
 10
393.6431942683154
 20
243.5679912543886
 30
0.0
 40
2.0
100
AcDbArc
 50
270.0
 51
0.0
  0
LINE
  5
2318
330
1A
100
AcDbEntity
  8
1
100
AcDbLine
 10
395.6431942683154
 20
248.5679912543886
 30
0.0
 11
395.6431942683154
 21
243.5679912543886
 31
0.0
  0
ARC
  5
2319
330
1A
100
AcDbEntity
  8
1
100
AcDbCircle
 10
390.6431942683155
 20
253.5679912543886
 30
0.0
 40
3.0
100
AcDbArc
 50
90.0
 51
270.0
  0
ARC
  5
231A
330
1A
100
AcDbEntity
  8
1
100
AcDbCircle
 10
390.6431942683155
 20
257.5679912543886
 30
0.0
 40
1.0
100
AcDbArc
 50
270.0
 51
90.0
  0
ARC
  5
231B
330
1A
100
AcDbEntity
  8
1
100
AcDbCircle
 10
390.6431942683155
 20
261.5679912543886
 30
0.0
 40
3.0
100
AcDbArc
 50
180.0
 51
270.0
  0
LINE
  5
231C
330
1A
100
AcDbEntity
  8
1
100
AcDbLine
 10
345.6431942683154
 20
300.5679912543887
 30
0.0
 11
345.6431942683154
 21
288.5679912543887
 31
0.0
  0
LINE
  5
231E
330
1A
100
AcDbEntity
  8
1
100
AcDbLine
 10
453.6431942683154
 20
265.5679912543887
 30
0.0
 11
453.6431942683154
 21
261.5679912543887
 31
0.0
  0
LINE
  5
2321
330
1A
100
AcDbEntity
  8
1
100
AcDbLine
 10
466.6431942683154
 20
267.5679912543887
 30
0.0
 11
464.6431942683155
 21
265.5679912543887
 31
0.0
  0
LINE
  5
2322
330
1A
100
AcDbEntity
  8
1
100
AcDbLine
 10
466.6431942683154
 20
288.5679912543888
 30
0.0
 11
466.6431942683154
 21
267.5679912543887
 31
0.0
  0
LINE
  5
2325
330
1A
100
AcDbEntity
  8
1
100
AcDbLine
 10
495.6431942683154
 20
300.5679912543885
 30
0.0
 11
495.6431942683155
 21
288.5679912543887
 31
0.0
  0
ARC
  5
232C
330
1A
100
AcDbEntity
  8
1
100
AcDbCircle
 10
457.6431942683155
 20
239.5679912543887
 30
0.0
 40
2.0
100
AcDbArc
 50
0.0
 51
90.0
  0
ARC
  5
232D
330
1A
100
AcDbEntity
  8
1
100
AcDbCircle
 10
447.6431942683155
 20
243.5679912543887
 30
0.0
 40
2.0
100
AcDbArc
 50
180.0
 51
270.0
  0
ARC
  5
232E
330
1A
100
AcDbEntity
  8
1
100
AcDbCircle
 10
447.6431942683155
 20
248.5679912543887
 30
0.0
 40
2.0
100
AcDbArc
 50
90.0
 51
180.0
  0
LINE
  5
232F
330
1A
100
AcDbEntity
  8
1
100
AcDbLine
 10
445.6431942683154
 20
248.5679912543887
 30
0.0
 11
445.6431942683154
 21
243.5679912543886
 31
0.0
  0
ARC
  5
2330
330
1A
100
AcDbEntity
  8
1
100
AcDbCircle
 10
450.6431942683154
 20
253.5679912543887
 30
0.0
 40
3.0
100
AcDbArc
 50
270.0
 51
90.0
  0
ARC
  5
2331
330
1A
100
AcDbEntity
  8
1
100
AcDbCircle
 10
450.6431942683154
 20
257.5679912543887
 30
0.0
 40
1.0
100
AcDbArc
 50
90.0
 51
270.0
  0
ARC
  5
2332
330
1A
100
AcDbEntity
  8
1
100
AcDbCircle
 10
450.6431942683154
 20
261.5679912543887
 30
0.0
 40
3.0
100
AcDbArc
 50
270.0
 51
0.0
  0
LINE
  5
2A2D
330
1A
100
AcDbEntity
  8
CENTER
 48
10.0
100
AcDbLine
 10
205.4134759531082
 20
198.5679912543885
 30
0.0
 11
136.2039254203675
 21
198.5679912543885
 31
0.0
  0
LINE
  5
2BBC
330
1A
100
AcDbEntity
  8
1
100
AcDbLine
 10
436.9833289066838
 20
288.5679912543888
 30
0.0
 11
436.9833289066837
 21
267.5679912543886
 31
0.0
  0
LINE
  5
2BBF
330
1A
100
AcDbEntity
  8
1
100
AcDbLine
 10
404.3030596299472
 20
288.5679912543888
 30
0.0
 11
404.3030596299471
 21
267.5679912543886
 31
0.0
  0
LINE
  5
2BC0
330
1A
100
AcDbEntity
  8
1
100
AcDbLine
 10
404.3030596299473
 20
105.5679912543888
 30
0.0
 11
404.3030596299472
 21
84.56799125438877
 31
0.0
  0
LINE
  5
2BC1
330
1A
100
AcDbEntity
  8
1
100
AcDbLine
 10
436.9833289066837
 20
105.5679912543887
 30
0.0
 11
436.9833289066837
 21
84.56799125438877
 31
0.0
  0
LINE
  5
2BC2
330
1A
100
AcDbEntity
  8
1
100
AcDbLine
 10
436.9833289066837
 20
105.5679912543887
 30
0.0
 11
466.6431942683155
 21
105.5679912543887
 31
0.0
  0
LINE
  5
2BC3
330
1A
100
AcDbEntity
  8
1
100
AcDbLine
 10
436.9833289066837
 20
267.5679912543886
 30
0.0
 11
466.6431942683154
 21
267.5679912543887
 31
0.0
  0
LINE
  5
2BC4
330
1A
100
AcDbEntity
  8
1
100
AcDbLine
 10
404.3030596299471
 20
267.5679912543886
 30
0.0
 11
411.3158152152266
 21
265.5679912543886
 31
0.0
  0
LINE
  5
2BC5
330
1A
100
AcDbEntity
  8
1
100
AcDbLine
 10
436.9833289066837
 20
267.5679912543886
 30
0.0
 11
429.9705733214046
 21
265.5679912543886
 31
0.0
  0
LINE
  5
2BC6
330
1A
100
AcDbEntity
  8
1
100
AcDbLine
 10
404.3030596299473
 20
105.5679912543888
 30
0.0
 11
411.3158152152264
 21
107.5679912543888
 31
0.0
  0
LINE
  5
2BC7
330
1A
100
AcDbEntity
  8
1
100
AcDbLine
 10
436.9833289066837
 20
105.5679912543887
 30
0.0
 11
429.9705733214044
 21
107.5679912543887
 31
0.0
  0
LINE
  5
2BC8
330
1A
100
AcDbEntity
  8
1
 62
     9
100
AcDbLine
 10
404.3030596299472
 20
288.5679912543887
 30
0.0
 11
436.9833289066837
 21
267.5679912543886
 31
0.0
  0
LINE
  5
2BC9
330
1A
100
AcDbEntity
  8
1
 62
     9
100
AcDbLine
 10
436.9833289066838
 20
288.5679912543887
 30
0.0
 11
404.3030596299471
 21
267.5679912543886
 31
0.0
  0
LINE
  5
2BCA
330
1A
100
AcDbEntity
  8
1
 62
     9
100
AcDbLine
 10
404.3030596299473
 20
105.5679912543888
 30
0.0
 11
436.9833289066837
 21
84.56799125438877
 31
0.0
  0
LINE
  5
2BCB
330
1A
100
AcDbEntity
  8
1
 62
     9
100
AcDbLine
 10
436.9833289066837
 20
105.5679912543887
 30
0.0
 11
404.3030596299472
 21
84.56799125438877
 31
0.0
  0
VIEWPORT
  5
22
330
17
100
AcDbEntity
 67
     1
  8
0
100
AcDbViewport
 10
200.8314620813095
 20
138.9126163874948
 30
0.0
 40
503.2899471950828
 41
314.1477024293982
 68
     1
 69
     1
1001
ACAD
1000
MVIEW
1002
{
1070
    16
1010
0.0
1020
0.0
1030
0.0
1010
0.0
1020
0.0
1030
1.0
1040
0.0
1040
314.1477024293982
1040
200.8314620813095
1040
138.9126163874948
1040
50.0
1040
0.0
1040
0.0
1070
     0
1070
   100
1070
     1
1070
     0
1070
     0
1070
     0
1070
     0
1070
     0
1040
0.0
1040
0.0
1040
0.0
1040
1.0
1040
1.0
1040
10.0
1040
10.0
1070
     0
1002
{
1002
}
1002
}
  0
VIEWPORT
  5
2CF
330
17
100
AcDbEntity
 67
     1
  8
DEFPOINTS
100
AcDbViewport
 10
212.5
 20
149.4999999999999
 30
0.0
 40
384.9999999999999
 41
265.0
 68
     2
 69
     2
1001
ACAD
1000
MVIEW
1002
{
1070
    16
1010
0.0
1020
0.0
1030
0.0
1010
0.0
1020
0.0
1030
1.0
1040
0.0
1040
530.0000026756722
1040
291.0862027452929
1040
256.9869941604969
1040
50.0
1040
0.0
1040
0.0
1070
     0
1070
   100
1070
     1
1070
     0
1070
     0
1070
     0
1070
     0
1070
     1
1040
0.0
1040
0.0
1040
0.0
1040
168.0
1040
168.0
1040
0.0
1040
0.0
1070
     0
1002
{
1002
}
1002
}
  0
ENDSEC
  0
SECTION
  2
OBJECTS
  0
DICTIONARY
  5
C
330
0
100
AcDbDictionary
  3
ACAD_GROUP
350
D
  3
ACAD_LAYOUT
350
F3D
  3
ACAD_MLINESTYLE
350
E
  3
ACAD_PLOTSETTINGS
350
F3E
  3
ACAD_PLOTSTYLENAME
350
F3B
  3
ACADDIM
350
2939
  3
CONTENTDICTIONARY
350
234
  3
ACDBHEADERROUNDTRIPXREC
350
2D3A
  0
DICTIONARY
  5
F6B
330
1A
100
AcDbDictionary
280
     1
  3
ACAD_LAYOUTSELFREF
360
2D5B
  0
DICTIONARY
  5
F69
330
17
100
AcDbDictionary
280
     1
  3
ACAD_LAYOUTSELFREF
360
2D5A
  0
DICTIONARY
  5
D
102
{ACAD_REACTORS
330
C
102
}
330
C
100
AcDbDictionary
  3
*A1
350
36C
  3
*A2
350
377
  3
*A3
350
419
  3
*A4
350
41A
  3
*A5
350
621
  3
*A6
350
630
  3
*A7
350
682
  3
*A8
350
84A
  0
DICTIONARY
  5
F3D
102
{ACAD_REACTORS
330
C
102
}
330
C
100
AcDbDictionary
  0
DICTIONARY
  5
E
102
{ACAD_REACTORS
330
C
102
}
330
C
100
AcDbDictionary
  3
STANDARD
350
13
  0
DICTIONARY
  5
F3E
102
{ACAD_REACTORS
330
C
102
}
330
C
100
AcDbDictionary
  0
ACDBDICTIONARYWDFLT
  5
F3B
102
{ACAD_REACTORS
330
C
102
}
330
C
100
AcDbDictionary
281
     1
  3
Normal
350
F3C
100
AcDbDictionaryWithDefault
340
F3C
  0
XRECORD
  5
2939
102
{ACAD_REACTORS
330
C
102
}
330
C
100
AcDbXrecord
 90
   990106
  3

 60
     0
 61
     0
 62
     1
 63
     3
 64
     1
 65
     0
 66
     0
 67
     3
 68
     1
 69
     0
 70
     0
 71
     0
 72
     0
 40
0.0
170
     2
340
293F
  0
DICTIONARY
  5
234
102
{ACAD_REACTORS
330
C
102
}
330
C
100
AcDbDictionary
  0
DICTIONARY
  5
2D3A
102
{ACAD_REACTORS
330
C
102
}
330
C
100
AcDbDictionary
  3
TSTACKALIGN
350
2D3B
  3
TSTACKSIZE
350
2D3C
  3
HYPERLINKBASE
350
2D3D
  3
STYLESHEET
350
2D3E
  3
LAYOUTDICT
350
2D3F
  3
PLOTSETDICT
350
2D40
  3
PLOTSTYLNAMDICT
350
2D41
  3
LWETCUNION
350
2D42
  3
INSUNITS
350
2D43
  3
CEPSNTYPE
350
2D44
  3
FINGERPRINTGUID
350
2D45
  3
VERSIONGUID
350
2D46
  3
PSVPSCALE
350
2D47
  3
PUCSORTHOREF
350
2D48
  3
PUCSORTHOVIEW
350
2D49
  3
PUCSBASE
350
2D4A
  3
PUCSORGTOP
350
2D4B
  3
PUCSORGBOTTOM
350
2D4C
  3
PUCSORGLEFT
350
2D4D
  3
PUCSORGRIGHT
350
2D4E
  3
PUCSORGFRONT
350
2D4F
  3
PUCSORGBACK
350
2D50
  3
UCSORTHOREF
350
2D51
  3
UCSORTHOVIEW
350
2D52
  3
UCSBASE
350
2D53
  3
UCSORGTOP
350
2D54
  3
UCSORGBOTTOM
350
2D55
  3
UCSORGLEFT
350
2D56
  3
UCSORGRIGHT
350
2D57
  3
UCSORGFRONT
350
2D58
  3
UCSORGBACK
350
2D59
  0
XRECORD
  5
2D5B
102
{ACAD_REACTORS
330
F6B
102
}
330
F6B
100
AcDbXrecord
340
1A
  0
XRECORD
  5
2D5A
102
{ACAD_REACTORS
330
F69
102
}
330
F69
100
AcDbXrecord
340
17
  0
GROUP
  5
36C
102
{ACAD_REACTORS
330
D
102
}
330
D
100
AcDbGroup
300

 70
     1
 71
     1
  0
GROUP
  5
377
102
{ACAD_REACTORS
330
D
102
}
330
D
100
AcDbGroup
300

 70
     1
 71
     1
  0
GROUP
  5
419
102
{ACAD_REACTORS
330
D
102
}
330
D
100
AcDbGroup
300

 70
     1
 71
     1
  0
GROUP
  5
41A
102
{ACAD_REACTORS
330
D
102
}
330
D
100
AcDbGroup
300

 70
     1
 71
     1
  0
GROUP
  5
621
102
{ACAD_REACTORS
330
D
102
}
330
D
100
AcDbGroup
300

 70
     1
 71
     1
  0
GROUP
  5
630
102
{ACAD_REACTORS
330
D
102
}
330
D
100
AcDbGroup
300

 70
     1
 71
     1
  0
GROUP
  5
682
102
{ACAD_REACTORS
330
D
102
}
330
D
100
AcDbGroup
300

 70
     1
 71
     1
  0
GROUP
  5
84A
102
{ACAD_REACTORS
330
D
102
}
330
D
100
AcDbGroup
300

 70
     1
 71
     1
  0
MLINESTYLE
  5
13
102
{ACAD_REACTORS
330
E
102
}
330
E
100
AcDbMlineStyle
  2
STANDARD
 70
     0
  3

 62
     0
 51
90.0
 52
90.0
 71
     2
 49
0.5
 62
   256
  6
BYLAYER
 49
-0.5
 62
   256
  6
BYLAYER
  0
ACDBPLACEHOLDER
  5
F3C
102
{ACAD_REACTORS
330
F3B
102
}
330
F3B
100
AcDbPlaceHolder
280
     0
  0
XRECORD
  5
2D3B
102
{ACAD_REACTORS
330
2D3A
102
}
330
2D3A
100
AcDbXrecord
 90
        1
  0
XRECORD
  5
2D3C
102
{ACAD_REACTORS
330
2D3A
102
}
330
2D3A
100
AcDbXrecord
 90
       70
  0
XRECORD
  5
2D3D
102
{ACAD_REACTORS
330
2D3A
102
}
330
2D3A
100
AcDbXrecord
  1

  0
XRECORD
  5
2D3E
102
{ACAD_REACTORS
330
2D3A
102
}
330
2D3A
100
AcDbXrecord
  1

  0
XRECORD
  5
2D3F
102
{ACAD_REACTORS
330
2D3A
102
}
330
2D3A
100
AcDbXrecord
340
F3D
  0
XRECORD
  5
2D40
102
{ACAD_REACTORS
330
2D3A
102
}
330
2D3A
100
AcDbXrecord
340
F3E
  0
XRECORD
  5
2D41
102
{ACAD_REACTORS
330
2D3A
102
}
330
2D3A
100
AcDbXrecord
340
F3B
  0
XRECORD
  5
2D42
102
{ACAD_REACTORS
330
2D3A
102
}
330
2D3A
100
AcDbXrecord
 90
    10781
  0
XRECORD
  5
2D43
102
{ACAD_REACTORS
330
2D3A
102
}
330
2D3A
100
AcDbXrecord
 90
        0
  0
XRECORD
  5
2D44
102
{ACAD_REACTORS
330
2D3A
102
}
330
2D3A
100
AcDbXrecord
 90
        0
  0
XRECORD
  5
2D45
102
{ACAD_REACTORS
330
2D3A
102
}
330
2D3A
100
AcDbXrecord
  1
{792B2680-90AD-11D4-9803-00E029225608}
  0
XRECORD
  5
2D46
102
{ACAD_REACTORS
330
2D3A
102
}
330
2D3A
100
AcDbXrecord
  1
{C269A1F0-ED34-49F6-88ED-E7FC8CAA656C}
  0
XRECORD
  5
2D47
102
{ACAD_REACTORS
330
2D3A
102
}
330
2D3A
100
AcDbXrecord
 40
0.0
  0
XRECORD
  5
2D48
102
{ACAD_REACTORS
330
2D3A
102
}
330
2D3A
100
AcDbXrecord
340
0
  0
XRECORD
  5
2D49
102
{ACAD_REACTORS
330
2D3A
102
}
330
2D3A
100
AcDbXrecord
 70
     0
  0
XRECORD
  5
2D4A
102
{ACAD_REACTORS
330
2D3A
102
}
330
2D3A
100
AcDbXrecord
340
0
  0
XRECORD
  5
2D4B
102
{ACAD_REACTORS
330
2D3A
102
}
330
2D3A
100
AcDbXrecord
 10
0.0
 20
0.0
 30
0.0
  0
XRECORD
  5
2D4C
102
{ACAD_REACTORS
330
2D3A
102
}
330
2D3A
100
AcDbXrecord
 10
0.0
 20
0.0
 30
0.0
  0
XRECORD
  5
2D4D
102
{ACAD_REACTORS
330
2D3A
102
}
330
2D3A
100
AcDbXrecord
 10
0.0
 20
0.0
 30
0.0
  0
XRECORD
  5
2D4E
102
{ACAD_REACTORS
330
2D3A
102
}
330
2D3A
100
AcDbXrecord
 10
0.0
 20
0.0
 30
0.0
  0
XRECORD
  5
2D4F
102
{ACAD_REACTORS
330
2D3A
102
}
330
2D3A
100
AcDbXrecord
 10
0.0
 20
0.0
 30
0.0
  0
XRECORD
  5
2D50
102
{ACAD_REACTORS
330
2D3A
102
}
330
2D3A
100
AcDbXrecord
 10
0.0
 20
0.0
 30
0.0
  0
XRECORD
  5
2D51
102
{ACAD_REACTORS
330
2D3A
102
}
330
2D3A
100
AcDbXrecord
340
0
  0
XRECORD
  5
2D52
102
{ACAD_REACTORS
330
2D3A
102
}
330
2D3A
100
AcDbXrecord
 70
     0
  0
XRECORD
  5
2D53
102
{ACAD_REACTORS
330
2D3A
102
}
330
2D3A
100
AcDbXrecord
340
0
  0
XRECORD
  5
2D54
102
{ACAD_REACTORS
330
2D3A
102
}
330
2D3A
100
AcDbXrecord
 10
0.0
 20
0.0
 30
0.0
  0
XRECORD
  5
2D55
102
{ACAD_REACTORS
330
2D3A
102
}
330
2D3A
100
AcDbXrecord
 10
0.0
 20
0.0
 30
0.0
  0
XRECORD
  5
2D56
102
{ACAD_REACTORS
330
2D3A
102
}
330
2D3A
100
AcDbXrecord
 10
0.0
 20
0.0
 30
0.0
  0
XRECORD
  5
2D57
102
{ACAD_REACTORS
330
2D3A
102
}
330
2D3A
100
AcDbXrecord
 10
0.0
 20
0.0
 30
0.0
  0
XRECORD
  5
2D58
102
{ACAD_REACTORS
330
2D3A
102
}
330
2D3A
100
AcDbXrecord
 10
0.0
 20
0.0
 30
0.0
  0
XRECORD
  5
2D59
102
{ACAD_REACTORS
330
2D3A
102
}
330
2D3A
100
AcDbXrecord
 10
0.0
 20
0.0
 30
0.0
  0
ENDSEC
  0
EOF
