  0
SECTION
  2
HEADER
  9
$ACADVER
  1
AC1014
  9
$ACADMAINTVER
 70
     9
  9
$DWGCODEPAGE
  3
ANSI_932
  9
$INSBASE
 10
0.0
 20
0.0
 30
0.0
  9
$EXTMIN
 10
55.23083631835357
 20
56.64710223049064
 30
0.0
  9
$EXTMAX
 10
489.4096271519012
 20
457.327122311872
 30
0.0
  9
$LIMMIN
 10
0.0
 20
0.0
  9
$LIMMAX
 10
10000.0
 20
10000.0
  9
$ORTHOMODE
 70
     1
  9
$REGENMODE
 70
     1
  9
$FILLMODE
 70
     1
  9
$QTEXTMODE
 70
     0
  9
$MIRRTEXT
 70
     1
  9
$DRAGMODE
 70
     2
  9
$LTSCALE
 40
1.0
  9
$OSMODE
 70
    32
  9
$ATTMODE
 70
     1
  9
$TEXTSIZE
 40
3.5
  9
$TRACEWID
 40
1.0
  9
$TEXTSTYLE
  7
AD-STANDARD
  9
$CLAYER
  8
1
  9
$CELTYPE
  6
BYLAYER
  9
$CECOLOR
 62
   256
  9
$CELTSCALE
 40
1.0
  9
$DELOBJ
 70
     1
  9
$DISPSILH
 70
     0
  9
$DIMSCALE
 40
1.0
  9
$DIMASZ
 40
0.18
  9
$DIMEXO
 40
0.0625
  9
$DIMDLI
 40
0.38
  9
$DIMRND
 40
0.0
  9
$DIMDLE
 40
0.0
  9
$DIMEXE
 40
0.18
  9
$DIMTP
 40
0.0
  9
$DIMTM
 40
0.0
  9
$DIMTXT
 40
0.18
  9
$DIMCEN
 40
0.09
  9
$DIMTSZ
 40
0.0
  9
$DIMTOL
 70
     0
  9
$DIMLIM
 70
     0
  9
$DIMTIH
 70
     1
  9
$DIMTOH
 70
     1
  9
$DIMSE1
 70
     0
  9
$DIMSE2
 70
     0
  9
$DIMTAD
 70
     0
  9
$DIMZIN
 70
     0
  9
$DIMBLK
  1

  9
$DIMASO
 70
     1
  9
$DIMSHO
 70
     1
  9
$DIMPOST
  1

  9
$DIMAPOST
  1

  9
$DIMALT
 70
     0
  9
$DIMALTD
 70
     2
  9
$DIMALTF
 40
25.4
  9
$DIMLFAC
 40
1.0
  9
$DIMTOFL
 70
     0
  9
$DIMTVP
 40
0.0
  9
$DIMTIX
 70
     0
  9
$DIMSOXD
 70
     0
  9
$DIMSAH
 70
     0
  9
$DIMBLK1
  1

  9
$DIMBLK2
  1

  9
$DIMSTYLE
  2
STANDARD
  9
$DIMCLRD
 70
     0
  9
$DIMCLRE
 70
     0
  9
$DIMCLRT
 70
     0
  9
$DIMTFAC
 40
1.0
  9
$DIMGAP
 40
0.09
  9
$DIMJUST
 70
     0
  9
$DIMSD1
 70
     0
  9
$DIMSD2
 70
     0
  9
$DIMTOLJ
 70
     1
  9
$DIMTZIN
 70
     0
  9
$DIMALTZ
 70
     0
  9
$DIMALTTZ
 70
     0
  9
$DIMFIT
 70
     3
  9
$DIMUPT
 70
     0
  9
$DIMUNIT
 70
     2
  9
$DIMDEC
 70
     4
  9
$DIMTDEC
 70
     4
  9
$DIMALTU
 70
     2
  9
$DIMALTTD
 70
     2
  9
$DIMTXSTY
  7
STANDARD
  9
$DIMAUNIT
 70
     0
  9
$LUNITS
 70
     2
  9
$LUPREC
 70
     4
  9
$SKETCHINC
 40
1.0
  9
$FILLETRAD
 40
0.5
  9
$AUNITS
 70
     0
  9
$AUPREC
 70
     0
  9
$MENU
  1
.
  9
$ELEVATION
 40
0.0
  9
$PELEVATION
 40
0.0
  9
$THICKNESS
 40
0.0
  9
$LIMCHECK
 70
     0
  9
$BLIPMODE
 70
     0
  9
$CHAMFERA
 40
0.0
  9
$CHAMFERB
 40
0.0
  9
$CHAMFERC
 40
673.4006734006733
  9
$CHAMFERD
 40
0.0
  9
$SKPOLY
 70
     0
  9
$TDCREATE
 40
2451428.386184838
  9
$TDUPDATE
 40
2453992.457822928
  9
$TDINDWG
 40
1.4799510301
  9
$TDUSRTIMER
 40
1.4799510301
  9
$USRTIMER
 70
     1
  9
$ANGBASE
 50
0.0
  9
$ANGDIR
 70
     0
  9
$PDMODE
 70
     0
  9
$PDSIZE
 40
0.0
  9
$PLINEWID
 40
0.0
  9
$COORDS
 70
     1
  9
$SPLFRAME
 70
     0
  9
$SPLINETYPE
 70
     6
  9
$SPLINESEGS
 70
     8
  9
$ATTDIA
 70
     0
  9
$ATTREQ
 70
     1
  9
$HANDLING
 70
 10241
  9
$HANDSEED
  5
2278
  9
$SURFTAB1
 70
     6
  9
$SURFTAB2
 70
     6
  9
$SURFTYPE
 70
     6
  9
$SURFU
 70
     6
  9
$SURFV
 70
     6
  9
$UCSNAME
  2

  9
$UCSORG
 10
0.0
 20
0.0
 30
0.0
  9
$UCSXDIR
 10
1.0
 20
0.0
 30
0.0
  9
$UCSYDIR
 10
0.0
 20
1.0
 30
0.0
  9
$PUCSNAME
  2

  9
$PUCSORG
 10
0.0
 20
0.0
 30
0.0
  9
$PUCSXDIR
 10
1.0
 20
0.0
 30
0.0
  9
$PUCSYDIR
 10
0.0
 20
1.0
 30
0.0
  9
$USERI1
 70
     0
  9
$USERI2
 70
     0
  9
$USERI3
 70
     0
  9
$USERI4
 70
     0
  9
$USERI5
 70
     0
  9
$USERR1
 40
0.0
  9
$USERR2
 40
0.0
  9
$USERR3
 40
0.0
  9
$USERR4
 40
0.0
  9
$USERR5
 40
0.0
  9
$WORLDVIEW
 70
     1
  9
$SHADEDGE
 70
     3
  9
$SHADEDIF
 70
    70
  9
$TILEMODE
 70
     1
  9
$MAXACTVP
 70
    16
  9
$PINSBASE
 10
0.0
 20
0.0
 30
0.0
  9
$PLIMCHECK
 70
     0
  9
$PEXTMIN
 10
20.00000000000003
 20
16.99999999999994
 30
0.0
  9
$PEXTMAX
 10
404.9999999999998
 20
281.9999999999999
 30
0.0
  9
$PLIMMIN
 10
-5.873748779296875
 20
-5.873749732971191
  9
$PLIMMAX
 10
414.0729064941406
 20
291.0522451400757
  9
$UNITMODE
 70
     0
  9
$VISRETAIN
 70
     0
  9
$PLINEGEN
 70
     0
  9
$PSLTSCALE
 70
     0
  9
$TREEDEPTH
 70
  3020
  9
$PICKSTYLE
 70
     1
  9
$CMLSTYLE
  2
STANDARD
  9
$CMLJUST
 70
     0
  9
$CMLSCALE
 40
1.0
  9
$PROXYGRAPHICS
 70
     1
  9
$MEASUREMENT
 70
     1
  0
ENDSEC
  0
SECTION
  2
CLASSES
  0
CLASS
  1
LWPOLYLINE
  2
AcDbPolyline
  3
AutoCAD 2000
 90
        0
280
     0
281
     1
  0
CLASS
  1
OLE2FRAME
  2
AcDbOle2Frame
  3
AutoCAD 2000
 90
        0
280
     0
281
     1
  0
CLASS
  1
ACDBDICTIONARYWDFLT
  2
AcDbDictionaryWithDefault
  3
AutoCAD 2000
 90
        0
280
     0
281
     0
  0
CLASS
  1
ACDBPLACEHOLDER
  2
AcDbPlaceHolder
  3
AutoCAD 2000
 90
        0
280
     0
281
     0
  0
CLASS
  1
LAYOUT
  2
AcDbLayout
  3
AutoCAD 2000
 90
        0
280
     0
281
     0
  0
CLASS
  1
LONG_TRANSACTION
  2
AcDbLongTransaction
  3
AutoCAD 2000
 90
        0
280
     0
281
     0
  0
CLASS
  1
LWPOLYLINE
  2
AcDbPolyline
  3
AutoCAD 2000
 90
        0
280
     0
281
     1
  0
CLASS
  1
HATCH
  2
AcDbHatch
  3
AutoCAD 2000
 90
        0
280
     0
281
     1
  0
CLASS
  1
XRECORD
  2
AcDbXrecord
  3
AutoCAD 2000
 90
        0
280
     0
281
     0
  0
CLASS
  1
LONG_TRANSACTION
  2
AcDbLongTransaction
  3
AutoCAD 2000
 90
        0
280
     0
281
     0
  0
CLASS
  1
LWPOLYLINE
  2
AcDbPolyline
  3
AutoCAD 2000
 90
        0
280
     0
281
     1
  0
CLASS
  1
HATCH
  2
AcDbHatch
  3
AutoCAD 2000
 90
        0
280
     0
281
     1
  0
CLASS
  1
XRECORD
  2
AcDbXrecord
  3
AutoCAD 2000
 90
        0
280
     0
281
     0
  0
CLASS
  1
LONG_TRANSACTION
  2
AcDbLongTransaction
  3
AutoCAD 2000
 90
        0
280
     0
281
     0
  0
CLASS
  1
LWPOLYLINE
  2
AcDbPolyline
  3
AutoCAD 2000
 90
        0
280
     0
281
     1
  0
CLASS
  1
HATCH
  2
AcDbHatch
  3
AutoCAD 2000
 90
        0
280
     0
281
     1
  0
CLASS
  1
XRECORD
  2
AcDbXrecord
  3
AutoCAD 2000
 90
        0
280
     0
281
     0
  0
CLASS
  1
LONG_TRANSACTION
  2
AcDbLongTransaction
  3
AutoCAD 2000
 90
        0
280
     0
281
     0
  0
CLASS
  1
LWPOLYLINE
  2
AcDbPolyline
  3
AutoCAD 2000
 90
        0
280
     0
281
     1
  0
CLASS
  1
HATCH
  2
AcDbHatch
  3
AutoCAD 2000
 90
        0
280
     0
281
     1
  0
CLASS
  1
XRECORD
  2
AcDbXrecord
  3
AutoCAD 2000
 90
        0
280
     0
281
     0
  0
CLASS
  1
LONG_TRANSACTION
  2
AcDbLongTransaction
  3
AutoCAD 2000
 90
        0
280
     0
281
     0
  0
CLASS
  1
LWPOLYLINE
  2
AcDbPolyline
  3
AutoCAD 2000
 90
        0
280
     0
281
     1
  0
CLASS
  1
HATCH
  2
AcDbHatch
  3
AutoCAD 2000
 90
        0
280
     0
281
     1
  0
CLASS
  1
XRECORD
  2
AcDbXrecord
  3
AutoCAD 2000
 90
        0
280
     0
281
     0
  0
CLASS
  1
LONG_TRANSACTION
  2
AcDbLongTransaction
  3
AutoCAD 2000
 90
        0
280
     0
281
     0
  0
CLASS
  1
LWPOLYLINE
  2
AcDbPolyline
  3
AutoCAD 2000
 90
        0
280
     0
281
     1
  0
CLASS
  1
HATCH
  2
AcDbHatch
  3
AutoCAD 2000
 90
        0
280
     0
281
     1
  0
CLASS
  1
XRECORD
  2
AcDbXrecord
  3
AutoCAD 2000
 90
        0
280
     0
281
     0
  0
CLASS
  1
LONG_TRANSACTION
  2
AcDbLongTransaction
  3
AutoCAD 2000
 90
        0
280
     0
281
     0
  0
CLASS
  1
LWPOLYLINE
  2
AcDbPolyline
  3
AutoCAD 2000
 90
        0
280
     0
281
     1
  0
CLASS
  1
HATCH
  2
AcDbHatch
  3
AutoCAD 2000
 90
        0
280
     0
281
     1
  0
CLASS
  1
XRECORD
  2
AcDbXrecord
  3
AutoCAD 2000
 90
        0
280
     0
281
     0
  0
CLASS
  1
LONG_TRANSACTION
  2
AcDbLongTransaction
  3
AutoCAD 2000
 90
        0
280
     0
281
     0
  0
CLASS
  1
LWPOLYLINE
  2
AcDbPolyline
  3
AutoCAD 2000
 90
        0
280
     0
281
     1
  0
CLASS
  1
HATCH
  2
AcDbHatch
  3
AutoCAD 2000
 90
        0
280
     0
281
     1
  0
CLASS
  1
XRECORD
  2
AcDbXrecord
  3
AutoCAD 2000
 90
        0
280
     0
281
     0
  0
CLASS
  1
LONG_TRANSACTION
  2
AcDbLongTransaction
  3
AutoCAD 2000
 90
        0
280
     0
281
     0
  0
CLASS
  1
LWPOLYLINE
  2
AcDbPolyline
  3
AutoCAD 2000
 90
        0
280
     0
281
     1
  0
CLASS
  1
HATCH
  2
AcDbHatch
  3
AutoCAD 2000
 90
        0
280
     0
281
     1
  0
CLASS
  1
XRECORD
  2
AcDbXrecord
  3
AutoCAD 2000
 90
        0
280
     0
281
     0
  0
CLASS
  1
LONG_TRANSACTION
  2
AcDbLongTransaction
  3
AutoCAD 2000
 90
        0
280
     0
281
     0
  0
CLASS
  1
LWPOLYLINE
  2
AcDbPolyline
  3
AutoCAD 2000
 90
        0
280
     0
281
     1
  0
CLASS
  1
HATCH
  2
AcDbHatch
  3
AutoCAD 2000
 90
        0
280
     0
281
     1
  0
CLASS
  1
XRECORD
  2
AcDbXrecord
  3
AutoCAD 2000
 90
        0
280
     0
281
     0
  0
CLASS
  1
LONG_TRANSACTION
  2
AcDbLongTransaction
  3
AutoCAD 2000
 90
        0
280
     0
281
     0
  0
CLASS
  1
LWPOLYLINE
  2
AcDbPolyline
  3
AutoCAD 2000
 90
        0
280
     0
281
     1
  0
CLASS
  1
HATCH
  2
AcDbHatch
  3
AutoCAD 2000
 90
        0
280
     0
281
     1
  0
CLASS
  1
XRECORD
  2
AcDbXrecord
  3
AutoCAD 2000
 90
        0
280
     0
281
     0
  0
CLASS
  1
LONG_TRANSACTION
  2
AcDbLongTransaction
  3
AutoCAD 2000
 90
        0
280
     0
281
     0
  0
CLASS
  1
LWPOLYLINE
  2
AcDbPolyline
  3
AutoCAD 2000
 90
        0
280
     0
281
     1
  0
CLASS
  1
HATCH
  2
AcDbHatch
  3
AutoCAD 2000
 90
        0
280
     0
281
     1
  0
CLASS
  1
XRECORD
  2
AcDbXrecord
  3
AutoCAD 2000
 90
        0
280
     0
281
     0
  0
CLASS
  1
LONG_TRANSACTION
  2
AcDbLongTransaction
  3
AutoCAD 2000
 90
        0
280
     0
281
     0
  0
CLASS
  1
LWPOLYLINE
  2
AcDbPolyline
  3
AutoCAD 2000
 90
        0
280
     0
281
     1
  0
CLASS
  1
HATCH
  2
AcDbHatch
  3
AutoCAD 2000
 90
        0
280
     0
281
     1
  0
CLASS
  1
XRECORD
  2
AcDbXrecord
  3
AutoCAD 2000
 90
        0
280
     0
281
     0
  0
CLASS
  1
LONG_TRANSACTION
  2
AcDbLongTransaction
  3
AutoCAD 2000
 90
        0
280
     0
281
     0
  0
CLASS
  1
LWPOLYLINE
  2
AcDbPolyline
  3
AutoCAD 2000
 90
        0
280
     0
281
     1
  0
CLASS
  1
HATCH
  2
AcDbHatch
  3
AutoCAD 2000
 90
        0
280
     0
281
     1
  0
CLASS
  1
XRECORD
  2
AcDbXrecord
  3
AutoCAD 2000
 90
        0
280
     0
281
     0
  0
CLASS
  1
LONG_TRANSACTION
  2
AcDbLongTransaction
  3
AutoCAD 2000
 90
        0
280
     0
281
     0
  0
CLASS
  1
LWPOLYLINE
  2
AcDbPolyline
  3
AutoCAD 2000
 90
        0
280
     0
281
     1
  0
CLASS
  1
HATCH
  2
AcDbHatch
  3
AutoCAD 2000
 90
        0
280
     0
281
     1
  0
CLASS
  1
XRECORD
  2
AcDbXrecord
  3
AutoCAD 2000
 90
        0
280
     0
281
     0
  0
CLASS
  1
LONG_TRANSACTION
  2
AcDbLongTransaction
  3
AutoCAD 2000
 90
        0
280
     0
281
     0
  0
CLASS
  1
LWPOLYLINE
  2
AcDbPolyline
  3
AutoCAD 2000
 90
        0
280
     0
281
     1
  0
CLASS
  1
HATCH
  2
AcDbHatch
  3
AutoCAD 2000
 90
        0
280
     0
281
     1
  0
CLASS
  1
XRECORD
  2
AcDbXrecord
  3
AutoCAD 2000
 90
        0
280
     0
281
     0
  0
ENDSEC
  0
SECTION
  2
TABLES
  0
TABLE
  2
VPORT
  5
8
330
0
100
AcDbSymbolTable
 70
     5
  0
VPORT
  5
2255
330
8
100
AcDbSymbolTableRecord
100
AcDbViewportTableRecord
  2
*ACTIVE
 70
     0
 10
0.0
 20
0.0
 11
1.0
 21
1.0
 12
279.9279421714858
 22
216.2000068330615
 13
0.0
 23
0.0
 14
168.0
 24
168.0
 15
0.0
 25
0.0
 16
0.0
 26
0.0
 36
1.0
 17
0.0
 27
0.0
 37
0.0
 40
793.9868746442247
 41
1.602080624187256
 42
50.0
 43
0.0
 44
0.0
 50
0.0
 51
0.0
 71
     0
 72
   100
 73
     1
 74
     0
 75
     0
 76
     0
 77
     0
 78
     1
  0
ENDTAB
  0
TABLE
  2
LTYPE
  5
5
330
0
100
AcDbSymbolTable
 70
     4
  0
LTYPE
  5
14
330
5
100
AcDbSymbolTableRecord
100
AcDbLinetypeTableRecord
  2
BYBLOCK
 70
     0
  3

 72
    65
 73
     0
 40
0.0
  0
LTYPE
  5
15
330
5
100
AcDbSymbolTableRecord
100
AcDbLinetypeTableRecord
  2
BYLAYER
 70
     0
  3

 72
    65
 73
     0
 40
0.0
  0
LTYPE
  5
16
330
5
100
AcDbSymbolTableRecord
100
AcDbLinetypeTableRecord
  2
CONTINUOUS
 70
     0
  3
Solid line
 72
    65
 73
     0
 40
0.0
  0
LTYPE
  5
6E
330
5
100
AcDbSymbolTableRecord
100
AcDbLinetypeTableRecord
  2
CENTER
 70
     0
  3
____ _ ____ _ ____ _ ____ _ ____ _ ____ _ ____ 
 72
    65
 73
     4
 40
2.0
 49
1.25
 74
     0
 49
-0.25
 74
     0
 49
0.25
 74
     0
 49
-0.25
 74
     0
  0
ENDTAB
  0
TABLE
  2
LAYER
  5
2
330
0
100
AcDbSymbolTable
 70
     6
  0
LAYER
  5
F
330
2
100
AcDbSymbolTableRecord
100
AcDbLayerTableRecord
  2
0
 70
     0
 62
     7
  6
CONTINUOUS
  0
LAYER
  5
72
330
2
100
AcDbSymbolTableRecord
100
AcDbLayerTableRecord
  2
DEFPOINTS
 70
     0
 62
     7
  6
CONTINUOUS
  0
LAYER
  5
74
330
2
100
AcDbSymbolTableRecord
100
AcDbLayerTableRecord
  2
CENTER
 70
     0
 62
     9
  6
CENTER
  0
LAYER
  5
2225
330
2
100
AcDbSymbolTableRecord
100
AcDbLayerTableRecord
  2
1
 70
     0
 62
     7
  6
CONTINUOUS
  0
ENDTAB
  0
TABLE
  2
STYLE
  5
3
330
0
100
AcDbSymbolTable
 70
     5
  0
STYLE
  5
10
330
3
100
AcDbSymbolTableRecord
100
AcDbTextStyleTableRecord
  2
STANDARD
 70
     0
 40
0.0
 41
0.8
 50
0.0
 71
     0
 42
84.17508417508416
  3
TXT
  4
bigfont.shx
  0
STYLE
  5
63
330
3
100
AcDbSymbolTableRecord
100
AcDbTextStyleTableRecord
  2
AD-STANDARD
 70
     0
 40
0.0
 41
0.8
 50
0.0
 71
     0
 42
3.5
  3
C:\Program Files\AutoCAD LT\romans.shx
  4
bigfont.shx
  0
ENDTAB
  0
TABLE
  2
VIEW
  5
6
330
0
100
AcDbSymbolTable
 70
     0
  0
ENDTAB
  0
TABLE
  2
UCS
  5
7
330
0
100
AcDbSymbolTable
 70
     0
  0
ENDTAB
  0
TABLE
  2
APPID
  5
9
330
0
100
AcDbSymbolTable
 70
     5
  0
APPID
  5
11
330
9
100
AcDbSymbolTableRecord
100
AcDbRegAppTableRecord
  2
ACAD
 70
     0
  0
APPID
  5
22A
330
9
100
AcDbSymbolTableRecord
100
AcDbRegAppTableRecord
  2
CONTENTTABDATA
 70
     0
  0
APPID
  5
22B
330
9
100
AcDbSymbolTableRecord
100
AcDbRegAppTableRecord
  2
CONTENTCURRENTTAB
 70
     0
  0
APPID
  5
232
330
9
100
AcDbSymbolTableRecord
100
AcDbRegAppTableRecord
  2
CONTENTBLOCKDESCRIPTION
 70
     0
  0
APPID
  5
233
330
9
100
AcDbSymbolTableRecord
100
AcDbRegAppTableRecord
  2
CONTENTBLOCKICON
 70
     0
  0
ENDTAB
  0
TABLE
  2
DIMSTYLE
  5
A
330
0
100
AcDbSymbolTable
 70
     2
  0
DIMSTYLE
105
1D
330
A
100
AcDbSymbolTableRecord
100
AcDbDimStyleTableRecord
  2
STANDARD
 70
     0
  3

  4

  5

  6

  7

 40
1.0
 41
0.18
 42
0.0625
 43
0.38
 44
0.18
 45
0.0
 46
0.0
 47
0.0
 48
0.0
140
0.18
141
0.09
142
0.0
143
25.4
144
1.0
145
0.0
146
1.0
147
0.09
 71
     0
 72
     0
 73
     1
 74
     1
 75
     0
 76
     0
 77
     0
 78
     0
170
     0
171
     2
172
     0
173
     0
174
     0
175
     0
176
     0
177
     0
178
     0
270
     2
271
     4
272
     4
273
     2
274
     2
340
10
275
     0
280
     0
281
     0
282
     0
283
     1
284
     0
285
     0
286
     0
287
     3
288
     0
  0
ENDTAB
  0
TABLE
  2
BLOCK_RECORD
  5
1
330
0
100
AcDbSymbolTable
 70
    20
  0
BLOCK_RECORD
  5
1A
102
{ACAD_XDICTIONARY
360
F6B
102
}
330
1
100
AcDbSymbolTableRecord
100
AcDbBlockTableRecord
  2
*MODEL_SPACE
  0
BLOCK_RECORD
  5
17
102
{ACAD_XDICTIONARY
360
F69
102
}
330
1
100
AcDbSymbolTableRecord
100
AcDbBlockTableRecord
  2
*PAPER_SPACE
  0
ENDTAB
  0
ENDSEC
  0
SECTION
  2
BLOCKS
  0
BLOCK
  5
1B
330
1A
100
AcDbEntity
  8
0
100
AcDbBlockBegin
  2
*MODEL_SPACE
 70
     0
 10
0.0
 20
0.0
 30
0.0
  3
*MODEL_SPACE
  1

  0
ENDBLK
  5
1C
330
1A
100
AcDbEntity
  8
0
100
AcDbBlockEnd
  0
BLOCK
  5
18
330
17
100
AcDbEntity
 67
     1
  8
0
100
AcDbBlockBegin
  2
*PAPER_SPACE
 70
     0
 10
0.0
 20
0.0
 30
0.0
  3
*PAPER_SPACE
  1

  0
ENDBLK
  5
19
330
17
100
AcDbEntity
 67
     1
  8
0
100
AcDbBlockEnd
  0
ENDSEC
  0
SECTION
  2
ENTITIES
  0
LINE
  5
18D9
330
1A
100
AcDbEntity
  8
CENTER
 48
10.0
100
AcDbLine
 10
165.2746403269386
 20
457.327122311872
 30
0.0
 11
165.2746403269386
 21
60.53935007997029
 31
0.0
  0
LINE
  5
18DA
330
1A
100
AcDbEntity
  8
1
100
AcDbLine
 10
65.27464032693774
 20
449.8182655502071
 30
0.0
 11
65.27464032693774
 21
299.8182655502062
 31
0.0
  0
LINE
  5
18DB
330
1A
100
AcDbEntity
  8
1
100
AcDbLine
 10
265.2746403269377
 20
449.8182655502071
 30
0.0
 11
265.2746403269377
 21
299.8182655502062
 31
0.0
  0
ARC
  5
18DE
330
1A
100
AcDbEntity
  8
1
100
AcDbCircle
 10
165.2746403269386
 20
374.8182655502062
 30
0.0
 40
50.0
100
AcDbArc
 50
31.17883553863693
 51
328.821164461363
  0
LINE
  5
18DF
330
1A
100
AcDbEntity
  8
1
100
AcDbLine
 10
208.7746403269386
 20
398.1152610646497
 30
0.0
 11
208.7746403269386
 21
351.5212700357635
 31
0.0
  0
LINE
  5
18E0
330
1A
100
AcDbEntity
  8
1
100
AcDbLine
 10
208.2746403269386
 20
398.3129457991474
 30
0.0
 11
208.2746403269386
 21
351.3235853012649
 31
0.0
  0
ARC
  5
18E1
330
1A
100
AcDbEntity
  8
1
100
AcDbCircle
 10
165.2746403269386
 20
374.8182655502062
 30
0.0
 40
49.0
100
AcDbArc
 50
28.6516590280219
 51
331.348340971978
  0
LINE
  5
18E2
330
1A
100
AcDbEntity
  8
1
100
AcDbLine
 10
65.27464032693774
 20
299.8182655502062
 30
0.0
 11
265.2746403269377
 21
299.8182655502052
 31
0.0
  0
CIRCLE
  5
18E3
330
1A
100
AcDbEntity
  8
1
100
AcDbCircle
 10
235.2746403269377
 20
324.8182655502052
 30
0.0
 40
10.0
  0
LINE
  5
18E4
330
1A
100
AcDbEntity
  8
CENTER
 62
     9
100
AcDbLine
 10
231.2746403269377
 20
324.8182655502052
 30
0.0
 11
239.2746403269377
 21
324.8182655502052
 31
0.0
  0
LINE
  5
18E5
330
1A
100
AcDbEntity
  8
1
100
AcDbLine
 10
65.27464032693774
 20
250.729870806613
 30
0.0
 11
265.2746403269386
 21
250.729870806613
 31
0.0
  0
LINE
  5
18E6
330
1A
100
AcDbEntity
  8
1
100
AcDbLine
 10
65.27464032693774
 20
262.7298708066148
 30
0.0
 11
265.2746403269386
 21
262.7298708066139
 31
0.0
  0
LINE
  5
18E7
330
1A
100
AcDbEntity
  8
1
100
AcDbLine
 10
65.27464032693774
 20
75.72987080661391
 30
0.0
 11
265.2746403269386
 21
75.72987080661391
 31
0.0
  0
LINE
  5
18E8
330
1A
100
AcDbEntity
  8
1
100
AcDbLine
 10
65.27464032693865
 20
63.72987080661483
 30
0.0
 11
265.2746403269386
 21
63.72987080661392
 31
0.0
  0
CIRCLE
  5
18EB
330
1A
100
AcDbEntity
  8
1
100
AcDbCircle
 10
165.2746403269386
 20
167.7298708066139
 30
0.0
 40
5.5
  0
CIRCLE
  5
18EC
330
1A
100
AcDbEntity
  8
1
100
AcDbCircle
 10
165.2746403269386
 20
167.7298708066139
 30
0.0
 40
8.0
  0
CIRCLE
  5
18ED
330
1A
100
AcDbEntity
  8
1
100
AcDbCircle
 10
165.2746403269386
 20
167.7298708066139
 30
0.0
 40
10.0
  0
CIRCLE
  5
18EE
330
1A
100
AcDbEntity
  8
1
100
AcDbCircle
 10
165.2746403269386
 20
167.7298708066139
 30
0.0
 40
11.0
  0
CIRCLE
  5
18EF
330
1A
100
AcDbEntity
  8
1
100
AcDbCircle
 10
165.2746403269386
 20
167.7298708066139
 30
0.0
 40
21.0
  0
CIRCLE
  5
18F0
330
1A
100
AcDbEntity
  8
1
100
AcDbCircle
 10
165.2746403269386
 20
167.7298708066139
 30
0.0
 40
25.0
  0
LINE
  5
18F1
330
1A
100
AcDbEntity
  8
1
100
AcDbLine
 10
137.2746403269386
 20
183.2298708066148
 30
0.0
 11
137.2746403269377
 21
134.2298708066139
 31
0.0
  0
LINE
  5
18F2
330
1A
100
AcDbEntity
  8
1
100
AcDbLine
 10
193.2746403269377
 20
183.2298708066139
 30
0.0
 11
193.2746403269377
 21
134.2298708066139
 31
0.0
  0
LINE
  5
18F3
330
1A
100
AcDbEntity
  8
1
100
AcDbLine
 10
119.2746403269377
 20
95.72987080661301
 30
0.0
 11
208.2746403269386
 21
95.72987080661301
 31
0.0
  0
LINE
  5
18F4
330
1A
100
AcDbEntity
  8
1
100
AcDbLine
 10
121.2746403269377
 20
97.72987080661302
 30
0.0
 11
208.2746403269386
 21
97.72987080661302
 31
0.0
  0
LINE
  5
18F5
330
1A
100
AcDbEntity
  8
CENTER
 48
10.0
100
AcDbLine
 10
101.3167798414353
 20
167.7298708066139
 30
0.0
 11
237.4102717013991
 21
167.7298708066139
 31
0.0
  0
LINE
  5
18F6
330
1A
100
AcDbEntity
  8
1
100
AcDbLine
 10
119.2746403269377
 20
95.72987080661301
 30
0.0
 11
119.2746403269386
 21
75.72987080661391
 31
0.0
  0
LINE
  5
18F7
330
1A
100
AcDbEntity
  8
1
100
AcDbLine
 10
119.2746403269377
 20
95.72987080661301
 30
0.0
 11
121.2746403269377
 21
97.72987080661302
 31
0.0
  0
LINE
  5
18F8
330
1A
100
AcDbEntity
  8
1
100
AcDbLine
 10
65.27464032693774
 20
75.72987080661301
 30
0.0
 11
65.27464032693865
 21
63.729870806613
 31
0.0
  0
LINE
  5
18F9
330
1A
100
AcDbEntity
  8
1
100
AcDbLine
 10
208.2746403269386
 20
97.72987080661302
 30
0.0
 11
208.2746403269386
 21
75.72987080661391
 31
0.0
  0
ARC
  5
18FA
330
1A
100
AcDbEntity
  8
1
100
AcDbCircle
 10
190.2746403269386
 20
98.22987080661391
 30
0.0
 40
3.0
100
AcDbArc
 50
0.0
 51
90.0
  0
LINE
  5
18FB
330
1A
100
AcDbEntity
  8
1
100
AcDbLine
 10
193.2746403269386
 20
98.22987080661391
 30
0.0
 11
193.2746403269386
 21
97.72987080661392
 31
0.0
  0
LINE
  5
18FC
330
1A
100
AcDbEntity
  8
1
100
AcDbLine
 10
137.2746403269386
 20
98.22987080661391
 30
0.0
 11
137.2746403269386
 21
97.72987080661392
 31
0.0
  0
ARC
  5
18FD
330
1A
100
AcDbEntity
  8
1
100
AcDbCircle
 10
140.2746403269386
 20
98.22987080661391
 30
0.0
 40
3.0
100
AcDbArc
 50
90.0
 51
180.0
  0
LINE
  5
18FE
330
1A
100
AcDbEntity
  8
1
100
AcDbLine
 10
192.2746403269377
 20
115.729870806613
 30
0.0
 11
192.2746403269386
 21
109.2298708066148
 31
0.0
  0
LINE
  5
18FF
330
1A
100
AcDbEntity
  8
1
100
AcDbLine
 10
138.2746403269386
 20
115.7298708066148
 30
0.0
 11
138.2746403269386
 21
109.229870806613
 31
0.0
  0
LINE
  5
1900
330
1A
100
AcDbEntity
  8
1
100
AcDbLine
 10
194.2746403269386
 20
117.7298708066139
 30
0.0
 11
194.2746403269395
 21
115.729870806613
 31
0.0
  0
LINE
  5
1901
330
1A
100
AcDbEntity
  8
1
100
AcDbLine
 10
136.2746403269386
 20
117.7298708066157
 30
0.0
 11
136.2746403269386
 21
115.7298708066148
 31
0.0
  0
LINE
  5
1902
330
1A
100
AcDbEntity
  8
1
100
AcDbLine
 10
136.2746403269386
 20
115.7298708066157
 30
0.0
 11
194.2746403269386
 21
115.7298708066139
 31
0.0
  0
LINE
  5
1903
330
1A
100
AcDbEntity
  8
1
100
AcDbLine
 10
136.2746403269386
 20
117.7298708066157
 30
0.0
 11
194.2746403269386
 21
117.7298708066139
 31
0.0
  0
CIRCLE
  5
1905
330
1A
100
AcDbEntity
  8
1
100
AcDbCircle
 10
181.2746403269386
 20
167.7298708066139
 30
0.0
 40
1.732050807568697
  0
CIRCLE
  5
1906
330
1A
100
AcDbEntity
  8
1
100
AcDbCircle
 10
149.2746403269386
 20
167.7298708066139
 30
0.0
 40
1.732050807569066
  0
LWPOLYLINE
  5
1907
330
1A
100
AcDbEntity
  8
1
100
AcDbPolyline
 90
        6
 70
     1
 43
0.0
 10
180.4086149231545
 20
169.2298708066139
 10
179.5425895193695
 20
167.7298708066139
 10
180.4086149231545
 20
166.2298708066139
 10
182.1406657307227
 20
166.2298708066139
 10
183.0066911345077
 20
167.7298708066139
 10
182.1406657307227
 20
169.2298708066139
  0
LWPOLYLINE
  5
1908
330
1A
100
AcDbEntity
  8
1
100
AcDbPolyline
 90
        6
 70
     1
 43
0.0
 10
148.4086149231545
 20
169.2298708066139
 10
147.5425895193695
 20
167.7298708066139
 10
148.4086149231545
 20
166.2298708066139
 10
150.1406657307227
 20
166.2298708066139
 10
151.0066911345077
 20
167.7298708066139
 10
150.1406657307227
 20
169.2298708066139
  0
CIRCLE
  5
1909
330
1A
100
AcDbEntity
  8
1
100
AcDbCircle
 10
181.2746403269386
 20
167.7298708066139
 30
0.0
 40
3.5
  0
CIRCLE
  5
190A
330
1A
100
AcDbEntity
  8
1
100
AcDbCircle
 10
149.2746403269386
 20
167.7298708066139
 30
0.0
 40
3.5
  0
CIRCLE
  5
190B
330
1A
100
AcDbEntity
  8
1
100
AcDbCircle
 10
181.2746403269386
 20
167.7298708066139
 30
0.0
 40
4.0
  0
CIRCLE
  5
190C
330
1A
100
AcDbEntity
  8
1
100
AcDbCircle
 10
149.2746403269386
 20
167.7298708066139
 30
0.0
 40
4.0
  0
CIRCLE
  5
190D
330
1A
100
AcDbEntity
  8
1
100
AcDbCircle
 10
165.2746403269386
 20
167.7298708066139
 30
0.0
 40
3.799999999999999
  0
ARC
  5
190E
330
1A
100
AcDbEntity
  8
1
100
AcDbCircle
 10
136.7746403269395
 20
122.1793605493969
 30
0.0
 40
0.5
100
AcDbArc
 50
180.0
 51
258.4630409671403
  0
ARC
  5
190F
330
1A
100
AcDbEntity
  8
1
100
AcDbCircle
 10
136.7746403269377
 20
133.2298708066148
 30
0.0
 40
0.5
100
AcDbArc
 50
90.0
 51
180.0
  0
ARC
  5
1910
330
1A
100
AcDbEntity
  8
1
100
AcDbCircle
 10
136.7746403269386
 20
134.2298708066148
 30
0.0
 40
0.5
100
AcDbArc
 50
270.0
 51
0.0
  0
LINE
  5
1911
330
1A
100
AcDbEntity
  8
1
100
AcDbLine
 10
136.2746403269377
 20
133.2298708066148
 30
0.0
 11
136.2746403269377
 21
122.1793605493969
 31
0.0
  0
ARC
  5
1912
330
1A
100
AcDbEntity
  8
1
100
AcDbCircle
 10
193.7746403269368
 20
133.229870806613
 30
0.0
 40
0.5
100
AcDbArc
 50
0.0
 51
90.0
  0
ARC
  5
1913
330
1A
100
AcDbEntity
  8
1
100
AcDbCircle
 10
193.7746403269377
 20
134.229870806613
 30
0.0
 40
0.5
100
AcDbArc
 50
180.0
 51
270.0
  0
ARC
  5
1914
330
1A
100
AcDbEntity
  8
1
100
AcDbCircle
 10
190.2746403269386
 20
106.2298708066139
 30
0.0
 40
3.0
100
AcDbArc
 50
270.0
 51
36.86989764585411
  0
ARC
  5
1915
330
1A
100
AcDbEntity
  8
1
100
AcDbCircle
 10
194.2746403269386
 20
109.2298708066148
 30
0.0
 40
2.0
100
AcDbArc
 50
180.0
 51
216.869897645854
  0
ARC
  5
1916
330
1A
100
AcDbEntity
  8
1
100
AcDbCircle
 10
189.2746403269386
 20
102.2298708066139
 30
0.0
 40
1.0
100
AcDbArc
 50
90.0
 51
270.0
  0
LINE
  5
1917
330
1A
100
AcDbEntity
  8
1
100
AcDbLine
 10
194.2746403269368
 20
133.229870806613
 30
0.0
 11
194.2746403269377
 21
122.1793605493969
 31
0.0
  0
ARC
  5
1918
330
1A
100
AcDbEntity
  8
1
100
AcDbCircle
 10
194.2746403269386
 20
119.7298708066139
 30
0.0
 40
2.0
100
AcDbArc
 50
101.5369590328596
 51
180.0
  0
ARC
  5
1919
330
1A
100
AcDbEntity
  8
1
100
AcDbCircle
 10
193.7746403269368
 20
122.1793605493969
 30
0.0
 40
0.5
100
AcDbArc
 50
281.5369590328596
 51
0.0
  0
LINE
  5
191A
330
1A
100
AcDbEntity
  8
1
100
AcDbLine
 10
192.2746403269386
 20
119.729870806613
 30
0.0
 11
192.2746403269377
 21
117.7298708066139
 31
0.0
  0
ARC
  5
191B
330
1A
100
AcDbEntity
  8
1
100
AcDbCircle
 10
140.2746403269386
 20
106.2298708066139
 30
0.0
 40
3.0
100
AcDbArc
 50
143.1301023541872
 51
270.0
  0
ARC
  5
191C
330
1A
100
AcDbEntity
  8
1
100
AcDbCircle
 10
136.2746403269377
 20
109.229870806613
 30
0.0
 40
2.0
100
AcDbArc
 50
323.1301023541872
 51
0.0
  0
ARC
  5
191D
330
1A
100
AcDbEntity
  8
1
100
AcDbCircle
 10
141.2746403269386
 20
102.2298708066139
 30
0.0
 40
1.0
100
AcDbArc
 50
270.0
 51
90.0
  0
ARC
  5
191E
330
1A
100
AcDbEntity
  8
1
100
AcDbCircle
 10
136.2746403269386
 20
119.7298708066139
 30
0.0
 40
2.0
100
AcDbArc
 50
0.0
 51
78.46304096714034
  0
LINE
  5
191F
330
1A
100
AcDbEntity
  8
1
100
AcDbLine
 10
138.2746403269386
 20
119.7298708066139
 30
0.0
 11
138.2746403269386
 21
117.7298708066148
 31
0.0
  0
LINE
  5
1920
330
1A
100
AcDbEntity
  8
1
100
AcDbLine
 10
136.7746403269377
 20
133.7298708066148
 30
0.0
 11
193.7746403269368
 21
133.729870806613
 31
0.0
  0
LINE
  5
1921
330
1A
100
AcDbEntity
  8
1
100
AcDbLine
 10
136.7746403269368
 20
121.7298708066157
 30
0.0
 11
193.7746403269377
 21
121.7298708066139
 31
0.0
  0
LINE
  5
1922
330
1A
100
AcDbEntity
  8
1
100
AcDbLine
 10
140.2746403269386
 20
101.2298708066139
 30
0.0
 11
190.2746403269386
 21
101.2298708066139
 31
0.0
  0
LINE
  5
1923
330
1A
100
AcDbEntity
  8
1
100
AcDbLine
 10
140.2746403269386
 20
103.2298708066139
 30
0.0
 11
190.2746403269386
 21
103.2298708066139
 31
0.0
  0
LINE
  5
1924
330
1A
100
AcDbEntity
  8
1
100
AcDbLine
 10
138.7349145010277
 20
108.5735295090328
 30
0.0
 11
191.7485813003997
 21
108.5735295090328
 31
0.0
  0
LINE
  5
1925
330
1A
100
AcDbEntity
  8
1
100
AcDbLine
 10
119.2746403269386
 20
230.7298708066148
 30
0.0
 11
208.2746403269386
 21
230.7298708066148
 31
0.0
  0
LINE
  5
1926
330
1A
100
AcDbEntity
  8
1
100
AcDbLine
 10
121.2746403269386
 20
228.7298708066148
 30
0.0
 11
208.2746403269386
 21
228.729870806613
 31
0.0
  0
CIRCLE
  5
1927
330
1A
100
AcDbEntity
  8
1
100
AcDbCircle
 10
95.27464032693774
 20
324.8182655502062
 30
0.0
 40
10.0
  0
LINE
  5
1928
330
1A
100
AcDbEntity
  8
CENTER
 62
     9
100
AcDbLine
 10
91.27464032693774
 20
324.8182655502062
 30
0.0
 11
99.27464032693775
 21
324.8182655502062
 31
0.0
  0
LINE
  5
1929
330
1A
100
AcDbEntity
  8
CENTER
 62
     9
100
AcDbLine
 10
95.27464032693774
 20
320.8182655502062
 30
0.0
 11
95.27464032693774
 21
328.8182655502062
 31
0.0
  0
LINE
  5
192A
330
1A
100
AcDbEntity
  8
CENTER
 62
     9
100
AcDbLine
 10
87.27464032693774
 20
324.8182655502062
 30
0.0
 11
81.27464032693774
 21
324.8182655502062
 31
0.0
  0
LINE
  5
192B
330
1A
100
AcDbEntity
  8
CENTER
 62
     9
100
AcDbLine
 10
103.2746403269377
 20
324.8182655502062
 30
0.0
 11
109.2746403269377
 21
324.8182655502062
 31
0.0
  0
LINE
  5
192C
330
1A
100
AcDbEntity
  8
CENTER
 62
     9
100
AcDbLine
 10
95.27464032693774
 20
316.8182655502062
 30
0.0
 11
95.27464032693774
 21
310.8182655502062
 31
0.0
  0
LINE
  5
192D
330
1A
100
AcDbEntity
  8
CENTER
 62
     9
100
AcDbLine
 10
95.27464032693774
 20
332.8182655502061
 30
0.0
 11
95.27464032693774
 21
338.8182655502061
 31
0.0
  0
CIRCLE
  5
192E
330
1A
100
AcDbEntity
  8
1
100
AcDbCircle
 10
124.2746403269386
 20
316.8182655502062
 30
0.0
 40
3.0
  0
CIRCLE
  5
192F
330
1A
100
AcDbEntity
  8
1
 62
     9
100
AcDbCircle
 10
124.2746403269386
 20
316.8182655502062
 30
0.0
 40
4.0
  0
CIRCLE
  5
1930
330
1A
100
AcDbEntity
  8
1
100
AcDbCircle
 10
124.2746403269386
 20
316.8182655502062
 30
0.0
 40
5.0
  0
LINE
  5
1937
330
1A
100
AcDbEntity
  8
1
100
AcDbLine
 10
119.2746403269386
 20
250.729870806613
 30
0.0
 11
119.2746403269386
 21
230.7298708066148
 31
0.0
  0
LINE
  5
1938
330
1A
100
AcDbEntity
  8
1
100
AcDbLine
 10
119.2746403269386
 20
230.7298708066148
 30
0.0
 11
121.2746403269386
 21
228.7298708066148
 31
0.0
  0
LINE
  5
1939
330
1A
100
AcDbEntity
  8
1
100
AcDbLine
 10
65.27464032693774
 20
262.7298708066148
 30
0.0
 11
65.27464032693774
 21
250.729870806613
 31
0.0
  0
LINE
  5
193A
330
1A
100
AcDbEntity
  8
1
100
AcDbLine
 10
155.2746403269386
 20
287.818265550208
 30
0.0
 11
175.2746403269386
 21
287.818265550208
 31
0.0
  0
LINE
  5
193B
330
1A
100
AcDbEntity
  8
1
100
AcDbLine
 10
170.7746403269377
 20
277.48596831506
 30
0.0
 11
170.7746403269377
 21
287.818265550208
 31
0.0
  0
LINE
  5
193C
330
1A
100
AcDbEntity
  8
1
 62
     8
100
AcDbLine
 10
174.2765877484555
 20
287.8806438363628
 30
0.0
 11
175.022689105571
 21
299.8182655502062
 31
0.0
  0
LINE
  5
193D
330
1A
100
AcDbEntity
  8
1
100
AcDbLine
 10
175.2746403269386
 20
287.818265550208
 30
0.0
 11
176.0246403269386
 21
299.8182655502062
 31
0.0
  0
LINE
  5
193E
330
1A
100
AcDbEntity
  8
1
100
AcDbLine
 10
159.7746403269386
 20
279.8180903659188
 30
0.0
 11
159.7746403269386
 21
287.818265550208
 31
0.0
  0
LINE
  5
193F
330
1A
100
AcDbEntity
  8
1
 62
     8
100
AcDbLine
 10
156.2726929054217
 20
287.8806438363628
 30
0.0
 11
155.5265915483062
 21
299.8182655502062
 31
0.0
  0
LINE
  5
1940
330
1A
100
AcDbEntity
  8
1
100
AcDbLine
 10
155.2746403269386
 20
287.818265550208
 30
0.0
 11
154.5246403269386
 21
299.8182655502062
 31
0.0
  0
LINE
  5
1941
330
1A
100
AcDbEntity
  8
1
100
AcDbLine
 10
144.8401487472349
 20
282.9843682869543
 30
0.0
 11
187.12292754747
 21
274.0199500313522
 31
0.0
  0
LINE
  5
1942
330
1A
100
AcDbEntity
  8
1
100
AcDbLine
 10
144.4253465006479
 20
281.0278563150443
 30
0.0
 11
186.708125300883
 21
272.0634380594422
 31
0.0
  0
LINE
  5
1943
330
1A
100
AcDbEntity
  8
CENTER
 62
     9
100
AcDbLine
 10
227.2746403269377
 20
324.8182655502052
 30
0.0
 11
221.2746403269377
 21
324.8182655502052
 31
0.0
  0
ARC
  5
1944
330
1A
100
AcDbEntity
  8
1
100
AcDbCircle
 10
203.7746403269386
 20
351.5212700357635
 30
0.0
 40
5.0
100
AcDbArc
 50
328.821164461363
 51
0.0
  0
CIRCLE
  5
194B
330
1A
100
AcDbEntity
  8
1
100
AcDbCircle
 10
206.2746403269386
 20
316.8182655502062
 30
0.0
 40
5.0
  0
CIRCLE
  5
194C
330
1A
100
AcDbEntity
  8
1
 62
     9
100
AcDbCircle
 10
206.2746403269386
 20
316.8182655502062
 30
0.0
 40
4.0
  0
CIRCLE
  5
194D
330
1A
100
AcDbEntity
  8
1
100
AcDbCircle
 10
206.2746403269386
 20
316.8182655502062
 30
0.0
 40
3.0
  0
LINE
  5
194E
330
1A
100
AcDbEntity
  8
1
100
AcDbLine
 10
208.2746403269395
 20
250.729870806613
 30
0.0
 11
208.2746403269386
 21
228.729870806613
 31
0.0
  0
LINE
  5
194F
330
1A
100
AcDbEntity
  8
1
 48
0.2
100
AcDbLine
 10
140.2746403269377
 20
228.7298708066148
 30
0.0
 11
140.2746403269377
 21
224.7298708066148
 31
0.0
  0
LINE
  5
1950
330
1A
100
AcDbEntity
  8
1
 48
0.2
100
AcDbLine
 10
190.2746403269386
 20
228.7298708066148
 30
0.0
 11
190.2746403269395
 21
224.7298708066129
 31
0.0
  0
ARC
  5
1951
330
1A
100
AcDbEntity
  8
1
100
AcDbCircle
 10
187.2746403269386
 20
224.7298708066129
 30
0.0
 40
3.0
100
AcDbArc
 50
270.0
 51
0.0
  0
ARC
  5
1952
330
1A
100
AcDbEntity
  8
1
100
AcDbCircle
 10
143.2746403269386
 20
224.7298708066148
 30
0.0
 40
3.0
100
AcDbArc
 50
180.0
 51
270.0
  0
ARC
  5
1953
330
1A
100
AcDbEntity
  8
1
100
AcDbCircle
 10
186.2746403269386
 20
220.7298708066129
 30
0.0
 40
1.0
100
AcDbArc
 50
90.0
 51
270.0
  0
ARC
  5
1954
330
1A
100
AcDbEntity
  8
1
100
AcDbCircle
 10
144.2746403269386
 20
220.7298708066148
 30
0.0
 40
1.0
100
AcDbArc
 50
270.0
 51
90.0
  0
ARC
  5
1955
330
1A
100
AcDbEntity
  8
1
100
AcDbCircle
 10
187.2746403269386
 20
216.729870806613
 30
0.0
 40
3.0
100
AcDbArc
 50
270.0
 51
90.0
  0
ARC
  5
1956
330
1A
100
AcDbEntity
  8
1
100
AcDbCircle
 10
143.2746403269386
 20
216.7298708066148
 30
0.0
 40
3.0
100
AcDbArc
 50
90.0
 51
270.0
  0
ARC
  5
1957
330
1A
100
AcDbEntity
  8
1
100
AcDbCircle
 10
144.2746403269386
 20
211.7298708066148
 30
0.0
 40
2.0
100
AcDbArc
 50
0.0
 51
90.0
  0
ARC
  5
1958
330
1A
100
AcDbEntity
  8
1
100
AcDbCircle
 10
144.2746403269386
 20
209.7298708066148
 30
0.0
 40
2.0
100
AcDbArc
 50
270.0
 51
0.0
  0
ARC
  5
1959
330
1A
100
AcDbEntity
  8
1
100
AcDbCircle
 10
186.2746403269386
 20
211.729870806613
 30
0.0
 40
2.0
100
AcDbArc
 50
90.0
 51
180.0
  0
ARC
  5
195A
330
1A
100
AcDbEntity
  8
1
100
AcDbCircle
 10
186.2746403269386
 20
209.729870806613
 30
0.0
 40
2.0
100
AcDbArc
 50
180.0
 51
270.0
  0
LINE
  5
195B
330
1A
100
AcDbEntity
  8
1
 48
0.2
100
AcDbLine
 10
184.2746403269395
 20
211.729870806613
 30
0.0
 11
184.2746403269395
 21
209.729870806613
 31
0.0
  0
LINE
  5
195C
330
1A
100
AcDbEntity
  8
1
 48
0.2
100
AcDbLine
 10
146.2746403269386
 20
211.7298708066148
 30
0.0
 11
146.2746403269386
 21
209.7298708066148
 31
0.0
  0
LINE
  5
195D
330
1A
100
AcDbEntity
  8
1
100
AcDbLine
 10
143.2746403269386
 20
221.7298708066139
 30
0.0
 11
187.2746403269386
 21
221.729870806613
 31
0.0
  0
LINE
  5
195E
330
1A
100
AcDbEntity
  8
1
100
AcDbLine
 10
143.2746403269386
 20
219.7298708066148
 30
0.0
 11
187.2746403269386
 21
219.729870806612
 31
0.0
  0
LINE
  5
195F
330
1A
100
AcDbEntity
  8
1
100
AcDbLine
 10
143.2746403269386
 20
213.7298708066148
 30
0.0
 11
187.2746403269386
 21
213.7298708066121
 31
0.0
  0
CIRCLE
  5
1960
330
1A
100
AcDbEntity
  8
1
100
AcDbCircle
 10
184.2746403269386
 20
200.729870806613
 30
0.0
 40
7.0
  0
CIRCLE
  5
1961
330
1A
100
AcDbEntity
  8
1
100
AcDbCircle
 10
146.2746403269386
 20
200.7298708066148
 30
0.0
 40
7.0
  0
ARC
  5
1962
330
1A
100
AcDbEntity
  8
1
100
AcDbCircle
 10
136.7746403269386
 20
183.2298708066148
 30
0.0
 40
0.5
100
AcDbArc
 50
0.0
 51
90.0
  0
ARC
  5
1963
330
1A
100
AcDbEntity
  8
1
100
AcDbCircle
 10
136.7746403269386
 20
184.2298708066148
 30
0.0
 40
0.5
100
AcDbArc
 50
180.0
 51
270.0
  0
ARC
  5
1964
330
1A
100
AcDbEntity
  8
1
100
AcDbCircle
 10
138.2746403269386
 20
205.7298708066148
 30
0.0
 40
2.0
100
AcDbArc
 50
90.0
 51
180.0
  0
LINE
  5
1965
330
1A
100
AcDbEntity
  8
1
100
AcDbLine
 10
136.2746403269386
 20
205.7298708066148
 30
0.0
 11
136.2746403269386
 21
184.2298708066148
 31
0.0
  0
ARC
  5
1966
330
1A
100
AcDbEntity
  8
1
100
AcDbCircle
 10
192.2746403269377
 20
205.729870806613
 30
0.0
 40
2.0
100
AcDbArc
 50
0.0
 51
90.0
  0
LINE
  5
1967
330
1A
100
AcDbEntity
  8
1
100
AcDbLine
 10
194.2746403269377
 20
205.729870806613
 30
0.0
 11
194.2746403269377
 21
184.229870806613
 31
0.0
  0
ARC
  5
1968
330
1A
100
AcDbEntity
  8
1
100
AcDbCircle
 10
193.7746403269377
 20
184.229870806613
 30
0.0
 40
0.5
100
AcDbArc
 50
270.0
 51
0.0
  0
ARC
  5
1969
330
1A
100
AcDbEntity
  8
1
100
AcDbCircle
 10
193.7746403269377
 20
183.229870806613
 30
0.0
 40
0.5
100
AcDbArc
 50
90.0
 51
180.0
  0
LINE
  5
196A
330
1A
100
AcDbEntity
  8
1
100
AcDbLine
 10
138.2746403269386
 20
207.7298708066148
 30
0.0
 11
192.2746403269377
 21
207.729870806613
 31
0.0
  0
LINE
  5
196D
330
1A
100
AcDbEntity
  8
1
100
AcDbLine
 10
389.4096271519013
 20
101.2298708066139
 30
0.0
 11
439.4096271519012
 21
101.2298708066139
 31
0.0
  0
LINE
  5
196E
330
1A
100
AcDbEntity
  8
1
100
AcDbLine
 10
370.4096271519004
 20
97.72987080661302
 30
0.0
 11
458.4096271519022
 21
97.72987080661302
 31
0.0
  0
LINE
  5
196F
330
1A
100
AcDbEntity
  8
1
100
AcDbLine
 10
370.4096271519013
 20
228.7298708066148
 30
0.0
 11
458.4096271519013
 21
228.7298708066139
 31
0.0
  0
LINE
  5
1970
330
1A
100
AcDbEntity
  8
1
100
AcDbLine
 10
368.4096271519003
 20
95.72987080661301
 30
0.0
 11
398.069492513533
 21
95.72987080661301
 31
0.0
  0
LINE
  5
1971
330
1A
100
AcDbEntity
  8
1
100
AcDbLine
 10
368.4096271519013
 20
230.7298708066148
 30
0.0
 11
398.0694925135333
 21
230.7298708066148
 31
0.0
  0
LINE
  5
1972
330
1A
100
AcDbEntity
  8
1
100
AcDbLine
 10
392.4096271519013
 20
221.729870806613
 30
0.0
 11
436.4096271519013
 21
221.729870806613
 31
0.0
  0
LINE
  5
1973
330
1A
100
AcDbEntity
  8
1
100
AcDbLine
 10
392.4096271519013
 20
219.7298708066148
 30
0.0
 11
436.4096271519013
 21
219.729870806612
 31
0.0
  0
LINE
  5
1974
330
1A
100
AcDbEntity
  8
1
100
AcDbLine
 10
339.4096271518995
 20
250.729870806613
 30
0.0
 11
489.4096271519003
 21
250.729870806613
 31
0.0
  0
LINE
  5
1975
330
1A
100
AcDbEntity
  8
1
100
AcDbLine
 10
385.4096271519003
 20
115.7298708066139
 30
0.0
 11
443.4096271519003
 21
115.7298708066139
 31
0.0
  0
LINE
  5
1976
330
1A
100
AcDbEntity
  8
1
100
AcDbLine
 10
385.4096271519003
 20
117.729870806613
 30
0.0
 11
443.4096271519003
 21
117.7298708066139
 31
0.0
  0
LINE
  5
1977
330
1A
100
AcDbEntity
  8
1
100
AcDbLine
 10
392.4096271519013
 20
213.7298708066148
 30
0.0
 11
436.4096271519013
 21
213.7298708066121
 31
0.0
  0
LINE
  5
1978
330
1A
100
AcDbEntity
  8
1
100
AcDbLine
 10
339.4096271519003
 20
262.7298708066139
 30
0.0
 11
489.4096271519003
 21
262.7298708066139
 31
0.0
  0
LINE
  5
1979
330
1A
100
AcDbEntity
  8
1
100
AcDbLine
 10
339.4096271518995
 20
75.72987080661391
 30
0.0
 11
489.4096271519012
 21
75.72987080661391
 31
0.0
  0
LINE
  5
197A
330
1A
100
AcDbEntity
  8
1
100
AcDbLine
 10
339.4096271519003
 20
63.72987080661483
 30
0.0
 11
489.4096271519012
 21
63.72987080661392
 31
0.0
  0
LINE
  5
197B
330
1A
100
AcDbEntity
  8
1
100
AcDbLine
 10
387.8699013259895
 20
108.5735295090328
 30
0.0
 11
440.8835681253615
 21
108.5735295090328
 31
0.0
  0
LINE
  5
197C
330
1A
100
AcDbEntity
  8
1
100
AcDbLine
 10
389.4096271519003
 20
103.2298708066139
 30
0.0
 11
439.4096271519003
 21
103.2298708066139
 31
0.0
  0
LINE
  5
197D
330
1A
100
AcDbEntity
  8
1
100
AcDbLine
 10
380.9096271519013
 20
133.7298708066148
 30
0.0
 11
442.9096271518985
 21
133.729870806613
 31
0.0
  0
LINE
  5
197E
330
1A
100
AcDbEntity
  8
1
100
AcDbLine
 10
381.4096271519013
 20
183.7298708066148
 30
0.0
 11
442.9096271518995
 21
183.729870806613
 31
0.0
  0
LINE
  5
197F
330
1A
100
AcDbEntity
  8
CENTER
 48
10.0
100
AcDbLine
 10
277.0337779852077
 20
167.7298708066139
 30
0.0
 11
476.8703597097112
 21
167.7298708066139
 31
0.0
  0
LINE
  5
1980
330
1A
100
AcDbEntity
  8
1
100
AcDbLine
 10
380.9096271519013
 20
121.7298708066139
 30
0.0
 11
442.9096271518995
 21
121.7298708066139
 31
0.0
  0
LINE
  5
1981
330
1A
100
AcDbEntity
  8
1
100
AcDbLine
 10
378.6096271518993
 20
207.7298708066148
 30
0.0
 11
441.4096271518994
 21
207.729870806613
 31
0.0
  0
LINE
  5
1983
330
1A
100
AcDbEntity
  8
1
100
AcDbLine
 10
353.4096271519012
 20
191.7298708066139
 30
0.0
 11
353.4096271519012
 21
143.7298708066139
 31
0.0
  0
ARC
  5
1984
330
1A
100
AcDbEntity
  8
1
100
AcDbCircle
 10
297.4096271519012
 20
172.2298708066139
 30
0.0
 40
1.0
100
AcDbArc
 50
90.0
 51
180.0
  0
LINE
  5
1985
330
1A
100
AcDbEntity
  8
1
100
AcDbLine
 10
326.4096271519012
 20
177.7298708066139
 30
0.0
 11
326.4096271519012
 21
157.7298708066139
 31
0.0
  0
LINE
  5
1986
330
1A
100
AcDbEntity
  8
1
100
AcDbLine
 10
342.4096271519013
 20
178.7298708066139
 30
0.0
 11
342.4096271519013
 21
156.7298708066139
 31
0.0
  0
LINE
  5
1987
330
1A
100
AcDbEntity
  8
1
100
AcDbLine
 10
360.4096271519003
 20
191.7298708066139
 30
0.0
 11
360.4096271519022
 21
143.7298708066139
 31
0.0
  0
LINE
  5
1988
330
1A
100
AcDbEntity
  8
1
100
AcDbLine
 10
358.4096271519003
 20
192.2298708066148
 30
0.0
 11
358.4096271519022
 21
143.2298708066148
 31
0.0
  0
LINE
  5
1989
330
1A
100
AcDbEntity
  8
1
100
AcDbLine
 10
355.4096271519012
 20
192.2298708066148
 30
0.0
 11
355.4096271519022
 21
143.2298708066148
 31
0.0
  0
LINE
  5
198A
330
1A
100
AcDbEntity
  8
1
100
AcDbLine
 10
352.4096271519013
 20
188.7298708066139
 30
0.0
 11
352.4096271519013
 21
146.7298708066139
 31
0.0
  0
LINE
  5
198B
330
1A
100
AcDbEntity
  8
1
100
AcDbLine
 10
381.4096271519013
 20
205.7298708066148
 30
0.0
 11
381.4096271519013
 21
134.2298708066148
 31
0.0
  0
LINE
  5
198C
330
1A
100
AcDbEntity
  8
1
100
AcDbLine
 10
297.4096271519012
 20
162.2298708066148
 30
0.0
 11
326.4096271519012
 21
162.2298708066148
 31
0.0
  0
LINE
  5
198F
330
1A
100
AcDbEntity
  8
1
100
AcDbLine
 10
265.2746403269377
 20
75.72987080661301
 30
0.0
 11
265.2746403269386
 21
63.729870806613
 31
0.0
  0
LINE
  5
1990
330
1A
100
AcDbEntity
  8
1
100
AcDbLine
 10
280.1879616074179
 20
163.9298708066137
 30
0.0
 11
296.4096271519013
 21
163.9298708066137
 31
0.0
  0
LINE
  5
1991
330
1A
100
AcDbEntity
  8
1
100
AcDbLine
 10
280.1879616074179
 20
171.5298708066141
 30
0.0
 11
296.4096271519013
 21
171.5298708066141
 31
0.0
  0
ARC
  5
1992
330
1A
100
AcDbEntity
  8
1
100
AcDbCircle
 10
297.4096271519012
 20
163.2298708066148
 30
0.0
 40
1.0
100
AcDbArc
 50
180.0
 51
270.0
  0
LINE
  5
1993
330
1A
100
AcDbEntity
  8
1
100
AcDbLine
 10
296.4096271519013
 20
172.2298708066139
 30
0.0
 11
296.4096271519013
 21
163.2298708066148
 31
0.0
  0
ARC
  5
1994
330
1A
100
AcDbEntity
  8
1
100
AcDbCircle
 10
389.4096271519013
 20
98.22987080661391
 30
0.0
 40
3.0
100
AcDbArc
 50
90.0
 51
180.0
  0
LINE
  5
1995
330
1A
100
AcDbEntity
  8
1
100
AcDbLine
 10
386.4096271519013
 20
98.22987080661391
 30
0.0
 11
386.4096271519013
 21
97.72987080661392
 31
0.0
  0
LINE
  5
1996
330
1A
100
AcDbEntity
  8
1
100
AcDbLine
 10
368.4096271519003
 20
95.72987080661301
 30
0.0
 11
370.4096271519004
 21
97.72987080661302
 31
0.0
  0
LINE
  5
1997
330
1A
100
AcDbEntity
  8
1
100
AcDbLine
 10
368.4096271519003
 20
95.72987080661301
 30
0.0
 11
368.4096271519013
 21
75.72987080661391
 31
0.0
  0
LINE
  5
1998
330
1A
100
AcDbEntity
  8
1
100
AcDbLine
 10
387.4096271518995
 20
115.7298708066139
 30
0.0
 11
387.4096271519004
 21
109.229870806613
 31
0.0
  0
LINE
  5
1999
330
1A
100
AcDbEntity
  8
1
100
AcDbLine
 10
385.4096271518995
 20
117.729870806613
 30
0.0
 11
385.4096271518995
 21
115.7298708066139
 31
0.0
  0
LINE
  5
199A
330
1A
100
AcDbEntity
  8
1
100
AcDbLine
 10
352.4096271519013
 20
146.7298708066148
 30
0.0
 11
353.4096271519012
 21
146.7298708066148
 31
0.0
  0
LINE
  5
199B
330
1A
100
AcDbEntity
  8
1
100
AcDbLine
 10
339.4096271518995
 20
75.72987080661301
 30
0.0
 11
339.4096271519003
 21
63.729870806613
 31
0.0
  0
ARC
  5
199C
330
1A
100
AcDbEntity
  8
1
100
AcDbCircle
 10
385.4096271519003
 20
119.7298708066139
 30
0.0
 40
2.0
100
AcDbArc
 50
0.0
 51
90.0
  0
ARC
  5
199D
330
1A
100
AcDbEntity
  8
1
100
AcDbCircle
 10
390.4096271519004
 20
102.2298708066139
 30
0.0
 40
1.0
100
AcDbArc
 50
270.0
 51
90.0
  0
ARC
  5
199E
330
1A
100
AcDbEntity
  8
1
100
AcDbCircle
 10
385.4096271518995
 20
109.229870806613
 30
0.0
 40
2.0
100
AcDbArc
 50
323.1301023541872
 51
0.0
  0
ARC
  5
199F
330
1A
100
AcDbEntity
  8
1
100
AcDbCircle
 10
389.4096271519003
 20
106.2298708066139
 30
0.0
 40
3.0
100
AcDbArc
 50
143.1301023541872
 51
270.0
  0
LINE
  5
19A0
330
1A
100
AcDbEntity
  8
1
100
AcDbLine
 10
387.4096271519004
 20
119.7298708066139
 30
0.0
 11
387.4096271518995
 21
117.729870806613
 31
0.0
  0
LINE
  5
19A1
330
1A
100
AcDbEntity
  8
1
 62
     8
100
AcDbLine
 10
326.4720054380561
 20
158.727923385097
 30
0.0
 11
342.4720054380561
 21
157.727923385097
 31
0.0
  0
LINE
  5
19A2
330
1A
100
AcDbEntity
  8
1
100
AcDbLine
 10
326.4096271519012
 20
157.7298708066139
 30
0.0
 11
342.4096271519013
 21
156.7298708066139
 31
0.0
  0
LINE
  5
19A3
330
1A
100
AcDbEntity
  8
1
100
AcDbLine
 10
342.4096271519013
 20
156.7298708066139
 30
0.0
 11
352.4096271519013
 21
156.7298708066139
 31
0.0
  0
LINE
  5
19A4
330
1A
100
AcDbEntity
  8
1
100
AcDbLine
 10
347.6096271519011
 20
164.229870806613
 30
0.0
 11
351.6096271519011
 21
164.2298708066139
 31
0.0
  0
LINE
  5
19A5
330
1A
100
AcDbEntity
  8
1
100
AcDbLine
 10
347.6096271519011
 20
171.2298708066139
 30
0.0
 11
351.6096271519011
 21
171.2298708066139
 31
0.0
  0
LINE
  5
19A6
330
1A
100
AcDbEntity
  8
1
100
AcDbLine
 10
351.6096271519011
 20
163.7298708066139
 30
0.0
 11
352.4096271519013
 21
163.7298708066139
 31
0.0
  0
LINE
  5
19A7
330
1A
100
AcDbEntity
  8
1
100
AcDbLine
 10
351.6096271519011
 20
171.7298708066139
 30
0.0
 11
352.4096271519013
 21
171.7298708066139
 31
0.0
  0
LINE
  5
19A8
330
1A
100
AcDbEntity
  8
1
100
AcDbLine
 10
347.6096271519011
 20
171.2298708066139
 30
0.0
 11
347.6096271519011
 21
164.2298708066139
 31
0.0
  0
LINE
  5
19A9
330
1A
100
AcDbEntity
  8
1
100
AcDbLine
 10
351.6096271519011
 20
171.7298708066139
 30
0.0
 11
351.6096271519011
 21
163.7298708066139
 31
0.0
  0
ARC
  5
19AA
330
1A
100
AcDbEntity
  8
1
100
AcDbCircle
 10
356.9096271519022
 20
143.2298708066148
 30
0.0
 40
1.5
100
AcDbArc
 50
180.0
 51
0.0
  0
ARC
  5
19AB
330
1A
100
AcDbEntity
  8
1
100
AcDbCircle
 10
359.4096271519013
 20
143.7298708066139
 30
0.0
 40
1.0
100
AcDbArc
 50
180.0
 51
0.0
  0
ARC
  5
19AC
330
1A
100
AcDbEntity
  8
1
100
AcDbCircle
 10
354.4096271519013
 20
143.7298708066139
 30
0.0
 40
1.0
100
AcDbArc
 50
180.0
 51
0.0
  0
ARC
  5
19AD
330
1A
100
AcDbEntity
  8
1
100
AcDbCircle
 10
379.4096271519013
 20
142.7298708066139
 30
0.0
 40
2.0
100
AcDbArc
 50
0.0
 51
90.0
  0
ARC
  5
19AE
330
1A
100
AcDbEntity
  8
1
100
AcDbCircle
 10
380.9096271519013
 20
134.2298708066148
 30
0.0
 40
0.5
100
AcDbArc
 50
270.0
 51
0.0
  0
ARC
  5
19AF
330
1A
100
AcDbEntity
  8
1
100
AcDbCircle
 10
380.9096271519013
 20
122.2298708066139
 30
0.0
 40
0.5
100
AcDbArc
 50
180.0
 51
270.0
  0
ARC
  5
19B0
330
1A
100
AcDbEntity
  8
1
100
AcDbCircle
 10
380.9096271519013
 20
133.2298708066148
 30
0.0
 40
0.5
100
AcDbArc
 50
90.0
 51
180.0
  0
LINE
  5
19B1
330
1A
100
AcDbEntity
  8
1
100
AcDbLine
 10
360.4096271519022
 20
144.7298708066148
 30
0.0
 11
379.4096271519013
 21
144.7298708066148
 31
0.0
  0
LINE
  5
19B2
330
1A
100
AcDbEntity
  8
1
100
AcDbLine
 10
380.4096271519012
 20
133.2298708066148
 30
0.0
 11
380.4096271519012
 21
122.2298708066139
 31
0.0
  0
LINE
  5
19B3
330
1A
100
AcDbEntity
  8
1
100
AcDbLine
 10
297.4096271519012
 20
173.2298708066139
 30
0.0
 11
326.4096271519012
 21
173.2298708066139
 31
0.0
  0
LINE
  5
19B4
330
1A
100
AcDbEntity
  8
CENTER
 62
     9
100
AcDbLine
 10
235.2746403269377
 20
320.8182655502052
 30
0.0
 11
235.2746403269377
 21
328.8182655502053
 31
0.0
  0
LINE
  5
19B5
330
1A
100
AcDbEntity
  8
CENTER
 62
     9
100
AcDbLine
 10
243.2746403269377
 20
324.8182655502052
 30
0.0
 11
249.2746403269377
 21
324.8182655502052
 31
0.0
  0
LINE
  5
19B6
330
1A
100
AcDbEntity
  8
CENTER
 62
     9
100
AcDbLine
 10
235.2746403269377
 20
316.8182655502052
 30
0.0
 11
235.2746403269377
 21
310.8182655502052
 31
0.0
  0
LINE
  5
19B7
330
1A
100
AcDbEntity
  8
CENTER
 62
     9
100
AcDbLine
 10
235.2746403269377
 20
332.8182655502053
 30
0.0
 11
235.2746403269377
 21
338.8182655502053
 31
0.0
  0
LINE
  5
19B8
330
1A
100
AcDbEntity
  8
1
100
AcDbLine
 10
265.2746403269377
 20
262.7298708066139
 30
0.0
 11
265.2746403269377
 21
250.729870806613
 31
0.0
  0
LINE
  5
19B9
330
1A
100
AcDbEntity
  8
1
100
AcDbLine
 10
368.4096271519013
 20
230.7298708066148
 30
0.0
 11
370.4096271519013
 21
228.7298708066148
 31
0.0
  0
LINE
  5
19BA
330
1A
100
AcDbEntity
  8
1
100
AcDbLine
 10
368.4096271519013
 20
250.729870806613
 30
0.0
 11
368.4096271519013
 21
230.7298708066148
 31
0.0
  0
LINE
  5
19BB
330
1A
100
AcDbEntity
  8
1
 48
0.2
100
AcDbLine
 10
389.4096271519013
 20
228.7298708066148
 30
0.0
 11
389.4096271519003
 21
224.7298708066129
 31
0.0
  0
ARC
  5
19BC
330
1A
100
AcDbEntity
  8
1
100
AcDbCircle
 10
392.4096271519013
 20
224.7298708066129
 30
0.0
 40
3.0
100
AcDbArc
 50
180.0
 51
270.0
  0
ARC
  5
19BD
330
1A
100
AcDbEntity
  8
1
100
AcDbCircle
 10
393.4096271519013
 20
220.7298708066129
 30
0.0
 40
1.0
100
AcDbArc
 50
270.0
 51
90.0
  0
ARC
  5
19BE
330
1A
100
AcDbEntity
  8
1
100
AcDbCircle
 10
392.4096271519013
 20
216.729870806613
 30
0.0
 40
3.0
100
AcDbArc
 50
90.0
 51
270.0
  0
LINE
  5
19BF
330
1A
100
AcDbEntity
  8
1
100
AcDbLine
 10
339.4096271518995
 20
262.729870806613
 30
0.0
 11
339.4096271518985
 21
250.729870806612
 31
0.0
  0
ARC
  5
19C0
330
1A
100
AcDbEntity
  8
1
100
AcDbCircle
 10
393.4096271519013
 20
209.7298708066148
 30
0.0
 40
2.0
100
AcDbArc
 50
270.0
 51
0.0
  0
ARC
  5
19C1
330
1A
100
AcDbEntity
  8
1
100
AcDbCircle
 10
393.4096271519013
 20
211.7298708066148
 30
0.0
 40
2.0
100
AcDbArc
 50
0.0
 51
90.0
  0
LINE
  5
19C2
330
1A
100
AcDbEntity
  8
1
 48
0.2
100
AcDbLine
 10
395.4096271519013
 20
211.7298708066148
 30
0.0
 11
395.4096271519013
 21
209.7298708066148
 31
0.0
  0
LINE
  5
19C4
330
1A
100
AcDbEntity
  8
1
100
AcDbLine
 10
352.4096271519013
 20
188.7298708066139
 30
0.0
 11
353.4096271519012
 21
188.7298708066139
 31
0.0
  0
LINE
  5
19C5
330
1A
100
AcDbEntity
  8
1
 62
     8
100
AcDbLine
 10
326.4720054380561
 20
176.7318182281307
 30
0.0
 11
342.4720054380561
 21
177.7318182281308
 31
0.0
  0
LINE
  5
19C6
330
1A
100
AcDbEntity
  8
1
100
AcDbLine
 10
326.4096271519012
 20
177.7298708066139
 30
0.0
 11
342.4096271519013
 21
178.7298708066139
 31
0.0
  0
LINE
  5
19C7
330
1A
100
AcDbEntity
  8
1
100
AcDbLine
 10
342.4096271519013
 20
178.7298708066139
 30
0.0
 11
352.4096271519013
 21
178.7298708066139
 31
0.0
  0
ARC
  5
19C8
330
1A
100
AcDbEntity
  8
1
100
AcDbCircle
 10
356.9096271519022
 20
192.2298708066148
 30
0.0
 40
1.5
100
AcDbArc
 50
0.0
 51
180.0
  0
ARC
  5
19C9
330
1A
100
AcDbEntity
  8
1
100
AcDbCircle
 10
354.4096271519013
 20
191.7298708066139
 30
0.0
 40
1.0
100
AcDbArc
 50
0.0
 51
180.0
  0
ARC
  5
19CA
330
1A
100
AcDbEntity
  8
1
100
AcDbCircle
 10
359.4096271519004
 20
191.7298708066139
 30
0.0
 40
1.0
100
AcDbArc
 50
0.0
 51
180.0
  0
ARC
  5
19CB
330
1A
100
AcDbEntity
  8
1
100
AcDbCircle
 10
379.4096271519013
 20
192.7298708066148
 30
0.0
 40
2.0
100
AcDbArc
 50
270.0
 51
345.5224878140642
  0
ARC
  5
19CC
330
1A
100
AcDbEntity
  8
1
100
AcDbCircle
 10
379.4096271519013
 20
191.7298708066139
 30
0.0
 40
2.0
100
AcDbArc
 50
0.0
 51
89.99999999994789
  0
ARC
  5
19CD
330
1A
100
AcDbEntity
  8
1
100
AcDbCircle
 10
383.4096271519013
 20
205.7298708066148
 30
0.0
 40
2.0
100
AcDbArc
 50
90.0
 51
180.0
  0
ARC
  5
19CE
330
1A
100
AcDbEntity
  8
1
100
AcDbCircle
 10
378.4096271519004
 20
195.7298708066139
 30
0.0
 40
2.0
100
AcDbArc
 50
180.0
 51
270.0
  0
ARC
  5
19CF
330
1A
100
AcDbEntity
  8
1
100
AcDbCircle
 10
378.4096271519012
 20
205.7298708066148
 30
0.0
 40
2.0
100
AcDbArc
 50
90.0
 51
180.0
  0
LINE
  5
19D0
330
1A
100
AcDbEntity
  8
1
100
AcDbLine
 10
360.4096271519022
 20
190.7298708066148
 30
0.0
 11
379.4096271519013
 21
190.7298708066148
 31
0.0
  0
LINE
  5
19D1
330
1A
100
AcDbEntity
  8
1
100
AcDbLine
 10
376.4096271519012
 20
205.7298708066148
 30
0.0
 11
376.4096271519004
 21
195.7298708066139
 31
0.0
  0
LINE
  5
19D2
330
1A
100
AcDbEntity
  8
1
100
AcDbLine
 10
378.4096271519004
 20
193.7298708066139
 30
0.0
 11
379.4096271519022
 21
193.7298708066148
 31
0.0
  0
LINE
  5
19D4
330
1A
100
AcDbEntity
  8
CENTER
 48
10.0
100
AcDbLine
 10
414.4096271519012
 20
286.4406264425158
 30
0.0
 11
414.4096271519012
 21
56.64710223049064
 31
0.0
  0
LINE
  5
19D6
330
1A
100
AcDbEntity
  8
1
100
AcDbLine
 10
445.4096271518994
 20
178.7298708066121
 30
0.0
 11
445.4096271518994
 21
138.7298708066139
 31
0.0
  0
LINE
  5
19D7
330
1A
100
AcDbEntity
  8
1
100
AcDbLine
 10
442.4096271518995
 20
183.2298708066139
 30
0.0
 11
442.4096271518995
 21
134.2298708066139
 31
0.0
  0
LINE
  5
19DC
330
1A
100
AcDbEntity
  8
1
100
AcDbLine
 10
442.4096271519013
 20
98.22987080661391
 30
0.0
 11
442.4096271519013
 21
97.72987080661392
 31
0.0
  0
ARC
  5
19DD
330
1A
100
AcDbEntity
  8
1
100
AcDbCircle
 10
439.4096271519012
 20
98.22987080661391
 30
0.0
 40
3.0
100
AcDbArc
 50
0.0
 51
90.0
  0
LINE
  5
19DE
330
1A
100
AcDbEntity
  8
1
100
AcDbLine
 10
460.4096271519022
 20
95.72987080661301
 30
0.0
 11
460.4096271519012
 21
75.72987080661391
 31
0.0
  0
LINE
  5
19DF
330
1A
100
AcDbEntity
  8
1
100
AcDbLine
 10
458.4096271519022
 20
97.72987080661302
 30
0.0
 11
460.4096271519022
 21
95.72987080661301
 31
0.0
  0
LINE
  5
19E0
330
1A
100
AcDbEntity
  8
1
100
AcDbLine
 10
441.4096271519013
 20
115.7298708066139
 30
0.0
 11
441.4096271519004
 21
109.2298708066148
 31
0.0
  0
LINE
  5
19E1
330
1A
100
AcDbEntity
  8
1
100
AcDbLine
 10
443.4096271519003
 20
117.7298708066139
 30
0.0
 11
443.4096271519003
 21
115.7298708066139
 31
0.0
  0
LINE
  5
19E2
330
1A
100
AcDbEntity
  8
1
100
AcDbLine
 10
489.4096271519012
 20
75.72987080661301
 30
0.0
 11
489.4096271519003
 21
63.72987080661392
 31
0.0
  0
LINE
  5
19E3
330
1A
100
AcDbEntity
  8
1
100
AcDbLine
 10
442.4096271518995
 20
135.729870806613
 30
0.0
 11
445.4096271518994
 21
138.729870806613
 31
0.0
  0
ARC
  5
19E4
330
1A
100
AcDbEntity
  8
1
100
AcDbCircle
 10
442.9096271518985
 20
122.1793605493969
 30
0.0
 40
0.5
100
AcDbArc
 50
281.5369590328596
 51
0.0
  0
ARC
  5
19E5
330
1A
100
AcDbEntity
  8
1
100
AcDbCircle
 10
443.4096271519003
 20
119.7298708066139
 30
0.0
 40
2.0
100
AcDbArc
 50
101.5369590328596
 51
180.0
  0
ARC
  5
19E6
330
1A
100
AcDbEntity
  8
1
100
AcDbCircle
 10
438.4096271519004
 20
102.2298708066139
 30
0.0
 40
1.0
100
AcDbArc
 50
90.0
 51
270.0
  0
ARC
  5
19E7
330
1A
100
AcDbEntity
  8
1
100
AcDbCircle
 10
443.4096271519003
 20
109.2298708066148
 30
0.0
 40
2.0
100
AcDbArc
 50
180.0
 51
216.869897645854
  0
ARC
  5
19E8
330
1A
100
AcDbEntity
  8
1
100
AcDbCircle
 10
439.4096271519003
 20
106.2298708066139
 30
0.0
 40
3.0
100
AcDbArc
 50
270.0
 51
36.86989764585411
  0
LINE
  5
19E9
330
1A
100
AcDbEntity
  8
1
100
AcDbLine
 10
441.4096271519004
 20
119.729870806613
 30
0.0
 11
441.4096271519013
 21
117.7298708066139
 31
0.0
  0
ARC
  5
19EA
330
1A
100
AcDbEntity
  8
1
100
AcDbCircle
 10
442.9096271518995
 20
134.229870806613
 30
0.0
 40
0.5
100
AcDbArc
 50
180.0
 51
270.0
  0
ARC
  5
19EB
330
1A
100
AcDbEntity
  8
1
100
AcDbCircle
 10
442.9096271518985
 20
133.229870806613
 30
0.0
 40
0.5
100
AcDbArc
 50
0.0
 51
90.0
  0
LINE
  5
19EC
330
1A
100
AcDbEntity
  8
1
100
AcDbLine
 10
443.4096271518986
 20
133.229870806613
 30
0.0
 11
443.4096271518995
 21
122.1793605493969
 31
0.0
  0
LINE
  5
19EF
330
1A
100
AcDbEntity
  8
1
100
AcDbLine
 10
460.4096271519022
 20
250.729870806613
 30
0.0
 11
460.4096271519012
 21
230.7298708066139
 31
0.0
  0
LINE
  5
19F0
330
1A
100
AcDbEntity
  8
1
100
AcDbLine
 10
458.4096271519013
 20
228.7298708066139
 30
0.0
 11
460.4096271519012
 21
230.7298708066139
 31
0.0
  0
LINE
  5
19F1
330
1A
100
AcDbEntity
  8
1
 48
0.2
100
AcDbLine
 10
439.4096271519012
 20
228.7298708066148
 30
0.0
 11
439.4096271519022
 21
224.7298708066129
 31
0.0
  0
LINE
  5
19F2
330
1A
100
AcDbEntity
  8
1
100
AcDbLine
 10
489.4096271519012
 20
262.7298708066139
 30
0.0
 11
489.4096271519012
 21
250.729870806612
 31
0.0
  0
ARC
  5
19F3
330
1A
100
AcDbEntity
  8
1
100
AcDbCircle
 10
435.4096271519012
 20
209.729870806613
 30
0.0
 40
2.0
100
AcDbArc
 50
180.0
 51
270.0
  0
ARC
  5
19F4
330
1A
100
AcDbEntity
  8
1
100
AcDbCircle
 10
435.4096271519012
 20
211.729870806613
 30
0.0
 40
2.0
100
AcDbArc
 50
90.0
 51
180.0
  0
LINE
  5
19F5
330
1A
100
AcDbEntity
  8
1
 48
0.2
100
AcDbLine
 10
433.4096271519022
 20
211.729870806613
 30
0.0
 11
433.4096271519022
 21
209.729870806613
 31
0.0
  0
ARC
  5
19F6
330
1A
100
AcDbEntity
  8
1
100
AcDbCircle
 10
436.4096271519013
 20
216.729870806613
 30
0.0
 40
3.0
100
AcDbArc
 50
270.0
 51
90.0
  0
ARC
  5
19F7
330
1A
100
AcDbEntity
  8
1
100
AcDbCircle
 10
435.4096271519012
 20
220.7298708066129
 30
0.0
 40
1.0
100
AcDbArc
 50
90.0
 51
270.0
  0
ARC
  5
19F8
330
1A
100
AcDbEntity
  8
1
100
AcDbCircle
 10
436.4096271519013
 20
224.7298708066129
 30
0.0
 40
3.0
100
AcDbArc
 50
270.0
 51
0.0
  0
LINE
  5
19F9
330
1A
100
AcDbEntity
  8
1
100
AcDbLine
 10
442.4096271518995
 20
181.729870806613
 30
0.0
 11
445.4096271518994
 21
178.7298708066121
 31
0.0
  0
ARC
  5
19FA
330
1A
100
AcDbEntity
  8
1
100
AcDbCircle
 10
442.9096271518995
 20
183.229870806613
 30
0.0
 40
0.5
100
AcDbArc
 50
90.0
 51
180.0
  0
ARC
  5
19FB
330
1A
100
AcDbEntity
  8
1
100
AcDbCircle
 10
442.9096271518995
 20
184.229870806613
 30
0.0
 40
0.5
100
AcDbArc
 50
270.0
 51
0.0
  0
ARC
  5
19FC
330
1A
100
AcDbEntity
  8
1
100
AcDbCircle
 10
441.4096271518994
 20
205.729870806613
 30
0.0
 40
2.0
100
AcDbArc
 50
0.0
 51
90.0
  0
LINE
  5
19FD
330
1A
100
AcDbEntity
  8
1
100
AcDbLine
 10
443.4096271518995
 20
205.729870806613
 30
0.0
 11
443.4096271518995
 21
184.229870806613
 31
0.0
  0
LINE
  5
19FF
330
1A
100
AcDbEntity
  8
CENTER
 48
10.0
100
AcDbLine
 10
55.23083631835357
 20
374.8182655502062
 30
0.0
 11
273.4646464377249
 21
374.8182655502062
 31
0.0
  0
LINE
  5
1A00
330
1A
100
AcDbEntity
  8
1
100
AcDbLine
 10
65.27464032693774
 20
449.8182655502062
 30
0.0
 11
265.2746403269377
 21
449.8182655502062
 31
0.0
  0
CIRCLE
  5
1A01
330
1A
100
AcDbEntity
  8
1
100
AcDbCircle
 10
235.2746403269377
 20
424.8182655502062
 30
0.0
 40
10.0
  0
LINE
  5
1A02
330
1A
100
AcDbEntity
  8
CENTER
 62
     9
100
AcDbLine
 10
231.2746403269377
 20
424.8182655502062
 30
0.0
 11
239.2746403269377
 21
424.8182655502062
 31
0.0
  0
CIRCLE
  5
1A05
330
1A
100
AcDbEntity
  8
1
100
AcDbCircle
 10
95.27464032693774
 20
424.8182655502062
 30
0.0
 40
10.0
  0
LINE
  5
1A06
330
1A
100
AcDbEntity
  8
CENTER
 62
     9
100
AcDbLine
 10
91.27464032693774
 20
424.8182655502062
 30
0.0
 11
99.27464032693775
 21
424.8182655502062
 31
0.0
  0
LINE
  5
1A07
330
1A
100
AcDbEntity
  8
CENTER
 62
     9
100
AcDbLine
 10
95.27464032693774
 20
420.8182655502062
 30
0.0
 11
95.27464032693774
 21
428.8182655502062
 31
0.0
  0
LINE
  5
1A08
330
1A
100
AcDbEntity
  8
CENTER
 62
     9
100
AcDbLine
 10
87.27464032693774
 20
424.8182655502062
 30
0.0
 11
81.27464032693774
 21
424.8182655502062
 31
0.0
  0
LINE
  5
1A09
330
1A
100
AcDbEntity
  8
CENTER
 62
     9
100
AcDbLine
 10
103.2746403269377
 20
424.8182655502062
 30
0.0
 11
109.2746403269377
 21
424.8182655502062
 31
0.0
  0
LINE
  5
1A0A
330
1A
100
AcDbEntity
  8
CENTER
 62
     9
100
AcDbLine
 10
95.27464032693774
 20
416.8182655502062
 30
0.0
 11
95.27464032693774
 21
410.8182655502061
 31
0.0
  0
LINE
  5
1A0B
330
1A
100
AcDbEntity
  8
CENTER
 62
     9
100
AcDbLine
 10
95.27464032693774
 20
432.8182655502062
 30
0.0
 11
95.27464032693774
 21
438.8182655502061
 31
0.0
  0
CIRCLE
  5
1A12
330
1A
100
AcDbEntity
  8
1
100
AcDbCircle
 10
124.2746403269386
 20
432.8182655502062
 30
0.0
 40
5.0
  0
CIRCLE
  5
1A13
330
1A
100
AcDbEntity
  8
1
 62
     9
100
AcDbCircle
 10
124.2746403269386
 20
432.8182655502062
 30
0.0
 40
4.0
  0
CIRCLE
  5
1A14
330
1A
100
AcDbEntity
  8
1
100
AcDbCircle
 10
124.2746403269386
 20
432.8182655502062
 30
0.0
 40
3.0
  0
LINE
  5
1A15
330
1A
100
AcDbEntity
  8
CENTER
 62
     9
100
AcDbLine
 10
227.2746403269377
 20
424.8182655502062
 30
0.0
 11
221.2746403269377
 21
424.8182655502062
 31
0.0
  0
ARC
  5
1A16
330
1A
100
AcDbEntity
  8
1
100
AcDbCircle
 10
203.7746403269386
 20
398.1152610646497
 30
0.0
 40
5.0
100
AcDbArc
 50
0.0
 51
31.17883553863693
  0
CIRCLE
  5
1A17
330
1A
100
AcDbEntity
  8
1
100
AcDbCircle
 10
206.2746403269386
 20
432.8182655502062
 30
0.0
 40
3.0
  0
CIRCLE
  5
1A18
330
1A
100
AcDbEntity
  8
1
 62
     9
100
AcDbCircle
 10
206.2746403269386
 20
432.8182655502062
 30
0.0
 40
4.0
  0
CIRCLE
  5
1A19
330
1A
100
AcDbEntity
  8
1
100
AcDbCircle
 10
206.2746403269386
 20
432.8182655502062
 30
0.0
 40
5.0
  0
LINE
  5
1A20
330
1A
100
AcDbEntity
  8
CENTER
 62
     9
100
AcDbLine
 10
235.2746403269377
 20
420.8182655502062
 30
0.0
 11
235.2746403269377
 21
428.8182655502062
 31
0.0
  0
LINE
  5
1A21
330
1A
100
AcDbEntity
  8
CENTER
 62
     9
100
AcDbLine
 10
243.2746403269377
 20
424.8182655502062
 30
0.0
 11
249.2746403269377
 21
424.8182655502062
 31
0.0
  0
LINE
  5
1A22
330
1A
100
AcDbEntity
  8
CENTER
 62
     9
100
AcDbLine
 10
235.2746403269377
 20
416.8182655502062
 30
0.0
 11
235.2746403269377
 21
410.8182655502061
 31
0.0
  0
LINE
  5
1A23
330
1A
100
AcDbEntity
  8
CENTER
 62
     9
100
AcDbLine
 10
235.2746403269377
 20
432.8182655502062
 30
0.0
 11
235.2746403269377
 21
438.8182655502061
 31
0.0
  0
LINE
  5
206A
330
1A
100
AcDbEntity
  8
1
100
AcDbLine
 10
430.7497617902695
 20
250.729870806613
 30
0.0
 11
430.7497617902695
 21
230.7298708066148
 31
0.0
  0
LINE
  5
206D
330
1A
100
AcDbEntity
  8
1
100
AcDbLine
 10
398.0694925135331
 20
250.729870806613
 30
0.0
 11
398.0694925135333
 21
230.7298708066148
 31
0.0
  0
LINE
  5
206E
330
1A
100
AcDbEntity
  8
1
100
AcDbLine
 10
398.069492513533
 20
95.72987080661301
 30
0.0
 11
398.069492513533
 21
75.72987080661391
 31
0.0
  0
LINE
  5
206F
330
1A
100
AcDbEntity
  8
1
100
AcDbLine
 10
430.7497617902695
 20
95.72987080661301
 30
0.0
 11
430.7497617902695
 21
75.72987080661391
 31
0.0
  0
LINE
  5
2070
330
1A
100
AcDbEntity
  8
1
100
AcDbLine
 10
430.7497617902695
 20
95.72987080661301
 30
0.0
 11
460.4096271519012
 21
95.72987080661301
 31
0.0
  0
LINE
  5
2071
330
1A
100
AcDbEntity
  8
1
100
AcDbLine
 10
430.7497617902695
 20
230.7298708066148
 30
0.0
 11
460.4096271519012
 21
230.7298708066148
 31
0.0
  0
LINE
  5
2072
330
1A
100
AcDbEntity
  8
1
100
AcDbLine
 10
398.0694925135333
 20
230.7298708066148
 30
0.0
 11
405.0822480988125
 21
228.7298708066145
 31
0.0
  0
LINE
  5
2073
330
1A
100
AcDbEntity
  8
1
100
AcDbLine
 10
430.7497617902695
 20
230.7298708066148
 30
0.0
 11
423.7370062049901
 21
228.7298708066142
 31
0.0
  0
LINE
  5
2074
330
1A
100
AcDbEntity
  8
1
100
AcDbLine
 10
398.069492513533
 20
95.72987080661301
 30
0.0
 11
405.0822480988124
 21
97.72987080661302
 31
0.0
  0
LINE
  5
2075
330
1A
100
AcDbEntity
  8
1
100
AcDbLine
 10
423.7370062049901
 20
97.72987080661302
 30
0.0
 11
430.7497617902695
 21
95.72987080661301
 31
0.0
  0
LINE
  5
2076
330
1A
100
AcDbEntity
  8
1
 62
     9
100
AcDbLine
 10
398.0694925135333
 20
230.7298708066148
 30
0.0
 11
430.7497617902695
 21
250.729870806613
 31
0.0
  0
LINE
  5
2077
330
1A
100
AcDbEntity
  8
1
 62
     9
100
AcDbLine
 10
398.0694925135331
 20
250.729870806613
 30
0.0
 11
430.7497617902695
 21
230.7298708066148
 31
0.0
  0
LINE
  5
2078
330
1A
100
AcDbEntity
  8
1
 62
     9
100
AcDbLine
 10
398.069492513533
 20
75.72987080661391
 30
0.0
 11
430.7497617902695
 21
95.72987080661301
 31
0.0
  0
LINE
  5
2079
330
1A
100
AcDbEntity
  8
1
 62
     9
100
AcDbLine
 10
398.069492513533
 20
95.72987080661301
 30
0.0
 11
430.7497617902695
 21
75.72987080661391
 31
0.0
  0
VIEWPORT
  5
22
330
17
100
AcDbEntity
 67
     1
  8
0
100
AcDbViewport
 10
204.0995788574218
 20
142.5892477035522
 30
0.0
 40
503.2899474294437
 41
314.1477025756835
 68
     1
 69
     1
1001
ACAD
1000
MVIEW
1002
{
1070
    16
1010
0.0
1020
0.0
1030
0.0
1010
0.0
1020
0.0
1030
1.0
1040
0.0
1040
314.1477025756835
1040
204.0995788574218
1040
142.5892477035522
1040
50.0
1040
0.0
1040
0.0
1070
     0
1070
   100
1070
     1
1070
     0
1070
     0
1070
     0
1070
     0
1070
     0
1040
0.0
1040
0.0
1040
0.0
1040
1.0
1040
1.0
1040
10.0
1040
10.0
1070
     0
1002
{
1002
}
1002
}
  0
VIEWPORT
  5
2CF
330
17
100
AcDbEntity
 67
     1
  8
DEFPOINTS
100
AcDbViewport
 10
212.4999999999999
 20
149.4999999999999
 30
0.0
 40
384.9999999999998
 41
265.0
 68
     2
 69
     2
1001
ACAD
1000
MVIEW
1002
{
1070
    16
1010
0.0
1020
0.0
1030
0.0
1010
0.0
1020
0.0
1030
1.0
1040
0.0
1040
529.9999996193758
1040
257.4253117002159
1040
240.140916665214
1040
50.0
1040
0.0
1040
0.0
1070
     0
1070
   100
1070
     1
1070
     0
1070
     0
1070
     0
1070
     0
1070
     1
1040
0.0
1040
0.0
1040
0.0
1040
168.0
1040
168.0
1040
0.0
1040
0.0
1070
     0
1002
{
1002
}
1002
}
  0
ENDSEC
  0
SECTION
  2
OBJECTS
  0
DICTIONARY
  5
C
330
0
100
AcDbDictionary
  3
ACAD_GROUP
350
D
  3
ACAD_LAYOUT
350
F3D
  3
ACAD_MLINESTYLE
350
E
  3
ACAD_PLOTSETTINGS
350
F3E
  3
ACAD_PLOTSTYLENAME
350
F3B
  3
CONTENTDICTIONARY
350
234
  3
ACDBHEADERROUNDTRIPXREC
350
2256
  0
DICTIONARY
  5
F6B
330
1A
100
AcDbDictionary
280
     1
  3
ACAD_LAYOUTSELFREF
360
2277
  0
DICTIONARY
  5
F69
330
17
100
AcDbDictionary
280
     1
  3
ACAD_LAYOUTSELFREF
360
2276
  0
DICTIONARY
  5
D
102
{ACAD_REACTORS
330
C
102
}
330
C
100
AcDbDictionary
  3
*A1
350
36C
  3
*A2
350
377
  3
*A3
350
419
  3
*A4
350
41A
  3
*A5
350
621
  3
*A6
350
630
  3
*A7
350
682
  3
*A8
350
84A
  0
DICTIONARY
  5
F3D
102
{ACAD_REACTORS
330
C
102
}
330
C
100
AcDbDictionary
  0
DICTIONARY
  5
E
102
{ACAD_REACTORS
330
C
102
}
330
C
100
AcDbDictionary
  3
STANDARD
350
13
  0
DICTIONARY
  5
F3E
102
{ACAD_REACTORS
330
C
102
}
330
C
100
AcDbDictionary
  0
ACDBDICTIONARYWDFLT
  5
F3B
102
{ACAD_REACTORS
330
C
102
}
330
C
100
AcDbDictionary
281
     1
  3
Normal
350
F3C
100
AcDbDictionaryWithDefault
340
F3C
  0
DICTIONARY
  5
234
102
{ACAD_REACTORS
330
C
102
}
330
C
100
AcDbDictionary
  0
DICTIONARY
  5
2256
102
{ACAD_REACTORS
330
C
102
}
330
C
100
AcDbDictionary
  3
TSTACKALIGN
350
2257
  3
TSTACKSIZE
350
2258
  3
HYPERLINKBASE
350
2259
  3
STYLESHEET
350
225A
  3
LAYOUTDICT
350
225B
  3
PLOTSETDICT
350
225C
  3
PLOTSTYLNAMDICT
350
225D
  3
LWETCUNION
350
225E
  3
INSUNITS
350
225F
  3
CEPSNTYPE
350
2260
  3
FINGERPRINTGUID
350
2261
  3
VERSIONGUID
350
2262
  3
PSVPSCALE
350
2263
  3
PUCSORTHOREF
350
2264
  3
PUCSORTHOVIEW
350
2265
  3
PUCSBASE
350
2266
  3
PUCSORGTOP
350
2267
  3
PUCSORGBOTTOM
350
2268
  3
PUCSORGLEFT
350
2269
  3
PUCSORGRIGHT
350
226A
  3
PUCSORGFRONT
350
226B
  3
PUCSORGBACK
350
226C
  3
UCSORTHOREF
350
226D
  3
UCSORTHOVIEW
350
226E
  3
UCSBASE
350
226F
  3
UCSORGTOP
350
2270
  3
UCSORGBOTTOM
350
2271
  3
UCSORGLEFT
350
2272
  3
UCSORGRIGHT
350
2273
  3
UCSORGFRONT
350
2274
  3
UCSORGBACK
350
2275
  0
XRECORD
  5
2277
102
{ACAD_REACTORS
330
F6B
102
}
330
F6B
100
AcDbXrecord
340
1A
  0
XRECORD
  5
2276
102
{ACAD_REACTORS
330
F69
102
}
330
F69
100
AcDbXrecord
340
17
  0
GROUP
  5
36C
102
{ACAD_REACTORS
330
D
102
}
330
D
100
AcDbGroup
300

 70
     1
 71
     1
  0
GROUP
  5
377
102
{ACAD_REACTORS
330
D
102
}
330
D
100
AcDbGroup
300

 70
     1
 71
     1
  0
GROUP
  5
419
102
{ACAD_REACTORS
330
D
102
}
330
D
100
AcDbGroup
300

 70
     1
 71
     1
  0
GROUP
  5
41A
102
{ACAD_REACTORS
330
D
102
}
330
D
100
AcDbGroup
300

 70
     1
 71
     1
  0
GROUP
  5
621
102
{ACAD_REACTORS
330
D
102
}
330
D
100
AcDbGroup
300

 70
     1
 71
     1
  0
GROUP
  5
630
102
{ACAD_REACTORS
330
D
102
}
330
D
100
AcDbGroup
300

 70
     1
 71
     1
  0
GROUP
  5
682
102
{ACAD_REACTORS
330
D
102
}
330
D
100
AcDbGroup
300

 70
     1
 71
     1
  0
GROUP
  5
84A
102
{ACAD_REACTORS
330
D
102
}
330
D
100
AcDbGroup
300

 70
     1
 71
     1
  0
MLINESTYLE
  5
13
102
{ACAD_REACTORS
330
E
102
}
330
E
100
AcDbMlineStyle
  2
STANDARD
 70
     0
  3

 62
     0
 51
90.0
 52
90.0
 71
     2
 49
0.5
 62
   256
  6
BYLAYER
 49
-0.5
 62
   256
  6
BYLAYER
  0
ACDBPLACEHOLDER
  5
F3C
102
{ACAD_REACTORS
330
F3B
102
}
330
F3B
100
AcDbPlaceHolder
280
     0
  0
XRECORD
  5
2257
102
{ACAD_REACTORS
330
2256
102
}
330
2256
100
AcDbXrecord
 90
        1
  0
XRECORD
  5
2258
102
{ACAD_REACTORS
330
2256
102
}
330
2256
100
AcDbXrecord
 90
       70
  0
XRECORD
  5
2259
102
{ACAD_REACTORS
330
2256
102
}
330
2256
100
AcDbXrecord
  1

  0
XRECORD
  5
225A
102
{ACAD_REACTORS
330
2256
102
}
330
2256
100
AcDbXrecord
  1

  0
XRECORD
  5
225B
102
{ACAD_REACTORS
330
2256
102
}
330
2256
100
AcDbXrecord
340
F3D
  0
XRECORD
  5
225C
102
{ACAD_REACTORS
330
2256
102
}
330
2256
100
AcDbXrecord
340
F3E
  0
XRECORD
  5
225D
102
{ACAD_REACTORS
330
2256
102
}
330
2256
100
AcDbXrecord
340
F3B
  0
XRECORD
  5
225E
102
{ACAD_REACTORS
330
2256
102
}
330
2256
100
AcDbXrecord
 90
    10781
  0
XRECORD
  5
225F
102
{ACAD_REACTORS
330
2256
102
}
330
2256
100
AcDbXrecord
 90
        0
  0
XRECORD
  5
2260
102
{ACAD_REACTORS
330
2256
102
}
330
2256
100
AcDbXrecord
 90
        0
  0
XRECORD
  5
2261
102
{ACAD_REACTORS
330
2256
102
}
330
2256
100
AcDbXrecord
  1
{792B2680-90AD-11D4-9803-00E029225608}
  0
XRECORD
  5
2262
102
{ACAD_REACTORS
330
2256
102
}
330
2256
100
AcDbXrecord
  1
{DD7DFED9-8DD9-4D86-B426-EEB3D4FC6412}
  0
XRECORD
  5
2263
102
{ACAD_REACTORS
330
2256
102
}
330
2256
100
AcDbXrecord
 40
0.0
  0
XRECORD
  5
2264
102
{ACAD_REACTORS
330
2256
102
}
330
2256
100
AcDbXrecord
340
0
  0
XRECORD
  5
2265
102
{ACAD_REACTORS
330
2256
102
}
330
2256
100
AcDbXrecord
 70
     0
  0
XRECORD
  5
2266
102
{ACAD_REACTORS
330
2256
102
}
330
2256
100
AcDbXrecord
340
0
  0
XRECORD
  5
2267
102
{ACAD_REACTORS
330
2256
102
}
330
2256
100
AcDbXrecord
 10
0.0
 20
0.0
 30
0.0
  0
XRECORD
  5
2268
102
{ACAD_REACTORS
330
2256
102
}
330
2256
100
AcDbXrecord
 10
0.0
 20
0.0
 30
0.0
  0
XRECORD
  5
2269
102
{ACAD_REACTORS
330
2256
102
}
330
2256
100
AcDbXrecord
 10
0.0
 20
0.0
 30
0.0
  0
XRECORD
  5
226A
102
{ACAD_REACTORS
330
2256
102
}
330
2256
100
AcDbXrecord
 10
0.0
 20
0.0
 30
0.0
  0
XRECORD
  5
226B
102
{ACAD_REACTORS
330
2256
102
}
330
2256
100
AcDbXrecord
 10
0.0
 20
0.0
 30
0.0
  0
XRECORD
  5
226C
102
{ACAD_REACTORS
330
2256
102
}
330
2256
100
AcDbXrecord
 10
0.0
 20
0.0
 30
0.0
  0
XRECORD
  5
226D
102
{ACAD_REACTORS
330
2256
102
}
330
2256
100
AcDbXrecord
340
0
  0
XRECORD
  5
226E
102
{ACAD_REACTORS
330
2256
102
}
330
2256
100
AcDbXrecord
 70
     0
  0
XRECORD
  5
226F
102
{ACAD_REACTORS
330
2256
102
}
330
2256
100
AcDbXrecord
340
0
  0
XRECORD
  5
2270
102
{ACAD_REACTORS
330
2256
102
}
330
2256
100
AcDbXrecord
 10
0.0
 20
0.0
 30
0.0
  0
XRECORD
  5
2271
102
{ACAD_REACTORS
330
2256
102
}
330
2256
100
AcDbXrecord
 10
0.0
 20
0.0
 30
0.0
  0
XRECORD
  5
2272
102
{ACAD_REACTORS
330
2256
102
}
330
2256
100
AcDbXrecord
 10
0.0
 20
0.0
 30
0.0
  0
XRECORD
  5
2273
102
{ACAD_REACTORS
330
2256
102
}
330
2256
100
AcDbXrecord
 10
0.0
 20
0.0
 30
0.0
  0
XRECORD
  5
2274
102
{ACAD_REACTORS
330
2256
102
}
330
2256
100
AcDbXrecord
 10
0.0
 20
0.0
 30
0.0
  0
XRECORD
  5
2275
102
{ACAD_REACTORS
330
2256
102
}
330
2256
100
AcDbXrecord
 10
0.0
 20
0.0
 30
0.0
  0
ENDSEC
  0
EOF
