  0
SECTION
  2
HEADER
  9
$ACADVER
  1
AC1015
  9
$ACADMAINTVER
 70
    20
  9
$DWGCODEPAGE
  3
ANSI_932
  9
$INSBASE
 10
0.0
 20
0.0
 30
0.0
  9
$EXTMIN
 10
-155.2328625575758
 20
1.010390636776264
 30
0.0
  9
$EXTMAX
 10
477.2177772455872
 20
324.4707176909381
 30
0.0
  9
$LIMMIN
 10
0.0
 20
0.0
  9
$LIMMAX
 10
10000.0
 20
10000.0
  9
$ORTHOMODE
 70
     1
  9
$REGENMODE
 70
     1
  9
$FILLMODE
 70
     1
  9
$QTEXTMODE
 70
     0
  9
$MIRRTEXT
 70
     1
  9
$LTSCALE
 40
5.0
  9
$ATTMODE
 70
     1
  9
$TEXTSIZE
 40
3.5
  9
$TRACEWID
 40
1.0
  9
$TEXTSTYLE
  7
AD-STANDARD
  9
$CLAYER
  8
0
  9
$CELTYPE
  6
BYLAYER
  9
$CECOLOR
 62
   256
  9
$CELTSCALE
 40
1.0
  9
$DISPSILH
 70
     0
  9
$DIMSCALE
 40
1.0
  9
$DIMASZ
 40
0.18
  9
$DIMEXO
 40
0.0625
  9
$DIMDLI
 40
0.38
  9
$DIMRND
 40
0.0
  9
$DIMDLE
 40
0.0
  9
$DIMEXE
 40
0.18
  9
$DIMTP
 40
0.0
  9
$DIMTM
 40
0.0
  9
$DIMTXT
 40
0.18
  9
$DIMCEN
 40
0.09
  9
$DIMTSZ
 40
0.0
  9
$DIMTOL
 70
     0
  9
$DIMLIM
 70
     0
  9
$DIMTIH
 70
     1
  9
$DIMTOH
 70
     1
  9
$DIMSE1
 70
     0
  9
$DIMSE2
 70
     0
  9
$DIMTAD
 70
     0
  9
$DIMZIN
 70
     0
  9
$DIMBLK
  1

  9
$DIMASO
 70
     1
  9
$DIMSHO
 70
     1
  9
$DIMPOST
  1

  9
$DIMAPOST
  1

  9
$DIMALT
 70
     0
  9
$DIMALTD
 70
     2
  9
$DIMALTF
 40
25.4
  9
$DIMLFAC
 40
1.0
  9
$DIMTOFL
 70
     0
  9
$DIMTVP
 40
0.0
  9
$DIMTIX
 70
     0
  9
$DIMSOXD
 70
     0
  9
$DIMSAH
 70
     0
  9
$DIMBLK1
  1

  9
$DIMBLK2
  1

  9
$DIMSTYLE
  2
STANDARD
  9
$DIMCLRD
 70
     0
  9
$DIMCLRE
 70
     0
  9
$DIMCLRT
 70
     0
  9
$DIMTFAC
 40
1.0
  9
$DIMGAP
 40
0.09
  9
$DIMJUST
 70
     0
  9
$DIMSD1
 70
     0
  9
$DIMSD2
 70
     0
  9
$DIMTOLJ
 70
     1
  9
$DIMTZIN
 70
     0
  9
$DIMALTZ
 70
     0
  9
$DIMALTTZ
 70
     0
  9
$DIMUPT
 70
     0
  9
$DIMDEC
 70
     4
  9
$DIMTDEC
 70
     4
  9
$DIMALTU
 70
     2
  9
$DIMALTTD
 70
     2
  9
$DIMTXSTY
  7
STANDARD
  9
$DIMAUNIT
 70
     0
  9
$DIMADEC
 70
     0
  9
$DIMALTRND
 40
0.0
  9
$DIMAZIN
 70
     0
  9
$DIMDSEP
 70
    46
  9
$DIMATFIT
 70
     3
  9
$DIMFRAC
 70
     0
  9
$DIMLDRBLK
  1

  9
$DIMLUNIT
 70
     2
  9
$DIMLWD
 70
    -2
  9
$DIMLWE
 70
    -2
  9
$DIMTMOVE
 70
     0
  9
$LUNITS
 70
     2
  9
$LUPREC
 70
     4
  9
$SKETCHINC
 40
1.0
  9
$FILLETRAD
 40
3.0
  9
$AUNITS
 70
     0
  9
$AUPREC
 70
     0
  9
$MENU
  1
.
  9
$ELEVATION
 40
0.0
  9
$PELEVATION
 40
0.0
  9
$THICKNESS
 40
0.0
  9
$LIMCHECK
 70
     0
  9
$CHAMFERA
 40
1.0
  9
$CHAMFERB
 40
1.0
  9
$CHAMFERC
 40
673.4006734006733
  9
$CHAMFERD
 40
0.0
  9
$SKPOLY
 70
     0
  9
$TDCREATE
 40
2451430.616412153
  9
$TDUCREATE
 40
2451430.241412153
  9
$TDUPDATE
 40
2457516.428960070
  9
$TDUUPDATE
 40
2457516.053960070
  9
$TDINDWG
 40
0.3537566088
  9
$TDUSRTIMER
 40
0.3537566088
  9
$USRTIMER
 70
     1
  9
$ANGBASE
 50
0.0
  9
$ANGDIR
 70
     0
  9
$PDMODE
 70
     0
  9
$PDSIZE
 40
0.0
  9
$PLINEWID
 40
0.0
  9
$SPLFRAME
 70
     0
  9
$SPLINETYPE
 70
     6
  9
$SPLINESEGS
 70
     8
  9
$HANDSEED
  5
1B4C
  9
$SURFTAB1
 70
     6
  9
$SURFTAB2
 70
     6
  9
$SURFTYPE
 70
     6
  9
$SURFU
 70
     6
  9
$SURFV
 70
     6
  9
$UCSBASE
  2

  9
$UCSNAME
  2

  9
$UCSORG
 10
0.0
 20
0.0
 30
0.0
  9
$UCSXDIR
 10
1.0
 20
0.0
 30
0.0
  9
$UCSYDIR
 10
0.0
 20
1.0
 30
0.0
  9
$UCSORTHOREF
  2

  9
$UCSORTHOVIEW
 70
     0
  9
$UCSORGTOP
 10
0.0
 20
0.0
 30
0.0
  9
$UCSORGBOTTOM
 10
0.0
 20
0.0
 30
0.0
  9
$UCSORGLEFT
 10
0.0
 20
0.0
 30
0.0
  9
$UCSORGRIGHT
 10
0.0
 20
0.0
 30
0.0
  9
$UCSORGFRONT
 10
0.0
 20
0.0
 30
0.0
  9
$UCSORGBACK
 10
0.0
 20
0.0
 30
0.0
  9
$PUCSBASE
  2

  9
$PUCSNAME
  2

  9
$PUCSORG
 10
0.0
 20
0.0
 30
0.0
  9
$PUCSXDIR
 10
1.0
 20
0.0
 30
0.0
  9
$PUCSYDIR
 10
0.0
 20
1.0
 30
0.0
  9
$PUCSORTHOREF
  2

  9
$PUCSORTHOVIEW
 70
     0
  9
$PUCSORGTOP
 10
0.0
 20
0.0
 30
0.0
  9
$PUCSORGBOTTOM
 10
0.0
 20
0.0
 30
0.0
  9
$PUCSORGLEFT
 10
0.0
 20
0.0
 30
0.0
  9
$PUCSORGRIGHT
 10
0.0
 20
0.0
 30
0.0
  9
$PUCSORGFRONT
 10
0.0
 20
0.0
 30
0.0
  9
$PUCSORGBACK
 10
0.0
 20
0.0
 30
0.0
  9
$USERI1
 70
     0
  9
$USERI2
 70
     0
  9
$USERI3
 70
     0
  9
$USERI4
 70
     0
  9
$USERI5
 70
     0
  9
$USERR1
 40
0.0
  9
$USERR2
 40
0.0
  9
$USERR3
 40
0.0
  9
$USERR4
 40
0.0
  9
$USERR5
 40
0.0
  9
$WORLDVIEW
 70
     1
  9
$SHADEDGE
 70
     3
  9
$SHADEDIF
 70
    70
  9
$TILEMODE
 70
     1
  9
$MAXACTVP
 70
    16
  9
$PINSBASE
 10
0.0
 20
0.0
 30
0.0
  9
$PLIMCHECK
 70
     0
  9
$PEXTMIN
 10
19.82208352049588
 20
8.918701873764803
 30
-0.0000000349181948
  9
$PEXTMAX
 10
405.1766977379759
 20
282.1672217435753
 30
0.0000000814935746
  9
$PLIMMIN
 10
11.72529288744923
 20
0.8219099261060502
  9
$PLIMMAX
 10
421.0290789925018
 20
290.2639913428282
  9
$UNITMODE
 70
     0
  9
$VISRETAIN
 70
     0
  9
$PLINEGEN
 70
     0
  9
$PSLTSCALE
 70
     0
  9
$TREEDEPTH
 70
  3020
  9
$CMLSTYLE
  2
STANDARD
  9
$CMLJUST
 70
     0
  9
$CMLSCALE
 40
1.0
  9
$PROXYGRAPHICS
 70
     1
  9
$MEASUREMENT
 70
     1
  9
$CELWEIGHT
370
    -1
  9
$ENDCAPS
280
     0
  9
$JOINSTYLE
280
     0
  9
$LWDISPLAY
290
     0
  9
$INSUNITS
 70
     0
  9
$HYPERLINKBASE
  1

  9
$STYLESHEET
  1

  9
$XEDIT
290
     1
  9
$CEPSNTYPE
380
     0
  9
$PSTYLEMODE
290
     1
  9
$FINGERPRINTGUID
  2
{8551528C-7E8E-45E3-9602-1C96CC63731E}
  9
$VERSIONGUID
  2
{B04F4365-2FFF-4F85-909C-271C6C21AFC7}
  9
$EXTNAMES
290
     1
  9
$PSVPSCALE
 40
0.0
  9
$OLESTARTUP
290
     0
  0
ENDSEC
  0
SECTION
  2
CLASSES
  0
CLASS
  1
DICTIONARYVAR
  2
AcDbDictionaryVar
  3
ObjectDBX Classes
 90
        0
280
     0
281
     0
  0
CLASS
  1
ACDBDICTIONARYWDFLT
  2
AcDbDictionaryWithDefault
  3
ObjectDBX Classes
 90
        0
280
     0
281
     0
  0
CLASS
  1
MATERIAL
  2
AcDbMaterial
  3
ObjectDBX Classes
 90
     1153
280
     0
281
     0
  0
CLASS
  1
VISUALSTYLE
  2
AcDbVisualStyle
  3
ObjectDBX Classes
 90
     4095
280
     0
281
     0
  0
CLASS
  1
TABLESTYLE
  2
AcDbTableStyle
  3
ObjectDBX Classes
 90
     4095
280
     0
281
     0
  0
CLASS
  1
SCALE
  2
AcDbScale
  3
ObjectDBX Classes
 90
     1153
280
     0
281
     0
  0
CLASS
  1
MLEADERSTYLE
  2
AcDbMLeaderStyle
  3
ACDB_MLEADERSTYLE_CLASS
 90
     4095
280
     0
281
     0
  0
CLASS
  1
CELLSTYLEMAP
  2
AcDbCellStyleMap
  3
ObjectDBX Classes
 90
     1152
280
     0
281
     0
  0
CLASS
  1
SORTENTSTABLE
  2
AcDbSortentsTable
  3
ObjectDBX Classes
 90
        0
280
     0
281
     0
  0
CLASS
  1
ACDBPLACEHOLDER
  2
AcDbPlaceHolder
  3
ObjectDBX Classes
 90
        0
280
     0
281
     0
  0
CLASS
  1
LAYOUT
  2
AcDbLayout
  3
ObjectDBX Classes
 90
        0
280
     0
281
     0
  0
ENDSEC
  0
SECTION
  2
TABLES
  0
TABLE
  2
VPORT
  5
8
330
0
100
AcDbSymbolTable
 70
     1
  0
VPORT
  5
1955
330
8
100
AcDbSymbolTableRecord
100
AcDbViewportTableRecord
  2
*ACTIVE
 70
     0
 10
0.0
 20
0.0
 11
1.0
 21
1.0
 12
339.1944963288527
 22
169.4427976382658
 13
0.0
 23
0.0
 14
168.0
 24
168.0
 15
0.0
 25
0.0
 16
0.0
 26
0.0
 36
1.0
 17
0.0
 27
0.0
 37
0.0
 40
751.3543288910885
 41
1.601973684210526
 42
50.0
 43
0.0
 44
0.0
 50
0.0
 51
0.0
 71
     0
 72
   100
 73
     1
 74
     0
 75
     0
 76
     0
 77
     0
 78
     1
281
     0
 65
     1
110
0.0
120
0.0
130
0.0
111
1.0
121
0.0
131
0.0
112
0.0
122
1.0
132
0.0
 79
     0
146
0.0
1001
ACAD_NAV_VCDISPLAY
1070
     3
  0
ENDTAB
  0
TABLE
  2
LTYPE
  5
5
330
0
100
AcDbSymbolTable
 70
     5
  0
LTYPE
  5
14
330
5
100
AcDbSymbolTableRecord
100
AcDbLinetypeTableRecord
  2
BYBLOCK
 70
     0
  3

 72
    65
 73
     0
 40
0.0
  0
LTYPE
  5
15
330
5
100
AcDbSymbolTableRecord
100
AcDbLinetypeTableRecord
  2
BYLAYER
 70
     0
  3

 72
    65
 73
     0
 40
0.0
  0
LTYPE
  5
16
330
5
100
AcDbSymbolTableRecord
100
AcDbLinetypeTableRecord
  2
CONTINUOUS
 70
     0
  3
Solid line
 72
    65
 73
     0
 40
0.0
  0
LTYPE
  5
6E
330
5
100
AcDbSymbolTableRecord
100
AcDbLinetypeTableRecord
  2
CENTER
 70
     0
  3
____ _ ____ _ ____ _ ____ _ ____ _ ____ _ ____ 
 72
    65
 73
     4
 40
2.0
 49
1.25
 74
     0
 49
-0.25
 74
     0
 49
0.25
 74
     0
 49
-0.25
 74
     0
  0
LTYPE
  5
6F
330
5
100
AcDbSymbolTableRecord
100
AcDbLinetypeTableRecord
  2
HIDDEN
 70
     0
  3
__ __ __ __ __ __ __ __ __ __ __ __ __ __ __ __
 72
    65
 73
     2
 40
0.375
 49
0.25
 74
     0
 49
-0.125
 74
     0
  0
ENDTAB
  0
TABLE
  2
LAYER
  5
2
102
{ACAD_XDICTIONARY
360
1A1F
102
}
330
0
100
AcDbSymbolTable
 70
     6
  0
LAYER
  5
F
102
{ACAD_XDICTIONARY
360
19C8
102
}
330
2
100
AcDbSymbolTableRecord
100
AcDbLayerTableRecord
  2
0
 70
     0
 62
     7
  6
CONTINUOUS
370
    -3
390
1970
  0
LAYER
  5
72
330
2
100
AcDbSymbolTableRecord
100
AcDbLayerTableRecord
  2
DEFPOINTS
 70
     0
 62
     7
  6
CONTINUOUS
290
     0
370
    -3
390
1970
  0
LAYER
  5
74
102
{ACAD_XDICTIONARY
360
19CC
102
}
330
2
100
AcDbSymbolTableRecord
100
AcDbLayerTableRecord
  2
CENTER
 70
     0
 62
     9
  6
CENTER
370
    -3
390
1970
  0
LAYER
  5
105B
102
{ACAD_XDICTIONARY
360
19D0
102
}
330
2
100
AcDbSymbolTableRecord
100
AcDbLayerTableRecord
  2
7
 70
     0
 62
     7
  6
CONTINUOUS
370
    -3
390
1970
  0
ENDTAB
  0
TABLE
  2
STYLE
  5
3
330
0
100
AcDbSymbolTable
 70
     6
  0
STYLE
  5
10
330
3
100
AcDbSymbolTableRecord
100
AcDbTextStyleTableRecord
  2
STANDARD
 70
     0
 40
0.0
 41
0.8
 50
0.0
 71
     0
 42
84.17508417508416
  3
TXT
  4
bigfont.shx
  0
STYLE
  5
63
330
3
100
AcDbSymbolTableRecord
100
AcDbTextStyleTableRecord
  2
AD-STANDARD
 70
     0
 40
0.0
 41
0.8
 50
0.0
 71
     0
 42
3.5
  3
C:\Program Files\AutoCAD LT\romans.shx
  4
bigfont.shx
  0
ENDTAB
  0
TABLE
  2
VIEW
  5
6
330
0
100
AcDbSymbolTable
 70
     1
  0
ENDTAB
  0
TABLE
  2
UCS
  5
7
330
0
100
AcDbSymbolTable
 70
     0
  0
ENDTAB
  0
TABLE
  2
APPID
  5
9
330
0
100
AcDbSymbolTable
 70
     9
  0
APPID
  5
11
330
9
100
AcDbSymbolTableRecord
100
AcDbRegAppTableRecord
  2
ACAD
 70
     0
  0
APPID
  5
22A
330
9
100
AcDbSymbolTableRecord
100
AcDbRegAppTableRecord
  2
CONTENTTABDATA
 70
     0
  0
APPID
  5
22B
330
9
100
AcDbSymbolTableRecord
100
AcDbRegAppTableRecord
  2
CONTENTCURRENTTAB
 70
     0
  0
APPID
  5
232
330
9
100
AcDbSymbolTableRecord
100
AcDbRegAppTableRecord
  2
CONTENTBLOCKDESCRIPTION
 70
     0
  0
APPID
  5
233
330
9
100
AcDbSymbolTableRecord
100
AcDbRegAppTableRecord
  2
CONTENTBLOCKICON
 70
     0
  0
APPID
  5
19C7
330
9
100
AcDbSymbolTableRecord
100
AcDbRegAppTableRecord
  2
ACAD_PSEXT
 70
     0
  0
APPID
  5
1A26
330
9
100
AcDbSymbolTableRecord
100
AcDbRegAppTableRecord
  2
ACAD_NAV_VCDISPLAY
 70
     0
  0
APPID
  5
1A27
330
9
100
AcDbSymbolTableRecord
100
AcDbRegAppTableRecord
  2
ACAD_EXEMPT_FROM_CAD_STANDARDS
 70
     0
  0
APPID
  5
1B48
330
9
100
AcDbSymbolTableRecord
100
AcDbRegAppTableRecord
  2
ACAD_MLEADERVER
 70
     0
  0
ENDTAB
  0
TABLE
  2
DIMSTYLE
  5
A
330
0
100
AcDbSymbolTable
 70
     3
100
AcDbDimStyleTable
 71
     0
  0
DIMSTYLE
105
1D
330
A
100
AcDbSymbolTableRecord
100
AcDbDimStyleTableRecord
  2
STANDARD
 70
     0
340
10
  0
ENDTAB
  0
TABLE
  2
BLOCK_RECORD
  5
1
330
0
100
AcDbSymbolTable
 70
    21
  0
BLOCK_RECORD
  5
1A
102
{ACAD_XDICTIONARY
360
1A93
102
}
330
1
100
AcDbSymbolTableRecord
100
AcDbBlockTableRecord
  2
*MODEL_SPACE
340
19BC
  0
BLOCK_RECORD
  5
17
330
1
100
AcDbSymbolTableRecord
100
AcDbBlockTableRecord
  2
*PAPER_SPACE
340
19BD
  0
ENDTAB
  0
ENDSEC
  0
SECTION
  2
BLOCKS
  0
BLOCK
  5
1B
330
1A
100
AcDbEntity
  8
0
100
AcDbBlockBegin
  2
*MODEL_SPACE
 70
     0
 10
0.0
 20
0.0
 30
0.0
  3
*MODEL_SPACE
  1

  0
ENDBLK
  5
1C
330
1A
100
AcDbEntity
  8
0
100
AcDbBlockEnd
  0
BLOCK
  5
18
330
17
100
AcDbEntity
 67
     1
  8
0
100
AcDbBlockBegin
  2
*PAPER_SPACE
 70
     0
 10
0.0
 20
0.0
 30
0.0
  3
*PAPER_SPACE
  1

  0
ENDBLK
  5
19
330
17
100
AcDbEntity
 67
     1
  8
0
100
AcDbBlockEnd
  0
ENDSEC
  0
SECTION
  2
ENTITIES
  0
LINE
  5
E79
330
1A
100
AcDbEntity
  8
7
100
AcDbLine
 10
99.23193570221066
 20
102.9170165538044
 30
0.0
 11
189.2319357022097
 21
102.9170165538053
 31
0.0
  0
LINE
  5
E7C
330
1A
100
AcDbEntity
  8
7
100
AcDbLine
 10
99.23193570220973
 20
62.91701655380347
 30
0.0
 11
99.23193570221156
 21
102.9170165538044
 31
0.0
  0
LINE
  5
E7D
330
1A
100
AcDbEntity
  8
CENTER
100
AcDbLine
 10
31.54425091834673
 20
82.91701655380439
 30
0.0
 11
314.2319357022088
 21
82.91701655380348
 31
0.0
  0
LINE
  5
E80
330
1A
100
AcDbEntity
  8
7
100
AcDbLine
 10
189.2319357022106
 20
108.9170165538044
 30
0.0
 11
189.2319357022106
 21
102.9170165538053
 31
0.0
  0
LINE
  5
E83
330
1A
100
AcDbEntity
  8
7
100
AcDbLine
 10
189.2319357022097
 20
62.9170165538053
 30
0.0
 11
99.23193570221066
 21
62.91701655380439
 31
0.0
  0
LINE
  5
E84
330
1A
100
AcDbEntity
  8
7
100
AcDbLine
 10
189.2319357022106
 20
108.9170165538044
 30
0.0
 11
196.7319357022106
 21
108.9170165538044
 31
0.0
  0
LINE
  5
E87
330
1A
100
AcDbEntity
  8
7
100
AcDbLine
 10
189.2319357022106
 20
56.91701655380438
 30
0.0
 11
196.7319357022106
 21
56.91701655380438
 31
0.0
  0
LINE
  5
E8B
330
1A
100
AcDbEntity
  8
7
100
AcDbLine
 10
269.2319357022116
 20
97.91701655380348
 30
0.0
 11
309.2319357022088
 21
97.91701655380348
 31
0.0
  0
LINE
  5
E8C
330
1A
100
AcDbEntity
  8
7
100
AcDbLine
 10
269.2319357022116
 20
67.91701655380347
 30
0.0
 11
309.2319357022088
 21
67.91701655380347
 31
0.0
  0
LINE
  5
E8D
330
1A
100
AcDbEntity
  8
CENTER
100
AcDbLine
 10
289.2319357022106
 20
99.91701655380348
 30
0.0
 11
289.2319357022079
 21
65.91701655380347
 31
0.0
  0
LINE
  5
E9D
330
1A
100
AcDbEntity
  8
7
100
AcDbLine
 10
196.7319357022106
 20
108.9170165538044
 30
0.0
 11
196.7319357022106
 21
56.91701655380438
 31
0.0
  0
LINE
  5
F5C
330
1A
100
AcDbEntity
  8
7
100
AcDbLine
 10
201.7319357022107
 20
285.4632555663556
 30
0.0
 11
211.2469357022106
 21
285.4632555663556
 31
0.0
  0
LINE
  5
F5D
330
1A
100
AcDbEntity
  8
7
100
AcDbLine
 10
201.7319357022107
 20
217.4632555663556
 30
0.0
 11
211.2469357022106
 21
217.4632555663556
 31
0.0
  0
LINE
  5
F5E
330
1A
100
AcDbEntity
  8
CENTER
100
AcDbLine
 10
94.23193570221064
 20
251.4632555663557
 30
0.0
 11
314.2319357022115
 21
251.4632555663557
 31
0.0
  0
LINE
  5
F5F
330
1A
100
AcDbEntity
  8
7
100
AcDbLine
 10
198.7319357022106
 20
276.9632555663557
 30
0.0
 11
198.7319357022106
 21
225.9632555663557
 31
0.0
  0
LINE
  5
F60
330
1A
100
AcDbEntity
  8
7
100
AcDbLine
 10
199.7319357022106
 20
276.9632555663557
 30
0.0
 11
199.7319357022106
 21
225.9632555663557
 31
0.0
  0
ARC
  5
F61
330
1A
100
AcDbEntity
  8
7
100
AcDbCircle
 10
199.2319357022106
 20
225.9632555663557
 30
0.0
 40
0.5
100
AcDbArc
 50
180.0
 51
0.0
  0
ARC
  5
F62
330
1A
100
AcDbEntity
  8
7
100
AcDbCircle
 10
199.2319357022106
 20
276.9632555663557
 30
0.0
 40
0.5
100
AcDbArc
 50
0.0
 51
180.0
  0
ARC
  5
F63
330
1A
100
AcDbEntity
  8
7
100
AcDbCircle
 10
200.7319357022106
 20
276.9632555663557
 30
0.0
 40
1.0
100
AcDbArc
 50
180.0
 51
0.000000000000007
  0
ARC
  5
F64
330
1A
100
AcDbEntity
  8
7
100
AcDbCircle
 10
200.7319357022106
 20
225.9632555663557
 30
0.0
 40
1.0
100
AcDbArc
 50
0.000000000000007
 51
180.0
  0
LINE
  5
F65
330
1A
100
AcDbEntity
  8
7
100
AcDbLine
 10
201.7319357022107
 20
285.4632555663556
 30
0.0
 11
201.7319357022107
 21
217.4632555663556
 31
0.0
  0
ARC
  5
F67
330
1A
100
AcDbEntity
  8
7
100
AcDbCircle
 10
197.7319357022106
 20
276.9632555663557
 30
0.0
 40
1.0
100
AcDbArc
 50
180.0
 51
0.0
  0
ARC
  5
F69
330
1A
100
AcDbEntity
  8
7
100
AcDbCircle
 10
197.7319357022106
 20
225.9632555663557
 30
0.0
 40
1.0
100
AcDbArc
 50
0.0
 51
180.0
  0
LINE
  5
F6A
330
1A
100
AcDbEntity
  8
7
100
AcDbLine
 10
196.7319357022106
 20
277.4632555663556
 30
0.0
 11
196.7319357022106
 21
225.4632555663556
 31
0.0
  0
LINE
  5
F6B
330
1A
100
AcDbEntity
  8
7
100
AcDbLine
 10
196.7319357022106
 20
225.4632555663556
 30
0.0
 11
100.2319357022106
 21
225.4632555663566
 31
0.0
  0
LINE
  5
F6C
330
1A
100
AcDbEntity
  8
7
100
AcDbLine
 10
100.2319357022106
 20
277.4632555663548
 30
0.0
 11
119.2319357022115
 21
277.4632555663556
 31
0.0
  0
LINE
  5
F6E
330
1A
100
AcDbEntity
  8
7
100
AcDbLine
 10
99.23193570221066
 20
226.4632555663566
 30
0.0
 11
99.23193570221066
 21
276.4632555663547
 31
0.0
  0
LINE
  5
F85
330
1A
100
AcDbEntity
  8
7
100
AcDbLine
 10
269.2319357022116
 20
284.4632555663557
 30
0.0
 11
269.2319357022116
 21
218.4632555663557
 31
0.0
  0
LINE
  5
F87
330
1A
100
AcDbEntity
  8
7
100
AcDbLine
 10
211.2469357022106
 20
285.4632555663556
 30
0.0
 11
211.2469357022106
 21
217.4632555663556
 31
0.0
  0
LINE
  5
F91
330
1A
100
AcDbEntity
  8
7
100
AcDbLine
 10
309.2319357022106
 20
270.4632555663511
 30
0.0
 11
309.2319357022088
 21
232.4632555663511
 31
0.0
  0
LINE
  5
F92
330
1A
100
AcDbEntity
  8
7
100
AcDbLine
 10
269.2319357022098
 20
231.4632555663511
 30
0.0
 11
308.2319357022088
 21
231.4632555663511
 31
0.0
  0
LINE
  5
F93
330
1A
100
AcDbEntity
  8
7
100
AcDbLine
 10
269.2319357022116
 20
271.4632555663502
 30
0.0
 11
308.2319357022107
 21
271.4632555663511
 31
0.0
  0
LINE
  5
FB6
330
1A
100
AcDbEntity
  8
CENTER
100
AcDbLine
 10
114.2319357022106
 20
242.4632555663556
 30
0.0
 11
114.2319357022106
 21
262.4632555663557
 31
0.0
  0
LINE
  5
FB7
330
1A
100
AcDbEntity
  8
CENTER
100
AcDbLine
 10
164.2319357022106
 20
242.4632555663547
 30
0.0
 11
164.2319357022106
 21
262.4632555663548
 31
0.0
  0
LINE
  5
FBA
330
1A
100
AcDbEntity
  8
CENTER
100
AcDbLine
 10
289.2319357022097
 20
261.4632555663511
 30
0.0
 11
289.2319357022097
 21
243.4632555663511
 31
0.0
  0
LINE
  5
FBB
330
1A
100
AcDbEntity
  8
CENTER
100
AcDbLine
 10
164.2319357022115
 20
60.41701655380439
 30
0.0
 11
164.2319357022106
 21
105.4170165538053
 31
0.0
  0
LINE
  5
FBC
330
1A
100
AcDbEntity
  8
CENTER
100
AcDbLine
 10
114.2319357022106
 20
60.41701655380439
 30
0.0
 11
114.2319357022106
 21
105.4170165538044
 31
0.0
  0
LINE
  5
FCB
330
1A
100
AcDbEntity
  8
7
  6
HIDDEN
 48
3.0
100
AcDbLine
 10
105.2319357022106
 20
63.91701655380439
 30
0.0
 11
104.2319357022106
 21
62.91701655380439
 31
0.0
  0
LINE
  5
FCC
330
1A
100
AcDbEntity
  8
7
  6
HIDDEN
 48
3.0
100
AcDbLine
 10
105.2319357022097
 20
101.9170165538044
 30
0.0
 11
104.2319357022097
 21
102.9170165538044
 31
0.0
  0
LINE
  5
FCD
330
1A
100
AcDbEntity
  8
7
  6
HIDDEN
 48
3.0
100
AcDbLine
 10
105.2319357022106
 20
63.91701655380439
 30
0.0
 11
105.2319357022106
 21
101.9170165538034
 31
0.0
  0
LINE
  5
FCE
330
1A
100
AcDbEntity
  8
7
  6
HIDDEN
 48
3.0
100
AcDbLine
 10
123.2319357022115
 20
63.91701655380439
 30
0.0
 11
124.2319357022115
 21
62.91701655380439
 31
0.0
  0
LINE
  5
FCF
330
1A
100
AcDbEntity
  8
7
  6
HIDDEN
 48
3.0
100
AcDbLine
 10
123.2319357022106
 20
101.9170165538044
 30
0.0
 11
124.2319357022106
 21
102.9170165538044
 31
0.0
  0
LINE
  5
FD0
330
1A
100
AcDbEntity
  8
7
  6
HIDDEN
 48
3.0
100
AcDbLine
 10
123.2319357022106
 20
63.91701655380439
 30
0.0
 11
123.2319357022106
 21
101.9170165538044
 31
0.0
  0
LINE
  5
FD1
330
1A
100
AcDbEntity
  8
7
  6
HIDDEN
 48
3.0
100
AcDbLine
 10
105.2319357022097
 20
101.9170165538044
 30
0.0
 11
123.2319357022106
 21
101.9170165538044
 31
0.0
  0
LINE
  5
FD2
330
1A
100
AcDbEntity
  8
7
  6
HIDDEN
 48
3.0
100
AcDbLine
 10
105.2319357022106
 20
63.91701655380439
 30
0.0
 11
123.2319357022115
 21
63.91701655380439
 31
0.0
  0
LINE
  5
FDE
330
1A
100
AcDbEntity
  8
7
100
AcDbLine
 10
154.2319357022115
 20
272.4632555663557
 30
0.0
 11
119.2319357022115
 21
272.4632555663557
 31
0.0
  0
LINE
  5
FDF
330
1A
100
AcDbEntity
  8
7
100
AcDbLine
 10
119.2319357022115
 20
277.4632555663556
 30
0.0
 11
119.2319357022115
 21
272.4632555663557
 31
0.0
  0
LINE
  5
FE0
330
1A
100
AcDbEntity
  8
7
100
AcDbLine
 10
154.2319357022115
 20
277.4632555663548
 30
0.0
 11
154.2319357022115
 21
272.4632555663557
 31
0.0
  0
LINE
  5
FE1
330
1A
100
AcDbEntity
  8
7
100
AcDbLine
 10
154.2319357022115
 20
277.4632555663556
 30
0.0
 11
196.7319357022106
 21
277.4632555663566
 31
0.0
  0
LINE
  5
FE4
330
1A
100
AcDbEntity
  8
7
100
AcDbLine
 10
119.7319357022115
 20
274.9632555663557
 30
0.0
 11
153.7319357022115
 21
274.9632555663557
 31
0.0
  0
LINE
  5
FE5
330
1A
100
AcDbEntity
  8
7
100
AcDbLine
 10
153.7319357022115
 20
274.9632555663557
 30
0.0
 11
153.7319357022115
 21
272.9632555663557
 31
0.0
  0
LINE
  5
FE6
330
1A
100
AcDbEntity
  8
7
100
AcDbLine
 10
153.7319357022115
 20
272.9632555663557
 30
0.0
 11
119.7319357022115
 21
272.9632555663557
 31
0.0
  0
LINE
  5
FE7
330
1A
100
AcDbEntity
  8
7
100
AcDbLine
 10
119.7319357022115
 20
272.9632555663557
 30
0.0
 11
119.7319357022115
 21
274.9632555663557
 31
0.0
  0
LINE
  5
FE8
330
1A
100
AcDbEntity
  8
7
100
AcDbLine
 10
119.7319357022115
 20
272.9632555663557
 30
0.0
 11
119.7319357022115
 21
272.4632555663557
 31
0.0
  0
LINE
  5
FE9
330
1A
100
AcDbEntity
  8
7
100
AcDbLine
 10
119.7319357022115
 20
272.4632555663557
 30
0.0
 11
153.7319357022115
 21
272.4632555663557
 31
0.0
  0
LINE
  5
FEA
330
1A
100
AcDbEntity
  8
7
100
AcDbLine
 10
153.7319357022115
 20
272.4632555663557
 30
0.0
 11
153.7319357022115
 21
272.9632555663557
 31
0.0
  0
LINE
  5
FEE
330
1A
100
AcDbEntity
  8
7
100
AcDbLine
 10
120.2319357022115
 20
278.6632555663555
 30
0.0
 11
120.2319357022115
 21
274.9632555663557
 31
0.0
  0
LINE
  5
FEF
330
1A
100
AcDbEntity
  8
7
100
AcDbLine
 10
120.2319357022115
 20
274.9632555663557
 30
0.0
 11
127.2319357022115
 21
274.9632555663557
 31
0.0
  0
LINE
  5
FF0
330
1A
100
AcDbEntity
  8
7
100
AcDbLine
 10
127.2319357022115
 20
274.9632555663557
 30
0.0
 11
127.2319357022115
 21
278.6632555663555
 31
0.0
  0
LINE
  5
FF1
330
1A
100
AcDbEntity
  8
7
100
AcDbLine
 10
126.7123204599402
 20
278.9632555663557
 30
0.0
 11
120.7515509444829
 21
278.9632555663557
 31
0.0
  0
LINE
  5
FF2
330
1A
100
AcDbEntity
  8
7
100
AcDbLine
 10
127.2319357022115
 20
278.6632555663555
 30
0.0
 11
120.2319357022115
 21
278.6632555663555
 31
0.0
  0
LINE
  5
FF3
330
1A
100
AcDbEntity
  8
7
100
AcDbLine
 10
120.2319357022115
 20
278.6632555663555
 30
0.0
 11
120.7515509444829
 21
278.9632555663557
 31
0.0
  0
LINE
  5
FF5
330
1A
100
AcDbEntity
  8
7
100
AcDbLine
 10
127.2319357022115
 20
278.6632555663555
 30
0.0
 11
126.7123204599402
 21
278.9632555663557
 31
0.0
  0
LINE
  5
FF6
330
1A
100
AcDbEntity
  8
7
100
AcDbLine
 10
146.2319357022115
 20
274.9632555663557
 30
0.0
 11
153.2319357022115
 21
274.9632555663557
 31
0.0
  0
LINE
  5
FF7
330
1A
100
AcDbEntity
  8
7
100
AcDbLine
 10
153.2319357022115
 20
278.6632555663555
 30
0.0
 11
146.2319357022115
 21
278.6632555663555
 31
0.0
  0
LINE
  5
FF8
330
1A
100
AcDbEntity
  8
7
100
AcDbLine
 10
146.2319357022115
 20
278.6632555663555
 30
0.0
 11
146.7515509444829
 21
278.9632555663557
 31
0.0
  0
LINE
  5
FF9
330
1A
100
AcDbEntity
  8
7
100
AcDbLine
 10
146.2319357022115
 20
278.6632555663555
 30
0.0
 11
146.2319357022115
 21
274.9632555663557
 31
0.0
  0
LINE
  5
FFA
330
1A
100
AcDbEntity
  8
7
100
AcDbLine
 10
153.2319357022115
 20
278.6632555663555
 30
0.0
 11
152.7123204599402
 21
278.9632555663557
 31
0.0
  0
LINE
  5
FFB
330
1A
100
AcDbEntity
  8
7
100
AcDbLine
 10
153.2319357022115
 20
274.9632555663557
 30
0.0
 11
153.2319357022115
 21
278.6632555663555
 31
0.0
  0
LINE
  5
FFC
330
1A
100
AcDbEntity
  8
7
100
AcDbLine
 10
152.7123204599402
 20
278.9632555663557
 30
0.0
 11
146.7515509444829
 21
278.9632555663557
 31
0.0
  0
LINE
  5
1005
330
1A
100
AcDbEntity
  8
7
100
AcDbLine
 10
54.87738396940222
 20
270.9632555663556
 30
0.0
 11
54.87738396940222
 21
261.9632555663557
 31
0.0
  0
LINE
  5
1007
330
1A
100
AcDbEntity
  8
7
100
AcDbLine
 10
95.73193570221064
 20
270.9632555663556
 30
0.0
 11
54.87738396940222
 21
270.9632555663556
 31
0.0
  0
LINE
  5
1008
330
1A
100
AcDbEntity
  8
7
100
AcDbLine
 10
95.73193570221155
 20
261.9632555663557
 30
0.0
 11
54.87738396940222
 21
261.9632555663557
 31
0.0
  0
LINE
  5
1016
330
1A
100
AcDbEntity
  8
7
100
AcDbLine
 10
95.73193570221247
 20
273.4632555663556
 30
0.0
 11
99.23193570221156
 21
273.4632555663556
 31
0.0
  0
LINE
  5
1017
330
1A
100
AcDbEntity
  8
7
100
AcDbLine
 10
95.73193570221155
 20
259.4632555663557
 30
0.0
 11
99.23193570221156
 21
259.4632555663557
 31
0.0
  0
LINE
  5
1018
330
1A
100
AcDbEntity
  8
7
 62
     8
100
AcDbLine
 10
95.73193570221247
 20
272.9632555663557
 30
0.0
 11
99.23193570221156
 21
272.9632555663557
 31
0.0
  0
LINE
  5
1019
330
1A
100
AcDbEntity
  8
7
 62
     8
100
AcDbLine
 10
95.73193570221155
 20
259.9632555663557
 30
0.0
 11
99.23193570221156
 21
259.9632555663557
 31
0.0
  0
LINE
  5
101A
330
1A
100
AcDbEntity
  8
7
 62
     8
100
AcDbLine
 10
95.73193570221064
 20
76.41701655380439
 30
0.0
 11
99.23193570221066
 21
76.41701655380439
 31
0.0
  0
LINE
  5
101B
330
1A
100
AcDbEntity
  8
7
 62
     8
100
AcDbLine
 10
95.73193570220974
 20
89.41701655380439
 30
0.0
 11
99.23193570221066
 21
89.41701655380439
 31
0.0
  0
LINE
  5
101C
330
1A
100
AcDbEntity
  8
7
100
AcDbLine
 10
95.73193570221064
 20
75.91701655380439
 30
0.0
 11
99.23193570221066
 21
75.91701655380439
 31
0.0
  0
LINE
  5
101D
330
1A
100
AcDbEntity
  8
7
100
AcDbLine
 10
95.73193570220974
 20
89.91701655380438
 30
0.0
 11
99.23193570221066
 21
89.91701655380438
 31
0.0
  0
LINE
  5
101E
330
1A
100
AcDbEntity
  8
7
100
AcDbLine
 10
95.73193570221064
 20
75.91701655380439
 30
0.0
 11
95.73193570220974
 21
89.91701655380438
 31
0.0
  0
LINE
  5
101F
330
1A
100
AcDbEntity
  8
7
100
AcDbLine
 10
95.73193570221064
 20
78.41701655380439
 30
0.0
 11
54.8773839694013
 21
78.41701655380439
 31
0.0
  0
LINE
  5
1020
330
1A
100
AcDbEntity
  8
7
100
AcDbLine
 10
95.73193570220974
 20
87.41701655380438
 30
0.0
 11
54.8773839694013
 21
87.41701655380438
 31
0.0
  0
LINE
  5
1021
330
1A
100
AcDbEntity
  8
7
100
AcDbLine
 10
54.8773839694013
 20
87.41701655380438
 30
0.0
 11
54.8773839694013
 21
78.41701655380439
 31
0.0
  0
LINE
  5
1024
330
1A
100
AcDbEntity
  8
7
100
AcDbLine
 10
54.87738396940222
 20
269.9632555663557
 30
0.0
 11
36.54425091834764
 21
269.9632555663566
 31
0.0
  0
LINE
  5
1025
330
1A
100
AcDbEntity
  8
7
100
AcDbLine
 10
54.87738396940222
 20
262.9632555663556
 30
0.0
 11
36.54089855100938
 21
262.9632555663556
 31
0.0
  0
SPLINE
  5
1030
330
1A
100
AcDbEntity
  8
7
100
AcDbSpline
210
0.0
220
0.0
230
1.0
 70
  1064
 71
     3
 72
    13
 73
     9
 74
     7
 42
0.0000000001
 43
0.0000000001
 44
0.0000000001
 40
0.0
 40
0.0
 40
0.0
 40
0.0
 40
1.903943276465977
 40
3.807886552931954
 40
5.711829829398767
 40
7.615773105863908
 40
9.519716382329049
 40
11.42365965879586
 40
11.42365965879586
 40
11.42365965879586
 40
11.42365965879586
 10
36.54425091834764
 20
269.9632555663557
 30
0.0
 10
36.16925091834764
 20
269.3859051390052
 30
0.0
 10
35.41925091834763
 20
268.2312042843044
 30
0.0
 10
36.54425091834787
 20
266.3914606945606
 30
0.0
 10
37.66925091834762
 20
264.982486335586
 30
0.0
 10
36.54425091834766
 20
261.9581273612281
 30
0.0
 10
35.41925091834763
 20
264.9645376176373
 30
0.0
 10
36.16925091834754
 20
265.9636829167827
 30
0.0
 10
36.54425091834764
 20
266.4632555663557
 30
0.0
 11
36.54425091834764
 21
269.9632555663557
 31
0.0
 11
35.79425091834764
 21
268.2132555663557
 31
0.0
 11
36.54425091834764
 21
266.4632555663557
 31
0.0
 11
37.29425091834765
 21
264.7132555663548
 31
0.0
 11
36.54425091834764
 21
262.9632555663556
 31
0.0
 11
35.79425091834764
 21
264.7132555663548
 31
0.0
 11
36.54425091834764
 21
266.4632555663557
 31
0.0
  0
LINE
  5
1031
330
1A
100
AcDbEntity
  8
7
100
AcDbLine
 10
54.8773839694013
 20
79.41701655380438
 30
0.0
 11
36.54089855100847
 21
79.41701655380438
 31
0.0
  0
LINE
  5
1032
330
1A
100
AcDbEntity
  8
7
100
AcDbLine
 10
54.8773839694013
 20
86.41701655380439
 30
0.0
 11
36.54425091834673
 21
86.41701655380529
 31
0.0
  0
SPLINE
  5
1033
330
1A
100
AcDbEntity
  8
7
100
AcDbSpline
210
0.0
220
0.0
230
1.0
 70
  1064
 71
     3
 72
    13
 73
     9
 74
     7
 42
0.0000000001
 43
0.0000000001
 44
0.0000000001
 40
0.0
 40
0.0
 40
0.0
 40
0.0
 40
1.903943276465977
 40
3.807886552931954
 40
5.711829829398767
 40
7.615773105863908
 40
9.519716382329049
 40
11.42365965879586
 40
11.42365965879586
 40
11.42365965879586
 40
11.42365965879586
 10
36.54425091834673
 20
86.41701655380439
 30
0.0
 10
36.16925091834673
 20
85.83966612645395
 30
0.0
 10
35.41925091834672
 20
84.68496527175309
 30
0.0
 10
36.54425091834696
 20
82.84522168200931
 30
0.0
 10
37.66925091834671
 20
81.43624732303475
 30
0.0
 10
36.54425091834676
 20
78.41188834867683
 30
0.0
 10
35.41925091834672
 20
81.41829860508606
 30
0.0
 10
36.16925091834662
 20
82.41744390423148
 30
0.0
 10
36.54425091834673
 20
82.91701655380439
 30
0.0
 11
36.54425091834673
 21
86.41701655380439
 31
0.0
 11
35.79425091834674
 21
84.66701655380438
 31
0.0
 11
36.54425091834673
 21
82.91701655380439
 31
0.0
 11
37.29425091834674
 21
81.16701655380348
 31
0.0
 11
36.54425091834673
 21
79.41701655380438
 31
0.0
 11
35.79425091834674
 21
81.16701655380348
 31
0.0
 11
36.54425091834673
 21
82.91701655380439
 31
0.0
  0
LINE
  5
1047
330
1A
100
AcDbEntity
  8
7
100
AcDbLine
 10
189.2319357022106
 20
62.9170165538053
 30
0.0
 11
189.2319357022106
 21
56.91701655380438
 31
0.0
  0
LINE
  5
10EA
330
1A
100
AcDbEntity
  8
7
100
AcDbLine
 10
95.73193570221247
 20
259.4632555663547
 30
0.0
 11
95.73193570221155
 21
273.4632555663556
 31
0.0
  0
LINE
  5
10ED
330
1A
100
AcDbEntity
  8
7
100
AcDbLine
 10
95.73193570220974
 20
86.52256782926816
 30
0.0
 11
98.73193570221065
 21
86.52256782926816
 31
0.0
  0
LINE
  5
10EE
330
1A
100
AcDbEntity
  8
7
100
AcDbLine
 10
95.73193570221064
 20
79.3114652783388
 30
0.0
 11
98.73193570221065
 21
79.31146527833789
 31
0.0
  0
LINE
  5
10EF
330
1A
100
AcDbEntity
  8
7
100
AcDbLine
 10
98.73193570221065
 20
79.3114652783388
 30
0.0
 11
98.73193570220974
 21
86.52256782926816
 31
0.0
  0
LINE
  5
11FD
330
1A
100
AcDbEntity
  8
CENTER
100
AcDbLine
 10
33.29456026760727
 20
266.4632555663557
 30
0.0
 11
101.3004220549073
 21
266.4632555663557
 31
0.0
  0
LINE
  5
120D
330
1A
100
AcDbEntity
  8
7
100
AcDbLine
 10
189.2319357022097
 20
234.8500078405241
 30
0.0
 11
189.2319357022088
 21
268.0765032921945
 31
0.0
  0
LINE
  5
125F
330
1A
100
AcDbEntity
  8
7
100
AcDbLine
 10
261.2169357022116
 20
285.4632555663556
 30
0.0
 11
261.2169357022116
 21
217.4632555663556
 31
0.0
  0
LINE
  5
1260
330
1A
100
AcDbEntity
  8
7
100
AcDbLine
 10
261.2169357022116
 20
285.4632555663556
 30
0.0
 11
268.2319357022115
 21
285.4632555663556
 31
0.0
  0
LINE
  5
1261
330
1A
100
AcDbEntity
  8
7
100
AcDbLine
 10
261.2169357022116
 20
217.4632555663556
 30
0.0
 11
268.2319357022115
 21
217.4632555663556
 31
0.0
  0
LINE
  5
1262
330
1A
100
AcDbEntity
  8
7
100
AcDbLine
 10
268.2319357022115
 20
285.4632555663556
 30
0.0
 11
269.2319357022116
 21
284.4632555663557
 31
0.0
  0
LINE
  5
1263
330
1A
100
AcDbEntity
  8
7
100
AcDbLine
 10
269.2319357022116
 20
218.4632555663557
 30
0.0
 11
268.2319357022115
 21
217.4632555663556
 31
0.0
  0
LINE
  5
1264
330
1A
100
AcDbEntity
  8
7
100
AcDbLine
 10
268.2319357022115
 20
285.4632555663556
 30
0.0
 11
268.2319357022115
 21
217.4632555663556
 31
0.0
  0
LINE
  5
127D
330
1A
100
AcDbEntity
  8
7
  6
HIDDEN
 48
3.0
100
AcDbLine
 10
173.2319357022106
 20
101.9170165538053
 30
0.0
 11
174.2319357022106
 21
102.9170165538053
 31
0.0
  0
LINE
  5
127E
330
1A
100
AcDbEntity
  8
7
  6
HIDDEN
 48
3.0
100
AcDbLine
 10
155.2319357022097
 20
101.9170165538053
 30
0.0
 11
173.2319357022106
 21
101.9170165538053
 31
0.0
  0
LINE
  5
127F
330
1A
100
AcDbEntity
  8
7
  6
HIDDEN
 48
3.0
100
AcDbLine
 10
155.2319357022097
 20
101.9170165538053
 30
0.0
 11
154.2319357022097
 21
102.9170165538053
 31
0.0
  0
LINE
  5
1280
330
1A
100
AcDbEntity
  8
7
  6
HIDDEN
 48
3.0
100
AcDbLine
 10
173.2319357022106
 20
63.91701655380529
 30
0.0
 11
173.2319357022106
 21
101.9170165538053
 31
0.0
  0
LINE
  5
1281
330
1A
100
AcDbEntity
  8
7
  6
HIDDEN
 48
3.0
100
AcDbLine
 10
155.2319357022106
 20
63.91701655380529
 30
0.0
 11
155.2319357022106
 21
101.9170165538044
 31
0.0
  0
LINE
  5
1282
330
1A
100
AcDbEntity
  8
7
  6
HIDDEN
 48
3.0
100
AcDbLine
 10
173.2319357022115
 20
63.91701655380529
 30
0.0
 11
174.2319357022115
 21
62.9170165538053
 31
0.0
  0
LINE
  5
1283
330
1A
100
AcDbEntity
  8
7
  6
HIDDEN
 48
3.0
100
AcDbLine
 10
155.2319357022106
 20
63.91701655380529
 30
0.0
 11
173.2319357022115
 21
63.91701655380529
 31
0.0
  0
LINE
  5
1284
330
1A
100
AcDbEntity
  8
7
  6
HIDDEN
 48
3.0
100
AcDbLine
 10
155.2319357022106
 20
63.91701655380529
 30
0.0
 11
154.2319357022106
 21
62.9170165538053
 31
0.0
  0
ARC
  5
12B4
330
1A
100
AcDbEntity
  8
7
100
AcDbCircle
 10
199.2319357022106
 20
57.41701655380438
 30
0.0
 40
0.5
100
AcDbArc
 50
180.0
 51
0.0
  0
ARC
  5
12B5
330
1A
100
AcDbEntity
  8
7
100
AcDbCircle
 10
200.7319357022106
 20
57.41701655380438
 30
0.0
 40
1.0
100
AcDbArc
 50
0.000000000000007
 51
180.0
  0
LINE
  5
12B7
330
1A
100
AcDbEntity
  8
7
100
AcDbLine
 10
199.7319357022106
 20
108.4170165538044
 30
0.0
 11
199.7319357022106
 21
57.41701655380438
 31
0.0
  0
LINE
  5
12B8
330
1A
100
AcDbEntity
  8
7
100
AcDbLine
 10
198.7319357022106
 20
108.4170165538044
 30
0.0
 11
198.7319357022106
 21
57.41701655380438
 31
0.0
  0
ARC
  5
12B9
330
1A
100
AcDbEntity
  8
7
100
AcDbCircle
 10
199.2319357022106
 20
108.4170165538044
 30
0.0
 40
0.5
100
AcDbArc
 50
0.0
 51
180.0
  0
ARC
  5
12BA
330
1A
100
AcDbEntity
  8
7
100
AcDbCircle
 10
200.7319357022106
 20
108.4170165538044
 30
0.0
 40
1.0
100
AcDbArc
 50
180.0
 51
0.000000000000007
  0
ARC
  5
12BB
330
1A
100
AcDbEntity
  8
7
100
AcDbCircle
 10
197.7319357022106
 20
108.4170165538044
 30
0.0
 40
1.0
100
AcDbArc
 50
180.0
 51
0.0
  0
ARC
  5
12BC
330
1A
100
AcDbEntity
  8
7
100
AcDbCircle
 10
197.7319357022106
 20
57.41701655380438
 30
0.0
 40
1.0
100
AcDbArc
 50
0.0
 51
180.0
  0
LINE
  5
12C1
330
1A
100
AcDbEntity
  8
7
  6
HIDDEN
 48
3.0
100
AcDbLine
 10
283.2319357022107
 20
96.91701655380349
 30
0.0
 11
283.231935702207
 21
68.91701655380348
 31
0.0
  0
LINE
  5
12C2
330
1A
100
AcDbEntity
  8
7
  6
HIDDEN
 48
3.0
100
AcDbLine
 10
295.2319357022107
 20
96.91701655380166
 30
0.0
 11
295.2319357022079
 21
68.91701655380348
 31
0.0
  0
LINE
  5
12C3
330
1A
100
AcDbEntity
  8
7
  6
HIDDEN
 48
3.0
100
AcDbLine
 10
283.2319357022107
 20
96.91701655380439
 30
0.0
 11
282.2319357022106
 21
97.91701655380439
 31
0.0
  0
LINE
  5
12C5
330
1A
100
AcDbEntity
  8
7
  6
HIDDEN
 48
3.0
100
AcDbLine
 10
295.2319357022107
 20
96.91701655380256
 30
0.0
 11
296.2319357022106
 21
97.91701655380165
 31
0.0
  0
LINE
  5
12C6
330
1A
100
AcDbEntity
  8
7
  6
HIDDEN
 48
3.0
100
AcDbLine
 10
283.2319357022079
 20
68.91701655380439
 30
0.0
 11
282.231935702207
 21
67.9170165538053
 31
0.0
  0
LINE
  5
12C7
330
1A
100
AcDbEntity
  8
7
  6
HIDDEN
 48
3.0
100
AcDbLine
 10
295.2319357022079
 20
68.91701655380257
 30
0.0
 11
296.231935702207
 21
67.91701655380347
 31
0.0
  0
LINE
  5
12C8
330
1A
100
AcDbEntity
  8
7
  6
HIDDEN
 48
3.0
100
AcDbLine
 10
283.2319357022107
 20
96.91701655380349
 30
0.0
 11
295.2319357022107
 21
96.91701655380166
 31
0.0
  0
LINE
  5
12C9
330
1A
100
AcDbEntity
  8
7
  6
HIDDEN
 48
3.0
100
AcDbLine
 10
283.2319357022079
 20
68.91701655380439
 30
0.0
 11
295.2319357022079
 21
68.91701655380348
 31
0.0
  0
LINE
  5
12CA
330
1A
100
AcDbEntity
  8
7
100
AcDbLine
 10
309.2319357022088
 20
97.91701655380348
 30
0.0
 11
309.2319357022088
 21
67.91701655380347
 31
0.0
  0
LINE
  5
12CD
330
1A
100
AcDbEntity
  8
7
100
AcDbLine
 10
309.23193570221
 20
264.7297547277734
 30
0.0
 11
269.2319357022118
 21
264.7297547277734
 31
0.0
  0
LINE
  5
12CE
330
1A
100
AcDbEntity
  8
7
100
AcDbLine
 10
309.2319357022095
 20
238.1967564049306
 30
0.0
 11
269.2319357022114
 21
238.1967564049297
 31
0.0
  0
LINE
  5
12D1
330
1A
100
AcDbEntity
  8
7
100
AcDbLine
 10
99.23193570221066
 20
268.0765032921899
 30
0.0
 11
189.2319357022088
 21
268.0765032921945
 31
0.0
  0
LINE
  5
12D2
330
1A
100
AcDbEntity
  8
7
100
AcDbLine
 10
99.23193570221066
 20
234.8500078405186
 30
0.0
 11
189.2319357022106
 21
234.8500078405232
 31
0.0
  0
LINE
  5
147B
330
1A
100
AcDbEntity
  8
7
100
AcDbLine
 10
99.23193570221066
 20
276.4632555663547
 30
0.0
 11
100.2319357022106
 21
277.4632555663548
 31
0.0
  0
LINE
  5
147C
330
1A
100
AcDbEntity
  8
7
100
AcDbLine
 10
99.23193570221066
 20
226.4632555663566
 30
0.0
 11
100.2319357022106
 21
225.4632555663566
 31
0.0
  0
LINE
  5
147D
330
1A
100
AcDbEntity
  8
7
100
AcDbLine
 10
100.2319357022106
 20
277.4632555663548
 30
0.0
 11
100.2319357022115
 21
268.0765032921899
 31
0.0
  0
LINE
  5
147E
330
1A
100
AcDbEntity
  8
7
100
AcDbLine
 10
100.2319357022106
 20
225.4632555663566
 30
0.0
 11
100.2319357022097
 21
234.8500078405186
 31
0.0
  0
LINE
  5
147F
330
1A
100
AcDbEntity
  8
7
100
AcDbLine
 10
100.2319357022097
 20
62.91701655380347
 30
0.0
 11
100.2319357022115
 21
102.9170165538044
 31
0.0
  0
LINE
  5
1480
330
1A
100
AcDbEntity
  8
7
100
AcDbLine
 10
309.2319357022106
 20
270.4632555663511
 30
0.0
 11
308.2319357022107
 21
271.4632555663511
 31
0.0
  0
LINE
  5
1481
330
1A
100
AcDbEntity
  8
7
100
AcDbLine
 10
309.2319357022088
 20
232.4632555663511
 30
0.0
 11
308.2319357022088
 21
231.4632555663511
 31
0.0
  0
LINE
  5
1482
330
1A
100
AcDbEntity
  8
7
100
AcDbLine
 10
308.2319357022107
 20
271.4632555663511
 30
0.0
 11
308.2319357022107
 21
264.7297547277734
 31
0.0
  0
LINE
  5
1483
330
1A
100
AcDbEntity
  8
7
100
AcDbLine
 10
308.2319357022088
 20
231.4632555663511
 30
0.0
 11
308.2319357022088
 21
238.1967564049306
 31
0.0
  0
LINE
  5
1484
330
1A
100
AcDbEntity
  8
7
100
AcDbLine
 10
308.2319357022088
 20
97.91701655380348
 30
0.0
 11
308.2319357022088
 21
67.91701655380347
 31
0.0
  0
CIRCLE
  5
17F9
330
1A
100
AcDbEntity
  8
7
100
AcDbCircle
 10
114.2319357022106
 20
251.4632555663557
 30
0.0
 40
9.0
  0
CIRCLE
  5
17FA
330
1A
100
AcDbEntity
  8
7
100
AcDbCircle
 10
164.2319357022106
 20
251.4632555663557
 30
0.0
 40
9.0
  0
CIRCLE
  5
1828
330
1A
100
AcDbEntity
  8
7
100
AcDbCircle
 10
289.2319357022097
 20
251.4632555663557
 30
0.0
 40
8.0
  0
LINE
  5
1879
330
1A
100
AcDbEntity
  8
7
100
AcDbLine
 10
213.8769357022106
 20
282.6482555663565
 30
0.0
 11
213.8769357022106
 21
220.2782555663548
 31
0.0
  0
LINE
  5
187A
330
1A
100
AcDbEntity
  8
7
100
AcDbLine
 10
216.5069357022106
 20
282.6482555663565
 30
0.0
 11
216.5069357022106
 21
220.2782555663548
 31
0.0
  0
LINE
  5
187B
330
1A
100
AcDbEntity
  8
7
100
AcDbLine
 10
219.1369357022106
 20
282.6482555663565
 30
0.0
 11
219.1369357022106
 21
220.2782555663548
 31
0.0
  0
LINE
  5
187C
330
1A
100
AcDbEntity
  8
7
100
AcDbLine
 10
221.7669357022106
 20
282.6482555663565
 30
0.0
 11
221.7669357022106
 21
220.2782555663548
 31
0.0
  0
LINE
  5
187D
330
1A
100
AcDbEntity
  8
7
100
AcDbLine
 10
258.5869357022116
 20
282.6482555663565
 30
0.0
 11
258.5869357022116
 21
220.2782555663548
 31
0.0
  0
LINE
  5
187E
330
1A
100
AcDbEntity
  8
7
100
AcDbLine
 10
255.9569357022116
 20
282.6482555663565
 30
0.0
 11
255.9569357022116
 21
220.2782555663548
 31
0.0
  0
ARC
  5
1883
330
1A
100
AcDbEntity
  8
7
100
AcDbCircle
 10
212.5619357022106
 20
278.7782555663557
 30
0.0
 40
1.315000000000001
100
AcDbArc
 50
180.0
 51
0.0
  0
ARC
  5
1884
330
1A
100
AcDbEntity
  8
7
100
AcDbCircle
 10
217.8219357022106
 20
278.7782555663557
 30
0.0
 40
1.315000000000001
100
AcDbArc
 50
180.0
 51
0.0
  0
ARC
  5
1885
330
1A
100
AcDbEntity
  8
7
100
AcDbCircle
 10
223.0819357022106
 20
278.7782555663557
 30
0.0
 40
1.315000000000001
100
AcDbArc
 50
180.0
 51
0.0
  0
ARC
  5
1886
330
1A
100
AcDbEntity
  8
7
100
AcDbCircle
 10
215.1919357022106
 20
282.6482555663565
 30
0.0
 40
1.315000000000001
100
AcDbArc
 50
0.0
 51
180.0
  0
ARC
  5
1887
330
1A
100
AcDbEntity
  8
7
100
AcDbCircle
 10
220.4519357022106
 20
282.6482555663565
 30
0.0
 40
1.315000000000001
100
AcDbArc
 50
0.0
 51
180.0
  0
ARC
  5
1888
330
1A
100
AcDbEntity
  8
7
100
AcDbCircle
 10
252.0119357022116
 20
282.6482555663565
 30
0.0
 40
1.315000000000001
100
AcDbArc
 50
0.0
 51
180.0
  0
ARC
  5
1889
330
1A
100
AcDbEntity
  8
7
100
AcDbCircle
 10
259.9019357022116
 20
278.7782555663557
 30
0.0
 40
1.315000000000001
100
AcDbArc
 50
180.0
 51
0.0
  0
ARC
  5
188A
330
1A
100
AcDbEntity
  8
7
100
AcDbCircle
 10
254.6419357022116
 20
278.7782555663557
 30
0.0
 40
1.315000000000001
100
AcDbArc
 50
180.0
 51
0.0
  0
ARC
  5
188B
330
1A
100
AcDbEntity
  8
7
100
AcDbCircle
 10
257.2719357022116
 20
282.6482555663565
 30
0.0
 40
1.315000000000001
100
AcDbArc
 50
0.0
 51
180.0
  0
LINE
  5
188C
330
1A
100
AcDbEntity
  8
7
100
AcDbLine
 10
253.3269357022116
 20
282.6482555663565
 30
0.0
 11
253.3269357022115
 21
220.2782555663548
 31
0.0
  0
LINE
  5
188D
330
1A
100
AcDbEntity
  8
7
100
AcDbLine
 10
250.6969357022116
 20
282.6482555663565
 30
0.0
 11
250.6969357022116
 21
220.2782555663548
 31
0.0
  0
ARC
  5
188E
330
1A
100
AcDbEntity
  8
7
100
AcDbCircle
 10
249.3819357022116
 20
278.7782555663557
 30
0.0
 40
1.315000000000001
100
AcDbArc
 50
180.0
 51
0.0
  0
ARC
  5
188F
330
1A
100
AcDbEntity
  8
7
100
AcDbCircle
 10
212.5619357022106
 20
224.1482555663556
 30
0.0
 40
1.315000000000001
100
AcDbArc
 50
0.0
 51
180.0
  0
ARC
  5
1891
330
1A
100
AcDbEntity
  8
7
100
AcDbCircle
 10
249.3819357022116
 20
224.1482555663556
 30
0.0
 40
1.315000000000001
100
AcDbArc
 50
0.0
 51
180.0
  0
ARC
  5
1892
330
1A
100
AcDbEntity
  8
7
100
AcDbCircle
 10
254.6419357022116
 20
224.1482555663556
 30
0.0
 40
1.315000000000001
100
AcDbArc
 50
0.0
 51
180.0
  0
ARC
  5
1893
330
1A
100
AcDbEntity
  8
7
100
AcDbCircle
 10
259.9019357022116
 20
224.1482555663556
 30
0.0
 40
1.315000000000001
100
AcDbArc
 50
0.0
 51
180.0
  0
ARC
  5
1894
330
1A
100
AcDbEntity
  8
7
100
AcDbCircle
 10
223.0819357022106
 20
224.1482555663556
 30
0.0
 40
1.315000000000001
100
AcDbArc
 50
0.0
 51
180.0
  0
ARC
  5
1895
330
1A
100
AcDbEntity
  8
7
100
AcDbCircle
 10
217.8219357022106
 20
224.1482555663556
 30
0.0
 40
1.315000000000001
100
AcDbArc
 50
0.0
 51
180.0
  0
ARC
  5
1896
330
1A
100
AcDbEntity
  8
7
100
AcDbCircle
 10
215.1919357022106
 20
220.2782555663548
 30
0.0
 40
1.315000000000001
100
AcDbArc
 50
180.0
 51
0.0
  0
ARC
  5
1898
330
1A
100
AcDbEntity
  8
7
100
AcDbCircle
 10
257.2719357022116
 20
220.2782555663548
 30
0.0
 40
1.315000000000001
100
AcDbArc
 50
180.0
 51
0.0
  0
ARC
  5
1899
330
1A
100
AcDbEntity
  8
7
100
AcDbCircle
 10
252.0119357022116
 20
220.2782555663548
 30
0.0
 40
1.315000000000001
100
AcDbArc
 50
180.0
 51
0.0
  0
ARC
  5
189A
330
1A
100
AcDbEntity
  8
7
100
AcDbCircle
 10
220.4519357022106
 20
220.2782555663548
 30
0.0
 40
1.315000000000001
100
AcDbArc
 50
180.0
 51
0.0
  0
LINE
  5
18C2
330
1A
100
AcDbEntity
  8
7
100
AcDbLine
 10
261.2169357022107
 20
48.91701655380385
 30
0.0
 11
268.231935702211
 21
48.91701655380384
 31
0.0
  0
LINE
  5
18C3
330
1A
100
AcDbEntity
  8
7
100
AcDbLine
 10
261.2169357022107
 20
116.9170165538038
 30
0.0
 11
268.231935702211
 21
116.9170165538038
 31
0.0
  0
LINE
  5
18C4
330
1A
100
AcDbEntity
  8
7
100
AcDbLine
 10
268.231935702211
 20
116.9170165538038
 30
0.0
 11
269.231935702211
 21
115.9170165538038
 31
0.0
  0
LINE
  5
18C5
330
1A
100
AcDbEntity
  8
7
100
AcDbLine
 10
269.231935702211
 20
115.9170165538038
 30
0.0
 11
269.231935702211
 21
49.91701655380385
 31
0.0
  0
LINE
  5
18C6
330
1A
100
AcDbEntity
  8
7
100
AcDbLine
 10
268.231935702211
 20
116.9170165538038
 30
0.0
 11
268.231935702211
 21
48.91701655380384
 31
0.0
  0
LINE
  5
18C7
330
1A
100
AcDbEntity
  8
7
100
AcDbLine
 10
269.231935702211
 20
49.91701655380385
 30
0.0
 11
268.231935702211
 21
48.91701655380384
 31
0.0
  0
LINE
  5
18C8
330
1A
100
AcDbEntity
  8
7
100
AcDbLine
 10
201.7319357022101
 20
116.9170165538038
 30
0.0
 11
211.2469357022097
 21
116.9170165538038
 31
0.0
  0
LINE
  5
18C9
330
1A
100
AcDbEntity
  8
7
100
AcDbLine
 10
201.7319357022101
 20
116.9170165538038
 30
0.0
 11
201.7319357022101
 21
48.91701655380384
 31
0.0
  0
LINE
  5
18CA
330
1A
100
AcDbEntity
  8
7
100
AcDbLine
 10
201.7319357022101
 20
48.91701655380384
 30
0.0
 11
211.2469357022097
 21
48.91701655380384
 31
0.0
  0
LINE
  5
1A2E
330
1A
100
AcDbEntity
  8
7
100
AcDbLine
 10
224.3969357022105
 20
282.6482555663565
 30
0.0
 11
224.3969357022106
 21
220.2782555663548
 31
0.0
  0
LINE
  5
1A2F
330
1A
100
AcDbEntity
  8
7
100
AcDbLine
 10
227.0269357022106
 20
282.6482555663565
 30
0.0
 11
227.0269357022106
 21
220.2782555663548
 31
0.0
  0
ARC
  5
1A30
330
1A
100
AcDbEntity
  8
7
100
AcDbCircle
 10
225.7119357022106
 20
282.6482555663565
 30
0.0
 40
1.315000000000001
100
AcDbArc
 50
0.0
 51
180.0
  0
ARC
  5
1A31
330
1A
100
AcDbEntity
  8
7
100
AcDbCircle
 10
225.7119357022106
 20
220.2782555663548
 30
0.0
 40
1.315000000000001
100
AcDbArc
 50
180.0
 51
0.0
  0
LINE
  5
1A32
330
1A
100
AcDbEntity
  8
7
100
AcDbLine
 10
229.6569357022105
 20
282.6482555663567
 30
0.0
 11
229.6569357022106
 21
220.278255566355
 31
0.0
  0
LINE
  5
1A33
330
1A
100
AcDbEntity
  8
7
100
AcDbLine
 10
232.2869357022106
 20
282.6482555663567
 30
0.0
 11
232.2869357022106
 21
220.278255566355
 31
0.0
  0
ARC
  5
1A34
330
1A
100
AcDbEntity
  8
7
100
AcDbCircle
 10
230.9719357022106
 20
282.6482555663567
 30
0.0
 40
1.315000000000001
100
AcDbArc
 50
0.0
 51
180.0
  0
ARC
  5
1A35
330
1A
100
AcDbEntity
  8
7
100
AcDbCircle
 10
230.9719357022106
 20
220.278255566355
 30
0.0
 40
1.315000000000001
100
AcDbArc
 50
180.0
 51
0.0
  0
LINE
  5
1A36
330
1A
100
AcDbEntity
  8
7
100
AcDbLine
 10
234.9169357022105
 20
282.6482555663568
 30
0.0
 11
234.9169357022105
 21
220.2782555663551
 31
0.0
  0
LINE
  5
1A37
330
1A
100
AcDbEntity
  8
7
100
AcDbLine
 10
237.5469357022105
 20
282.6482555663568
 30
0.0
 11
237.5469357022105
 21
220.2782555663551
 31
0.0
  0
ARC
  5
1A38
330
1A
100
AcDbEntity
  8
7
100
AcDbCircle
 10
236.2319357022105
 20
282.6482555663568
 30
0.0
 40
1.315000000000001
100
AcDbArc
 50
0.0
 51
180.0
  0
ARC
  5
1A39
330
1A
100
AcDbEntity
  8
7
100
AcDbCircle
 10
236.2319357022105
 20
220.2782555663551
 30
0.0
 40
1.315000000000001
100
AcDbArc
 50
180.0
 51
0.0
  0
LINE
  5
1A3A
330
1A
100
AcDbEntity
  8
7
100
AcDbLine
 10
240.1769357022105
 20
282.648255566357
 30
0.0
 11
240.1769357022105
 21
220.2782555663552
 31
0.0
  0
LINE
  5
1A3B
330
1A
100
AcDbEntity
  8
7
100
AcDbLine
 10
242.8069357022105
 20
282.648255566357
 30
0.0
 11
242.8069357022105
 21
220.2782555663552
 31
0.0
  0
ARC
  5
1A3C
330
1A
100
AcDbEntity
  8
7
100
AcDbCircle
 10
241.4919357022105
 20
282.648255566357
 30
0.0
 40
1.315000000000001
100
AcDbArc
 50
0.0
 51
180.0
  0
ARC
  5
1A3D
330
1A
100
AcDbEntity
  8
7
100
AcDbCircle
 10
241.4919357022105
 20
220.2782555663552
 30
0.0
 40
1.315000000000001
100
AcDbArc
 50
180.0
 51
0.0
  0
LINE
  5
1A3E
330
1A
100
AcDbEntity
  8
7
100
AcDbLine
 10
245.4369357022105
 20
282.648255566357
 30
0.0
 11
245.4369357022105
 21
220.2782555663553
 31
0.0
  0
LINE
  5
1A3F
330
1A
100
AcDbEntity
  8
7
100
AcDbLine
 10
248.0669357022105
 20
282.648255566357
 30
0.0
 11
248.0669357022105
 21
220.2782555663553
 31
0.0
  0
ARC
  5
1A40
330
1A
100
AcDbEntity
  8
7
100
AcDbCircle
 10
246.7519357022105
 20
282.648255566357
 30
0.0
 40
1.315000000000001
100
AcDbArc
 50
0.0
 51
180.0
  0
ARC
  5
1A41
330
1A
100
AcDbEntity
  8
7
100
AcDbCircle
 10
246.7519357022105
 20
220.2782555663553
 30
0.0
 40
1.315000000000001
100
AcDbArc
 50
180.0
 51
0.0
  0
ARC
  5
1A44
330
1A
100
AcDbEntity
  8
7
100
AcDbCircle
 10
244.1219357022105
 20
278.7782555663557
 30
0.0
 40
1.315000000000001
100
AcDbArc
 50
180.0
 51
0.0
  0
ARC
  5
1A45
330
1A
100
AcDbEntity
  8
7
100
AcDbCircle
 10
238.8619357022105
 20
278.7782555663557
 30
0.0
 40
1.315000000000001
100
AcDbArc
 50
180.0
 51
0.0
  0
ARC
  5
1A46
330
1A
100
AcDbEntity
  8
7
100
AcDbCircle
 10
233.6019357022106
 20
278.7782555663557
 30
0.0
 40
1.315000000000001
100
AcDbArc
 50
180.0
 51
0.0
  0
ARC
  5
1A47
330
1A
100
AcDbEntity
  8
7
100
AcDbCircle
 10
233.6019357022106
 20
224.1482555663556
 30
0.0
 40
1.315000000000001
100
AcDbArc
 50
0.0
 51
180.0
  0
ARC
  5
1A48
330
1A
100
AcDbEntity
  8
7
100
AcDbCircle
 10
238.8619357022105
 20
224.1482555663556
 30
0.0
 40
1.315000000000001
100
AcDbArc
 50
0.0
 51
180.0
  0
ARC
  5
1A49
330
1A
100
AcDbEntity
  8
7
100
AcDbCircle
 10
244.1219357022105
 20
224.1482555663556
 30
0.0
 40
1.315000000000001
100
AcDbArc
 50
0.0
 51
180.0
  0
ARC
  5
1A4A
330
1A
100
AcDbEntity
  8
7
100
AcDbCircle
 10
228.3419357022106
 20
278.7782555663557
 30
0.0
 40
1.315000000000001
100
AcDbArc
 50
180.0
 51
0.0
  0
ARC
  5
1A4B
330
1A
100
AcDbEntity
  8
7
100
AcDbCircle
 10
228.3419357022106
 20
224.1482555663556
 30
0.0
 40
1.315000000000001
100
AcDbArc
 50
0.0
 51
180.0
  0
LINE
  5
1A4C
330
1A
100
AcDbEntity
  8
7
100
AcDbLine
 10
211.2469357022097
 20
116.9170165538035
 30
0.0
 11
211.2469357022097
 21
48.91701655380348
 31
0.0
  0
LINE
  5
1A4D
330
1A
100
AcDbEntity
  8
7
100
AcDbLine
 10
261.2169357022107
 20
116.9170165538035
 30
0.0
 11
261.2169357022107
 21
48.91701655380348
 31
0.0
  0
LINE
  5
1A4E
330
1A
100
AcDbEntity
  8
7
100
AcDbLine
 10
213.8769357022097
 20
114.1020165538043
 30
0.0
 11
213.8769357022097
 21
51.73201655380262
 31
0.0
  0
LINE
  5
1A4F
330
1A
100
AcDbEntity
  8
7
100
AcDbLine
 10
216.5069357022097
 20
114.1020165538043
 30
0.0
 11
216.5069357022098
 21
51.73201655380262
 31
0.0
  0
LINE
  5
1A50
330
1A
100
AcDbEntity
  8
7
100
AcDbLine
 10
219.1369357022097
 20
114.1020165538043
 30
0.0
 11
219.1369357022097
 21
51.73201655380262
 31
0.0
  0
LINE
  5
1A51
330
1A
100
AcDbEntity
  8
7
100
AcDbLine
 10
221.7669357022097
 20
114.1020165538043
 30
0.0
 11
221.7669357022097
 21
51.73201655380262
 31
0.0
  0
LINE
  5
1A52
330
1A
100
AcDbEntity
  8
7
100
AcDbLine
 10
258.5869357022107
 20
114.1020165538043
 30
0.0
 11
258.5869357022107
 21
51.73201655380262
 31
0.0
  0
LINE
  5
1A53
330
1A
100
AcDbEntity
  8
7
100
AcDbLine
 10
255.9569357022106
 20
114.1020165538043
 30
0.0
 11
255.9569357022106
 21
51.73201655380262
 31
0.0
  0
ARC
  5
1A54
330
1A
100
AcDbEntity
  8
7
100
AcDbCircle
 10
212.5619357022097
 20
110.2320165538035
 30
0.0
 40
1.315000000000001
100
AcDbArc
 50
180.0
 51
0.0
  0
ARC
  5
1A55
330
1A
100
AcDbEntity
  8
7
100
AcDbCircle
 10
217.8219357022097
 20
110.2320165538035
 30
0.0
 40
1.315000000000001
100
AcDbArc
 50
180.0
 51
0.0
  0
ARC
  5
1A56
330
1A
100
AcDbEntity
  8
7
100
AcDbCircle
 10
223.0819357022097
 20
110.2320165538035
 30
0.0
 40
1.315000000000001
100
AcDbArc
 50
180.0
 51
0.0
  0
ARC
  5
1A57
330
1A
100
AcDbEntity
  8
7
100
AcDbCircle
 10
215.1919357022097
 20
114.1020165538043
 30
0.0
 40
1.315000000000001
100
AcDbArc
 50
0.0
 51
180.0
  0
ARC
  5
1A58
330
1A
100
AcDbEntity
  8
7
100
AcDbCircle
 10
220.4519357022097
 20
114.1020165538043
 30
0.0
 40
1.315000000000001
100
AcDbArc
 50
0.0
 51
180.0
  0
ARC
  5
1A59
330
1A
100
AcDbEntity
  8
7
100
AcDbCircle
 10
252.0119357022107
 20
114.1020165538043
 30
0.0
 40
1.315000000000001
100
AcDbArc
 50
0.0
 51
180.0
  0
ARC
  5
1A5A
330
1A
100
AcDbEntity
  8
7
100
AcDbCircle
 10
259.9019357022107
 20
110.2320165538035
 30
0.0
 40
1.315000000000001
100
AcDbArc
 50
180.0
 51
0.0
  0
ARC
  5
1A5B
330
1A
100
AcDbEntity
  8
7
100
AcDbCircle
 10
254.6419357022107
 20
110.2320165538035
 30
0.0
 40
1.315000000000001
100
AcDbArc
 50
180.0
 51
0.0
  0
ARC
  5
1A5C
330
1A
100
AcDbEntity
  8
7
100
AcDbCircle
 10
257.2719357022107
 20
114.1020165538043
 30
0.0
 40
1.315000000000001
100
AcDbArc
 50
0.0
 51
180.0
  0
LINE
  5
1A5D
330
1A
100
AcDbEntity
  8
7
100
AcDbLine
 10
253.3269357022107
 20
114.1020165538043
 30
0.0
 11
253.3269357022106
 21
51.73201655380262
 31
0.0
  0
LINE
  5
1A5E
330
1A
100
AcDbEntity
  8
7
100
AcDbLine
 10
250.6969357022107
 20
114.1020165538043
 30
0.0
 11
250.6969357022107
 21
51.73201655380262
 31
0.0
  0
ARC
  5
1A5F
330
1A
100
AcDbEntity
  8
7
100
AcDbCircle
 10
249.3819357022108
 20
110.2320165538035
 30
0.0
 40
1.315000000000001
100
AcDbArc
 50
180.0
 51
0.0
  0
ARC
  5
1A60
330
1A
100
AcDbEntity
  8
7
100
AcDbCircle
 10
212.5619357022097
 20
55.60201655380343
 30
0.0
 40
1.315000000000001
100
AcDbArc
 50
0.0
 51
180.0
  0
ARC
  5
1A61
330
1A
100
AcDbEntity
  8
7
100
AcDbCircle
 10
249.3819357022108
 20
55.60201655380343
 30
0.0
 40
1.315000000000001
100
AcDbArc
 50
0.0
 51
180.0
  0
ARC
  5
1A62
330
1A
100
AcDbEntity
  8
7
100
AcDbCircle
 10
254.6419357022107
 20
55.60201655380343
 30
0.0
 40
1.315000000000001
100
AcDbArc
 50
0.0
 51
180.0
  0
ARC
  5
1A63
330
1A
100
AcDbEntity
  8
7
100
AcDbCircle
 10
259.9019357022107
 20
55.60201655380343
 30
0.0
 40
1.315000000000001
100
AcDbArc
 50
0.0
 51
180.0
  0
ARC
  5
1A64
330
1A
100
AcDbEntity
  8
7
100
AcDbCircle
 10
223.0819357022097
 20
55.60201655380343
 30
0.0
 40
1.315000000000001
100
AcDbArc
 50
0.0
 51
180.0
  0
ARC
  5
1A65
330
1A
100
AcDbEntity
  8
7
100
AcDbCircle
 10
217.8219357022097
 20
55.60201655380343
 30
0.0
 40
1.315000000000001
100
AcDbArc
 50
0.0
 51
180.0
  0
ARC
  5
1A66
330
1A
100
AcDbEntity
  8
7
100
AcDbCircle
 10
215.1919357022097
 20
51.73201655380262
 30
0.0
 40
1.315000000000001
100
AcDbArc
 50
180.0
 51
0.0
  0
ARC
  5
1A67
330
1A
100
AcDbEntity
  8
7
100
AcDbCircle
 10
257.2719357022107
 20
51.73201655380262
 30
0.0
 40
1.315000000000001
100
AcDbArc
 50
180.0
 51
0.0
  0
ARC
  5
1A68
330
1A
100
AcDbEntity
  8
7
100
AcDbCircle
 10
252.0119357022107
 20
51.73201655380262
 30
0.0
 40
1.315000000000001
100
AcDbArc
 50
180.0
 51
0.0
  0
ARC
  5
1A69
330
1A
100
AcDbEntity
  8
7
100
AcDbCircle
 10
220.4519357022097
 20
51.73201655380262
 30
0.0
 40
1.315000000000001
100
AcDbArc
 50
180.0
 51
0.0
  0
LINE
  5
1A6A
330
1A
100
AcDbEntity
  8
7
100
AcDbLine
 10
224.3969357022097
 20
114.1020165538043
 30
0.0
 11
224.3969357022097
 21
51.73201655380262
 31
0.0
  0
LINE
  5
1A6B
330
1A
100
AcDbEntity
  8
7
100
AcDbLine
 10
227.0269357022097
 20
114.1020165538043
 30
0.0
 11
227.0269357022097
 21
51.73201655380262
 31
0.0
  0
ARC
  5
1A6C
330
1A
100
AcDbEntity
  8
7
100
AcDbCircle
 10
225.7119357022097
 20
114.1020165538043
 30
0.0
 40
1.315000000000001
100
AcDbArc
 50
0.0
 51
180.0
  0
ARC
  5
1A6D
330
1A
100
AcDbEntity
  8
7
100
AcDbCircle
 10
225.7119357022097
 20
51.73201655380262
 30
0.0
 40
1.315000000000001
100
AcDbArc
 50
180.0
 51
0.0
  0
LINE
  5
1A6E
330
1A
100
AcDbEntity
  8
7
100
AcDbLine
 10
229.6569357022097
 20
114.1020165538045
 30
0.0
 11
229.6569357022097
 21
51.73201655380282
 31
0.0
  0
LINE
  5
1A6F
330
1A
100
AcDbEntity
  8
7
100
AcDbLine
 10
232.2869357022097
 20
114.1020165538045
 30
0.0
 11
232.2869357022097
 21
51.73201655380282
 31
0.0
  0
ARC
  5
1A70
330
1A
100
AcDbEntity
  8
7
100
AcDbCircle
 10
230.9719357022097
 20
114.1020165538045
 30
0.0
 40
1.315000000000001
100
AcDbArc
 50
0.0
 51
180.0
  0
ARC
  5
1A71
330
1A
100
AcDbEntity
  8
7
100
AcDbCircle
 10
230.9719357022097
 20
51.73201655380282
 30
0.0
 40
1.315000000000001
100
AcDbArc
 50
180.0
 51
0.0
  0
LINE
  5
1A72
330
1A
100
AcDbEntity
  8
7
100
AcDbLine
 10
234.9169357022096
 20
114.1020165538046
 30
0.0
 11
234.9169357022097
 21
51.73201655380293
 31
0.0
  0
LINE
  5
1A73
330
1A
100
AcDbEntity
  8
7
100
AcDbLine
 10
237.5469357022097
 20
114.1020165538046
 30
0.0
 11
237.5469357022097
 21
51.73201655380293
 31
0.0
  0
ARC
  5
1A74
330
1A
100
AcDbEntity
  8
7
100
AcDbCircle
 10
236.2319357022097
 20
114.1020165538046
 30
0.0
 40
1.315000000000001
100
AcDbArc
 50
0.0
 51
180.0
  0
ARC
  5
1A75
330
1A
100
AcDbEntity
  8
7
100
AcDbCircle
 10
236.2319357022097
 20
51.73201655380293
 30
0.0
 40
1.315000000000001
100
AcDbArc
 50
180.0
 51
0.0
  0
LINE
  5
1A76
330
1A
100
AcDbEntity
  8
7
100
AcDbLine
 10
240.1769357022096
 20
114.1020165538048
 30
0.0
 11
240.1769357022097
 21
51.73201655380305
 31
0.0
  0
LINE
  5
1A77
330
1A
100
AcDbEntity
  8
7
100
AcDbLine
 10
242.8069357022097
 20
114.1020165538048
 30
0.0
 11
242.8069357022097
 21
51.73201655380305
 31
0.0
  0
ARC
  5
1A78
330
1A
100
AcDbEntity
  8
7
100
AcDbCircle
 10
241.4919357022097
 20
114.1020165538048
 30
0.0
 40
1.315000000000001
100
AcDbArc
 50
0.0
 51
180.0
  0
ARC
  5
1A79
330
1A
100
AcDbEntity
  8
7
100
AcDbCircle
 10
241.4919357022097
 20
51.73201655380305
 30
0.0
 40
1.315000000000001
100
AcDbArc
 50
180.0
 51
0.0
  0
LINE
  5
1A7A
330
1A
100
AcDbEntity
  8
7
100
AcDbLine
 10
245.4369357022096
 20
114.1020165538048
 30
0.0
 11
245.4369357022097
 21
51.73201655380314
 31
0.0
  0
LINE
  5
1A7B
330
1A
100
AcDbEntity
  8
7
100
AcDbLine
 10
248.0669357022097
 20
114.1020165538048
 30
0.0
 11
248.0669357022097
 21
51.73201655380314
 31
0.0
  0
ARC
  5
1A7C
330
1A
100
AcDbEntity
  8
7
100
AcDbCircle
 10
246.7519357022097
 20
114.1020165538048
 30
0.0
 40
1.315000000000001
100
AcDbArc
 50
0.0
 51
180.0
  0
ARC
  5
1A7D
330
1A
100
AcDbEntity
  8
7
100
AcDbCircle
 10
246.7519357022097
 20
51.73201655380314
 30
0.0
 40
1.315000000000001
100
AcDbArc
 50
180.0
 51
0.0
  0
ARC
  5
1A7E
330
1A
100
AcDbEntity
  8
7
100
AcDbCircle
 10
244.1219357022097
 20
110.2320165538035
 30
0.0
 40
1.315000000000001
100
AcDbArc
 50
180.0
 51
0.0
  0
ARC
  5
1A7F
330
1A
100
AcDbEntity
  8
7
100
AcDbCircle
 10
238.8619357022097
 20
110.2320165538035
 30
0.0
 40
1.315000000000001
100
AcDbArc
 50
180.0
 51
0.0
  0
ARC
  5
1A80
330
1A
100
AcDbEntity
  8
7
100
AcDbCircle
 10
233.6019357022097
 20
110.2320165538035
 30
0.0
 40
1.315000000000001
100
AcDbArc
 50
180.0
 51
0.0
  0
ARC
  5
1A81
330
1A
100
AcDbEntity
  8
7
100
AcDbCircle
 10
233.6019357022097
 20
55.60201655380343
 30
0.0
 40
1.315000000000001
100
AcDbArc
 50
0.0
 51
180.0
  0
ARC
  5
1A82
330
1A
100
AcDbEntity
  8
7
100
AcDbCircle
 10
238.8619357022097
 20
55.60201655380343
 30
0.0
 40
1.315000000000001
100
AcDbArc
 50
0.0
 51
180.0
  0
ARC
  5
1A83
330
1A
100
AcDbEntity
  8
7
100
AcDbCircle
 10
244.1219357022097
 20
55.60201655380343
 30
0.0
 40
1.315000000000001
100
AcDbArc
 50
0.0
 51
180.0
  0
ARC
  5
1A84
330
1A
100
AcDbEntity
  8
7
100
AcDbCircle
 10
228.3419357022097
 20
110.2320165538035
 30
0.0
 40
1.315000000000001
100
AcDbArc
 50
180.0
 51
0.0
  0
ARC
  5
1A85
330
1A
100
AcDbEntity
  8
7
100
AcDbCircle
 10
228.3419357022097
 20
55.60201655380343
 30
0.0
 40
1.315000000000001
100
AcDbArc
 50
0.0
 51
180.0
  0
CIRCLE
  5
1A86
330
1A
100
AcDbEntity
  8
7
100
AcDbCircle
 10
418.547127733827
 20
82.91701655380363
 30
0.0
 40
34.00000000000023
  0
CIRCLE
  5
1A87
330
1A
100
AcDbEntity
  8
7
100
AcDbCircle
 10
418.547127733827
 20
82.91701655380363
 30
0.0
 40
33.00000000000023
  0
CIRCLE
  5
1A88
330
1A
100
AcDbEntity
  8
7
100
AcDbCircle
 10
418.547127733827
 20
82.91701655380363
 30
0.0
 40
19.99999999999454
  0
ARC
  5
1A89
330
1A
100
AcDbEntity
  8
7
100
AcDbCircle
 10
418.547127733827
 20
82.91701655380363
 30
0.0
 40
18.99999999999545
100
AcDbArc
 50
127.8636463617134
 51
232.1363536382879
  0
LINE
  5
1A8A
330
1A
100
AcDbEntity
  8
7
100
AcDbLine
 10
405.3183711785121
 20
97.91701655380348
 30
0.0
 11
431.7758842891418
 21
97.91701655380348
 31
0.0
  0
LINE
  5
1A91
330
1A
100
AcDbEntity
  8
7
100
AcDbLine
 10
405.3183711785124
 20
67.91701655380347
 30
0.0
 11
431.7758842891414
 21
67.91701655380347
 31
0.0
  0
ARC
  5
1A92
330
1A
100
AcDbEntity
  8
7
100
AcDbCircle
 10
418.547127733827
 20
82.91701655380363
 30
0.0
 40
18.99999999999545
100
AcDbArc
 50
307.8636463617121
 51
52.13635363828656
  0
CIRCLE
  5
1A9B
330
1A
100
AcDbEntity
  8
7
100
AcDbCircle
 10
418.547127733827
 20
82.91701655380363
 30
0.0
 40
22.5
  0
CIRCLE
  5
1A9D
330
1A
100
AcDbEntity
  8
7
100
AcDbCircle
 10
418.547127733827
 20
82.91701655380363
 30
0.0
 40
23.0
  0
CIRCLE
  5
1A9E
330
1A
100
AcDbEntity
  8
7
100
AcDbCircle
 10
418.547127733827
 20
82.91701655380363
 30
0.0
 40
25.0
  0
CIRCLE
  5
1A9F
330
1A
100
AcDbEntity
  8
7
100
AcDbCircle
 10
-77.69423872116428
 20
82.91701655380384
 30
0.0
 40
34.00000000000002
  0
CIRCLE
  5
1AA0
330
1A
100
AcDbEntity
  8
7
100
AcDbCircle
 10
-77.69423872116431
 20
82.91701655380384
 30
0.0
 40
26.00000000000053
  0
ARC
  5
1AA1
330
1A
100
AcDbEntity
  8
7
100
AcDbCircle
 10
-77.69423872116431
 20
82.91701655380382
 30
0.0
 40
24.99999999999909
100
AcDbArc
 50
126.869897645839
 51
233.1301023541566
  0
LINE
  5
1AA2
330
1A
100
AcDbEntity
  8
7
100
AcDbLine
 10
-61.080990995328
 20
102.9170165538044
 30
0.0
 11
-94.30748644700063
 21
102.9170165538044
 31
0.0
  0
LINE
  5
1AA3
330
1A
100
AcDbEntity
  8
7
100
AcDbLine
 10
-61.08099099532667
 20
62.91701655380439
 30
0.0
 11
-94.30748644700194
 21
62.91701655380439
 31
0.0
  0
ARC
  5
1AA4
330
1A
100
AcDbEntity
  8
7
100
AcDbCircle
 10
-77.69423872116431
 20
82.91701655380382
 30
0.0
 40
24.99999999999909
100
AcDbArc
 50
306.8698976458434
 51
53.13010235416093
  0
LINE
  5
1AA5
330
1A
100
AcDbEntity
  8
7
100
AcDbLine
 10
-101.1942387211648
 20
71.79271882316021
 30
0.0
 11
-101.1942387211648
 21
67.91701655380383
 31
0.0
  0
LINE
  5
1AA6
330
1A
100
AcDbEntity
  8
7
100
AcDbLine
 10
-99.19423872116482
 20
68.29682503659021
 30
0.0
 11
-99.19423872116482
 21
67.91701655380383
 31
0.0
  0
LINE
  5
1AA8
330
1A
100
AcDbEntity
  8
7
100
AcDbLine
 10
-101.1942387211648
 20
67.91701655380385
 30
0.0
 11
-98.93099930276026
 21
67.91701655380383
 31
0.0
  0
LINE
  5
1AAA
330
1A
100
AcDbEntity
  8
7
100
AcDbLine
 10
-104.8942387211647
 20
74.91701655380381
 30
0.0
 11
-104.8942387211647
 21
67.91701655380382
 31
0.0
  0
LINE
  5
1AAB
330
1A
100
AcDbEntity
  8
7
100
AcDbLine
 10
-104.8942387211647
 20
67.91701655380382
 30
0.0
 11
-105.1942387211648
 21
68.43663179607517
 31
0.0
  0
LINE
  5
1AAC
330
1A
100
AcDbEntity
  8
7
100
AcDbLine
 10
-104.8942387211647
 20
67.91701655380382
 30
0.0
 11
-101.1942387211648
 21
67.91701655380382
 31
0.0
  0
LINE
  5
1AAD
330
1A
100
AcDbEntity
  8
7
100
AcDbLine
 10
-104.8942387211647
 20
74.91701655380381
 30
0.0
 11
-105.1942387211648
 21
74.39740131153246
 31
0.0
  0
LINE
  5
1AAE
330
1A
100
AcDbEntity
  8
7
100
AcDbLine
 10
-102.4328724748708
 20
74.91701655380381
 30
0.0
 11
-104.8942387211647
 21
74.91701655380381
 31
0.0
  0
LINE
  5
1AAF
330
1A
100
AcDbEntity
  8
7
100
AcDbLine
 10
-105.1942387211648
 20
74.39740131153246
 30
0.0
 11
-105.1942387211648
 21
68.43663179607517
 31
0.0
  0
LINE
  5
1AB0
330
1A
100
AcDbEntity
  8
7
100
AcDbLine
 10
-101.1942387211648
 20
94.04131428444745
 30
0.0
 11
-101.1942387211648
 21
97.91701655380384
 31
0.0
  0
LINE
  5
1AB1
330
1A
100
AcDbEntity
  8
7
100
AcDbLine
 10
-99.19423872116482
 20
97.53720807101746
 30
0.0
 11
-99.19423872116482
 21
97.91701655380384
 31
0.0
  0
LINE
  5
1AB2
330
1A
100
AcDbEntity
  8
7
100
AcDbLine
 10
-101.1942387211648
 20
97.91701655380382
 30
0.0
 11
-98.93099930276026
 21
97.91701655380384
 31
0.0
  0
LINE
  5
1AB3
330
1A
100
AcDbEntity
  8
7
100
AcDbLine
 10
-104.8942387211647
 20
90.91701655380385
 30
0.0
 11
-104.8942387211647
 21
97.91701655380386
 31
0.0
  0
LINE
  5
1AB4
330
1A
100
AcDbEntity
  8
7
100
AcDbLine
 10
-104.8942387211647
 20
97.91701655380386
 30
0.0
 11
-105.1942387211648
 21
97.39740131153249
 31
0.0
  0
LINE
  5
1AB5
330
1A
100
AcDbEntity
  8
7
100
AcDbLine
 10
-104.8942387211647
 20
97.91701655380386
 30
0.0
 11
-101.1942387211648
 21
97.91701655380386
 31
0.0
  0
LINE
  5
1AB6
330
1A
100
AcDbEntity
  8
7
100
AcDbLine
 10
-104.8942387211647
 20
90.91701655380385
 30
0.0
 11
-105.1942387211648
 21
91.4366317960752
 31
0.0
  0
LINE
  5
1AB7
330
1A
100
AcDbEntity
  8
7
100
AcDbLine
 10
-102.4328724748708
 20
90.91701655380385
 30
0.0
 11
-104.8942387211647
 21
90.91701655380385
 31
0.0
  0
LINE
  5
1AB8
330
1A
100
AcDbEntity
  8
7
100
AcDbLine
 10
-105.1942387211648
 20
91.4366317960752
 30
0.0
 11
-105.1942387211648
 21
97.39740131153249
 31
0.0
  0
CIRCLE
  5
1AB9
330
1A
100
AcDbEntity
  8
7
100
AcDbCircle
 10
-92.69423872116428
 20
82.91701655380382
 30
0.0
 40
7.0
  0
CIRCLE
  5
1ABA
330
1A
100
AcDbEntity
  8
7
 62
     9
100
AcDbCircle
 10
-92.69423872116428
 20
82.91701655380382
 30
0.0
 40
6.5
  0
CIRCLE
  5
1AC1
330
1A
100
AcDbEntity
  8
7
100
AcDbCircle
 10
-92.69423872116428
 20
82.91701655380382
 30
0.0
 40
4.500000000000071
  0
CIRCLE
  5
1AC2
330
1A
100
AcDbEntity
  8
7
100
AcDbCircle
 10
-92.69423872116428
 20
82.91701655380382
 30
0.0
 40
3.500000000000071
  0
LINE
  5
1AC3
330
1A
100
AcDbEntity
  8
CENTER
100
AcDbLine
 10
418.547127733827
 20
126.0064899653027
 30
0.0
 11
418.547127733827
 21
39.82754314230457
 31
0.0
  0
LINE
  5
1AC4
330
1A
100
AcDbEntity
  8
CENTER
100
AcDbLine
 10
375.4576543223279
 20
82.91701655380363
 30
0.0
 11
461.636601145326
 21
82.91701655380363
 31
0.0
  0
LINE
  5
1AC6
330
1A
100
AcDbEntity
  8
CENTER
100
AcDbLine
 10
-77.69423872116431
 20
126.0064899653029
 30
0.0
 11
-77.69423872116431
 21
39.82754314230478
 31
0.0
  0
LINE
  5
1AC7
330
1A
100
AcDbEntity
  8
CENTER
100
AcDbLine
 10
-120.7837121326633
 20
82.91701655380384
 30
0.0
 11
-34.60476530966526
 21
82.91701655380384
 31
0.0
  0
VIEWPORT
  5
22
102
{ACAD_XDICTIONARY
360
1B10
102
}
330
17
100
AcDbEntity
 67
     1
  8
0
100
AcDbViewport
 10
134.337417595159
 20
166.5069408246757
 30
0.0
 40
705.818907427394
 41
440.5933220902007
 68
     1
 69
     1
 12
134.337417595159
 22
166.5069408246757
 13
0.0
 23
0.0
 14
1.0
 24
1.0
 15
10.0
 25
10.0
 16
0.0
 26
0.0
 36
1.0
 17
0.0
 27
0.0
 37
0.0
 42
50.0
 43
0.0
 44
0.0
 45
440.5933220902007
 50
0.0
 51
0.0
 72
   100
 90
    32768
  1

281
     0
 71
     1
 74
     0
110
0.0
120
0.0
130
0.0
111
1.0
121
0.0
131
0.0
112
0.0
122
1.0
132
0.0
 79
     0
146
0.0
  0
VIEWPORT
  5
2CF
102
{ACAD_XDICTIONARY
360
1B12
102
}
330
17
100
AcDbEntity
 67
     1
  8
DEFPOINTS
100
AcDbViewport
 10
212.5
 20
149.4999999999999
 30
0.0
 40
384.9999999999999
 41
265.0
 68
     2
 69
     2
 12
332.7384820560558
 22
132.1590871182499
 13
0.0
 23
0.0
 14
168.0
 24
168.0
 15
0.0
 25
0.0
 16
0.0
 26
0.0
 36
1.0
 17
0.0
 27
0.0
 37
0.0
 42
50.0
 43
0.0
 44
0.0
 45
529.9999997532015
 50
0.0
 51
0.0
 72
   100
 90
    36864
  1

281
     0
 71
     1
 74
     0
110
0.0
120
0.0
130
0.0
111
1.0
121
0.0
131
0.0
112
0.0
122
1.0
132
0.0
 79
     0
146
0.0
  0
ENDSEC
  0
SECTION
  2
OBJECTS
  0
DICTIONARY
  5
C
330
0
100
AcDbDictionary
281
     1
  3
ACAD_CIP_PREVIOUS_PRODUCT_INFO
350
19C5
  3
ACAD_COLOR
350
19A3
  3
ACAD_GROUP
350
D
  3
ACAD_LAYOUT
350
19BA
  3
ACAD_MATERIAL
350
1971
  3
ACAD_MLEADERSTYLE
350
19B8
  3
ACAD_MLINESTYLE
350
E
  3
ACAD_PLOTSETTINGS
350
19BB
  3
ACAD_PLOTSTYLENAME
350
196F
  3
ACAD_SCALELIST
350
19A6
  3
ACAD_TABLESTYLE
350
19A4
  3
ACAD_VISUALSTYLE
350
198A
  3
ACDB_RECOMPOSE_DATA
350
1B0E
  3
ACDBVARIABLEDICTIONARY
350
1044
  3
CONTENTDICTIONARY
350
234
  3
DWGPROPS
350
1B0F
  0
DICTIONARY
  5
1A1F
330
2
100
AcDbDictionary
280
     1
281
     1
  3
ACAD_LAYERSTATES
360
1A20
  0
DICTIONARY
  5
19C8
330
F
100
AcDbDictionary
280
     1
281
     1
  3
ADSK_XREC_LAYER_RECONCILED
360
19C9
  0
DICTIONARY
  5
19CC
330
74
100
AcDbDictionary
280
     1
281
     1
  3
ADSK_XREC_LAYER_RECONCILED
360
19CD
  0
DICTIONARY
  5
19D0
330
105B
100
AcDbDictionary
280
     1
281
     1
  3
ADSK_XREC_LAYER_RECONCILED
360
19D1
  0
DICTIONARY
  5
1A93
330
1A
100
AcDbDictionary
280
     1
281
     1
  3
ACAD_SORTENTS
360
1A94
  0
DICTIONARY
  5
1B10
330
22
100
AcDbDictionary
280
     1
281
     1
  3
ACAD_XREC_ROUNDTRIP
360
1B11
  0
DICTIONARY
  5
1B12
330
2CF
100
AcDbDictionary
280
     1
281
     1
  3
ACAD_XREC_ROUNDTRIP
360
1B13
  0
XRECORD
  5
19C5
102
{ACAD_REACTORS
330
C
102
}
330
C
100
AcDbXrecord
280
     1
300
ACDLT
300
2012
300
ACDLT_F_S
  0
DICTIONARY
  5
19A3
102
{ACAD_REACTORS
330
C
102
}
330
C
100
AcDbDictionary
281
     1
  0
DICTIONARY
  5
D
102
{ACAD_REACTORS
330
C
102
}
330
C
100
AcDbDictionary
281
     1
  0
DICTIONARY
  5
19BA
102
{ACAD_REACTORS
330
C
102
}
330
C
100
AcDbDictionary
281
     1
  3
Model
350
19BC
  3
レイアウト1
350
19BD
  0
DICTIONARY
  5
1971
102
{ACAD_REACTORS
330
C
102
}
330
C
100
AcDbDictionary
281
     1
  3
ByBlock
350
197A
  3
ByLayer
350
1972
  3
Global
350
1982
  0
DICTIONARY
  5
19B8
102
{ACAD_REACTORS
330
C
102
}
330
C
100
AcDbDictionary
281
     1
  3
Standard
350
19B9
  0
DICTIONARY
  5
E
102
{ACAD_REACTORS
330
C
102
}
330
C
100
AcDbDictionary
281
     1
  3
STANDARD
350
13
  0
DICTIONARY
  5
19BB
102
{ACAD_REACTORS
330
C
102
}
330
C
100
AcDbDictionary
281
     1
  0
ACDBDICTIONARYWDFLT
  5
196F
102
{ACAD_REACTORS
330
C
102
}
330
C
100
AcDbDictionary
281
     1
  3
Normal
350
1970
100
AcDbDictionaryWithDefault
340
1970
  0
DICTIONARY
  5
19A6
102
{ACAD_REACTORS
330
C
102
}
330
C
100
AcDbDictionary
281
     1
  3
A0
350
19A7
  3
A1
350
19A8
  3
A2
350
19A9
  3
A3
350
19AA
  3
A4
350
19AB
  3
A5
350
19AC
  3
A6
350
19AD
  3
A7
350
19AE
  3
A8
350
19AF
  3
A9
350
19B0
  3
B0
350
19B1
  3
B1
350
19B2
  3
B2
350
19B3
  3
B3
350
19B4
  3
B4
350
19B5
  3
B5
350
19B6
  3
B6
350
19B7
  0
DICTIONARY
  5
19A4
102
{ACAD_REACTORS
330
C
102
}
330
C
100
AcDbDictionary
281
     1
  3
Standard
350
19A5
  0
DICTIONARY
  5
198A
102
{ACAD_REACTORS
330
C
102
}
330
C
100
AcDbDictionary
281
     1
  3
2dWireframe
350
1990
  3
Basic
350
198F
  3
Brighten
350
1996
  3
ColorChange
350
199A
  3
Conceptual
350
1993
  3
Dim
350
1995
  3
EdgeColorOff
350
19A2
  3
Facepattern
350
1999
  3
Flat
350
198B
  3
FlatWithEdges
350
198C
  3
Gouraud
350
198D
  3
GouraudWithEdges
350
198E
  3
Hidden
350
1992
  3
JitterOff
350
19A0
  3
Linepattern
350
1998
  3
OverhangOff
350
19A1
  3
Realistic
350
1994
  3
Shaded
350
199F
  3
Shaded with edges
350
199E
  3
Shades of Gray
350
199B
  3
Sketchy
350
199C
  3
Thicken
350
1997
  3
Wireframe
350
1991
  3
X-Ray
350
199D
  0
XRECORD
  5
1B0E
102
{ACAD_REACTORS
330
C
102
}
330
C
100
AcDbXrecord
280
     1
 90
        1
330
19A5
  0
DICTIONARY
  5
1044
102
{ACAD_REACTORS
330
C
102
}
330
C
100
AcDbDictionary
281
     1
  3
CANNOSCALE
350
19D4
  3
CMLEADERSTYLE
350
19D3
  3
CTABLESTYLE
350
19D2
  3
DIMASSOC
350
19D6
  3
INDEXCTL
350
19D5
  3
SORTENTS
350
1045
  3
XCLIPFRAME
350
19D7
  0
DICTIONARY
  5
234
102
{ACAD_REACTORS
330
C
102
}
330
C
100
AcDbDictionary
281
     1
  0
XRECORD
  5
1B0F
102
{ACAD_REACTORS
330
C
102
}
330
C
100
AcDbXrecord
280
     1
  1
DWGPROPS COOKIE
  2

  3

  4

  6

  7

  8
ADJ-DV07-W11
  9

300
=
301
=
302
=
303
=
304
=
305
=
306
=
307
=
308
=
309
=
 40
0.3537564930555556
 41
2451430.616412153
 42
2457516.42896007
  1

 90
        0
  0
DICTIONARY
  5
1A20
102
{ACAD_REACTORS
330
1A1F
102
}
330
1A1F
100
AcDbDictionary
281
     1
  0
XRECORD
  5
19C9
102
{ACAD_REACTORS
330
19C8
102
}
330
19C8
100
AcDbXrecord
280
     1
290
     1
  0
XRECORD
  5
19CD
102
{ACAD_REACTORS
330
19CC
102
}
330
19CC
100
AcDbXrecord
280
     1
290
     1
  0
XRECORD
  5
19D1
102
{ACAD_REACTORS
330
19D0
102
}
330
19D0
100
AcDbXrecord
280
     1
290
     1
  0
SORTENTSTABLE
  5
1A94
102
{ACAD_REACTORS
330
1A93
102
}
330
1A93
100
AcDbSortentsTable
330
1A
331
1260
  5
1260
331
1AA1
  5
1AA1
331
12BA
  5
12BA
331
1281
  5
1281
331
1031
  5
1031
331
1018
  5
1018
331
1A4C
  5
1A4C
331
1A3B
  5
1A3B
331
1A5D
  5
1A5D
331
187D
  5
187D
331
17F9
  5
17F9
331
1A6E
  5
1A6E
331
188E
  5
188E
331
1A7F
  5
1A7F
331
1007
  5
1007
331
FF6
  5
FF6
331
F67
  5
F67
331
1A80
  5
1A80
331
1A91
  5
1A92
331
1261
  5
1261
331
1AA2
  5
1AA3
331
12BB
  5
12BB
331
1282
  5
1282
331
1032
  5
1032
331
1019
  5
1019
331
1008
  5
1008
331
17FA
  5
17FA
331
1A4D
  5
1A4D
331
1A3C
  5
1A3C
331
1A5E
  5
1A5E
331
187E
  5
187E
331
1A6F
  5
1A6F
331
188F
  5
188F
331
FF7
  5
FF7
331
FCB
  5
FCB
331
E7C
  5
E7C
331
1A81
  5
1A81
331
1A70
  5
1A70
331
1A92
  5
1A8A
331
1262
  5
1262
331
1AA3
  5
1AA4
331
12BC
  5
12BC
331
1283
  5
1283
331
1033
  5
1033
331
101A
  5
101A
331
FF8
  5
FF8
331
12CD
  5
12CD
331
1A5F
  5
1A5F
331
1A4E
  5
1A4E
331
1A3D
  5
1A3D
331
FCC
  5
FCC
331
F69
  5
F69
331
E87
  5
E87
331
E7D
  5
E7D
331
1A60
  5
1A60
331
1A82
  5
1A82
331
1A71
  5
1A71
331
1891
  5
1891
331
1AA4
  5
1AA2
331
12CE
  5
12CE
331
1284
  5
1284
331
1263
  5
1263
331
101B
  5
101B
331
FF9
  5
FF9
331
FE8
  5
FE8
331
1A4F
  5
1A4F
331
1A3E
  5
1A3E
331
FDE
  5
FDE
331
FCD
  5
FCD
331
F6A
  5
F6A
331
1A50
  5
1A50
331
1A61
  5
1A61
331
1A83
  5
1A83
331
1A72
  5
1A72
331
1892
  5
1892
331
10EA
  5
10EA
331
1264
  5
1264
331
101C
  5
101C
331
FFA
  5
FFA
331
FE9
  5
FE9
331
1A3F
  5
1A3F
331
FDF
  5
FDF
331
FCE
  5
FCE
331
F6B
  5
F6B
331
1A51
  5
1A51
331
1A40
  5
1A40
331
1A62
  5
1A62
331
1A84
  5
1A84
331
1A73
  5
1A73
331
1893
  5
1893
331
1047
  5
1047
331
101D
  5
101D
331
FFB
  5
FFB
331
FEA
  5
FEA
331
FE0
  5
FE0
331
FCF
  5
FCF
331
FB6
  5
FB6
331
F85
  5
F85
331
F6C
  5
F6C
331
1A30
  5
1A30
331
1A52
  5
1A52
331
1A41
  5
1A41
331
1A63
  5
1A63
331
1883
  5
1883
331
1A74
  5
1A74
331
1894
  5
1894
331
1A85
  5
1A85
331
120D
  5
120D
331
12D1
  5
12D1
331
101E
  5
101E
331
FFC
  5
FFC
331
FE1
  5
FE1
331
FD0
  5
FD0
331
FB7
  5
FB7
331
F5C
  5
F5C
331
E8B
  5
E8B
331
1A53
  5
1A53
331
1A31
  5
1A31
331
1A64
  5
1A64
331
1884
  5
1884
331
1A86
  5
1A86
331
1A75
  5
1A75
331
1895
  5
1895
331
10ED
  5
10ED
331
147B
  5
147B
331
12D2
  5
12D2
331
12C1
  5
12C1
331
101F
  5
101F
331
FD1
  5
FD1
331
F87
  5
F87
331
F6E
  5
F6E
331
F5D
  5
F5D
331
E8C
  5
E8C
331
1A54
  5
1A54
331
1A32
  5
1A32
331
1A65
  5
1A65
331
1885
  5
1885
331
1A87
  5
1A87
331
1A76
  5
1A76
331
1896
  5
1896
331
10EE
  5
10EE
331
18C2
  5
18C2
331
147C
  5
147C
331
12C2
  5
12C2
331
1020
  5
1020
331
FD2
  5
FD2
331
F5E
  5
F5E
331
E8D
  5
E8D
331
1A33
  5
1A33
331
1A55
  5
1A55
331
1A44
  5
1A44
331
1A66
  5
1A66
331
1886
  5
1886
331
1A88
  5
1A88
331
1A77
  5
1A77
331
10EF
  5
10EF
331
18C3
  5
18C3
331
147D
  5
147D
331
12C3
  5
12C3
331
1021
  5
1021
331
FEE
  5
FEE
331
FE4
  5
FE4
331
FBA
  5
FBA
331
F91
  5
F91
331
F5F
  5
F5F
331
1A34
  5
1A34
331
1A56
  5
1A56
331
1A45
  5
1A45
331
1A67
  5
1A67
331
1A89
  5
1A89
331
1A78
  5
1A78
331
18C4
  5
18C4
331
1898
  5
1898
331
1887
  5
1887
331
147E
  5
147E
331
FEF
  5
FEF
331
FE5
  5
FE5
331
FBB
  5
FBB
331
F92
  5
F92
331
F60
  5
F60
331
1A35
  5
1A35
331
1A57
  5
1A57
331
1A46
  5
1A46
331
1A68
  5
1A68
331
1A9B
  5
1A9B
331
1A8A
  5
1A91
331
1A79
  5
1A79
331
1899
  5
1899
331
1888
  5
1888
331
18C5
  5
18C5
331
147F
  5
147F
331
12C5
  5
12C5
331
12B4
  5
12B4
331
FF0
  5
FF0
331
FE6
  5
FE6
331
FBC
  5
FBC
331
F93
  5
F93
331
F61
  5
F61
331
1480
  5
1480
331
1A36
  5
1A36
331
1A58
  5
1A58
331
1A47
  5
1A47
331
1A69
  5
1A69
331
1A7A
  5
1A7A
331
189A
  5
189A
331
1889
  5
1889
331
18C6
  5
18C6
331
12C6
  5
12C6
331
12B5
  5
12B5
331
1024
  5
1024
331
FF1
  5
FF1
331
FE7
  5
FE7
331
F62
  5
F62
331
E80
  5
E80
331
1481
  5
1481
331
1A48
  5
1A48
331
1A37
  5
1A37
331
1A59
  5
1A59
331
1879
  5
1879
331
1A7B
  5
1A7B
331
1A6A
  5
1A6A
331
188A
  5
188A
331
1A9D
  5
1A9D
331
18C7
  5
18C7
331
12C7
  5
12C7
331
127D
  5
127D
331
1025
  5
1025
331
FF2
  5
FF2
331
F63
  5
F63
331
18C8
  5
18C8
331
1482
  5
1482
331
12C8
  5
12C8
331
1A2E
  5
1A2E
331
1A49
  5
1A49
331
1A38
  5
1A38
331
1A5A
  5
1A5A
331
187A
  5
187A
331
1828
  5
1828
331
1A7C
  5
1A7C
331
1A6B
  5
1A6B
331
188B
  5
188B
331
1A9E
  5
1A9E
331
12B7
  5
12B7
331
127E
  5
127E
331
FF3
  5
FF3
331
F64
  5
F64
331
12B8
  5
12B8
331
18C9
  5
18C9
331
12C9
  5
12C9
331
1483
  5
1483
331
1A4A
  5
1A4A
331
1A39
  5
1A39
331
1A2F
  5
1A2F
331
1A5B
  5
1A5B
331
1A6C
  5
1A6C
331
188C
  5
188C
331
187B
  5
187B
331
1A7D
  5
1A7D
331
11FD
  5
11FD
331
1A9F
  5
1A9F
331
127F
  5
127F
331
1016
  5
1016
331
1005
  5
1005
331
F65
  5
F65
331
E83
  5
E83
331
E79
  5
E79
331
1AA0
  5
1AA0
331
18CA
  5
18CA
331
12CA
  5
12CA
331
12B9
  5
12B9
331
1280
  5
1280
331
1030
  5
1030
331
1484
  5
1484
331
1A4B
  5
1A4B
331
1A3A
  5
1A3A
331
1A5C
  5
1A5C
331
187C
  5
187C
331
1A7E
  5
1A7E
331
1A6D
  5
1A6D
331
188D
  5
188D
331
125F
  5
125F
331
1017
  5
1017
331
FF5
  5
FF5
331
E9D
  5
E9D
331
E84
  5
E84
  0
XRECORD
  5
1B11
102
{ACAD_REACTORS
330
1B10
102
}
330
1B10
100
AcDbXrecord
280
     1
102
SHADEPLOT
 70
     0
  0
XRECORD
  5
1B13
102
{ACAD_REACTORS
330
1B12
102
}
330
1B12
100
AcDbXrecord
280
     1
102
SHADEPLOT
 70
     0
  0
LAYOUT
  5
19BC
102
{ACAD_XDICTIONARY
360
1B49
102
}
102
{ACAD_REACTORS
330
19BA
102
}
330
19BA
100
AcDbPlotSettings
  1

  2
RICOH IPSiO CX8800 RPCS
  4

  6

 40
0.0
 41
0.0
 42
0.0
 43
0.0
 44
0.0
 45
0.0
 46
0.0
 47
0.0
 48
0.0
 49
0.0
140
0.0
141
0.0
142
1.0
143
1.0
 70
  1712
 72
     0
 73
     0
 74
     0
  7

 75
     0
147
1.0
148
0.0
149
0.0
100
AcDbLayout
  1
Model
 70
     1
 71
     0
 10
0.0
 20
0.0
 11
12.0
 21
9.0
 12
0.0
 22
0.0
 32
0.0
 14
0.0
 24
0.0
 34
0.0
 15
0.0
 25
0.0
 35
0.0
146
0.0
 13
0.0
 23
0.0
 33
0.0
 16
1.0
 26
0.0
 36
0.0
 17
0.0
 27
1.0
 37
0.0
 76
     0
330
1A
331
1955
  0
LAYOUT
  5
19BD
102
{ACAD_XDICTIONARY
360
1A24
102
}
102
{ACAD_REACTORS
330
19BA
102
}
330
19BA
100
AcDbPlotSettings
  1

  2
RICOH IPSiO CX8800 RPCS
  4
A4
  6

 40
5.873749732971191
 41
5.873748779296875
 42
5.873733520507812
 43
5.873748779296875
 44
209.9733276367187
 45
296.9259948730469
 46
0.0
 47
0.0
 48
0.0
 49
0.0
140
0.0
141
0.0
142
1.0
143
1.378470707086638
 70
   688
 72
     1
 73
     1
 74
     1
  7

 75
     0
147
0.7254416034080795
148
-19.82208352049588
149
-8.918701873764803
100
AcDbLayout
  1
レイアウト1
 70
     0
 71
     1
 10
11.72529288744923
 20
0.8219099261060502
 11
421.0290789925018
 21
290.2639913428282
 12
0.0
 22
0.0
 32
0.0
 14
19.82208352049588
 24
8.918701873764803
 34
-0.0000000349181948
 15
405.1766977379759
 25
282.1672217435753
 35
0.0000000814935746
146
0.0
 13
0.0
 23
0.0
 33
0.0
 16
1.0
 26
0.0
 36
0.0
 17
0.0
 27
1.0
 37
0.0
 76
     0
330
17
331
22
1001
ACAD_PSEXT
1000
RICOH IPSiO CX8800 RPCS
1000
RICOH IPSiO CX8800 RPCS
1000
172.16.137.51
1000
RPCS Driver (Windows XP/2003/2008/Vista/7 64-bit)
1070
     0
  0
MATERIAL
  5
197A
102
{ACAD_XDICTIONARY
360
197B
102
}
102
{ACAD_REACTORS
330
1971
102
}
330
1971
100
AcDbMaterial
  1
ByBlock
 72
     0
 43
0.0208333333333333
 43
0.0
 43
0.0
 43
0.0
 43
0.0
 43
0.0208333333333333
 43
0.0
 43
0.0
 43
0.0
 43
0.0
 43
1.0
 43
0.0
 43
0.0
 43
0.0
 43
0.0
 43
1.0
 77
     0
 47
0.0208333333333333
 47
0.0
 47
0.0
 47
0.0
 47
0.0
 47
0.0208333333333333
 47
0.0
 47
0.0
 47
0.0
 47
0.0
 47
1.0
 47
0.0
 47
0.0
 47
0.0
 47
0.0
 47
1.0
171
     0
 49
0.0208333333333333
 49
0.0
 49
0.0
 49
0.0
 49
0.0
 49
0.0208333333333333
 49
0.0
 49
0.0
 49
0.0
 49
0.0
 49
1.0
 49
0.0
 49
0.0
 49
0.0
 49
0.0
 49
1.0
175
     0
142
0.0208333333333333
142
0.0
142
0.0
142
0.0
142
0.0
142
0.0208333333333333
142
0.0
142
0.0
142
0.0
142
0.0
142
1.0
142
0.0
142
0.0
142
0.0
142
0.0
142
1.0
179
     0
144
0.0208333333333333
144
0.0
144
0.0
144
0.0
144
0.0
144
0.0208333333333333
144
0.0
144
0.0
144
0.0
144
0.0
144
1.0
144
0.0
144
0.0
144
0.0
144
0.0
144
1.0
147
0.0208333333333333
147
0.0
147
0.0
147
0.0
147
0.0
147
0.0208333333333333
147
0.0
147
0.0
147
0.0
147
0.0
147
1.0
147
0.0
147
0.0
147
0.0
147
0.0
147
1.0
  0
MATERIAL
  5
1972
102
{ACAD_XDICTIONARY
360
1973
102
}
102
{ACAD_REACTORS
330
1971
102
}
330
1971
100
AcDbMaterial
  1
ByLayer
 72
     0
 43
0.0208333333333333
 43
0.0
 43
0.0
 43
0.0
 43
0.0
 43
0.0208333333333333
 43
0.0
 43
0.0
 43
0.0
 43
0.0
 43
1.0
 43
0.0
 43
0.0
 43
0.0
 43
0.0
 43
1.0
 77
     0
 47
0.0208333333333333
 47
0.0
 47
0.0
 47
0.0
 47
0.0
 47
0.0208333333333333
 47
0.0
 47
0.0
 47
0.0
 47
0.0
 47
1.0
 47
0.0
 47
0.0
 47
0.0
 47
0.0
 47
1.0
171
     0
 49
0.0208333333333333
 49
0.0
 49
0.0
 49
0.0
 49
0.0
 49
0.0208333333333333
 49
0.0
 49
0.0
 49
0.0
 49
0.0
 49
1.0
 49
0.0
 49
0.0
 49
0.0
 49
0.0
 49
1.0
175
     0
142
0.0208333333333333
142
0.0
142
0.0
142
0.0
142
0.0
142
0.0208333333333333
142
0.0
142
0.0
142
0.0
142
0.0
142
1.0
142
0.0
142
0.0
142
0.0
142
0.0
142
1.0
179
     0
144
0.0208333333333333
144
0.0
144
0.0
144
0.0
144
0.0
144
0.0208333333333333
144
0.0
144
0.0
144
0.0
144
0.0
144
1.0
144
0.0
144
0.0
144
0.0
144
0.0
144
1.0
147
0.0208333333333333
147
0.0
147
0.0
147
0.0
147
0.0
147
0.0208333333333333
147
0.0
147
0.0
147
0.0
147
0.0
147
1.0
147
0.0
147
0.0
147
0.0
147
0.0
147
1.0
  0
MATERIAL
  5
1982
102
{ACAD_XDICTIONARY
360
1983
102
}
102
{ACAD_REACTORS
330
1971
102
}
330
1971
100
AcDbMaterial
  1
Global
 72
     0
 43
0.0208333333333333
 43
0.0
 43
0.0
 43
0.0
 43
0.0
 43
0.0208333333333333
 43
0.0
 43
0.0
 43
0.0
 43
0.0
 43
1.0
 43
0.0
 43
0.0
 43
0.0
 43
0.0
 43
1.0
 77
     0
 47
0.0208333333333333
 47
0.0
 47
0.0
 47
0.0
 47
0.0
 47
0.0208333333333333
 47
0.0
 47
0.0
 47
0.0
 47
0.0
 47
1.0
 47
0.0
 47
0.0
 47
0.0
 47
0.0
 47
1.0
171
     0
 49
0.0208333333333333
 49
0.0
 49
0.0
 49
0.0
 49
0.0
 49
0.0208333333333333
 49
0.0
 49
0.0
 49
0.0
 49
0.0
 49
1.0
 49
0.0
 49
0.0
 49
0.0
 49
0.0
 49
1.0
175
     0
142
0.0208333333333333
142
0.0
142
0.0
142
0.0
142
0.0
142
0.0208333333333333
142
0.0
142
0.0
142
0.0
142
0.0
142
1.0
142
0.0
142
0.0
142
0.0
142
0.0
142
1.0
179
     0
144
0.0208333333333333
144
0.0
144
0.0
144
0.0
144
0.0
144
0.0208333333333333
144
0.0
144
0.0
144
0.0
144
0.0
144
1.0
144
0.0
144
0.0
144
0.0
144
0.0
144
1.0
147
0.0208333333333333
147
0.0
147
0.0
147
0.0
147
0.0
147
0.0208333333333333
147
0.0
147
0.0
147
0.0
147
0.0
147
1.0
147
0.0
147
0.0
147
0.0
147
0.0
147
1.0
  0
MLEADERSTYLE
  5
19B9
102
{ACAD_XDICTIONARY
360
1B0C
102
}
102
{ACAD_REACTORS
330
19B8
102
}
330
19B8
100
AcDbMLeaderStyle
170
     2
171
     1
172
     0
 90
        2
 40
0.0
 41
0.0
173
     1
 91
-1056964608
340
14
 92
       -2
290
     1
 42
2.0
291
     1
 43
0.36
  3
Standard
 44
4.0
300

342
10
174
     1
178
     6
175
     1
176
     0
 93
-1056964608
 45
4.0
292
     0
297
     0
 46
4.0
 94
-1056964608
 47
1.0
 49
1.0
140
1.0
293
     1
141
0.0
294
     1
177
     0
142
1.0
295
     0
296
     0
143
0.125
1001
ACAD_MLEADERVER
1070
     2
  0
MLINESTYLE
  5
13
102
{ACAD_REACTORS
330
E
102
}
330
E
100
AcDbMlineStyle
  2
STANDARD
 70
     0
  3

 62
     0
 51
90.0
 52
90.0
 71
     2
 49
0.5
 62
   256
  6
BYLAYER
 49
-0.5
 62
   256
  6
BYLAYER
  0
ACDBPLACEHOLDER
  5
1970
102
{ACAD_REACTORS
330
196F
102
}
330
196F
  0
SCALE
  5
19A7
102
{ACAD_REACTORS
330
19A6
102
}
330
19A6
100
AcDbScale
 70
     0
300
1:1
140
1.0
141
1.0
290
     1
  0
SCALE
  5
19A8
102
{ACAD_REACTORS
330
19A6
102
}
330
19A6
100
AcDbScale
 70
     0
300
1:2
140
1.0
141
2.0
290
     0
  0
SCALE
  5
19A9
102
{ACAD_REACTORS
330
19A6
102
}
330
19A6
100
AcDbScale
 70
     0
300
1:4
140
1.0
141
4.0
290
     0
  0
SCALE
  5
19AA
102
{ACAD_REACTORS
330
19A6
102
}
330
19A6
100
AcDbScale
 70
     0
300
1:5
140
1.0
141
5.0
290
     0
  0
SCALE
  5
19AB
102
{ACAD_REACTORS
330
19A6
102
}
330
19A6
100
AcDbScale
 70
     0
300
1:8
140
1.0
141
8.0
290
     0
  0
SCALE
  5
19AC
102
{ACAD_REACTORS
330
19A6
102
}
330
19A6
100
AcDbScale
 70
     0
300
1:10
140
1.0
141
10.0
290
     0
  0
SCALE
  5
19AD
102
{ACAD_REACTORS
330
19A6
102
}
330
19A6
100
AcDbScale
 70
     0
300
1:16
140
1.0
141
16.0
290
     0
  0
SCALE
  5
19AE
102
{ACAD_REACTORS
330
19A6
102
}
330
19A6
100
AcDbScale
 70
     0
300
1:20
140
1.0
141
20.0
290
     0
  0
SCALE
  5
19AF
102
{ACAD_REACTORS
330
19A6
102
}
330
19A6
100
AcDbScale
 70
     0
300
1:30
140
1.0
141
30.0
290
     0
  0
SCALE
  5
19B0
102
{ACAD_REACTORS
330
19A6
102
}
330
19A6
100
AcDbScale
 70
     0
300
1:40
140
1.0
141
40.0
290
     0
  0
SCALE
  5
19B1
102
{ACAD_REACTORS
330
19A6
102
}
330
19A6
100
AcDbScale
 70
     0
300
1:50
140
1.0
141
50.0
290
     0
  0
SCALE
  5
19B2
102
{ACAD_REACTORS
330
19A6
102
}
330
19A6
100
AcDbScale
 70
     0
300
1:100
140
1.0
141
100.0
290
     0
  0
SCALE
  5
19B3
102
{ACAD_REACTORS
330
19A6
102
}
330
19A6
100
AcDbScale
 70
     0
300
2:1
140
2.0
141
1.0
290
     0
  0
SCALE
  5
19B4
102
{ACAD_REACTORS
330
19A6
102
}
330
19A6
100
AcDbScale
 70
     0
300
4:1
140
4.0
141
1.0
290
     0
  0
SCALE
  5
19B5
102
{ACAD_REACTORS
330
19A6
102
}
330
19A6
100
AcDbScale
 70
     0
300
8:1
140
8.0
141
1.0
290
     0
  0
SCALE
  5
19B6
102
{ACAD_REACTORS
330
19A6
102
}
330
19A6
100
AcDbScale
 70
     0
300
10:1
140
10.0
141
1.0
290
     0
  0
SCALE
  5
19B7
102
{ACAD_REACTORS
330
19A6
102
}
330
19A6
100
AcDbScale
 70
     0
300
100:1
140
100.0
141
1.0
290
     0
  0
TABLESTYLE
  5
19A5
102
{ACAD_XDICTIONARY
360
1B0A
102
}
102
{ACAD_REACTORS
330
19A4
102
}
330
19A4
100
AcDbTableStyle
  3
Standard
 70
     0
 71
     0
 40
1.5
 41
1.5
280
     0
281
     0
  7
STANDARD
140
4.5
170
     2
 62
     0
 63
     7
283
     0
274
    -2
284
     1
 64
     0
275
    -2
285
     1
 65
     0
276
    -2
286
     1
 66
     0
277
    -2
287
     1
 67
     0
278
    -2
288
     1
 68
     0
279
    -2
289
     1
 69
     0
  7
STANDARD
140
6.0
170
     5
 62
     0
 63
     7
283
     0
274
    -2
284
     1
 64
     0
275
    -2
285
     1
 65
     0
276
    -2
286
     1
 66
     0
277
    -2
287
     1
 67
     0
278
    -2
288
     1
 68
     0
279
    -2
289
     1
 69
     0
  7
STANDARD
140
4.5
170
     5
 62
     0
 63
     7
283
     0
274
    -2
284
     1
 64
     0
275
    -2
285
     1
 65
     0
276
    -2
286
     1
 66
     0
277
    -2
287
     1
 67
     0
278
    -2
288
     1
 68
     0
279
    -2
289
     1
 69
     0
  0
VISUALSTYLE
  5
1990
102
{ACAD_XDICTIONARY
360
1B21
102
}
102
{ACAD_REACTORS
330
198A
102
}
330
198A
100
AcDbVisualStyle
  2
2dWireframe
 70
     4
 71
     0
 72
     2
 73
     0
 90
        0
 40
-0.6
 41
-30.0
 62
     5
 63
     7
 74
     1
 91
        4
 64
     7
 65
   257
 75
     1
175
     1
 42
1.0
 92
        0
 66
   257
 43
1.0
 76
     1
 77
     6
 78
     2
 67
     7
 79
     5
170
     0
171
     0
290
     0
174
     0
 93
        1
 44
0.0
173
     0
291
     0
 45
0.0
1001
ACAD
1000
AcDbSavedByObjectVersion
1070
     0
  0
VISUALSTYLE
  5
198F
102
{ACAD_XDICTIONARY
360
1B1F
102
}
102
{ACAD_REACTORS
330
198A
102
}
330
198A
100
AcDbVisualStyle
  2
Basic
 70
     7
 71
     1
 72
     0
 73
     1
 90
        0
 40
-0.6
 41
-30.0
 62
     5
 63
     7
 74
     0
 91
        4
 64
     7
 65
   257
 75
     1
175
     1
 42
1.0
 92
        8
 66
     7
 43
1.0
 76
     1
 77
     6
 78
     2
 67
     7
 79
     5
170
     0
171
     0
290
     0
174
     0
 93
        1
 44
0.0
173
     0
291
     1
 45
0.0
1001
ACAD
1000
AcDbSavedByObjectVersion
1070
     0
  0
VISUALSTYLE
  5
1996
102
{ACAD_XDICTIONARY
360
1B2D
102
}
102
{ACAD_REACTORS
330
198A
102
}
330
198A
100
AcDbVisualStyle
  2
Brighten
 70
    12
 71
     2
 72
     2
 73
     0
 90
        0
 40
-0.6
 41
-30.0
 62
     5
 63
     7
 74
     1
 91
        4
 64
     7
 65
   257
 75
     1
175
     1
 42
1.0
 92
        8
 66
     7
 43
1.0
 76
     1
 77
     6
 78
     2
 67
     7
 79
     5
170
     0
171
     0
290
     0
174
     0
 93
        1
 44
50.0
173
     0
291
     1
 45
0.0
1001
ACAD
1000
AcDbSavedByObjectVersion
1070
     0
  0
VISUALSTYLE
  5
199A
102
{ACAD_XDICTIONARY
360
1B35
102
}
102
{ACAD_REACTORS
330
198A
102
}
330
198A
100
AcDbVisualStyle
  2
ColorChange
 70
    16
 71
     2
 72
     2
 73
     3
 90
        0
 40
-0.6
 41
-30.0
 62
     5
 63
     8
 74
     1
 91
        4
 64
     7
 65
   257
 75
     1
175
     1
 42
1.0
 92
        8
 66
     8
 43
1.0
 76
     1
 77
     6
 78
     2
 67
     7
 79
     5
170
     0
171
     0
290
     0
174
     0
 93
        1
 44
0.0
173
     0
291
     1
 45
0.0
1001
ACAD
1000
AcDbSavedByObjectVersion
1070
     0
  0
VISUALSTYLE
  5
1993
102
{ACAD_XDICTIONARY
360
1B27
102
}
102
{ACAD_REACTORS
330
198A
102
}
330
198A
100
AcDbVisualStyle
  2
Conceptual
 70
     9
 71
     3
 72
     2
 73
     0
 90
        0
 40
-0.6
 41
-30.0
 62
     5
 63
     7
 74
     2
 91
        2
 64
     7
 65
   257
 75
     1
175
     1
 42
179.0
 92
        8
 66
     7
 43
1.0
 76
     1
 77
     6
 78
     2
 67
     7
 79
     3
170
     0
171
     0
290
     0
174
     0
 93
        1
 44
0.0
173
     0
291
     0
 45
0.0
1001
ACAD
1000
AcDbSavedByObjectVersion
1070
     0
  0
VISUALSTYLE
  5
1995
102
{ACAD_XDICTIONARY
360
1B2B
102
}
102
{ACAD_REACTORS
330
198A
102
}
330
198A
100
AcDbVisualStyle
  2
Dim
 70
    11
 71
     2
 72
     2
 73
     0
 90
        0
 40
-0.6
 41
-30.0
 62
     5
 63
     7
 74
     1
 91
        4
 64
     7
 65
   257
 75
     1
175
     1
 42
1.0
 92
        8
 66
     7
 43
1.0
 76
     1
 77
     6
 78
     2
 67
     7
 79
     5
170
     0
171
     0
290
     0
174
     0
 93
        1
 44
-50.0
173
     0
291
     1
 45
0.0
1001
ACAD
1000
AcDbSavedByObjectVersion
1070
     0
  0
VISUALSTYLE
  5
19A2
102
{ACAD_XDICTIONARY
360
1B45
102
}
102
{ACAD_REACTORS
330
198A
102
}
330
198A
100
AcDbVisualStyle
  2
EdgeColorOff
 70
    22
 71
     2
 72
     2
 73
     0
 90
        0
 40
-0.6
 41
-30.0
 62
     5
 63
     7
 74
     1
 91
        4
 64
     7
 65
   257
 75
     1
175
     1
 42
1.0
 92
        8
 66
     7
 43
1.0
 76
     1
 77
     6
 78
     2
 67
     7
 79
     5
170
     0
171
     0
290
     0
174
     0
 93
        1
 44
0.0
173
     0
291
     1
 45
0.0
1001
ACAD
1000
AcDbSavedByObjectVersion
1070
     0
  0
VISUALSTYLE
  5
1999
102
{ACAD_XDICTIONARY
360
1B33
102
}
102
{ACAD_REACTORS
330
198A
102
}
330
198A
100
AcDbVisualStyle
  2
Facepattern
 70
    15
 71
     2
 72
     2
 73
     0
 90
        0
 40
-0.6
 41
-30.0
 62
     5
 63
     7
 74
     1
 91
        4
 64
     7
 65
   257
 75
     1
175
     1
 42
1.0
 92
        8
 66
     7
 43
1.0
 76
     1
 77
     6
 78
     2
 67
     7
 79
     5
170
     0
171
     0
290
     0
174
     0
 93
        1
 44
0.0
173
     0
291
     1
 45
0.0
1001
ACAD
1000
AcDbSavedByObjectVersion
1070
     0
  0
VISUALSTYLE
  5
198B
102
{ACAD_XDICTIONARY
360
1B17
102
}
102
{ACAD_REACTORS
330
198A
102
}
330
198A
100
AcDbVisualStyle
  2
Flat
 70
     0
 71
     2
 72
     1
 73
     1
 90
        2
 40
-0.6
 41
30.0
 62
     5
 63
     7
 74
     0
 91
        0
 64
     7
 65
   257
 75
     1
175
     1
 42
1.0
 92
        8
 66
     7
 43
1.0
 76
     1
 77
     6
 78
     2
 67
     7
 79
     5
170
     0
171
     0
290
     0
174
     0
 93
       13
 44
0.0
173
     0
291
     1
 45
0.0
1001
ACAD
1000
AcDbSavedByObjectVersion
1070
     0
  0
VISUALSTYLE
  5
198C
102
{ACAD_XDICTIONARY
360
1B19
102
}
102
{ACAD_REACTORS
330
198A
102
}
330
198A
100
AcDbVisualStyle
  2
FlatWithEdges
 70
     1
 71
     2
 72
     1
 73
     1
 90
        2
 40
-0.6
 41
30.0
 62
     5
 63
     7
 74
     1
 91
        0
 64
     7
 65
   257
 75
     1
175
     1
 42
1.0
 92
        0
 66
   257
 43
1.0
 76
     1
 77
     6
 78
     2
 67
     7
 79
     5
170
     0
171
     0
290
     0
174
     0
 93
       13
 44
0.0
173
     0
291
     1
 45
0.0
1001
ACAD
1000
AcDbSavedByObjectVersion
1070
     0
  0
VISUALSTYLE
  5
198D
102
{ACAD_XDICTIONARY
360
1B1B
102
}
102
{ACAD_REACTORS
330
198A
102
}
330
198A
100
AcDbVisualStyle
  2
Gouraud
 70
     2
 71
     2
 72
     2
 73
     1
 90
        2
 40
-0.6
 41
30.0
 62
     5
 63
     7
 74
     0
 91
        0
 64
     7
 65
   257
 75
     1
175
     1
 42
1.0
 92
        0
 66
     7
 43
1.0
 76
     1
 77
     6
 78
     2
 67
     7
 79
     5
170
     0
171
     0
290
     0
174
     0
 93
       13
 44
0.0
173
     0
291
     1
 45
0.0
1001
ACAD
1000
AcDbSavedByObjectVersion
1070
     0
  0
VISUALSTYLE
  5
198E
102
{ACAD_XDICTIONARY
360
1B1D
102
}
102
{ACAD_REACTORS
330
198A
102
}
330
198A
100
AcDbVisualStyle
  2
GouraudWithEdges
 70
     3
 71
     2
 72
     2
 73
     1
 90
        2
 40
-0.6
 41
30.0
 62
     5
 63
     7
 74
     1
 91
        0
 64
     7
 65
   257
 75
     1
175
     1
 42
1.0
 92
        0
 66
   257
 43
1.0
 76
     1
 77
     6
 78
     2
 67
     7
 79
     5
170
     0
171
     0
290
     0
174
     0
 93
       13
 44
0.0
173
     0
291
     1
 45
0.0
1001
ACAD
1000
AcDbSavedByObjectVersion
1070
     0
  0
VISUALSTYLE
  5
1992
102
{ACAD_XDICTIONARY
360
1B25
102
}
102
{ACAD_REACTORS
330
198A
102
}
330
198A
100
AcDbVisualStyle
  2
Hidden
 70
     6
 71
     1
 72
     2
 73
     2
 90
        0
 40
-0.6
 41
-30.0
 62
     5
 63
     7
 74
     2
 91
        2
 64
     7
 65
   257
 75
     2
175
     1
 42
40.0
 92
        0
 66
   257
 43
1.0
 76
     1
 77
     6
 78
     2
 67
     7
 79
     3
170
     0
171
     0
290
     0
174
     0
 93
        1
 44
0.0
173
     0
291
     0
 45
0.0
1001
ACAD
1000
AcDbSavedByObjectVersion
1070
     0
  0
VISUALSTYLE
  5
19A0
102
{ACAD_XDICTIONARY
360
1B41
102
}
102
{ACAD_REACTORS
330
198A
102
}
330
198A
100
AcDbVisualStyle
  2
JitterOff
 70
    20
 71
     2
 72
     2
 73
     0
 90
        0
 40
-0.6
 41
-30.0
 62
     5
 63
     7
 74
     1
 91
        4
 64
     7
 65
   257
 75
     1
175
     1
 42
1.0
 92
       10
 66
     7
 43
1.0
 76
     1
 77
     6
 78
     2
 67
     7
 79
     5
170
     0
171
     0
290
     0
174
     0
 93
        1
 44
0.0
173
     0
291
     1
 45
0.0
1001
ACAD
1000
AcDbSavedByObjectVersion
1070
     0
  0
VISUALSTYLE
  5
1998
102
{ACAD_XDICTIONARY
360
1B31
102
}
102
{ACAD_REACTORS
330
198A
102
}
330
198A
100
AcDbVisualStyle
  2
Linepattern
 70
    14
 71
     2
 72
     2
 73
     0
 90
        0
 40
-0.6
 41
-30.0
 62
     5
 63
     7
 74
     1
 91
        4
 64
     7
 65
   257
 75
     7
175
     7
 42
1.0
 92
        8
 66
     7
 43
1.0
 76
     1
 77
     6
 78
     2
 67
     7
 79
     5
170
     0
171
     0
290
     0
174
     0
 93
        1
 44
0.0
173
     0
291
     1
 45
0.0
1001
ACAD
1000
AcDbSavedByObjectVersion
1070
     0
  0
VISUALSTYLE
  5
19A1
102
{ACAD_XDICTIONARY
360
1B43
102
}
102
{ACAD_REACTORS
330
198A
102
}
330
198A
100
AcDbVisualStyle
  2
OverhangOff
 70
    21
 71
     2
 72
     2
 73
     0
 90
        0
 40
-0.6
 41
-30.0
 62
     5
 63
     7
 74
     1
 91
        4
 64
     7
 65
   257
 75
     1
175
     1
 42
1.0
 92
        9
 66
     7
 43
1.0
 76
     1
 77
     6
 78
     2
 67
     7
 79
     5
170
     0
171
     0
290
     0
174
     0
 93
        1
 44
0.0
173
     0
291
     1
 45
0.0
1001
ACAD
1000
AcDbSavedByObjectVersion
1070
     0
  0
VISUALSTYLE
  5
1994
102
{ACAD_XDICTIONARY
360
1B29
102
}
102
{ACAD_REACTORS
330
198A
102
}
330
198A
100
AcDbVisualStyle
  2
Realistic
 70
     8
 71
     2
 72
     3
 73
     0
 90
        2
 40
-0.6
 41
30.0
 62
     5
 63
     7
 74
     0
 91
        0
 64
     7
 65
   257
 75
     1
175
     1
 42
1.0
 92
        8
 66
   257
 43
1.0
 76
     1
 77
     6
 78
     2
 67
     7
 79
     3
170
     0
171
     0
290
     0
174
     0
 93
       13
 44
0.0
173
     0
291
     0
 45
0.0
1001
ACAD
1000
AcDbSavedByObjectVersion
1070
     0
  0
VISUALSTYLE
  5
199F
102
{ACAD_XDICTIONARY
360
1B3F
102
}
102
{ACAD_REACTORS
330
198A
102
}
330
198A
100
AcDbVisualStyle
  2
Shaded
 70
    27
 71
     2
 72
     2
 73
     1
 90
        2
 40
-0.6
 41
30.0
 62
     5
 63
     7
 74
     0
 91
        4
 64
     7
 65
   257
 75
     1
175
     1
 42
1.0
 92
        8
 66
   257
 43
1.0
 76
     1
 77
     6
 78
     2
 67
     8
 79
     3
170
     0
171
     0
290
     0
174
     0
 93
        5
 44
0.0
173
     0
291
     0
 45
0.0
1001
ACAD
1000
AcDbSavedByObjectVersion
1070
     0
  0
VISUALSTYLE
  5
199E
102
{ACAD_XDICTIONARY
360
1B3D
102
}
102
{ACAD_REACTORS
330
198A
102
}
330
198A
100
AcDbVisualStyle
  2
Shaded with edges
 70
    26
 71
     2
 72
     2
 73
     1
 90
        2
 40
-0.6
 41
30.0
 62
     5
 63
     7
 74
     1
 91
       10
 64
     7
 65
   257
 75
     2
175
     1
 42
1.0
 92
        8
 66
   257
 43
1.0
 76
     1
 77
     6
 78
     2
 67
     7
 79
     3
170
     0
171
     0
290
     0
174
     0
 93
        5
 44
0.0
173
     0
291
     0
 45
0.0
1001
ACAD
1000
AcDbSavedByObjectVersion
1070
     0
  0
VISUALSTYLE
  5
199B
102
{ACAD_XDICTIONARY
360
1B37
102
}
102
{ACAD_REACTORS
330
198A
102
}
330
198A
100
AcDbVisualStyle
  2
Shades of Gray
 70
    23
 71
     2
 72
     2
 73
     3
 90
        0
 40
-0.6
 41
-30.0
 62
     5
 63
     7
 74
     2
 91
        2
 64
     7
 65
     7
 75
     1
175
     1
 42
40.0
 92
        8
 66
     7
 43
1.0
 76
     1
 77
     6
 78
     2
 67
     7
 79
     3
170
     0
171
     0
290
     0
174
     0
 93
        1
 44
0.0
173
     0
291
     0
 45
0.0
1001
ACAD
1000
AcDbSavedByObjectVersion
1070
     0
  0
VISUALSTYLE
  5
199C
102
{ACAD_XDICTIONARY
360
1B39
102
}
102
{ACAD_REACTORS
330
198A
102
}
330
198A
100
AcDbVisualStyle
  2
Sketchy
 70
    24
 71
     1
 72
     2
 73
     2
 90
        0
 40
-0.6
 41
-30.0
 62
     5
 63
     7
 74
     2
 91
        2
 64
     7
 65
     7
 75
     1
175
     1
 42
40.0
 92
       11
 66
     7
 43
1.0
 76
     1
 77
     6
 78
     2
 67
     7
 79
     6
170
     0
171
     0
290
     0
174
     0
 93
        1
 44
0.0
173
     0
291
     0
 45
0.0
1001
ACAD
1000
AcDbSavedByObjectVersion
1070
     0
  0
VISUALSTYLE
  5
1997
102
{ACAD_XDICTIONARY
360
1B2F
102
}
102
{ACAD_REACTORS
330
198A
102
}
330
198A
100
AcDbVisualStyle
  2
Thicken
 70
    13
 71
     2
 72
     2
 73
     0
 90
        0
 40
-0.6
 41
-30.0
 62
     5
 63
     7
 74
     1
 91
        4
 64
     7
 65
   257
 75
     1
175
     1
 42
1.0
 92
       12
 66
     7
 43
1.0
 76
     1
 77
     6
 78
     2
 67
     7
 79
     5
170
     0
171
     0
290
     0
174
     0
 93
        1
 44
0.0
173
     0
291
     1
 45
0.0
1001
ACAD
1000
AcDbSavedByObjectVersion
1070
     0
  0
VISUALSTYLE
  5
1991
102
{ACAD_XDICTIONARY
360
1B23
102
}
102
{ACAD_REACTORS
330
198A
102
}
330
198A
100
AcDbVisualStyle
  2
Wireframe
 70
     5
 71
     0
 72
     2
 73
     0
 90
        0
 40
-0.6
 41
-30.0
 62
     5
 63
     7
 74
     1
 91
        4
 64
     7
 65
   257
 75
     1
175
     1
 42
1.0
 92
        0
 66
   257
 43
1.0
 76
     1
 77
     6
 78
     2
 67
     7
 79
     3
170
     0
171
     0
290
     0
174
     0
 93
        1
 44
0.0
173
     0
291
     0
 45
0.0
1001
ACAD
1000
AcDbSavedByObjectVersion
1070
     0
  0
VISUALSTYLE
  5
199D
102
{ACAD_XDICTIONARY
360
1B3B
102
}
102
{ACAD_REACTORS
330
198A
102
}
330
198A
100
AcDbVisualStyle
  2
X-Ray
 70
    25
 71
     2
 72
     2
 73
     1
 90
        1
 40
0.5
 41
-30.0
 62
     5
 63
     7
 74
     1
 91
        0
 64
     7
 65
   257
 75
     1
175
     1
 42
1.0
 92
        8
 66
     7
 43
1.0
 76
     1
 77
     6
 78
     2
 67
     7
 79
     3
170
     0
171
     0
290
     0
174
     0
 93
       13
 44
0.0
173
     0
291
     0
 45
0.0
1001
ACAD
1000
AcDbSavedByObjectVersion
1070
     0
  0
DICTIONARYVAR
  5
19D4
102
{ACAD_REACTORS
330
1044
102
}
330
1044
100
DictionaryVariables
280
     0
  1
1:1
  0
DICTIONARYVAR
  5
19D3
102
{ACAD_REACTORS
330
1044
102
}
330
1044
100
DictionaryVariables
280
     0
  1
STANDARD
  0
DICTIONARYVAR
  5
19D2
102
{ACAD_REACTORS
330
1044
102
}
330
1044
100
DictionaryVariables
280
     0
  1
STANDARD
  0
DICTIONARYVAR
  5
19D6
102
{ACAD_REACTORS
330
1044
102
}
330
1044
100
DictionaryVariables
280
     0
  1
1
  0
DICTIONARYVAR
  5
19D5
102
{ACAD_REACTORS
330
1044
102
}
330
1044
100
DictionaryVariables
280
     0
  1
0
  0
DICTIONARYVAR
  5
1045
102
{ACAD_REACTORS
330
1044
102
}
330
1044
100
DictionaryVariables
280
     0
  1
96
  0
DICTIONARYVAR
  5
19D7
102
{ACAD_REACTORS
330
1044
102
}
330
1044
100
DictionaryVariables
280
     0
  1
2
  0
DICTIONARY
  5
1B49
330
19BC
100
AcDbDictionary
280
     1
281
     1
  3
ACAD_XREC_ROUNDTRIP
360
1B4A
  0
DICTIONARY
  5
1A24
330
19BD
100
AcDbDictionary
280
     1
281
     1
  3
ACAD_XREC_ROUNDTRIP
360
1B4B
  3
ADSK_XREC_LAYOUTTHUMBNAIL
360
1A25
  0
DICTIONARY
  5
197B
330
197A
100
AcDbDictionary
280
     1
281
     1
  3
ACAD_XREC_ROUNDTRIP
360
1B15
  3
BUMPTILE
360
197D
  3
DIFFUSETILE
360
197C
  3
OPACITYTILE
360
1980
  3
REFLECTIONTILE
360
197F
  3
REFRACTIONTILE
360
1981
  3
SPECULARTILE
360
197E
  0
DICTIONARY
  5
1973
330
1972
100
AcDbDictionary
280
     1
281
     1
  3
ACAD_XREC_ROUNDTRIP
360
1B14
  3
BUMPTILE
360
1975
  3
DIFFUSETILE
360
1974
  3
OPACITYTILE
360
1978
  3
REFLECTIONTILE
360
1977
  3
REFRACTIONTILE
360
1979
  3
SPECULARTILE
360
1976
  0
DICTIONARY
  5
1983
330
1982
100
AcDbDictionary
280
     1
281
     1
  3
ACAD_XREC_ROUNDTRIP
360
1B16
  3
BUMPTILE
360
1985
  3
DIFFUSETILE
360
1984
  3
OPACITYTILE
360
1988
  3
REFLECTIONTILE
360
1987
  3
REFRACTIONTILE
360
1989
  3
SPECULARTILE
360
1986
  0
DICTIONARY
  5
1B0C
330
19B9
100
AcDbDictionary
280
     1
281
     1
  3
ACAD_XREC_ROUNDTRIP
360
1B0D
  0
DICTIONARY
  5
1B0A
330
19A5
100
AcDbDictionary
280
     1
281
     1
  3
ACAD_ROUNDTRIP_2008_TABLESTYLE_CELLSTYLEMAP
360
1B0B
  3
ACAD_XREC_ROUNDTRIP
360
1B47
  0
DICTIONARY
  5
1B21
330
1990
100
AcDbDictionary
280
     1
281
     1
  3
ACAD_XREC_ROUNDTRIP
360
1B22
  0
DICTIONARY
  5
1B1F
330
198F
100
AcDbDictionary
280
     1
281
     1
  3
ACAD_XREC_ROUNDTRIP
360
1B20
  0
DICTIONARY
  5
1B2D
330
1996
100
AcDbDictionary
280
     1
281
     1
  3
ACAD_XREC_ROUNDTRIP
360
1B2E
  0
DICTIONARY
  5
1B35
330
199A
100
AcDbDictionary
280
     1
281
     1
  3
ACAD_XREC_ROUNDTRIP
360
1B36
  0
DICTIONARY
  5
1B27
330
1993
100
AcDbDictionary
280
     1
281
     1
  3
ACAD_XREC_ROUNDTRIP
360
1B28
  0
DICTIONARY
  5
1B2B
330
1995
100
AcDbDictionary
280
     1
281
     1
  3
ACAD_XREC_ROUNDTRIP
360
1B2C
  0
DICTIONARY
  5
1B45
330
19A2
100
AcDbDictionary
280
     1
281
     1
  3
ACAD_XREC_ROUNDTRIP
360
1B46
  0
DICTIONARY
  5
1B33
330
1999
100
AcDbDictionary
280
     1
281
     1
  3
ACAD_XREC_ROUNDTRIP
360
1B34
  0
DICTIONARY
  5
1B17
330
198B
100
AcDbDictionary
280
     1
281
     1
  3
ACAD_XREC_ROUNDTRIP
360
1B18
  0
DICTIONARY
  5
1B19
330
198C
100
AcDbDictionary
280
     1
281
     1
  3
ACAD_XREC_ROUNDTRIP
360
1B1A
  0
DICTIONARY
  5
1B1B
330
198D
100
AcDbDictionary
280
     1
281
     1
  3
ACAD_XREC_ROUNDTRIP
360
1B1C
  0
DICTIONARY
  5
1B1D
330
198E
100
AcDbDictionary
280
     1
281
     1
  3
ACAD_XREC_ROUNDTRIP
360
1B1E
  0
DICTIONARY
  5
1B25
330
1992
100
AcDbDictionary
280
     1
281
     1
  3
ACAD_XREC_ROUNDTRIP
360
1B26
  0
DICTIONARY
  5
1B41
330
19A0
100
AcDbDictionary
280
     1
281
     1
  3
ACAD_XREC_ROUNDTRIP
360
1B42
  0
DICTIONARY
  5
1B31
330
1998
100
AcDbDictionary
280
     1
281
     1
  3
ACAD_XREC_ROUNDTRIP
360
1B32
  0
DICTIONARY
  5
1B43
330
19A1
100
AcDbDictionary
280
     1
281
     1
  3
ACAD_XREC_ROUNDTRIP
360
1B44
  0
DICTIONARY
  5
1B29
330
1994
100
AcDbDictionary
280
     1
281
     1
  3
ACAD_XREC_ROUNDTRIP
360
1B2A
  0
DICTIONARY
  5
1B3F
330
199F
100
AcDbDictionary
280
     1
281
     1
  3
ACAD_XREC_ROUNDTRIP
360
1B40
  0
DICTIONARY
  5
1B3D
330
199E
100
AcDbDictionary
280
     1
281
     1
  3
ACAD_XREC_ROUNDTRIP
360
1B3E
  0
DICTIONARY
  5
1B37
330
199B
100
AcDbDictionary
280
     1
281
     1
  3
ACAD_XREC_ROUNDTRIP
360
1B38
  0
DICTIONARY
  5
1B39
330
199C
100
AcDbDictionary
280
     1
281
     1
  3
ACAD_XREC_ROUNDTRIP
360
1B3A
  0
DICTIONARY
  5
1B2F
330
1997
100
AcDbDictionary
280
     1
281
     1
  3
ACAD_XREC_ROUNDTRIP
360
1B30
  0
DICTIONARY
  5
1B23
330
1991
100
AcDbDictionary
280
     1
281
     1
  3
ACAD_XREC_ROUNDTRIP
360
1B24
  0
DICTIONARY
  5
1B3B
330
199D
100
AcDbDictionary
280
     1
281
     1
  3
ACAD_XREC_ROUNDTRIP
360
1B3C
  0
XRECORD
  5
1B4A
102
{ACAD_REACTORS
330
1B49
102
}
330
1B49
100
AcDbXrecord
280
     1
102
SHADEPLOT
 70
     0
102
SHADEPLOTRESLEVEL
 70
     2
102
SHADEPLOTCUSTOMDPI
 70
   300
  0
XRECORD
  5
1B4B
102
{ACAD_REACTORS
330
1A24
102
}
330
1A24
100
AcDbXrecord
280
     1
102
SHADEPLOT
 70
     0
102
SHADEPLOTRESLEVEL
 70
     2
102
SHADEPLOTCUSTOMDPI
 70
   300
  0
XRECORD
  5
1A25
102
{ACAD_REACTORS
330
1A24
102
}
330
1A24
100
AcDbXrecord
280
     1
310
28000000B40000007F00000001000800000000004C590000000000000000000000010000000000000000000000000000C8C8C8000000000000000000000000000000000000000000000000000000000000000000330000006600000099000000CC000000FF00000000330000333300006633000099330000CC330000FF3300
310
0000660000336600006666000099660000CC660000FF66000000990000339900006699000099990000CC990000FF99000000CC000033CC000066CC000099CC0000CCCC0000FFCC000000FF000033FF000066FF000099FF0000CCFF0000FFFF000000003300330033006600330099003300CC003300FF003300003333003333
310
33006633330099333300CC333300FF33330000663300336633006666330099663300CC663300FF66330000993300339933006699330099993300CC993300FF99330000CC330033CC330066CC330099CC3300CCCC3300FFCC330000FF330033FF330066FF330099FF3300CCFF3300FFFF330000006600330066006600660099
310
006600CC006600FF00660000336600333366006633660099336600CC336600FF33660000666600336666006666660099666600CC666600FF66660000996600339966006699660099996600CC996600FF99660000CC660033CC660066CC660099CC6600CCCC6600FFCC660000FF660033FF660066FF660099FF6600CCFF6600
310
FFFF660000009900330099006600990099009900CC009900FF00990000339900333399006633990099339900CC339900FF33990000669900336699006666990099669900CC669900FF66990000999900339999006699990099999900CC999900FF99990000CC990033CC990066CC990099CC9900CCCC9900FFCC990000FF99
310
0033FF990066FF990099FF9900CCFF9900FFFF99000000CC003300CC006600CC009900CC00CC00CC00FF00CC000033CC003333CC006633CC009933CC00CC33CC00FF33CC000066CC003366CC006666CC009966CC00CC66CC00FF66CC000099CC003399CC006699CC009999CC00CC99CC00FF99CC0000CCCC0033CCCC0066CC
310
CC0099CCCC00CCCCCC00FFCCCC0000FFCC0033FFCC0066FFCC0099FFCC00CCFFCC00FFFFCC000000FF003300FF006600FF009900FF00CC00FF00FF00FF000033FF003333FF006633FF009933FF00CC33FF00FF33FF000066FF003366FF006666FF009966FF00CC66FF00FF66FF000099FF003399FF006699FF009999FF00CC
310
99FF00FF99FF0000CCFF0033CCFF0066CCFF0099CCFF00CCCCFF00FFCCFF0000FFFF0033FFFF0066FFFF0099FFFF00CCFFFF00FFFFFF00000000000D0D0D001A1A1A00282828003535350043434300505050005D5D5D006B6B6B00787878008686860093939300A1A1A100AEAEAE00BBBBBB00C9C9C900D6D6D600E4E4E400
310
F1F1F100FFFFFF0000000000000000000000000000000000000000000000000000000000000000000000000000000000E1F5F5F5F5F5F5F5F5F5F5F5F5F5F5F5F5F5F5F5F5F5F5F5F5F5F5F5F5F5F5F5F5F5F5F5F5F5F5F5F5F5F5F5F5F5F5F5F5F5F5F5F5F5F5F5F5F5F5F5F5F5F5F5F5F5F5F5F5F5F5F5F5F5F5F5F5F5F5
310
F5F5F5F5F5F5F5F5F5F5F5F5F5F5F5F5F5F5F5F5F5F5F5F5F5F5F5F5F5F5F5F5F5F5F5F5F5F5F5F5F5F5F5F5F5F5F5F5F5F5F5F5F5F5F5F5F5F5F5F5F5F5F5F5F5F5F5F5F5F5F5F5F5F5F5F5F5F5F5F5F5F5F5F5F5F5F5F5F5F5F5F5F5F5F5F5F5F5F5F5F5E1F5000000000000000000000000000000000000000000000000
310
00000000000000000000000000000000000000000000000000000000000000000000000000000000000000000000000000000000000000000000000000000000000000000000000000000000000000000000000000000000000000000000000000000000000000000000000000000000000000000000000000000000000000
310
00000000000000000000000000000000000000000000000000F5F5E1F50000000000000000000000000000000000000000000000000000000000000000000000000000000000000000000000000000000000000000000000000000000000000000000000000000000000000000000000000000000000000000000000000000
310
000000000000000000000000000000000000000000000000000000000000000000000000000000000000000000000000000000000000000000000000000000000000000000000000000000000000F5F5E1F5000000000000000000000000000000000000000000000000000000000000000000000000000000000000000000
310
00000000000000000000000000000000000000000000000000000000000000000000000000000000000000000000000000000000000000000000000000000000000000000000000000000000000000000000000000000000000000000000000000000000000000000000000000000000000000000000000000000000000000
310
00000000F5F5E1F50000F5F5F5F5F5F5F5F5000000000000000000F5F5F5F5F5F5F5F5F5F5F5F5F5F5F5F5000000000000000000F5F5F5F5F5F5F5F5F5F5F5F5F5F5F5000000000000000000F5F5F5F5F5F5F5F5F5F5F5F5F5F5F5F50000000000000000F5F5F5F5F5F5F5F5F5F5F5F5F5F5F5F5000000000000000000F5F5
310
F5F5F5F5F5F5F5F5F5F5F5F5F5000000000000000000F5F5F5F5F5F5F5F5F5F5F5F5F5F5F5F5000000000000000000F5F5F5F5F5F5F5F50000F5F5E1F50000F5000000000000000000000000000000000000000000000000000000000000000000000000000000000000000000000000000000000000000000000000000000
310
0000000000000000000000000000000000000000000000000000000000000000000000000000000000000000000000000000000000000000000000000000000000000000000000000000000000000000000000000000000000000000000000000000000000000000000000F50000F5F5E1F50000F500000000000000000000
310
00000000000000000000000000000000000000000000000000000000000000000000000000000000000000000000000000000000000000000000000000000000000000000000000000000000000000000000000000000000000000000000000000000000000000000000000000000000000000000000000000000000000000
310
000000000000000000000000000000000000000000000000000000000000000000F50000F5F5E1F50000F5F5F5F5F5F5F5F5F5F5F5F5F5F5F5F5F5F5F5F5F5F5F5F5F5F5F5F5F5F5F5F5F5F5F5F5F5F5F5F5F5F5F5F5F5F5F5F5F5F5F5F5F5F5F5F5F5F5F5F5F5F5F5F5F5F5F5F5F5F5F5F5F5F5F5F5F5F5F5F5F5F5F5F5F5
310
F5F5F5F5F5F5F5F5F5F5F5F5F5F5F5F5F5F5F5F5F5F5F5F5F5F5F5F5F5F5F5F5F5F5F5F5F5F5F5F5F5F5F5F5F5F5F5F5F5F5F5F5F5F5F5F5F5F5F5F5F5F5F5F5F5F5F5F5F5F5F5F5F5F5F5F5F5F5F5F5F5F5F5000000F50000F5F5E1F50000F500000000000000000000000000000000000000000000000000000000000000
310
00000000000000000000000000000000000000000000000000000000000000000000000000000000000000000000000000000000000000000000000000000000000000000000000000000000000000000000000000000000000000000000000000000000000000000000000000000000000000000000000000000000000000
310
0000000000000000F5000000F50000F5F5E1F50000F5000000000000000000000000000000000000000000000000000000000000000000000000000000000000000000000000000000000000000000000000000000000000000000000000000000000000000000000000000000000000000000000000000000000000000000
310
00000000000000000000000000000000000000000000000000000000000000000000000000000000000000000000000000000000000000000000000000F5000000F50000F5F5E1F50000F500000000000000000000000000000000000000000000000000000000000000000000000000000000000000000000000000000000
310
000000000000000000000000000000000000000000000000000000000000000000000000000000000000000000000000000000000000000000000000000000000000000000000000000000000000000000000000000000000000000000000000000000000000000000000000000000000000F5000000F50000F5F5E1F50000
310
F5000000000000000000000000000000000000000000000000000000000000000000000000000000000000000000000000000000000000000000000000000000000000000000000000000000000000000000000000000000000000000000000000000000000000000000000000000000000000000000000000000000000000
310
00000000000000000000000000000000000000000000000000000000000000000000000000000000F5000000F50000F5F5E1F50000F500000000000000000000000000000000000000000000000000000000000000000000000000000000000000000000000000000000000000000000000000000000000000000000000000
310
000000000000000000000000000000000000000000000000000000000000000000000000000000000000000000000000000000000000000000000000000000000000000000000000000000000000000000000000000000000000000000F5000000000000F5F5E1F50000F50000000000000000000000000000000000000000
310
00000000000000000000000000000000000000000000000000000000000000000000000000000000000000000000000000000000000000000000000000000000000000000000000000000000000000000000000000000000000000000000000000000000000000000000000000000000000000000000000000000000000000
310
00000000000000000000000000000000000000F5000000000000F5F5E1F50000F500000000000000000000000000000000000000000000000000000000000000000000000000000000000000000000000000000000000000000000000000000000000000000000000000000000000000000000000000000000000000000000
310
000000000000000000000000000000000000000000000000000000000000000000000000000000000000000000000000000000000000000000000000000000000000000000000000F5000000000000F5F5E1F50000F50000000000000000000000000000000000000000000000000000000000000000000000000000000000
310
0000000000000000000000000000000000000000000000000000000000000000000000000000000000000000000000000000000000000000000000000000000000000000000000000000000000000000000000000000000000000000000000000000000000000000000000000000000000000000000000000000000000F500
310
0000000000F5F5E1F50000F500000000000000000000000000000000000000000000000000000000000000000000000000000000000000000000000000000000000000000000000000000000000000000000000000000000000000000000000000000000000000000000000000000000000000000000000000000000000000
310
000000000000000000000000000000000000000000000000000000000000000000000000000000000000000000000000000000F5000000000000F5F5E1F50000F50000000000000000000000000000000000000000000000000000000000000000000000000000000000000000000000000000000000000000000000000000
310
0000000000000000000000000000000000000000000000000000000000000000000000000000000000000000000000000000000000000000000000000000000000000000000000000000000000000000000000000000000000000000000000000000000000000000F5000000000000F5F5E1F50000F5000000000000000000
310
00000000000000000000000000000000000000000000000000000000000000000000000000000000000000000000000000000000000000000000000000000000000000000000000000000000000000000000000000000000000000000000000000000000000000000000000000000000000000000000000000000000000000
310
000000000000000000000000000000000000000000000000000000000000F5000000000000F5F5E1F50000F50000000000000000000000000000000000000000000000000000000000000000000000000000000000000000000000000000000000000000000000000000000000000000000000000000000000000000000000
310
0000000000000000000000000000000000000000000000000000000000000000000000000000000000000000000000000000000000000000000000000000000000000000000000000000000000000000000000F5000000000000F5F5E1F50000F5000000000000000000000000000000000000000000000000000000000000
310
00000000000000000000000000000000000000000000000000000000000000000000000000000000000000000000000000000000000000000000000000000000000000000000000000000000000000000000000000000000000000000000000000000000000000000000000000000000000000000000000000000000000000
310
000000000000000000F5000000000000F5F5E1F50000F50000000000000000000000000000000000000000000000000000000000000000000000000000000000000000000000000000000000000000000000000000000000000000000000000000000000000000000000000000000000000000000000000000000000000000
310
0000000000000000000000000000000000000000000000000000000000000000000000000000000000000000000000000000000000000000000000000000F5000000F50000F5F5E1F50000F5000000000000000000000000000000000000000000000000000000000000000000000000000000000000000000000000000000
310
00000000000000000000000000000000000000000000000000000000000000000000000000000000000000000000000000000000000000000000000000000000000000000000000000000000000000000000000000000000000000000000000000000000000000000000000000000000000000F5000000F50000F5F5E1F500
310
00F50000000000000000000000000000000000000000000000000000000000000000000000000000000000000000000000000000000000000000000000000000000000000000000000000000000000000000000000000000000000000000000000000000000000000000000000000000000000000000000000000000000000
310
0000000000000000000000000000000000000000000000000000000000000000000000000000000000F5000000F50000F5F5E1F50000F5000000000000000000000000000000000000000000000000000000000000000000000000000000000000000000000000000000000000000000000000000000000000000000000000
310
00000000000000000000000000000000000000000000000000000000000000000000000000000000000000000000000000000000000000000000000000000000000000000000000000000000000000000000000000000000000000000000F5000000F50000F5F5E1F50000F500000000000000000000000000000000000000
310
00000000000000000000000000000000000000000000000000000000000000000000000000000000000000000000000000000000000000000000000000000000000000000000000000000000000000000000000000000000000000000000000000000000000000000000000000000000000000000000000000000000000000
310
0000000000000000000000000000000000000000F5000000F50000F5F5E1F50000F5000000000000000000000000000000000000000000000000000000000000000000000000000000000000000000000000000000000000000000000000000000000000000000000000000000000000000000000000000000000000000000
310
00000000000000000000000000000000000000000000000000000000000000000000000000000000000000000000000000000000000000000000000000000000000000000000000000F5000000F50000F5F5E1F50000F500000000000000000000000000000000000000000000000000000000000000000000000000000000
310
000000000000000000000000000000000000000000000000000000000000000000000000000000000000000000000000000000000000000000000000000000000000000000000000000000000000000000000000000000000000000000000000000000000000000000000000000000000000000000000000000000000000F5
310
000000F50000F5F5E1F50000F5000000000000000000000000000000000000000000000000000000000000000000000000000000000000000000000000000000000000000000000000000000000000000000000000000000000000000000000000000000000000000000000000000000000000000000000000000000000000
310
00000000000000000000000000000000000000000000000000000000000000000000000000000000000000000000000000000000F5000000F50000F5F5E1F50000F500000000000000000000000000000000000000000000000000000000000000000000000000000000000000000000000000000000000000000000000000
310
000000000000000000000000000000000000000000000000000000000000000000000000000000000000000000000000000000000000000000000000000000000000000000000000000000000000000000000000000000000000000000000000000000000000000000F5000000F50000F5F5E1F50000F50000000000000000
310
00000000000000000000000000000000000000000000000000000000000000000000000000000000000000000000000000000000000000000000000000000000000000000000000000000000000000000000000000000000000000000000000000000000000000000000000000000000000000000000000000000000000000
310
00000000000000000000000000000000000000000000000000000000000000F5000000F50000F5F5E1F50000F500000000000000000000000000000000000000000000000000000000000000000000000000000000000000000000000000000000000000000000000000000000000000000000000000000000000000000000
310
000000000000000000000000000000000000000000000000000000000000000000000000000000000000000000000000000000000000000000000000000000000000000000000000000000000000000000000000F5000000F50000F5F5E1F50000F50000000000000000000000000000000000000000000000000000000000
310
00000000000000000000000000000000000000000000000000000000000000000000000000000000000000000000000000000000000000000000000000000000000000000000000000000000000000000000000000000000000000000000000000000000000000000000000000000000000000000000000000000000000000
310
00000000000000000000F5000000F50000F5F5E1F50000F500000000000000000000000000000000000000000000000000000000000000000000000000000000000000000000000000000000000000000000000000000000000000000000000000000000000000000000000000000000000000000000000000000000000000
310
000000000000000000000000000000000000000000000000000000000000000000000000000000000000000000000000000000000000000000000000000000F5000000F50000F5F5E1F50000F50000000000000000000000000000000000000000000000000000000000000000000000000000000000000000000000000000
310
0000000000000000000000000000000000000000000000000000000000000000000000000000000000000000000000000000000000000000000000000000000000000000000000000000000000000000000000000000000000000000000000000000000000000000000000000000000000000000F5000000F50000F5F5E1F5
310
0000F500000000000000000000000000000000000000000000000000000000000000000000000000000000000000000000000000000000000000000000000000000000000000000000000000000000000000000000000000000000000000000000000000000000000000000000000000000000000000000000000000000000
310
000000000000000000000000000000000000000000000000000000000000000000000000000000000000F5000000F50000F5F5E1F50000F5000000000000000000000000000000000000000000000000000000000000000000F0F0F0F0F0F0F0F0F0F0F0F0F0F0F0F0F0F0F0F0F0F0F0F0F0F0F0F0F0F0F0F0F0F0F0F0F0F0
310
F0F0F0F0F0F0F0F0000000000000000000000000000000000000000000000000000000000000000000000000000000000000000000000000000000000000000000000000000000000000000000000000000000000000000000000000000000F5000000000000F5F5E1F50000F5000000000000000000000000000000000000
310
000000000000000000000000000000F0F000000000000000000000000000000000000000DCDCDCDC00000000000000000000000000000000000000F0F0000000000000000000000000000000000000000000000000000000000000000000000000000000000000000000000000000000000000000000000000000000000000
310
000000000000000000000000000000000000000000F5000000000000F5F5E1F50000F5000000000000000000000000000000000000000000000000000000000000000000F00000000000000000000000000000000000000000DCDCDCDC0000000000000000000000000000000000000000F000000000000000000000000000
310
0000000000000000000000000000000000000000000000000000000000000000000000000000000000000000000000000000000000000000000000000000000000000000000000000000F5000000000000F5F5E1F50000F5000000000000000000000000000000000000000000000000000000000000000000F00000000000
310
000000000000000000000000000000000000000000000000000000000000000000000000000000F0000000000000000000000000000000000000000000000000000000000000000000000000000000000000000000000000000000000000000000000000000000000000000000000000000000000000000000000000000000
310
F5000000000000F5F5E1F50000F5000000000000000000000000000000000000000000000000000000000000000000F00000000000000000000000000000000000000000000000000000000000000000000000000000000000000000F000000000000000000000000000000000000000000000000000000000000000000000
310
0000000000000000000000000000000000000000000000000000000000000000000000000000000000000000000000000000000000F5000000000000F5F5E1F50000F5000000000000000000000000000000000000000000000000000000000000000000F0F000000000000000000000000000000000F0F000000000000000
310
000000000000000000F0F0000000000000F0F0000000000000000000000000000000000000000000000000000000000000000000000000000000000000000000000000000000000000000000000000000000000000000000000000000000000000000000000000000000F5000000000000F5F5E1F50000F500000000000000
310
0000000000000000000000000000000000000000000000000000F0F0F0F0F0F0F0F0F0DCDCF0F0F0F0F0F0F0F0F000000000000000000000000000000000F0F0F0DCDCDCDCF0F0F000000000000000000000000000000000000000000000000000000000000000000000000000000000000000000000000000000000000000
310
0000000000000000000000000000000000000000000000000000000000000000F5000000000000F5F5E1F50000F5000000000000000000000000000000000000000000000000000000000000000000F000000000000000DCDCDC0000000000000000F000000000000000000000000000000000F00000DCDCDCDC0000F00000
310
00000000000000000000000000000000000000000000000000000000000000000000000000000000000000000000000000000000000000000000000000000000000000000000000000000000000000000000000000F5000000000000F5F5E1F50000F500000000000000000000000000000000000000000000000000000000
310
0000000000F0000000000000000000000000000000000000F000000000000000000000000000000000F00000DCDCDCDC0000F000000000000000000000000000000000000000000000000000000000000000000000000000000000000000000000000000000000000000000000000000000000000000000000000000000000
310
0000000000000000000000F5000000F50000F5F5E1F50000F5000000000000000000000000000000000000000000000000000000000000000000F0000000000000000000000000000000000000F000000000000000000000000000000000F00000000000000000F00000000000000000000000000000000000000000000000
310
00000000000000000000000000000000000000000000000000000000000000000000000000000000000000000000000000000000000000000000000000000000F5000000F50000F5F5E1F50000F5000000000000000000000000000000000000000000000000000000000000000000F0000000000000000000000000000000
310
000000F00000F5F5F500000000000000000000F5F50000000000000000F0000000000000000000000000000000000000000000000000000000000000000000000000000000000000000000000000000000000000000000000000000000000000000000000000000000000000000000000000000000F5000000F50000F5F5E1
310
F50000F5000000000000000000000000000000000000000000000000000000000000000000F0000000000000000000000000000000000000F00000F500F5F0F0F0F0F0F0F0F0F0F0F5F50000000000000000F00000000000000000000000000000000000000000000000000000000000000000000000000000000000000000
310
00000000000000000000000000000000000000000000000000000000000000000000000000000000000000F5000000F50000F5F5E1F50000F5000000000000000000000000000000000000000000000000000000000000000000F0000000000000000000000000000000000000F0F5F5F500F5F0F0F0F0F0F0F0F0F0F5F5F5
310
0000000000000000F0000000000000000000000000000000000000000000000000000000000000000000000000000000000000000000000000000000000000000000000000000000000000000000000000000000000000000000000000000000F5000000F50000F5F5E1F50000F50000000000000000000000000000000000
310
0000000000000000F0F0F0F0F0F0F0F0F5F5F5F0F5F5F5F5F5F5F5F5F5F5F0F5F5F5F5F500F5F500F5F5F50000000000F5F5F5F5F50000000000000000F00000000000000000000000000000000000000000000000000000000000000000000000000000000000000000000000000000000000000000000000000000000000
310
00000000000000000000000000000000000000000000F5000000F50000F5F5E1F50000F50000000000000000000000000000000000000000000000000000F0000000000000F5F5F5F5F5F5000000000000F5F5F5F5F500000000F5F500F5F5F50000000000F5F5F5F5F500000000F0000000F0000000000000000000000000
310
000000000000000000000000000000000000000000000000000000000000000000000000000000000000000000000000000000000000000000000000000000000000000000000000000000F5000000F50000F5F5E1F50000F50000000000000000000000000000000000000000000000000000F0000000000000F5F500F000
310
F5000000000000F500F000F500000000F5F500F5F5F50000000000F5F5F5F5F5F5F5F5F5F5F5F5F5F5F0F0F0F0F0F0F000000000000000000000000000000000000000000000000000000000000000000000000000000000000000000000000000000000000000000000000000000000000000000000000000000000000000
310
00F5000000F50000F5F5E1F50000F50000000000000000000000000000000000000000000000000000F00000000000F5F5F500F0F5F5F5F5F5F5F5F5F5F5F5F5F500000000F5F500F5F5F50000000000F5F5F5F5F50000F500F0F50000F50000000000F0000000000000000000000000000000000000000000000000000000
310
000000000000000000000000000000000000000000000000000000000000000000000000000000000000000000000000000000000000F5000000F50000F5F5E1F50000F500000000000000000000000000000000000000F5F5F5F5F5DCDCDCF5F5F5F5F5F5F5F500F0F5F5F5F5F5F5F5F5F5F5F5F5F500000000F5F500F5F5
310
F50000000000F5F5F5F5F50000F500F0F50000F500000000DCDC000000000000000000000000000000000000000000000000000000000000000000000000000000000000000000000000000000000000000000000000000000000000000000000000000000000000000000F5000000F50000F5F5E1F50000F5000000000000
310
000000000000000000000000F0F5F0F0F0F5DCDCDCF0F0F0F0F0F5F5F5F0F0F5F5F5F5F5F5F5F5F5F5F0F5F5F0F0F0F0F5F5F0F5F5F5F0F0F0F0F0F5F5F5F5F5F0F0F5F0F0F5F0F0F5F0000000DCDC000000000000000000000000000000000000000000000000000000000000000000000000000000000000000000000000
310
000000000000000000000000000000000000000000000000000000000000000000F5000000F50000F5F5E1F50000F500000000000000000000000000000000000000F5F5F5F5F5F5DCF0F5F5F5F5F5F5F5F500F0F5F5F5F5F5F5F0F0F5F0F5F5F500000000F5F500F5F5F50000000000F5F5F5F5F50000F500F0F50000F500
310
000000DCDC000000000000000000000000000000000000000000000000000000000000000000000000000000000000000000000000000000000000000000000000000000000000000000000000000000000000000000F5000000F50000F5F5E1F50000F50000000000000000000000000000000000000000000000000000F0
310
000000000000F5F500F0F5F5F5F5F5F5F5F5F5F5F5F5F500000000F5F500F5F5F50000000000F5F5F5F5F50000F500F0F50000F50000000000F0000000000000000000000000000000000000000000000000000000000000000000000000000000000000000000000000000000000000000000000000000000000000000000
310
000000000000000000000000F5000000F50000F5F5E1F50000F50000000000000000000000000000000000000000000000000000F0000000000000F5F500F000F5000000000000F500F000F500000000F5F500F5F5F50000000000F5F5F5F5F5F5F5F5F5F5F5F5F5F5F0F0F0F0F0F0F0000000000000000000000000000000
310
0000000000000000000000000000000000000000000000000000000000000000000000000000000000000000000000000000000000000000000000000000000000F5000000F50000F5F5E1F50000F500000000000000000000000000000000000000000000000000F0F0F0F0F0F0F0F0F5F5F5F5F5F5F5F5F5F5F5F5F5F5F5
310
F5F5F5F5F500F5F500F5F5F50000000000F5F5F5F5F500000000DC00000000000000000000000000000000000000000000000000000000000000000000000000000000000000000000000000000000000000000000000000000000000000000000000000000000000000000000000000000000000000F5000000F50000F5F5
310
E1F50000F5000000000000000000000000000000000000000000000000000000000000000000000000F000000000000000000000F000000000F5F5F5F500F5F5F5F0F0F0F0F0F5F5F5F5F5000000DCDCDC00000000000000000000000000000000000000000000000000000000000000000000000000000000000000000000
310
0000000000000000000000000000000000000000000000000000000000000000000000000000000000000000F5000000000000F5F5E1F50000F500000000000000000000000000000000000000000000000000000000000000000000000000000000000000000000000000000000000000F500F5F5F50000000000F5F5F5F5
310
F50000DCDCDCDC000000000000000000000000000000000000000000000000000000000000000000000000000000000000000000000000000000000000000000000000000000000000000000000000000000000000000000000000000000000000F5000000000000F5F5E1F50000F500000000000000000000000000000000
310
000000000000000000000000000000000000000000000000000000000000000000000000000000F5F5F5F5F5F0F0F0F0F0F5F5F5F5F5000000DCDCDC00000000000000000000000000000000000000000000000000000000000000000000000000000000000000000000000000000000000000000000000000000000000000
310
0000000000000000000000000000000000000000000000F5000000000000F5F5E1F50000F500000000000000000000000000000000000000000000000000000000000000000000000000000000000000000000000000000000000000000000000000000000000000000000000000DCDCDC0000000000000000000000000000
310
00000000000000000000000000000000000000000000000000000000000000000000000000000000000000000000000000000000000000000000000000000000000000000000000000000000F5000000000000F5F5E1F50000F500000000000000000000000000000000000000000000000000000000000000000000000000
310
00000000000000000000000000000000000000000000000000000000000000000000000000000000000000000000000000000000000000000000000000000000000000000000000000000000000000000000000000000000000000000000000000000000000000000000000000000000000000000000000000000000000000
310
0000F5000000000000F5F5E1F50000F5000000000000000000000000000000000000000000000000000000000000000000000000000000000000000000000000000000000000000000000000000000000000000000000000000000000000000000000000000000000000000000000000000000000000000000000000000000
310
00000000000000000000000000000000000000000000000000000000000000000000000000000000000000000000000000000000000000F5000000000000F5F5E1F50000F500000000000000000000000000000000000000000000000000000000000000000000000000000000000000000000000000000000000000000000
310
000000000000000000000000000000000000000000000000000000000000000000000000000000000000000000000000000000000000000000000000000000000000000000000000000000000000000000000000000000000000000000000000000000000000000000000000F5000000000000F5F5E1F50000F50000000000
310
00000000000000000000000000000000000000000000000000000000000000000000000000000000000000000000000000000000000000000000000000000000000000000000000000000000000000000000000000000000000000000000000000000000000000000000000000000000000000000000000000000000000000
310
00000000000000000000000000000000000000000000000000000000000000000000F5000000000000F5F5E1F50000F500000000000000000000000000000000000000000000000000000000000000000000000000000000000000000000000000000000000000000000000000000000000000000000000000000000000000
310
000000000000000000000000000000000000000000000000000000000000000000000000000000000000000000000000000000000000000000000000000000000000000000000000000000000000000000000000000000F5000000000000F5F5E1F50000F50000000000000000000000000000000000000000000000000000
310
00000000000000000000000000000000000000000000000000000000000000000000000000000000000000000000000000000000000000000000000000000000000000000000000000000000000000000000000000000000000000000000000000000000000000000000000000000000000000000000000000000000000000
310
00000000000000000000000000F5000000F50000F5F5E1F50000F500000000000000000000000000000000000000000000000000000000000000000000000000000000000000000000000000000000000000000000000000000000000000000000000000000000000000000000000000000000000000000000000000000000
310
000000000000000000000000000000000000000000000000000000000000000000000000000000000000000000000000000000000000000000000000000000000000F5000000F50000F5F5E1F50000F50000000000000000000000000000000000000000000000000000000000000000000000000000000000000000000000
310
0000000000000000000000000000000000000000000000000000000000000000000000000000000000000000000000000000000000000000000000000000000000000000000000000000000000000000000000000000000000000000000000000000000000000000000000000000000000000000000000F5000000F50000F5
310
F5E1F50000F500000000000000000000000000000000000000000000000000000000000000000000000000000000000000000000000000000000000000000000000000000000000000000000000000000000000000000000000000000000000000000000000000000000000000000000000000000000000000000000000000
310
000000000000000000000000000000000000000000000000000000000000000000000000000000000000000000F5000000F50000F5F5E1F50000F50000000000000000000000000000000000000000000000000000000000000000000000000000000000000000000000000000000000000000000000000000000000000000
310
0000000000000000000000000000000000000000000000000000000000000000000000000000000000000000000000000000000000000000000000000000000000000000000000000000000000000000000000000000000000000000000000000000F5000000F50000F5F5E1F50000F5000000000000000000000000000000
310
00000000000000000000000000000000000000000000000000000000000000000000000000000000000000000000000000000000000000000000000000000000000000000000000000000000000000000000000000000000000000000000000000000000000000000000000000000000000000000000000000000000000000
310
000000000000000000000000000000000000000000000000F5000000F50000F5F5E1F50000F50000000000000000000000000000000000000000000000000000000000000000000000000000000000000000000000000000000000000000000000000000000000000000000000000000000000000000000000000000000000
310
0000000000000000000000000000000000000000000000000000000000000000000000000000000000000000000000000000000000000000000000000000000000000000000000000000000000F5000000F50000F5F5E1F50000F5000000000000000000000000000000000000000000000000000000000000000000000000
310
00000000000000000000000000000000000000000000000000000000000000000000000000000000000000000000000000000000000000000000000000000000000000000000000000000000000000000000000000000000000000000000000000000000000000000000000000000000000000000000000000000000000000
310
000000F5000000F50000F5F5E1F50000F50000000000000000000000000000000000000000000000000000000000000000000000000000000000000000000000000000000000000000000000000000000000000000000000000000000000000000000000000000000000000000000000000000000000000000000000000000
310
0000000000000000000000000000000000000000000000000000000000000000000000000000000000000000000000000000000000000000F5000000F50000F5F5E1F50000F5000000000000000000000000000000000000000000000000000000000000000000F5DCDCF0F0F0F0F0DCDCF0F0F0F0F0F0F0F0F0F0F0F0F0F0
310
F0F0DCDCDCF0F0F0F0F0F0F0F0F0F0F0F0F0F0F0F0F0000000000000000000000000000000000000000000000000000000000000000000000000000000000000000000000000000000000000000000000000000000000000000000000000000000000000000000000000000000F5000000F50000F5F5E1F50000F500000000
310
0000000000000000000000000000000000000000000000000000000000F0DCDCF0000000DCDCDC00000000F00000000000000000000000DCDCDC000000000000000000000000DCDCDCDCF000000000000000000000000000000000000000000000000000000000000000000000000000000000000000000000000000000000
310
0000000000000000000000000000000000000000000000000000000000000000000000F5000000F50000F5F5E1F50000F5000000000000000000000000000000000000000000000000000000000000000000DCDCDCF0000000DCDCDC00000000F00000000000000000000000DCDCDC000000000000000000000000DCDCDCDC
310
F0000000000000000000000000000000000000000000000000000000000000000000000000000000000000000000000000000000000000000000000000000000000000000000000000000000000000000000000000000000F5000000F50000F5F5E1F50000F5000000000000000000000000F0F0F0F0F0F0F0000000000000
310
0000000000000000F00000F000000000000000000000F00000000000000000000000000000000000000000000000000000F0DC00DCF000000000000000000000000000000000000000000000000000000000000000000000000000000000000000000000000000000000000000000000000000000000000000000000000000
310
0000000000000000000000000000F5000000F50000F5F5E1F50000F5000000000000000000000000DCDCDCDCDCDCF00000000000000000000000000000F00000F000000000000000000000F00000000000000000000000000000000000000000000000000000F0000000F00000000000000000000000000000000000000000
310
00000000000000000000000000000000000000000000000000000000000000000000000000000000000000000000000000000000000000000000000000000000000000F5000000F50000F5F5E1F50000F500000000000000000000000000DC00DCDCDC00F000000000000000000000000000F00000F0000000000000000000
310
00F00000000000000000000000000000000000000000000000000000F0000000F0000000000000000000000000000000000000000000000000000000000000000000000000000000000000000000000000000000000000000000000000000000000000000000000000000000000000000000000000000000F5000000F50000
310
F5F5E1F50000F500000000000000000000000000000000000000F000000000000000000000000000F00000F000000000000000000000F000000000000000F5F5F5F0F5F0F0F0F0F0F5F5F5F5F0F0F0F0F0F0F0F0F0F0F0F0F0F0F0F0F0F0F0F000000000000000000000000000000000000000000000000000000000000000
310
00000000000000000000000000000000000000000000000000000000000000000000000000000000000000000000F5000000000000F5F5E1F50000F500000000000000000000000000000000000000F000000000000000000000000000F00000F000000000000000000000F000000000000000F500F5F5F50000000000F5F5
310
F5F5F500000000F0000000F0000000000000000000F00000000000000000000000000000000000000000000000000000000000000000000000000000000000000000000000000000000000000000000000000000000000000000000000000000000000F5000000000000F5F5E1F50000F50000000000000000000000000000
310
0000000000F00000000000F0F0F0F0F0F0F0F0F5F5F5F0F5F5F5F5F5F5F5F5F5F5F0F5F5F5F5F5F5F5F500F5F5F5F0F0F0F0F0F5F5F5F5F500000000F0000000F0000000000000000000F000000000000000000000000000000000000000000000000000000000000000000000000000000000000000000000000000000000
310
00000000000000000000000000000000000000000000000000F5000000000000F5F5E1F50000F50000000000000000000000000000000000000000F00000000000F0000000000000F50000F000000000000000000000F0000000000000F5F500F5F5F50000000000F5F5F5F5F5F5F5F5F5F0F5F5F5F5F0F0F0F0F0F0F00000
310
F00000000000000000000000000000000000000000000000000000000000000000000000000000000000000000000000000000000000000000000000000000000000000000000000000000000000F5000000000000F5F5E1F50000F50000000000000000000000000000000000000000F00000000000F00000F0000000F5F5
310
F5F0F5F5F5F5F5F5F5F5F5F5F0F5F5F5F5F500F5F500F5F5F50000000000F5F5F5F5F500000000F0000000F50000000000F0000000F000000000000000000000000000000000000000000000000000000000000000000000000000000000000000000000000000000000000000000000000000000000000000000000000000
310
00000000F5000000000000F5F5E1F50000F50000000000000000000000000000000000000000F00000000000F0DCDCDC000000F50000F500000000000000000000F500000000F500F5F500F5F5F50000000000F5F5F5F5F5F5F5F5F5F0F5F5F5F50000000000F0000000F00000000000000000000000000000000000000000
310
000000000000000000000000000000000000000000000000000000000000000000000000000000000000000000000000000000000000000000F5000000000000F5F5E1F50000F50000000000000000000000000000000000000000F0000000DCDCDCDCDCDC000000F5F5F5F0F500000000000000F5F5F0F5000000F500F5F5
310
00F5F5F50000000000F5F5F5F5F5000000F5F5000000F500000000DCDC0000DCDC0000000000000000000000000000000000000000000000000000000000000000000000000000000000000000000000000000000000000000000000000000000000000000000000000000000000F5000000000000F5F5E1F50000F5000000
310
000000000000000000000000000000000000F00000DCDCDC0000F0F0F0F0F0F5F0F0F0F5F0F0F0F0F0F0F5F0F0F0F5F0F0F5F0F5F5F0F5F5F5F0F0F0F0F0F5F5F5F5F5F0F0F5F0F0F5F0F0F5F0000000DCF00000DCDC0000000000000000000000000000000000000000000000000000000000000000000000000000000000
310
000000000000000000000000000000000000000000000000000000000000000000000000F5000000000000F5F5E1F50000F5000000000000000000000000000000000000000000F00000DCDCDC0000F0000000F5F500F0F500000000000000F500F0F5000000F500F5F500F5F5F50000000000F5F5F5F5F50000F500F0F500
310
00F500000000DCDC0000DCDC0000000000000000000000000000000000000000000000000000000000000000000000000000000000000000000000000000000000000000000000000000000000000000000000000000000000F5000000F50000F5F5E1F50000F5000000000000000000000000000000000000000000F00000
310
DCDCDC0000F00000F5EC00F5F5F50000000000000000F5F5F5000000F500F5F500F5F5F50000000000F5F5F5F5F5000000F5F5000000F500000000DCDC0000DCDC0000000000000000000000000000000000000000000000000000000000000000000000000000000000000000000000000000000000000000000000000000
310
000000000000000000000000000000F5000000F50000F5F5E1F50000F500000000000000000000000000000000000000F5F5F0F5F5F5F5F0F5F5F0F5F5F5F5F0F0F000000000000000000000F000000000F500F5F500F5F5F50000000000F5F5F5F5F5F5F5F5F5F5F0F5F5F50000000000F0000000F0000000000000000000
310
0000000000000000000000000000000000000000000000000000000000000000000000000000000000000000000000000000000000000000000000000000000000000000F5000000F50000F5F5E1F50000F5000000000000000000000000000000000000F0F0F0F0F0F0F0F0F0F0F0F0F0F0F0F5F0F5F0F5F5F5F5F5F5F5F5
310
F5F5F5F5F5F5F5F500F5F500F5F5F50000000000F5F5F5F5F50000000000F00000F50000000000F0000000F00000000000000000000000000000000000000000000000000000000000000000000000000000000000000000000000000000000000000000000000000000000000000000000000000000000000F5000000F500
310
00F5F5E1F50000F50000000000000000000000000000000000000000000000F5F5F5F0F5F5F5F5F5F5F50000F0F5F5F5F5F5F5F5F5000000000000000000F5F500F5F5F50000000000F5F5F5F5F5F5F5F5F5F5F5F0F5F5F0F0F0F0F0F0F00000F0000000000000000000000000000000000000000000000000000000000000
310
0000000000000000000000000000000000000000000000000000000000000000000000000000000000000000000000F5000000F50000F5F5E1F50000F500000000000000000000000000000000000000000000000000F0F0F0F0F0F0F0F0F5F5F5F0F0F5F5F5F5F5F0F5F5F5F5F5F5F5F5F5F5F5F500F5F5F5F0F0F0F0F0F5
310
F5F5F5F5000000000000F00000000000000000000000F00000000000000000000000000000000000000000000000000000000000000000000000000000000000000000000000000000000000000000000000000000000000000000000000000000000000F5000000F50000F5F5E1F50000F500000000000000000000000000
310
00000000000000000000000000000000000000F0000000F000000000000000F000000000000000000000F500F5F5F50000000000F5F5F5F5F500000000000000F000000000000000000000F0000000000000000000000000000000000000000000000000000000000000000000000000000000000000000000000000000000
310
0000000000000000000000000000000000000000000000000000F5000000F50000F5F5E1F50000F50000000000000000000000000000000000000000000000000000000000000000F0000000F00000000000000000F0000000000000000000F5F5F5F5F5F0F0F0F0F0F0F5F5F5F0F0F0F0F0F0F0F0F0F0F0F0F0F0F0F0F0F0
310
F0F00000000000000000000000000000000000000000000000000000000000000000000000000000000000000000000000000000000000000000000000000000000000000000000000000000000000F5000000F50000F5F5E1F50000F500000000000000000000000000000000000000000000000000000000000000F00000
310
DCDCDC0000000000000000F000000000000000000000000000000000000000000000000000000000000000F00000000000000000000000000000000000000000000000000000000000000000000000000000000000000000000000000000000000000000000000000000000000000000000000000000000000000000000000
310
0000000000F5000000F50000F5F5E1F50000F5000000000000000000000000000000000000000000000000F0F0F0F0F0F0F0F00000DCDCF0000000000000000000F000000000000000000000000000000000000000000000000000000000000000F00000000000000000000000000000000000000000000000000000000000
310
00000000000000000000000000000000000000000000000000000000000000000000000000000000000000000000000000000000000000000000F5000000F50000F5F5E1F50000F5000000000000000000000000000000000000000000000000DCDCDCDCDCDCDC000000DCDCF0000000000000000000F00000000000000000
310
0000000000000000000000000000000000000000000000F0000000000000000000000000000000000000000000000000000000000000000000000000000000000000000000000000000000000000000000000000000000000000000000000000000000000000000000000000000000F5000000F50000F5F5E1F50000F50000
310
00000000000000000000000000000000000000000000DCDC00DCDCDCDC000000DCDCDC00000000000000000000F000000000000000000000000000000000000000000000000000000000000000F000000000000000000000000000000000000000000000000000000000000000000000000000000000000000000000000000
310
00000000000000000000000000000000000000000000000000000000000000000000000000F5000000F50000F5F5E1F50000F5000000000000000000000000000000000000000000000000000000000000000000000000F000000000000000000000F00000DCDCDCDCDCDCDCDC000000000000000000000000000000000000
310
000000F0F0F0F0F0F0F0F000000000000000000000000000000000000000000000000000000000000000000000000000000000000000000000000000000000000000000000000000000000000000000000000000000000000000F5000000F50000F5F5E1F50000F50000000000000000000000000000000000000000000000
310
00000000000000000000000000000000000000000000000000F0F0DCDCDCDCDCDCDCDCF0F0F0F0F0F000000000000000000000000000000000DCDCDCDCDCDC00000000000000000000000000000000000000000000000000000000000000000000000000000000000000000000000000000000000000000000000000000000
310
00000000000000000000000000000000F5000000F50000F5F5E1F50000F500000000000000000000000000000000000000000000000000000000000000000000000000000000000000000000000000DCDCDCDCDCDCDCDCDCDCDCDCDCDC0000000000000000000000000000000000DC00DCDCDCDC0000000000000000000000
310
000000000000000000000000000000000000000000000000000000000000000000000000000000000000000000000000000000000000000000000000000000000000000000F5000000F50000F5F5E1F50000F50000000000000000000000000000000000000000000000000000000000000000000000000000000000000000
310
0000000000DCDCDCDCDCDCDCDCDCDCDCDCDCDCDC000000000000000000000000000000000000000000000000000000000000000000000000000000000000000000000000000000000000000000000000000000000000000000000000000000000000000000000000000000000000000000000000000000000000F500000000
310
0000F5F5E1F50000F500000000000000000000000000000000000000000000000000000000000000000000000000000000000000000000000000000000000000000000000000000000000000000000000000000000000000000000000000000000000000000000000000000000000000000000000000000000000000000000
310
000000000000000000000000000000000000000000000000000000000000000000000000000000000000000000000000F5000000000000F5F5E1F50000F50000000000000000000000000000000000000000000000000000000000000000000000000000000000000000000000000000000000000000000000000000000000
310
0000000000000000000000000000000000000000000000000000000000000000000000000000000000000000000000000000000000000000000000000000000000000000000000000000000000000000000000000000000000000000000000000000000000F5000000000000F5F5E1F50000F5000000000000000000000000
310
00000000000000000000000000000000000000000000000000000000000000000000000000000000000000000000000000000000000000000000000000000000000000000000000000000000000000000000000000000000000000000000000000000000000000000000000000000000000000000000000000000000000000
310
000000000000000000000000000000000000000000000000000000F5000000000000F5F5E1F50000F50000000000000000000000000000000000000000000000000000000000000000000000000000000000000000000000000000000000000000000000000000000000000000000000000000000000000000000000000000
310
0000000000000000000000000000000000000000000000000000000000000000000000000000000000000000000000000000000000000000000000000000000000000000000000000000000000000000F5000000000000F5F5E1F50000F5000000000000000000000000000000000000000000000000000000000000000000
310
00000000000000000000000000000000000000000000000000000000000000000000000000000000000000000000000000000000000000000000000000000000000000000000000000000000000000000000000000000000000000000000000000000000000000000000000000000000000000000000000000000000000000
310
000000000000F5000000000000F5F5E1F50000F50000000000000000000000000000000000000000000000000000000000000000000000000000000000000000000000000000000000000000000000000000000000000000000000000000000000000000000000000000000000000000000000000000000000000000000000
310
0000000000000000000000000000000000000000000000000000000000000000000000000000000000000000000000000000000000000000000000F5000000000000F5F5E1F50000F5000000000000000000000000000000000000000000000000000000000000000000000000000000000000000000000000000000000000
310
00000000000000000000000000000000000000000000000000000000000000000000000000000000000000000000000000000000000000000000000000000000000000000000000000000000000000000000000000000000000000000000000000000000000000000000000000000000F5000000000000F5F5E1F50000F500
310
00000000000000000000000000000000000000000000000000000000000000000000000000000000000000000000000000000000000000000000000000000000000000000000000000000000000000000000000000000000000000000000000000000000000000000000000000000000000000000000000000000000000000
310
0000000000000000000000000000000000000000000000000000000000000000000000000000F5000000000000F5F5E1F50000F5000000000000000000000000000000000000000000000000000000000000000000000000000000000000000000000000000000000000000000000000000000000000000000000000000000
310
00000000000000000000000000000000000000000000000000000000000000000000000000000000000000000000000000000000000000000000000000000000000000000000000000000000000000000000000000000000000000F5000000F50000F5F5E1F50000F500000000000000000000000000000000000000000000
310
00000000000000000000000000000000000000000000000000000000000000000000000000000000000000000000000000000000000000000000000000000000000000000000000000000000000000000000000000000000000000000000000000000000000000000000000000000000000000000000000000000000000000
310
0000000000000000000000000000000000F5000000F50000F5F5E1F50000F5000000000000000000000000000000000000000000000000000000000000000000000000000000000000000000000000000000000000000000000000000000000000000000000000000000000000000000000000000000000000000000000000
310
00000000000000000000000000000000000000000000000000000000000000000000000000000000000000000000000000000000000000000000000000000000000000000000F5000000F50000F5F5E1F50000F500000000000000000000000000000000000000000000000000000000000000000000000000000000000000
310
000000000000000000000000000000000000000000000000000000000000000000000000000000000000000000000000000000000000000000000000000000000000000000000000000000000000000000000000000000000000000000000000000000000000000000000000000000000000000000000000000000F5000000
310
F50000F5F5E1F50000F5000000000000000000000000000000000000000000000000000000000000000000000000000000000000000000000000000000000000000000000000000000000000000000000000000000000000000000000000000000000000000000000000000000000000000000000000000000000000000000
310
00000000000000000000000000000000000000000000000000000000000000000000000000000000000000000000000000F5000000F50000F5F5E1F50000F500000000000000000000000000000000000000000000000000000000000000000000000000000000000000000000000000000000000000000000000000000000
310
000000000000000000000000000000000000000000000000000000000000000000000000000000000000000000000000000000000000000000000000000000000000000000000000000000000000000000000000000000000000000000000000000000000000F5000000F50000F5F5E1F50000F50000000000000000000000
310
00000000000000000000000000000000000000000000000000000000000000000000000000000000000000000000000000000000000000000000000000000000000000000000000000000000000000000000000000000000000000000000000000000000000000000000000000000000000000000000000000000000000000
310
00000000000000000000000000000000000000000000000000000000F5000000F50000F5F5E1F50000F5F5F5F5F5F5F5F5F5F5F5F5F5F5F5F5F5F5F5F5F5F5F5F5F5F5F5F5F5F5F5F5F5F5F5F5F5F5F5F5F5F5F5F5F5F5F5F5F5F5F5F5F5F5F5F5F5F5F5F5F5F5F5F5F5F5F5F5F5F5F5F5F5F5F5F5F5F5F5F5F5F5F5F5F5F5
310
F5F5F5F5F5F5F5F5F5F5F5F5F5F5F5F5F5F5F5F5F5F5F5F5F5F5F5F5F5F5F5F5F5F5F5F5F5F5F5F5F5F5F5F5F5F5F5F5F5F5F5F5F5F5F5F5F5F5F5F5F5F5F5F5F5F5F5F5F5F5F5F5F5F5F5F5F5F5F5F5F5F5F5F5F5F50000F5F5E1F50000000000000000000000000000000000000000000000000000000000000000000000
310
00000000000000000000000000000000000000000000000000000000000000000000000000000000000000000000000000000000000000000000000000000000000000000000000000000000000000000000000000000000000000000000000000000000000000000000000000000000000000000000000000000000000000
310
0000000000000000000000000000F5F5E1F500000000000000000000000000000000000000000000000000000000000000000000000000000000000000000000000000000000000000000000000000000000000000000000000000000000000000000000000000000000000000000000000000000000000000000000000000
310
00000000000000000000000000000000000000000000000000000000000000000000000000000000000000000000000000000000000000000000000000000000000000F5F5E1F50000000000000000000000000000000000000000000000000000000000000000000000000000000000000000000000000000000000000000
310
000000000000000000000000000000000000000000000000000000000000000000000000000000000000000000000000000000000000000000000000000000000000000000000000000000000000000000000000000000000000000000000000000000000000000000000000000000000000000000000000F5E1E1F5F5F5F5
310
F5F5F5F5F5F5F5F5F5F5F5F5F5F5F5F5F5F5F5F5F5F5F5F5F5F5F5F5F5F5F5F5F5F5F5F5F5F5F5F5F5F5F5F5F5F5F5F5F5F5F5F5F5F5F5F5F5F5F5F5F5F5F5F5F5F5F5F5F5F5F5F5F5F5F5F5F5F5F5F5F5F5F5F5F5F5F5F5F5F5F5F5F5F5F5F5F5F5F5F5F5F5F5F5F5F5F5F5F5F5F5F5F5F5F5F5F5F5F5F5F5F5F5F5F5F5F5
310
F5F5F5F5F5F5F5F5F5F5F5F5F5F5F5F5F5F5F5F5F5F5F5F5F5F5F5F5F5F5F5F5F5F5F5F5F5F5F5F5F5F5F5F5F5F5F5E1
  0
XRECORD
  5
1B15
102
{ACAD_REACTORS
330
197B
102
}
330
197B
100
AcDbXrecord
280
     1
102
MATERIAL
148
0.0
149
0.0
149
0.0
 93
        0
 94
      127
282
     0
 72
     0
 77
     0
171
     0
175
     0
179
     0
273
     0
  0
XRECORD
  5
197D
102
{ACAD_REACTORS
330
197B
102
}
330
197B
100
AcDbXrecord
280
     1
270
     1
271
     1
  0
XRECORD
  5
197C
102
{ACAD_REACTORS
330
197B
102
}
330
197B
100
AcDbXrecord
280
     1
270
     1
271
     1
  0
XRECORD
  5
1980
102
{ACAD_REACTORS
330
197B
102
}
330
197B
100
AcDbXrecord
280
     1
270
     1
271
     1
  0
XRECORD
  5
197F
102
{ACAD_REACTORS
330
197B
102
}
330
197B
100
AcDbXrecord
280
     1
270
     1
271
     1
  0
XRECORD
  5
1981
102
{ACAD_REACTORS
330
197B
102
}
330
197B
100
AcDbXrecord
280
     1
270
     1
271
     1
  0
XRECORD
  5
197E
102
{ACAD_REACTORS
330
197B
102
}
330
197B
100
AcDbXrecord
280
     1
270
     1
271
     1
  0
XRECORD
  5
1B14
102
{ACAD_REACTORS
330
1973
102
}
330
1973
100
AcDbXrecord
280
     1
102
MATERIAL
148
0.0
149
0.0
149
0.0
 93
        0
 94
      127
282
     0
 72
     0
 77
     0
171
     0
175
     0
179
     0
273
     0
  0
XRECORD
  5
1975
102
{ACAD_REACTORS
330
1973
102
}
330
1973
100
AcDbXrecord
280
     1
270
     1
271
     1
  0
XRECORD
  5
1974
102
{ACAD_REACTORS
330
1973
102
}
330
1973
100
AcDbXrecord
280
     1
270
     1
271
     1
  0
XRECORD
  5
1978
102
{ACAD_REACTORS
330
1973
102
}
330
1973
100
AcDbXrecord
280
     1
270
     1
271
     1
  0
XRECORD
  5
1977
102
{ACAD_REACTORS
330
1973
102
}
330
1973
100
AcDbXrecord
280
     1
270
     1
271
     1
  0
XRECORD
  5
1979
102
{ACAD_REACTORS
330
1973
102
}
330
1973
100
AcDbXrecord
280
     1
270
     1
271
     1
  0
XRECORD
  5
1976
102
{ACAD_REACTORS
330
1973
102
}
330
1973
100
AcDbXrecord
280
     1
270
     1
271
     1
  0
XRECORD
  5
1B16
102
{ACAD_REACTORS
330
1983
102
}
330
1983
100
AcDbXrecord
280
     1
102
MATERIAL
148
0.0
149
0.0
149
0.0
 93
        0
 94
      127
282
     0
 72
     0
 77
     0
171
     0
175
     0
179
     0
273
     0
  0
XRECORD
  5
1985
102
{ACAD_REACTORS
330
1983
102
}
330
1983
100
AcDbXrecord
280
     1
270
     1
271
     1
  0
XRECORD
  5
1984
102
{ACAD_REACTORS
330
1983
102
}
330
1983
100
AcDbXrecord
280
     1
270
     1
271
     1
  0
XRECORD
  5
1988
102
{ACAD_REACTORS
330
1983
102
}
330
1983
100
AcDbXrecord
280
     1
270
     1
271
     1
  0
XRECORD
  5
1987
102
{ACAD_REACTORS
330
1983
102
}
330
1983
100
AcDbXrecord
280
     1
270
     1
271
     1
  0
XRECORD
  5
1989
102
{ACAD_REACTORS
330
1983
102
}
330
1983
100
AcDbXrecord
280
     1
270
     1
271
     1
  0
XRECORD
  5
1986
102
{ACAD_REACTORS
330
1983
102
}
330
1983
100
AcDbXrecord
280
     1
270
     1
271
     1
  0
XRECORD
  5
1B0D
102
{ACAD_REACTORS
330
1B0C
102
}
330
1B0C
100
AcDbXrecord
280
     1
102
ACAD_ROUNDTRIP_2012_MLEADER_STYLE
298
     1
  0
CELLSTYLEMAP
  5
1B0B
102
{ACAD_REACTORS
330
1B0A
102
}
330
1B0A
100
AcDbCellStyleMap
 90
        3
300
CELLSTYLE
  1
TABLEFORMAT_BEGIN
 90
        5
170
     1
 91
        0
 92
    32768
 62
   257
 93
        1
300
CONTENTFORMAT
  1
CONTENTFORMAT_BEGIN
 90
        0
 91
        0
 92
      512
 93
        0
300

 40
0.0
140
1.0
 94
        5
 62
     0
340
10
144
6.0
309
CONTENTFORMAT_END
171
     1
301
MARGIN
  1
CELLMARGIN_BEGIN
 40
1.5
 40
1.5
 40
1.5
 40
1.5
 40
4.5
 40
4.5
309
CELLMARGIN_END
 94
        6
 95
        1
302
GRIDFORMAT
  1
GRIDFORMAT_BEGIN
 90
        0
 91
        1
 62
     0
 92
       -2
340
0
 93
        0
 40
1.125
309
GRIDFORMAT_END
 95
        2
302
GRIDFORMAT
  1
GRIDFORMAT_BEGIN
 90
        0
 91
        1
 62
     0
 92
       -2
340
0
 93
        0
 40
1.125
309
GRIDFORMAT_END
 95
        4
302
GRIDFORMAT
  1
GRIDFORMAT_BEGIN
 90
        0
 91
        1
 62
     0
 92
       -2
340
0
 93
        0
 40
1.125
309
GRIDFORMAT_END
 95
        8
302
GRIDFORMAT
  1
GRIDFORMAT_BEGIN
 90
        0
 91
        1
 62
     0
 92
       -2
340
0
 93
        0
 40
1.125
309
GRIDFORMAT_END
 95
       16
302
GRIDFORMAT
  1
GRIDFORMAT_BEGIN
 90
        0
 91
        1
 62
     0
 92
       -2
340
0
 93
        0
 40
1.125
309
GRIDFORMAT_END
 95
       32
302
GRIDFORMAT
  1
GRIDFORMAT_BEGIN
 90
        0
 91
        1
 62
     0
 92
       -2
340
0
 93
        0
 40
1.125
309
GRIDFORMAT_END
309
TABLEFORMAT_END
  1
CELLSTYLE_BEGIN
 90
        1
 91
        1
300
_TITLE
309
CELLSTYLE_END
300
CELLSTYLE
  1
TABLEFORMAT_BEGIN
 90
        5
170
     1
 91
        0
 92
        0
 62
   257
 93
        1
300
CONTENTFORMAT
  1
CONTENTFORMAT_BEGIN
 90
        0
 91
        0
 92
      512
 93
        0
300

 40
0.0
140
1.0
 94
        5
 62
     0
340
10
144
4.5
309
CONTENTFORMAT_END
171
     1
301
MARGIN
  1
CELLMARGIN_BEGIN
 40
1.5
 40
1.5
 40
1.5
 40
1.5
 40
4.5
 40
4.5
309
CELLMARGIN_END
 94
        6
 95
        1
302
GRIDFORMAT
  1
GRIDFORMAT_BEGIN
 90
        0
 91
        1
 62
     0
 92
       -2
340
0
 93
        0
 40
1.125
309
GRIDFORMAT_END
 95
        2
302
GRIDFORMAT
  1
GRIDFORMAT_BEGIN
 90
        0
 91
        1
 62
     0
 92
       -2
340
0
 93
        0
 40
1.125
309
GRIDFORMAT_END
 95
        4
302
GRIDFORMAT
  1
GRIDFORMAT_BEGIN
 90
        0
 91
        1
 62
     0
 92
       -2
340
0
 93
        0
 40
1.125
309
GRIDFORMAT_END
 95
        8
302
GRIDFORMAT
  1
GRIDFORMAT_BEGIN
 90
        0
 91
        1
 62
     0
 92
       -2
340
0
 93
        0
 40
1.125
309
GRIDFORMAT_END
 95
       16
302
GRIDFORMAT
  1
GRIDFORMAT_BEGIN
 90
        0
 91
        1
 62
     0
 92
       -2
340
0
 93
        0
 40
1.125
309
GRIDFORMAT_END
 95
       32
302
GRIDFORMAT
  1
GRIDFORMAT_BEGIN
 90
        0
 91
        1
 62
     0
 92
       -2
340
0
 93
        0
 40
1.125
309
GRIDFORMAT_END
309
TABLEFORMAT_END
  1
CELLSTYLE_BEGIN
 90
        2
 91
        1
300
_HEADER
309
CELLSTYLE_END
300
CELLSTYLE
  1
TABLEFORMAT_BEGIN
 90
        5
170
     1
 91
        0
 92
        0
 62
   257
 93
        1
300
CONTENTFORMAT
  1
CONTENTFORMAT_BEGIN
 90
        0
 91
        0
 92
      512
 93
        0
300

 40
0.0
140
1.0
 94
        2
 62
     0
340
10
144
4.5
309
CONTENTFORMAT_END
171
     1
301
MARGIN
  1
CELLMARGIN_BEGIN
 40
1.5
 40
1.5
 40
1.5
 40
1.5
 40
4.5
 40
4.5
309
CELLMARGIN_END
 94
        6
 95
        1
302
GRIDFORMAT
  1
GRIDFORMAT_BEGIN
 90
        0
 91
        1
 62
     0
 92
       -2
340
0
 93
        0
 40
1.125
309
GRIDFORMAT_END
 95
        2
302
GRIDFORMAT
  1
GRIDFORMAT_BEGIN
 90
        0
 91
        1
 62
     0
 92
       -2
340
0
 93
        0
 40
1.125
309
GRIDFORMAT_END
 95
        4
302
GRIDFORMAT
  1
GRIDFORMAT_BEGIN
 90
        0
 91
        1
 62
     0
 92
       -2
340
0
 93
        0
 40
1.125
309
GRIDFORMAT_END
 95
        8
302
GRIDFORMAT
  1
GRIDFORMAT_BEGIN
 90
        0
 91
        1
 62
     0
 92
       -2
340
0
 93
        0
 40
1.125
309
GRIDFORMAT_END
 95
       16
302
GRIDFORMAT
  1
GRIDFORMAT_BEGIN
 90
        0
 91
        1
 62
     0
 92
       -2
340
0
 93
        0
 40
1.125
309
GRIDFORMAT_END
 95
       32
302
GRIDFORMAT
  1
GRIDFORMAT_BEGIN
 90
        0
 91
        1
 62
     0
 92
       -2
340
0
 93
        0
 40
1.125
309
GRIDFORMAT_END
309
TABLEFORMAT_END
  1
CELLSTYLE_BEGIN
 90
        3
 91
        2
300
_DATA
309
CELLSTYLE_END
  0
XRECORD
  5
1B47
102
{ACAD_REACTORS
330
1B0A
102
}
330
1B0A
100
AcDbXrecord
280
     1
102
ACAD_ROUNDTRIP_PRE2007_TABLESTYLE
 90
      512
 91
        0
  1

 92
      512
 93
        0
  2

 94
      512
 95
        0
  3

  0
XRECORD
  5
1B22
102
{ACAD_REACTORS
330
1B21
102
}
330
1B21
100
AcDbXrecord
280
     1
102
RTVSPropertyOp0
 70
     1
102
RTVSPropertyOp1
 70
     1
102
RTVSPropertyOp2
 70
     1
102
RTVSPropertyOp3
 70
     1
102
RTVSPropertyOp4
 70
     1
102
RTVSPropertyOp5
 70
     1
102
RTVSPropertyOp6
 70
     1
102
RTVSPropertyOp7
 70
     1
102
RTVSPropertyOp8
 70
     1
102
RTVSPropertyOp9
 70
     1
102
RTVSPropertyOp10
 70
     1
102
RTVSPropertyOp11
 70
     1
102
RTVSPropertyOp12
 70
     1
102
RTVSPropertyOp13
 70
     1
102
RTVSPropertyOp14
 70
     1
102
RTVSPropertyOp15
 70
     1
102
RTVSPropertyOp16
 70
     1
102
RTVSPropertyOp17
 70
     1
102
RTVSPropertyOp18
 70
     1
102
RTVSPropertyOp19
 70
     1
102
RTVSPropertyOp20
 70
     1
102
RTVSPropertyOp21
 70
     1
102
RTVSPropertyOp22
 70
     1
102
RTVSPropertyOp23
 70
     1
102
RTVSPropertyOp24
 70
     1
102
RTVSPropertyOp25
 70
     1
102
RTVSPropertyOp26
 70
     1
102
RTVSPropertyOp27
 70
     1
102
RTVSPropertyOp28
 70
     1
102
RTVSPropertyOp29
 70
     1
102
RTVSPropertyOp30
 70
     1
102
RTVSPropertyOp31
 70
     1
102
RTVSPropertyOp32
 70
     1
  0
XRECORD
  5
1B20
102
{ACAD_REACTORS
330
1B1F
102
}
330
1B1F
100
AcDbXrecord
280
     1
102
RTVSPropertyOp0
 70
     1
102
RTVSPropertyOp1
 70
     1
102
RTVSPropertyOp2
 70
     1
102
RTVSPropertyOp3
 70
     1
102
RTVSPropertyOp4
 70
     1
102
RTVSPropertyOp5
 70
     1
102
RTVSPropertyOp6
 70
     1
102
RTVSPropertyOp7
 70
     1
102
RTVSPropertyOp8
 70
     1
102
RTVSPropertyOp9
 70
     1
102
RTVSPropertyOp10
 70
     1
102
RTVSPropertyOp11
 70
     1
102
RTVSPropertyOp12
 70
     1
102
RTVSPropertyOp13
 70
     1
102
RTVSPropertyOp14
 70
     1
102
RTVSPropertyOp15
 70
     1
102
RTVSPropertyOp16
 70
     1
102
RTVSPropertyOp17
 70
     1
102
RTVSPropertyOp18
 70
     1
102
RTVSPropertyOp19
 70
     1
102
RTVSPropertyOp20
 70
     1
102
RTVSPropertyOp21
 70
     1
102
RTVSPropertyOp22
 70
     1
102
RTVSPropertyOp23
 70
     1
102
RTVSPropertyOp24
 70
     1
102
RTVSPropertyOp25
 70
     1
102
RTVSPropertyOp26
 70
     1
102
RTVSPropertyOp27
 70
     1
102
RTVSPropertyOp28
 70
     1
102
RTVSPropertyOp29
 70
     1
102
RTVSPropertyOp30
 70
     1
102
RTVSPropertyOp31
 70
     1
102
RTVSPropertyOp32
 70
     1
  0
XRECORD
  5
1B2E
102
{ACAD_REACTORS
330
1B2D
102
}
330
1B2D
100
AcDbXrecord
280
     1
102
RTVSPropertyOp0
 70
     1
102
RTVSPropertyOp1
 70
     1
102
RTVSPropertyOp2
 70
     1
102
RTVSPropertyOp3
 70
     1
102
RTVSPropertyOp4
 70
     1
102
RTVSPropertyOp5
 70
     1
102
RTVSPropertyOp6
 70
     1
102
RTVSPropertyOp7
 70
     1
102
RTVSPropertyOp8
 70
     1
102
RTVSPropertyOp9
 70
     1
102
RTVSPropertyOp10
 70
     1
102
RTVSPropertyOp11
 70
     1
102
RTVSPropertyOp12
 70
     1
102
RTVSPropertyOp13
 70
     1
102
RTVSPropertyOp14
 70
     1
102
RTVSPropertyOp15
 70
     1
102
RTVSPropertyOp16
 70
     1
102
RTVSPropertyOp17
 70
     1
102
RTVSPropertyOp18
 70
     1
102
RTVSPropertyOp19
 70
     1
102
RTVSPropertyOp20
 70
     1
102
RTVSPropertyOp21
 70
     1
102
RTVSPropertyOp22
 70
     1
102
RTVSPropertyOp23
 70
     1
102
RTVSPropertyOp24
 70
     1
102
RTVSPropertyOp25
 70
     1
102
RTVSPropertyOp26
 70
     1
102
RTVSPropertyOp27
 70
     1
102
RTVSPropertyOp28
 70
     1
102
RTVSPropertyOp29
 70
     1
102
RTVSPropertyOp30
 70
     1
102
RTVSPropertyOp31
 70
     1
102
RTVSPropertyOp32
 70
     1
  0
XRECORD
  5
1B36
102
{ACAD_REACTORS
330
1B35
102
}
330
1B35
100
AcDbXrecord
280
     1
102
RTVSPropertyOp0
 70
     1
102
RTVSPropertyOp1
 70
     1
102
RTVSPropertyOp2
 70
     1
102
RTVSPropertyOp3
 70
     1
102
RTVSPropertyOp4
 70
     1
102
RTVSPropertyOp5
 70
     1
102
RTVSPropertyOp6
 70
     1
102
RTVSPropertyOp7
 70
     1
102
RTVSPropertyOp8
 70
     1
102
RTVSPropertyOp9
 70
     1
102
RTVSPropertyOp10
 70
     1
102
RTVSPropertyOp11
 70
     1
102
RTVSPropertyOp12
 70
     1
102
RTVSPropertyOp13
 70
     1
102
RTVSPropertyOp14
 70
     1
102
RTVSPropertyOp15
 70
     1
102
RTVSPropertyOp16
 70
     1
102
RTVSPropertyOp17
 70
     1
102
RTVSPropertyOp18
 70
     1
102
RTVSPropertyOp19
 70
     1
102
RTVSPropertyOp20
 70
     1
102
RTVSPropertyOp21
 70
     1
102
RTVSPropertyOp22
 70
     1
102
RTVSPropertyOp23
 70
     1
102
RTVSPropertyOp24
 70
     1
102
RTVSPropertyOp25
 70
     1
102
RTVSPropertyOp26
 70
     1
102
RTVSPropertyOp27
 70
     1
102
RTVSPropertyOp28
 70
     1
102
RTVSPropertyOp29
 70
     1
102
RTVSPropertyOp30
 70
     1
102
RTVSPropertyOp31
 70
     1
102
RTVSPropertyOp32
 70
     1
  0
XRECORD
  5
1B28
102
{ACAD_REACTORS
330
1B27
102
}
330
1B27
100
AcDbXrecord
280
     1
102
RTVSPropertyOp0
 70
     1
102
RTVSPropertyOp1
 70
     1
102
RTVSPropertyOp2
 70
     1
102
RTVSPropertyOp3
 70
     1
102
RTVSPropertyOp4
 70
     1
102
RTVSPropertyOp5
 70
     1
102
RTVSPropertyOp6
 70
     1
102
RTVSPropertyOp7
 70
     1
102
RTVSPropertyOp8
 70
     1
102
RTVSPropertyOp9
 70
     1
102
RTVSPropertyOp10
 70
     1
102
RTVSPropertyOp11
 70
     1
102
RTVSPropertyOp12
 70
     1
102
RTVSPropertyOp13
 70
     1
102
RTVSPropertyOp14
 70
     1
102
RTVSPropertyOp15
 70
     1
102
RTVSPropertyOp16
 70
     1
102
RTVSPropertyOp17
 70
     1
102
RTVSPropertyOp18
 70
     1
102
RTVSPropertyOp19
 70
     1
102
RTVSPropertyOp20
 70
     1
102
RTVSPropertyOp21
 70
     1
102
RTVSPropertyOp22
 70
     1
102
RTVSPropertyOp23
 70
     1
102
RTVSPropertyOp24
 70
     1
102
RTVSPropertyOp25
 70
     1
102
RTVSPropertyOp26
 70
     1
102
RTVSPropertyOp27
 70
     1
102
RTVSPropertyOp28
 70
     1
102
RTVSPropertyOp29
 70
     1
102
RTVSPropertyOp30
 70
     1
102
RTVSPropertyOp31
 70
     1
102
RTVSPropertyOp32
 70
     1
  0
XRECORD
  5
1B2C
102
{ACAD_REACTORS
330
1B2B
102
}
330
1B2B
100
AcDbXrecord
280
     1
102
RTVSPropertyOp0
 70
     1
102
RTVSPropertyOp1
 70
     1
102
RTVSPropertyOp2
 70
     1
102
RTVSPropertyOp3
 70
     1
102
RTVSPropertyOp4
 70
     1
102
RTVSPropertyOp5
 70
     1
102
RTVSPropertyOp6
 70
     1
102
RTVSPropertyOp7
 70
     1
102
RTVSPropertyOp8
 70
     1
102
RTVSPropertyOp9
 70
     1
102
RTVSPropertyOp10
 70
     1
102
RTVSPropertyOp11
 70
     1
102
RTVSPropertyOp12
 70
     1
102
RTVSPropertyOp13
 70
     1
102
RTVSPropertyOp14
 70
     1
102
RTVSPropertyOp15
 70
     1
102
RTVSPropertyOp16
 70
     1
102
RTVSPropertyOp17
 70
     1
102
RTVSPropertyOp18
 70
     1
102
RTVSPropertyOp19
 70
     1
102
RTVSPropertyOp20
 70
     1
102
RTVSPropertyOp21
 70
     1
102
RTVSPropertyOp22
 70
     1
102
RTVSPropertyOp23
 70
     1
102
RTVSPropertyOp24
 70
     1
102
RTVSPropertyOp25
 70
     1
102
RTVSPropertyOp26
 70
     1
102
RTVSPropertyOp27
 70
     1
102
RTVSPropertyOp28
 70
     1
102
RTVSPropertyOp29
 70
     1
102
RTVSPropertyOp30
 70
     1
102
RTVSPropertyOp31
 70
     1
102
RTVSPropertyOp32
 70
     1
  0
XRECORD
  5
1B46
102
{ACAD_REACTORS
330
1B45
102
}
330
1B45
100
AcDbXrecord
280
     1
102
RTVSPropertyOp0
 70
     0
102
RTVSPropertyOp1
 70
     0
102
RTVSPropertyOp2
 70
     0
102
RTVSPropertyOp3
 70
     0
102
RTVSPropertyOp4
 70
     0
102
RTVSPropertyOp5
 70
     0
102
RTVSPropertyOp6
 70
     0
102
RTVSPropertyOp7
 70
     0
102
RTVSPropertyOp8
 70
     0
102
RTVSPropertyOp9
 70
     0
102
RTVSPropertyOp10
 70
     0
102
RTVSPropertyOp11
 70
     0
102
RTVSPropertyOp12
 70
     0
102
RTVSPropertyOp13
 70
     0
102
RTVSPropertyOp14
 70
     2
102
RTVSPropertyOp15
 70
     0
102
RTVSPropertyOp16
 70
     0
102
RTVSPropertyOp17
 70
     0
102
RTVSPropertyOp18
 70
     0
102
RTVSPropertyOp19
 70
     0
102
RTVSPropertyOp20
 70
     0
102
RTVSPropertyOp21
 70
     0
102
RTVSPropertyOp22
 70
     0
102
RTVSPropertyOp23
 70
     0
102
RTVSPropertyOp24
 70
     0
102
RTVSPropertyOp25
 70
     0
102
RTVSPropertyOp26
 70
     0
102
RTVSPropertyOp27
 70
     0
102
RTVSPropertyOp28
 70
     0
102
RTVSPropertyOp29
 70
     0
102
RTVSPropertyOp30
 70
     0
102
RTVSPropertyOp31
 70
     0
102
RTVSPropertyOp32
 70
     0
  0
XRECORD
  5
1B34
102
{ACAD_REACTORS
330
1B33
102
}
330
1B33
100
AcDbXrecord
280
     1
102
RTVSPropertyOp0
 70
     1
102
RTVSPropertyOp1
 70
     1
102
RTVSPropertyOp2
 70
     1
102
RTVSPropertyOp3
 70
     1
102
RTVSPropertyOp4
 70
     1
102
RTVSPropertyOp5
 70
     1
102
RTVSPropertyOp6
 70
     1
102
RTVSPropertyOp7
 70
     1
102
RTVSPropertyOp8
 70
     1
102
RTVSPropertyOp9
 70
     1
102
RTVSPropertyOp10
 70
     1
102
RTVSPropertyOp11
 70
     1
102
RTVSPropertyOp12
 70
     1
102
RTVSPropertyOp13
 70
     1
102
RTVSPropertyOp14
 70
     1
102
RTVSPropertyOp15
 70
     1
102
RTVSPropertyOp16
 70
     1
102
RTVSPropertyOp17
 70
     1
102
RTVSPropertyOp18
 70
     1
102
RTVSPropertyOp19
 70
     1
102
RTVSPropertyOp20
 70
     1
102
RTVSPropertyOp21
 70
     1
102
RTVSPropertyOp22
 70
     1
102
RTVSPropertyOp23
 70
     1
102
RTVSPropertyOp24
 70
     1
102
RTVSPropertyOp25
 70
     1
102
RTVSPropertyOp26
 70
     1
102
RTVSPropertyOp27
 70
     1
102
RTVSPropertyOp28
 70
     1
102
RTVSPropertyOp29
 70
     1
102
RTVSPropertyOp30
 70
     1
102
RTVSPropertyOp31
 70
     1
102
RTVSPropertyOp32
 70
     1
  0
XRECORD
  5
1B18
102
{ACAD_REACTORS
330
1B17
102
}
330
1B17
100
AcDbXrecord
280
     1
102
RTVSPropertyOp0
 70
     1
102
RTVSPropertyOp1
 70
     1
102
RTVSPropertyOp2
 70
     1
102
RTVSPropertyOp3
 70
     1
102
RTVSPropertyOp4
 70
     1
102
RTVSPropertyOp5
 70
     1
102
RTVSPropertyOp6
 70
     1
102
RTVSPropertyOp7
 70
     1
102
RTVSPropertyOp8
 70
     1
102
RTVSPropertyOp9
 70
     1
102
RTVSPropertyOp10
 70
     1
102
RTVSPropertyOp11
 70
     1
102
RTVSPropertyOp12
 70
     1
102
RTVSPropertyOp13
 70
     1
102
RTVSPropertyOp14
 70
     1
102
RTVSPropertyOp15
 70
     1
102
RTVSPropertyOp16
 70
     1
102
RTVSPropertyOp17
 70
     1
102
RTVSPropertyOp18
 70
     1
102
RTVSPropertyOp19
 70
     1
102
RTVSPropertyOp20
 70
     1
102
RTVSPropertyOp21
 70
     1
102
RTVSPropertyOp22
 70
     1
102
RTVSPropertyOp23
 70
     1
102
RTVSPropertyOp24
 70
     1
102
RTVSPropertyOp25
 70
     1
102
RTVSPropertyOp26
 70
     1
102
RTVSPropertyOp27
 70
     1
102
RTVSPropertyOp28
 70
     1
102
RTVSPropertyOp29
 70
     1
102
RTVSPropertyOp30
 70
     1
102
RTVSPropertyOp31
 70
     1
102
RTVSPropertyOp32
 70
     1
  0
XRECORD
  5
1B1A
102
{ACAD_REACTORS
330
1B19
102
}
330
1B19
100
AcDbXrecord
280
     1
102
RTVSPropertyOp0
 70
     1
102
RTVSPropertyOp1
 70
     1
102
RTVSPropertyOp2
 70
     1
102
RTVSPropertyOp3
 70
     1
102
RTVSPropertyOp4
 70
     1
102
RTVSPropertyOp5
 70
     1
102
RTVSPropertyOp6
 70
     1
102
RTVSPropertyOp7
 70
     1
102
RTVSPropertyOp8
 70
     1
102
RTVSPropertyOp9
 70
     1
102
RTVSPropertyOp10
 70
     1
102
RTVSPropertyOp11
 70
     1
102
RTVSPropertyOp12
 70
     1
102
RTVSPropertyOp13
 70
     1
102
RTVSPropertyOp14
 70
     1
102
RTVSPropertyOp15
 70
     1
102
RTVSPropertyOp16
 70
     1
102
RTVSPropertyOp17
 70
     1
102
RTVSPropertyOp18
 70
     1
102
RTVSPropertyOp19
 70
     1
102
RTVSPropertyOp20
 70
     1
102
RTVSPropertyOp21
 70
     1
102
RTVSPropertyOp22
 70
     1
102
RTVSPropertyOp23
 70
     1
102
RTVSPropertyOp24
 70
     1
102
RTVSPropertyOp25
 70
     1
102
RTVSPropertyOp26
 70
     1
102
RTVSPropertyOp27
 70
     1
102
RTVSPropertyOp28
 70
     1
102
RTVSPropertyOp29
 70
     1
102
RTVSPropertyOp30
 70
     1
102
RTVSPropertyOp31
 70
     1
102
RTVSPropertyOp32
 70
     1
  0
XRECORD
  5
1B1C
102
{ACAD_REACTORS
330
1B1B
102
}
330
1B1B
100
AcDbXrecord
280
     1
102
RTVSPropertyOp0
 70
     1
102
RTVSPropertyOp1
 70
     1
102
RTVSPropertyOp2
 70
     1
102
RTVSPropertyOp3
 70
     1
102
RTVSPropertyOp4
 70
     1
102
RTVSPropertyOp5
 70
     1
102
RTVSPropertyOp6
 70
     1
102
RTVSPropertyOp7
 70
     1
102
RTVSPropertyOp8
 70
     1
102
RTVSPropertyOp9
 70
     1
102
RTVSPropertyOp10
 70
     1
102
RTVSPropertyOp11
 70
     1
102
RTVSPropertyOp12
 70
     1
102
RTVSPropertyOp13
 70
     1
102
RTVSPropertyOp14
 70
     1
102
RTVSPropertyOp15
 70
     1
102
RTVSPropertyOp16
 70
     1
102
RTVSPropertyOp17
 70
     1
102
RTVSPropertyOp18
 70
     1
102
RTVSPropertyOp19
 70
     1
102
RTVSPropertyOp20
 70
     1
102
RTVSPropertyOp21
 70
     1
102
RTVSPropertyOp22
 70
     1
102
RTVSPropertyOp23
 70
     1
102
RTVSPropertyOp24
 70
     1
102
RTVSPropertyOp25
 70
     1
102
RTVSPropertyOp26
 70
     1
102
RTVSPropertyOp27
 70
     1
102
RTVSPropertyOp28
 70
     1
102
RTVSPropertyOp29
 70
     1
102
RTVSPropertyOp30
 70
     1
102
RTVSPropertyOp31
 70
     1
102
RTVSPropertyOp32
 70
     1
  0
XRECORD
  5
1B1E
102
{ACAD_REACTORS
330
1B1D
102
}
330
1B1D
100
AcDbXrecord
280
     1
102
RTVSPropertyOp0
 70
     1
102
RTVSPropertyOp1
 70
     1
102
RTVSPropertyOp2
 70
     1
102
RTVSPropertyOp3
 70
     1
102
RTVSPropertyOp4
 70
     1
102
RTVSPropertyOp5
 70
     1
102
RTVSPropertyOp6
 70
     1
102
RTVSPropertyOp7
 70
     1
102
RTVSPropertyOp8
 70
     1
102
RTVSPropertyOp9
 70
     1
102
RTVSPropertyOp10
 70
     1
102
RTVSPropertyOp11
 70
     1
102
RTVSPropertyOp12
 70
     1
102
RTVSPropertyOp13
 70
     1
102
RTVSPropertyOp14
 70
     1
102
RTVSPropertyOp15
 70
     1
102
RTVSPropertyOp16
 70
     1
102
RTVSPropertyOp17
 70
     1
102
RTVSPropertyOp18
 70
     1
102
RTVSPropertyOp19
 70
     1
102
RTVSPropertyOp20
 70
     1
102
RTVSPropertyOp21
 70
     1
102
RTVSPropertyOp22
 70
     1
102
RTVSPropertyOp23
 70
     1
102
RTVSPropertyOp24
 70
     1
102
RTVSPropertyOp25
 70
     1
102
RTVSPropertyOp26
 70
     1
102
RTVSPropertyOp27
 70
     1
102
RTVSPropertyOp28
 70
     1
102
RTVSPropertyOp29
 70
     1
102
RTVSPropertyOp30
 70
     1
102
RTVSPropertyOp31
 70
     1
102
RTVSPropertyOp32
 70
     1
  0
XRECORD
  5
1B26
102
{ACAD_REACTORS
330
1B25
102
}
330
1B25
100
AcDbXrecord
280
     1
102
RTVSPropertyOp0
 70
     1
102
RTVSPropertyOp1
 70
     1
102
RTVSPropertyOp2
 70
     1
102
RTVSPropertyOp3
 70
     1
102
RTVSPropertyOp4
 70
     1
102
RTVSPropertyOp5
 70
     1
102
RTVSPropertyOp6
 70
     1
102
RTVSPropertyOp7
 70
     1
102
RTVSPropertyOp8
 70
     1
102
RTVSPropertyOp9
 70
     1
102
RTVSPropertyOp10
 70
     1
102
RTVSPropertyOp11
 70
     1
102
RTVSPropertyOp12
 70
     1
102
RTVSPropertyOp13
 70
     1
102
RTVSPropertyOp14
 70
     1
102
RTVSPropertyOp15
 70
     1
102
RTVSPropertyOp16
 70
     1
102
RTVSPropertyOp17
 70
     1
102
RTVSPropertyOp18
 70
     1
102
RTVSPropertyOp19
 70
     1
102
RTVSPropertyOp20
 70
     1
102
RTVSPropertyOp21
 70
     1
102
RTVSPropertyOp22
 70
     1
102
RTVSPropertyOp23
 70
     1
102
RTVSPropertyOp24
 70
     1
102
RTVSPropertyOp25
 70
     1
102
RTVSPropertyOp26
 70
     1
102
RTVSPropertyOp27
 70
     1
102
RTVSPropertyOp28
 70
     1
102
RTVSPropertyOp29
 70
     1
102
RTVSPropertyOp30
 70
     1
102
RTVSPropertyOp31
 70
     1
102
RTVSPropertyOp32
 70
     1
  0
XRECORD
  5
1B42
102
{ACAD_REACTORS
330
1B41
102
}
330
1B41
100
AcDbXrecord
280
     1
102
RTVSPropertyOp0
 70
     0
102
RTVSPropertyOp1
 70
     0
102
RTVSPropertyOp2
 70
     0
102
RTVSPropertyOp3
 70
     0
102
RTVSPropertyOp4
 70
     0
102
RTVSPropertyOp5
 70
     0
102
RTVSPropertyOp6
 70
     0
102
RTVSPropertyOp7
 70
     0
102
RTVSPropertyOp8
 70
     0
102
RTVSPropertyOp9
 70
     0
102
RTVSPropertyOp10
 70
     0
102
RTVSPropertyOp11
 70
     0
102
RTVSPropertyOp12
 70
     0
102
RTVSPropertyOp13
 70
     0
102
RTVSPropertyOp14
 70
     2
102
RTVSPropertyOp15
 70
     0
102
RTVSPropertyOp16
 70
     0
102
RTVSPropertyOp17
 70
     0
102
RTVSPropertyOp18
 70
     0
102
RTVSPropertyOp19
 70
     0
102
RTVSPropertyOp20
 70
     0
102
RTVSPropertyOp21
 70
     0
102
RTVSPropertyOp22
 70
     0
102
RTVSPropertyOp23
 70
     0
102
RTVSPropertyOp24
 70
     0
102
RTVSPropertyOp25
 70
     0
102
RTVSPropertyOp26
 70
     0
102
RTVSPropertyOp27
 70
     0
102
RTVSPropertyOp28
 70
     0
102
RTVSPropertyOp29
 70
     0
102
RTVSPropertyOp30
 70
     0
102
RTVSPropertyOp31
 70
     0
102
RTVSPropertyOp32
 70
     0
  0
XRECORD
  5
1B32
102
{ACAD_REACTORS
330
1B31
102
}
330
1B31
100
AcDbXrecord
280
     1
102
RTVSPropertyOp0
 70
     1
102
RTVSPropertyOp1
 70
     1
102
RTVSPropertyOp2
 70
     1
102
RTVSPropertyOp3
 70
     1
102
RTVSPropertyOp4
 70
     1
102
RTVSPropertyOp5
 70
     1
102
RTVSPropertyOp6
 70
     1
102
RTVSPropertyOp7
 70
     1
102
RTVSPropertyOp8
 70
     1
102
RTVSPropertyOp9
 70
     1
102
RTVSPropertyOp10
 70
     1
102
RTVSPropertyOp11
 70
     1
102
RTVSPropertyOp12
 70
     1
102
RTVSPropertyOp13
 70
     1
102
RTVSPropertyOp14
 70
     1
102
RTVSPropertyOp15
 70
     1
102
RTVSPropertyOp16
 70
     1
102
RTVSPropertyOp17
 70
     1
102
RTVSPropertyOp18
 70
     1
102
RTVSPropertyOp19
 70
     1
102
RTVSPropertyOp20
 70
     1
102
RTVSPropertyOp21
 70
     1
102
RTVSPropertyOp22
 70
     1
102
RTVSPropertyOp23
 70
     1
102
RTVSPropertyOp24
 70
     1
102
RTVSPropertyOp25
 70
     1
102
RTVSPropertyOp26
 70
     1
102
RTVSPropertyOp27
 70
     1
102
RTVSPropertyOp28
 70
     1
102
RTVSPropertyOp29
 70
     1
102
RTVSPropertyOp30
 70
     1
102
RTVSPropertyOp31
 70
     1
102
RTVSPropertyOp32
 70
     1
  0
XRECORD
  5
1B44
102
{ACAD_REACTORS
330
1B43
102
}
330
1B43
100
AcDbXrecord
280
     1
102
RTVSPropertyOp0
 70
     0
102
RTVSPropertyOp1
 70
     0
102
RTVSPropertyOp2
 70
     0
102
RTVSPropertyOp3
 70
     0
102
RTVSPropertyOp4
 70
     0
102
RTVSPropertyOp5
 70
     0
102
RTVSPropertyOp6
 70
     0
102
RTVSPropertyOp7
 70
     0
102
RTVSPropertyOp8
 70
     0
102
RTVSPropertyOp9
 70
     0
102
RTVSPropertyOp10
 70
     0
102
RTVSPropertyOp11
 70
     0
102
RTVSPropertyOp12
 70
     0
102
RTVSPropertyOp13
 70
     0
102
RTVSPropertyOp14
 70
     2
102
RTVSPropertyOp15
 70
     0
102
RTVSPropertyOp16
 70
     0
102
RTVSPropertyOp17
 70
     0
102
RTVSPropertyOp18
 70
     0
102
RTVSPropertyOp19
 70
     0
102
RTVSPropertyOp20
 70
     0
102
RTVSPropertyOp21
 70
     0
102
RTVSPropertyOp22
 70
     0
102
RTVSPropertyOp23
 70
     0
102
RTVSPropertyOp24
 70
     0
102
RTVSPropertyOp25
 70
     0
102
RTVSPropertyOp26
 70
     0
102
RTVSPropertyOp27
 70
     0
102
RTVSPropertyOp28
 70
     0
102
RTVSPropertyOp29
 70
     0
102
RTVSPropertyOp30
 70
     0
102
RTVSPropertyOp31
 70
     0
102
RTVSPropertyOp32
 70
     0
  0
XRECORD
  5
1B2A
102
{ACAD_REACTORS
330
1B29
102
}
330
1B29
100
AcDbXrecord
280
     1
102
RTVSPropertyOp0
 70
     1
102
RTVSPropertyOp1
 70
     1
102
RTVSPropertyOp2
 70
     1
102
RTVSPropertyOp3
 70
     1
102
RTVSPropertyOp4
 70
     1
102
RTVSPropertyOp5
 70
     1
102
RTVSPropertyOp6
 70
     1
102
RTVSPropertyOp7
 70
     1
102
RTVSPropertyOp8
 70
     1
102
RTVSPropertyOp9
 70
     1
102
RTVSPropertyOp10
 70
     1
102
RTVSPropertyOp11
 70
     1
102
RTVSPropertyOp12
 70
     1
102
RTVSPropertyOp13
 70
     1
102
RTVSPropertyOp14
 70
     1
102
RTVSPropertyOp15
 70
     1
102
RTVSPropertyOp16
 70
     1
102
RTVSPropertyOp17
 70
     1
102
RTVSPropertyOp18
 70
     1
102
RTVSPropertyOp19
 70
     1
102
RTVSPropertyOp20
 70
     1
102
RTVSPropertyOp21
 70
     1
102
RTVSPropertyOp22
 70
     1
102
RTVSPropertyOp23
 70
     1
102
RTVSPropertyOp24
 70
     1
102
RTVSPropertyOp25
 70
     1
102
RTVSPropertyOp26
 70
     1
102
RTVSPropertyOp27
 70
     1
102
RTVSPropertyOp28
 70
     1
102
RTVSPropertyOp29
 70
     1
102
RTVSPropertyOp30
 70
     1
102
RTVSPropertyOp31
 70
     1
102
RTVSPropertyOp32
 70
     1
  0
XRECORD
  5
1B40
102
{ACAD_REACTORS
330
1B3F
102
}
330
1B3F
100
AcDbXrecord
280
     1
102
RTVSPropertyOp0
 70
     1
102
RTVSPropertyOp1
 70
     1
102
RTVSPropertyOp2
 70
     1
102
RTVSPropertyOp3
 70
     1
102
RTVSPropertyOp4
 70
     1
102
RTVSPropertyOp5
 70
     1
102
RTVSPropertyOp6
 70
     1
102
RTVSPropertyOp7
 70
     1
102
RTVSPropertyOp8
 70
     1
102
RTVSPropertyOp9
 70
     1
102
RTVSPropertyOp10
 70
     1
102
RTVSPropertyOp11
 70
     1
102
RTVSPropertyOp12
 70
     1
102
RTVSPropertyOp13
 70
     1
102
RTVSPropertyOp14
 70
     1
102
RTVSPropertyOp15
 70
     1
102
RTVSPropertyOp16
 70
     1
102
RTVSPropertyOp17
 70
     1
102
RTVSPropertyOp18
 70
     1
102
RTVSPropertyOp19
 70
     1
102
RTVSPropertyOp20
 70
     1
102
RTVSPropertyOp21
 70
     1
102
RTVSPropertyOp22
 70
     1
102
RTVSPropertyOp23
 70
     1
102
RTVSPropertyOp24
 70
     1
102
RTVSPropertyOp25
 70
     1
102
RTVSPropertyOp26
 70
     1
102
RTVSPropertyOp27
 70
     1
102
RTVSPropertyOp28
 70
     1
102
RTVSPropertyOp29
 70
     1
102
RTVSPropertyOp30
 70
     1
102
RTVSPropertyOp31
 70
     1
102
RTVSPropertyOp32
 70
     1
  0
XRECORD
  5
1B3E
102
{ACAD_REACTORS
330
1B3D
102
}
330
1B3D
100
AcDbXrecord
280
     1
102
RTVSPropertyOp0
 70
     1
102
RTVSPropertyOp1
 70
     1
102
RTVSPropertyOp2
 70
     1
102
RTVSPropertyOp3
 70
     1
102
RTVSPropertyOp4
 70
     1
102
RTVSPropertyOp5
 70
     1
102
RTVSPropertyOp6
 70
     1
102
RTVSPropertyOp7
 70
     1
102
RTVSPropertyOp8
 70
     1
102
RTVSPropertyOp9
 70
     1
102
RTVSPropertyOp10
 70
     1
102
RTVSPropertyOp11
 70
     1
102
RTVSPropertyOp12
 70
     1
102
RTVSPropertyOp13
 70
     1
102
RTVSPropertyOp14
 70
     1
102
RTVSPropertyOp15
 70
     1
102
RTVSPropertyOp16
 70
     1
102
RTVSPropertyOp17
 70
     1
102
RTVSPropertyOp18
 70
     1
102
RTVSPropertyOp19
 70
     1
102
RTVSPropertyOp20
 70
     1
102
RTVSPropertyOp21
 70
     1
102
RTVSPropertyOp22
 70
     1
102
RTVSPropertyOp23
 70
     1
102
RTVSPropertyOp24
 70
     1
102
RTVSPropertyOp25
 70
     1
102
RTVSPropertyOp26
 70
     1
102
RTVSPropertyOp27
 70
     1
102
RTVSPropertyOp28
 70
     1
102
RTVSPropertyOp29
 70
     1
102
RTVSPropertyOp30
 70
     1
102
RTVSPropertyOp31
 70
     1
102
RTVSPropertyOp32
 70
     1
  0
XRECORD
  5
1B38
102
{ACAD_REACTORS
330
1B37
102
}
330
1B37
100
AcDbXrecord
280
     1
102
RTVSPropertyOp0
 70
     1
102
RTVSPropertyOp1
 70
     1
102
RTVSPropertyOp2
 70
     1
102
RTVSPropertyOp3
 70
     1
102
RTVSPropertyOp4
 70
     1
102
RTVSPropertyOp5
 70
     1
102
RTVSPropertyOp6
 70
     1
102
RTVSPropertyOp7
 70
     1
102
RTVSPropertyOp8
 70
     1
102
RTVSPropertyOp9
 70
     1
102
RTVSPropertyOp10
 70
     1
102
RTVSPropertyOp11
 70
     1
102
RTVSPropertyOp12
 70
     1
102
RTVSPropertyOp13
 70
     1
102
RTVSPropertyOp14
 70
     1
102
RTVSPropertyOp15
 70
     1
102
RTVSPropertyOp16
 70
     1
102
RTVSPropertyOp17
 70
     1
102
RTVSPropertyOp18
 70
     1
102
RTVSPropertyOp19
 70
     1
102
RTVSPropertyOp20
 70
     1
102
RTVSPropertyOp21
 70
     1
102
RTVSPropertyOp22
 70
     1
102
RTVSPropertyOp23
 70
     1
102
RTVSPropertyOp24
 70
     1
102
RTVSPropertyOp25
 70
     1
102
RTVSPropertyOp26
 70
     1
102
RTVSPropertyOp27
 70
     1
102
RTVSPropertyOp28
 70
     1
102
RTVSPropertyOp29
 70
     1
102
RTVSPropertyOp30
 70
     1
102
RTVSPropertyOp31
 70
     1
102
RTVSPropertyOp32
 70
     1
  0
XRECORD
  5
1B3A
102
{ACAD_REACTORS
330
1B39
102
}
330
1B39
100
AcDbXrecord
280
     1
102
RTVSPropertyOp0
 70
     1
102
RTVSPropertyOp1
 70
     1
102
RTVSPropertyOp2
 70
     1
102
RTVSPropertyOp3
 70
     1
102
RTVSPropertyOp4
 70
     1
102
RTVSPropertyOp5
 70
     1
102
RTVSPropertyOp6
 70
     1
102
RTVSPropertyOp7
 70
     1
102
RTVSPropertyOp8
 70
     1
102
RTVSPropertyOp9
 70
     1
102
RTVSPropertyOp10
 70
     1
102
RTVSPropertyOp11
 70
     1
102
RTVSPropertyOp12
 70
     1
102
RTVSPropertyOp13
 70
     1
102
RTVSPropertyOp14
 70
     1
102
RTVSPropertyOp15
 70
     1
102
RTVSPropertyOp16
 70
     1
102
RTVSPropertyOp17
 70
     1
102
RTVSPropertyOp18
 70
     1
102
RTVSPropertyOp19
 70
     1
102
RTVSPropertyOp20
 70
     1
102
RTVSPropertyOp21
 70
     1
102
RTVSPropertyOp22
 70
     1
102
RTVSPropertyOp23
 70
     1
102
RTVSPropertyOp24
 70
     1
102
RTVSPropertyOp25
 70
     1
102
RTVSPropertyOp26
 70
     1
102
RTVSPropertyOp27
 70
     1
102
RTVSPropertyOp28
 70
     1
102
RTVSPropertyOp29
 70
     1
102
RTVSPropertyOp30
 70
     1
102
RTVSPropertyOp31
 70
     1
102
RTVSPropertyOp32
 70
     1
  0
XRECORD
  5
1B30
102
{ACAD_REACTORS
330
1B2F
102
}
330
1B2F
100
AcDbXrecord
280
     1
102
RTVSPropertyOp0
 70
     1
102
RTVSPropertyOp1
 70
     1
102
RTVSPropertyOp2
 70
     1
102
RTVSPropertyOp3
 70
     1
102
RTVSPropertyOp4
 70
     1
102
RTVSPropertyOp5
 70
     1
102
RTVSPropertyOp6
 70
     1
102
RTVSPropertyOp7
 70
     1
102
RTVSPropertyOp8
 70
     1
102
RTVSPropertyOp9
 70
     1
102
RTVSPropertyOp10
 70
     1
102
RTVSPropertyOp11
 70
     1
102
RTVSPropertyOp12
 70
     1
102
RTVSPropertyOp13
 70
     1
102
RTVSPropertyOp14
 70
     1
102
RTVSPropertyOp15
 70
     1
102
RTVSPropertyOp16
 70
     1
102
RTVSPropertyOp17
 70
     1
102
RTVSPropertyOp18
 70
     1
102
RTVSPropertyOp19
 70
     1
102
RTVSPropertyOp20
 70
     1
102
RTVSPropertyOp21
 70
     1
102
RTVSPropertyOp22
 70
     1
102
RTVSPropertyOp23
 70
     1
102
RTVSPropertyOp24
 70
     1
102
RTVSPropertyOp25
 70
     1
102
RTVSPropertyOp26
 70
     1
102
RTVSPropertyOp27
 70
     1
102
RTVSPropertyOp28
 70
     1
102
RTVSPropertyOp29
 70
     1
102
RTVSPropertyOp30
 70
     1
102
RTVSPropertyOp31
 70
     1
102
RTVSPropertyOp32
 70
     1
  0
XRECORD
  5
1B24
102
{ACAD_REACTORS
330
1B23
102
}
330
1B23
100
AcDbXrecord
280
     1
102
RTVSPropertyOp0
 70
     1
102
RTVSPropertyOp1
 70
     1
102
RTVSPropertyOp2
 70
     1
102
RTVSPropertyOp3
 70
     1
102
RTVSPropertyOp4
 70
     1
102
RTVSPropertyOp5
 70
     1
102
RTVSPropertyOp6
 70
     1
102
RTVSPropertyOp7
 70
     1
102
RTVSPropertyOp8
 70
     1
102
RTVSPropertyOp9
 70
     1
102
RTVSPropertyOp10
 70
     1
102
RTVSPropertyOp11
 70
     1
102
RTVSPropertyOp12
 70
     1
102
RTVSPropertyOp13
 70
     1
102
RTVSPropertyOp14
 70
     1
102
RTVSPropertyOp15
 70
     1
102
RTVSPropertyOp16
 70
     1
102
RTVSPropertyOp17
 70
     1
102
RTVSPropertyOp18
 70
     1
102
RTVSPropertyOp19
 70
     1
102
RTVSPropertyOp20
 70
     1
102
RTVSPropertyOp21
 70
     1
102
RTVSPropertyOp22
 70
     1
102
RTVSPropertyOp23
 70
     1
102
RTVSPropertyOp24
 70
     1
102
RTVSPropertyOp25
 70
     1
102
RTVSPropertyOp26
 70
     1
102
RTVSPropertyOp27
 70
     1
102
RTVSPropertyOp28
 70
     1
102
RTVSPropertyOp29
 70
     1
102
RTVSPropertyOp30
 70
     1
102
RTVSPropertyOp31
 70
     1
102
RTVSPropertyOp32
 70
     1
  0
XRECORD
  5
1B3C
102
{ACAD_REACTORS
330
1B3B
102
}
330
1B3B
100
AcDbXrecord
280
     1
102
RTVSPropertyOp0
 70
     1
102
RTVSPropertyOp1
 70
     1
102
RTVSPropertyOp2
 70
     1
102
RTVSPropertyOp3
 70
     1
102
RTVSPropertyOp4
 70
     1
102
RTVSPropertyOp5
 70
     1
102
RTVSPropertyOp6
 70
     1
102
RTVSPropertyOp7
 70
     1
102
RTVSPropertyOp8
 70
     1
102
RTVSPropertyOp9
 70
     1
102
RTVSPropertyOp10
 70
     1
102
RTVSPropertyOp11
 70
     1
102
RTVSPropertyOp12
 70
     1
102
RTVSPropertyOp13
 70
     1
102
RTVSPropertyOp14
 70
     1
102
RTVSPropertyOp15
 70
     1
102
RTVSPropertyOp16
 70
     1
102
RTVSPropertyOp17
 70
     1
102
RTVSPropertyOp18
 70
     1
102
RTVSPropertyOp19
 70
     1
102
RTVSPropertyOp20
 70
     1
102
RTVSPropertyOp21
 70
     1
102
RTVSPropertyOp22
 70
     1
102
RTVSPropertyOp23
 70
     1
102
RTVSPropertyOp24
 70
     1
102
RTVSPropertyOp25
 70
     1
102
RTVSPropertyOp26
 70
     1
102
RTVSPropertyOp27
 70
     1
102
RTVSPropertyOp28
 70
     1
102
RTVSPropertyOp29
 70
     1
102
RTVSPropertyOp30
 70
     1
102
RTVSPropertyOp31
 70
     1
102
RTVSPropertyOp32
 70
     1
  0
ENDSEC
  0
EOF
