  0
SECTION
  2
HEADER
  9
$ACADVER
  1
AC1015
  9
$ACADMAINTVER
 70
     6
  9
$DWGCODEPAGE
  3
ANSI_932
  9
$INSBASE
 10
0.0
 20
0.0
 30
0.0
  9
$EXTMIN
 10
95.51124567502197
 20
57.62228716962454
 30
0.0
  9
$EXTMAX
 10
570.6361897918632
 20
517.2663139006798
 30
0.0
  9
$LIMMIN
 10
0.0
 20
0.0
  9
$LIMMAX
 10
10000.0
 20
10000.0
  9
$ORTHOMODE
 70
     0
  9
$REGENMODE
 70
     1
  9
$FILLMODE
 70
     1
  9
$QTEXTMODE
 70
     0
  9
$MIRRTEXT
 70
     1
  9
$LTSCALE
 40
33.67003367003366
  9
$ATTMODE
 70
     1
  9
$TEXTSIZE
 40
7.0
  9
$TRACEWID
 40
1.0
  9
$TEXTSTYLE
  7
BIGFONT
  9
$CLAYER
  8
1
  9
$CELTYPE
  6
BYLAYER
  9
$CECOLOR
 62
   256
  9
$CELTSCALE
 40
0.5
  9
$DISPSILH
 70
     0
  9
$DIMSCALE
 40
1.0
  9
$DIMASZ
 40
0.18
  9
$DIMEXO
 40
0.0625
  9
$DIMDLI
 40
0.38
  9
$DIMRND
 40
0.0
  9
$DIMDLE
 40
0.0
  9
$DIMEXE
 40
0.18
  9
$DIMTP
 40
0.0
  9
$DIMTM
 40
0.0
  9
$DIMTXT
 40
0.18
  9
$DIMCEN
 40
0.09
  9
$DIMTSZ
 40
0.0
  9
$DIMTOL
 70
     0
  9
$DIMLIM
 70
     0
  9
$DIMTIH
 70
     1
  9
$DIMTOH
 70
     1
  9
$DIMSE1
 70
     0
  9
$DIMSE2
 70
     0
  9
$DIMTAD
 70
     0
  9
$DIMZIN
 70
     0
  9
$DIMBLK
  1

  9
$DIMASO
 70
     1
  9
$DIMSHO
 70
     1
  9
$DIMPOST
  1

  9
$DIMAPOST
  1

  9
$DIMALT
 70
     0
  9
$DIMALTD
 70
     2
  9
$DIMALTF
 40
25.4
  9
$DIMLFAC
 40
1.0
  9
$DIMTOFL
 70
     0
  9
$DIMTVP
 40
0.0
  9
$DIMTIX
 70
     0
  9
$DIMSOXD
 70
     0
  9
$DIMSAH
 70
     0
  9
$DIMBLK1
  1

  9
$DIMBLK2
  1

  9
$DIMSTYLE
  2
STANDARD
  9
$DIMCLRD
 70
     0
  9
$DIMCLRE
 70
     0
  9
$DIMCLRT
 70
     0
  9
$DIMTFAC
 40
1.0
  9
$DIMGAP
 40
0.09
  9
$DIMJUST
 70
     0
  9
$DIMSD1
 70
     0
  9
$DIMSD2
 70
     0
  9
$DIMTOLJ
 70
     1
  9
$DIMTZIN
 70
     0
  9
$DIMALTZ
 70
     0
  9
$DIMALTTZ
 70
     0
  9
$DIMUPT
 70
     0
  9
$DIMDEC
 70
     4
  9
$DIMTDEC
 70
     4
  9
$DIMALTU
 70
     2
  9
$DIMALTTD
 70
     2
  9
$DIMTXSTY
  7
STANDARD
  9
$DIMAUNIT
 70
     0
  9
$DIMADEC
 70
     0
  9
$DIMALTRND
 40
0.0
  9
$DIMAZIN
 70
     0
  9
$DIMDSEP
 70
    46
  9
$DIMATFIT
 70
     3
  9
$DIMFRAC
 70
     0
  9
$DIMLDRBLK
  1

  9
$DIMLUNIT
 70
     2
  9
$DIMLWD
 70
    -2
  9
$DIMLWE
 70
    -2
  9
$DIMTMOVE
 70
     0
  9
$LUNITS
 70
     2
  9
$LUPREC
 70
     4
  9
$SKETCHINC
 40
1.0
  9
$FILLETRAD
 40
2.0
  9
$AUNITS
 70
     0
  9
$AUPREC
 70
     0
  9
$MENU
  1
.
  9
$ELEVATION
 40
0.0
  9
$PELEVATION
 40
0.0
  9
$THICKNESS
 40
0.0
  9
$LIMCHECK
 70
     0
  9
$CHAMFERA
 40
5.0
  9
$CHAMFERB
 40
5.0
  9
$CHAMFERC
 40
673.4006734006732
  9
$CHAMFERD
 40
0.0
  9
$SKPOLY
 70
     0
  9
$TDCREATE
 40
2450863.599069907
  9
$TDUCREATE
 40
2450863.224069907
  9
$TDUPDATE
 40
2454859.732326134
  9
$TDUUPDATE
 40
2454859.357326134
  9
$TDINDWG
 40
1.0879739352
  9
$TDUSRTIMER
 40
1.0879735648
  9
$USRTIMER
 70
     1
  9
$ANGBASE
 50
0.0
  9
$ANGDIR
 70
     0
  9
$PDMODE
 70
     0
  9
$PDSIZE
 40
0.0
  9
$PLINEWID
 40
0.0
  9
$SPLFRAME
 70
     0
  9
$SPLINETYPE
 70
     6
  9
$SPLINESEGS
 70
     8
  9
$HANDSEED
  5
46AB
  9
$SURFTAB1
 70
     6
  9
$SURFTAB2
 70
     6
  9
$SURFTYPE
 70
     6
  9
$SURFU
 70
     6
  9
$SURFV
 70
     6
  9
$UCSBASE
  2

  9
$UCSNAME
  2

  9
$UCSORG
 10
0.0
 20
0.0
 30
0.0
  9
$UCSXDIR
 10
1.0
 20
0.0
 30
0.0
  9
$UCSYDIR
 10
0.0
 20
1.0
 30
0.0
  9
$UCSORTHOREF
  2

  9
$UCSORTHOVIEW
 70
     0
  9
$UCSORGTOP
 10
0.0
 20
0.0
 30
0.0
  9
$UCSORGBOTTOM
 10
0.0
 20
0.0
 30
0.0
  9
$UCSORGLEFT
 10
0.0
 20
0.0
 30
0.0
  9
$UCSORGRIGHT
 10
0.0
 20
0.0
 30
0.0
  9
$UCSORGFRONT
 10
0.0
 20
0.0
 30
0.0
  9
$UCSORGBACK
 10
0.0
 20
0.0
 30
0.0
  9
$PUCSBASE
  2

  9
$PUCSNAME
  2

  9
$PUCSORG
 10
0.0
 20
0.0
 30
0.0
  9
$PUCSXDIR
 10
1.0
 20
0.0
 30
0.0
  9
$PUCSYDIR
 10
0.0
 20
1.0
 30
0.0
  9
$PUCSORTHOREF
  2

  9
$PUCSORTHOVIEW
 70
     0
  9
$PUCSORGTOP
 10
0.0
 20
0.0
 30
0.0
  9
$PUCSORGBOTTOM
 10
0.0
 20
0.0
 30
0.0
  9
$PUCSORGLEFT
 10
0.0
 20
0.0
 30
0.0
  9
$PUCSORGRIGHT
 10
0.0
 20
0.0
 30
0.0
  9
$PUCSORGFRONT
 10
0.0
 20
0.0
 30
0.0
  9
$PUCSORGBACK
 10
0.0
 20
0.0
 30
0.0
  9
$USERI1
 70
     0
  9
$USERI2
 70
     0
  9
$USERI3
 70
     0
  9
$USERI4
 70
     0
  9
$USERI5
 70
     0
  9
$USERR1
 40
0.0
  9
$USERR2
 40
0.0
  9
$USERR3
 40
0.0
  9
$USERR4
 40
0.0
  9
$USERR5
 40
0.0
  9
$WORLDVIEW
 70
     1
  9
$SHADEDGE
 70
     3
  9
$SHADEDIF
 70
    70
  9
$TILEMODE
 70
     1
  9
$MAXACTVP
 70
    16
  9
$PINSBASE
 10
0.0
 20
0.0
 30
0.0
  9
$PLIMCHECK
 70
     0
  9
$PEXTMIN
 10
19.96922190503255
 20
16.99738169359409
 30
-0.0015258207003583
  9
$PEXTMAX
 10
405.0185766523227
 20
282.0224986928774
 30
0.0000000349246037
  9
$PLIMMIN
 10
-8.132196981760081
 20
7.847400457411294
  9
$PLIMMAX
 10
433.1199774656346
 20
348.8149876124005
  9
$UNITMODE
 70
     0
  9
$VISRETAIN
 70
     0
  9
$PLINEGEN
 70
     0
  9
$PSLTSCALE
 70
     1
  9
$TREEDEPTH
 70
  3020
  9
$CMLSTYLE
  2
STANDARD
  9
$CMLJUST
 70
     0
  9
$CMLSCALE
 40
1.0
  9
$PROXYGRAPHICS
 70
     1
  9
$MEASUREMENT
 70
     1
  9
$CELWEIGHT
370
    -1
  9
$ENDCAPS
280
     0
  9
$JOINSTYLE
280
     0
  9
$LWDISPLAY
290
     0
  9
$INSUNITS
 70
     0
  9
$HYPERLINKBASE
  1

  9
$STYLESHEET
  1

  9
$XEDIT
290
     1
  9
$CEPSNTYPE
380
     0
  9
$PSTYLEMODE
290
     0
  9
$FINGERPRINTGUID
  2
{D1B9911F-462F-4E0B-B4B9-7D9255A06487}
  9
$VERSIONGUID
  2
{2BACD35E-2626-4A8F-8A77-E7D278F0CCD2}
  9
$EXTNAMES
290
     1
  9
$PSVPSCALE
 40
0.0
  9
$OLESTARTUP
290
     0
  0
ENDSEC
  0
SECTION
  2
CLASSES
  0
CLASS
  1
LWPOLYLINE
  2
AcDbPolyline
  3
AutoCAD 2000
 90
    32768
280
     0
281
     1
  0
CLASS
  1
HATCH
  2
AcDbHatch
  3
AutoCAD 2000
 90
    32768
280
     0
281
     1
  0
CLASS
  1
DICTIONARYVAR
  2
AcDbDictionaryVar
  3
AutoCAD 2000
 90
        0
280
     0
281
     0
  0
CLASS
  1
OLE2FRAME
  2
AcDbOle2Frame
  3
AutoCAD 2000
 90
    32768
280
     0
281
     1
  0
CLASS
  1
ACDBDICTIONARYWDFLT
  2
AcDbDictionaryWithDefault
  3
AutoCAD 2000
 90
        0
280
     0
281
     0
  0
CLASS
  1
ACDBPLACEHOLDER
  2
AcDbPlaceHolder
  3
AutoCAD 2000
 90
        0
280
     0
281
     0
  0
CLASS
  1
LAYOUT
  2
AcDbLayout
  3
AutoCAD 2000
 90
        0
280
     0
281
     0
  0
CLASS
  1
LONG_TRANSACTION
  2
AcDbLongTransaction
  3
AutoCAD 2000
 90
    32768
280
     0
281
     0
  0
CLASS
  1
LWPOLYLINE
  2
AcDbPolyline
  3
AutoCAD 2000
 90
    32768
280
     0
281
     1
  0
CLASS
  1
HATCH
  2
AcDbHatch
  3
AutoCAD 2000
 90
    32768
280
     0
281
     1
  0
CLASS
  1
XRECORD
  2
AcDbXrecord
  3
AutoCAD 2000
 90
    32768
280
     0
281
     0
  0
CLASS
  1
LONG_TRANSACTION
  2
AcDbLongTransaction
  3
AutoCAD 2000
 90
    32768
280
     0
281
     0
  0
CLASS
  1
LWPOLYLINE
  2
AcDbPolyline
  3
AutoCAD 2000
 90
    32768
280
     0
281
     1
  0
CLASS
  1
HATCH
  2
AcDbHatch
  3
AutoCAD 2000
 90
    32768
280
     0
281
     1
  0
CLASS
  1
XRECORD
  2
AcDbXrecord
  3
AutoCAD 2000
 90
    32768
280
     0
281
     0
  0
CLASS
  1
LONG_TRANSACTION
  2
AcDbLongTransaction
  3
AutoCAD 2000
 90
    32768
280
     0
281
     0
  0
CLASS
  1
LWPOLYLINE
  2
AcDbPolyline
  3
AutoCAD 2000
 90
    32768
280
     0
281
     1
  0
CLASS
  1
HATCH
  2
AcDbHatch
  3
AutoCAD 2000
 90
    32768
280
     0
281
     1
  0
CLASS
  1
XRECORD
  2
AcDbXrecord
  3
AutoCAD 2000
 90
    32768
280
     0
281
     0
  0
CLASS
  1
LONG_TRANSACTION
  2
AcDbLongTransaction
  3
AutoCAD 2000
 90
    32768
280
     0
281
     0
  0
CLASS
  1
LWPOLYLINE
  2
AcDbPolyline
  3
AutoCAD 2000
 90
    32768
280
     0
281
     1
  0
CLASS
  1
HATCH
  2
AcDbHatch
  3
AutoCAD 2000
 90
    32768
280
     0
281
     1
  0
CLASS
  1
XRECORD
  2
AcDbXrecord
  3
AutoCAD 2000
 90
    32768
280
     0
281
     0
  0
ENDSEC
  0
SECTION
  2
TABLES
  0
TABLE
  2
VPORT
  5
8
330
0
100
AcDbSymbolTable
 70
     3
  0
VPORT
  5
46AA
330
8
100
AcDbSymbolTableRecord
100
AcDbViewportTableRecord
  2
*Active
 70
     0
 10
0.0
 20
0.0
 11
1.0
 21
1.0
 12
280.7958434228653
 22
256.5597968878305
 13
0.0
 23
0.0
 14
168.0
 24
168.0
 15
0.0
 25
0.0
 16
0.0
 26
0.0
 36
1.0
 17
0.0
 27
0.0
 37
0.0
 40
675.9523219078868
 41
1.287220026350461
 42
50.0
 43
0.0
 44
0.0
 50
0.0
 51
0.0
 71
     0
 72
   100
 73
     1
 74
     0
 75
     0
 76
     0
 77
     0
 78
     2
281
     0
 65
     1
110
0.0
120
0.0
130
0.0
111
1.0
121
0.0
131
0.0
112
0.0
122
1.0
132
0.0
 79
     0
146
0.0
  0
ENDTAB
  0
TABLE
  2
LTYPE
  5
5
330
0
100
AcDbSymbolTable
 70
     2
  0
LTYPE
  5
14
330
5
100
AcDbSymbolTableRecord
100
AcDbLinetypeTableRecord
  2
BYBLOCK
 70
     0
  3

 72
    65
 73
     0
 40
0.0
  0
LTYPE
  5
15
330
5
100
AcDbSymbolTableRecord
100
AcDbLinetypeTableRecord
  2
BYLAYER
 70
     0
  3

 72
    65
 73
     0
 40
0.0
  0
LTYPE
  5
16
330
5
100
AcDbSymbolTableRecord
100
AcDbLinetypeTableRecord
  2
CONTINUOUS
 70
     0
  3
Solid line
 72
    65
 73
     0
 40
0.0
  0
LTYPE
  5
6E
330
5
100
AcDbSymbolTableRecord
100
AcDbLinetypeTableRecord
  2
CENTER
 70
     0
  3
____ _ ____ _ ____ _ ____ _ ____ _ ____ _ ____ 
 72
    65
 73
     4
 40
2.0
 49
1.25
 74
     0
 49
-0.25
 74
     0
 49
0.25
 74
     0
 49
-0.25
 74
     0
  0
ENDTAB
  0
TABLE
  2
LAYER
  5
2
330
0
100
AcDbSymbolTable
 70
     4
  0
LAYER
  5
F
330
2
100
AcDbSymbolTableRecord
100
AcDbLayerTableRecord
  2
0
 70
     0
 62
     7
  6
CONTINUOUS
370
    -3
390
44D1
  0
LAYER
  5
72
330
2
100
AcDbSymbolTableRecord
100
AcDbLayerTableRecord
  2
DEFPOINTS
 70
     0
 62
     7
  6
CONTINUOUS
290
     0
370
    -3
390
44D1
  0
LAYER
  5
74
330
2
100
AcDbSymbolTableRecord
100
AcDbLayerTableRecord
  2
CENTER
 70
     0
 62
     8
  6
CENTER
370
    -3
390
44D1
  0
LAYER
  5
461D
330
2
100
AcDbSymbolTableRecord
100
AcDbLayerTableRecord
  2
1
 70
     0
 62
     7
  6
CONTINUOUS
370
    -3
390
44D1
  0
ENDTAB
  0
TABLE
  2
STYLE
  5
3
330
0
100
AcDbSymbolTable
 70
     3
  0
STYLE
  5
10
330
3
100
AcDbSymbolTableRecord
100
AcDbTextStyleTableRecord
  2
STANDARD
 70
     0
 40
0.0
 41
0.8
 50
0.0
 71
     0
 42
84.17508417508415
  3
TXT
  4
bigfont.shx
  0
STYLE
  5
22A
330
3
100
AcDbSymbolTableRecord
100
AcDbTextStyleTableRecord
  2
BIGFONT
 70
     0
 40
7.0
 41
0.8
 50
15.0
 71
     0
 42
7.0
  3
romans.shx
  4
extfont.shx
  0
ENDTAB
  0
TABLE
  2
VIEW
  5
6
330
0
100
AcDbSymbolTable
 70
     0
  0
ENDTAB
  0
TABLE
  2
UCS
  5
7
330
0
100
AcDbSymbolTable
 70
     0
  0
ENDTAB
  0
TABLE
  2
APPID
  5
9
330
0
100
AcDbSymbolTable
 70
     5
  0
APPID
  5
11
330
9
100
AcDbSymbolTableRecord
100
AcDbRegAppTableRecord
  2
ACAD
 70
     0
  0
APPID
  5
15CD
330
9
100
AcDbSymbolTableRecord
100
AcDbRegAppTableRecord
  2
CONTENTBLOCKICON
 70
     0
  0
APPID
  5
15CE
330
9
100
AcDbSymbolTableRecord
100
AcDbRegAppTableRecord
  2
CONTENTBLOCKDESCRIPTION
 70
     0
  0
APPID
  5
161A
330
9
100
AcDbSymbolTableRecord
100
AcDbRegAppTableRecord
  2
CONTENTTABDATA
 70
     0
  0
APPID
  5
161B
330
9
100
AcDbSymbolTableRecord
100
AcDbRegAppTableRecord
  2
CONTENTCURRENTTAB
 70
     0
  0
ENDTAB
  0
TABLE
  2
DIMSTYLE
  5
A
330
0
100
AcDbSymbolTable
 70
     1
100
AcDbDimStyleTable
 71
     0
  0
DIMSTYLE
105
1D
330
A
100
AcDbSymbolTableRecord
100
AcDbDimStyleTableRecord
  2
STANDARD
 70
     0
340
10
  0
ENDTAB
  0
TABLE
  2
BLOCK_RECORD
  5
1
330
0
100
AcDbSymbolTable
 70
     0
  0
BLOCK_RECORD
  5
1A
102
{ACAD_XDICTIONARY
360
4503
102
}
330
1
100
AcDbSymbolTableRecord
100
AcDbBlockTableRecord
  2
*MODEL_SPACE
340
46A1
  0
BLOCK_RECORD
  5
17
102
{ACAD_XDICTIONARY
360
4501
102
}
330
1
100
AcDbSymbolTableRecord
100
AcDbBlockTableRecord
  2
*PAPER_SPACE
340
46A2
  0
ENDTAB
  0
ENDSEC
  0
SECTION
  2
BLOCKS
  0
BLOCK
  5
1B
330
1A
100
AcDbEntity
  8
0
100
AcDbBlockBegin
  2
*MODEL_SPACE
 70
     0
 10
0.0
 20
0.0
 30
0.0
  3
*MODEL_SPACE
  1

  0
ENDBLK
  5
1C
330
1A
100
AcDbEntity
  8
0
100
AcDbBlockEnd
  0
BLOCK
  5
18
330
17
100
AcDbEntity
 67
     1
  8
0
100
AcDbBlockBegin
  2
*PAPER_SPACE
 70
     0
 10
0.0
 20
0.0
 30
0.0
  3
*PAPER_SPACE
  1

  0
ENDBLK
  5
19
330
17
100
AcDbEntity
 67
     1
  8
0
100
AcDbBlockEnd
  0
ENDSEC
  0
SECTION
  2
ENTITIES
  0
LINE
  5
351A
330
1A
100
AcDbEntity
  8
1
 48
0.5
100
AcDbLine
 10
175.1325660185775
 20
215.0116772884412
 30
0.0
 11
137.1325660185775
 21
215.0116772884393
 31
0.0
  0
LINE
  5
351B
330
1A
100
AcDbEntity
  8
1
 48
0.5
100
AcDbLine
 10
175.1325660185757
 20
256.0116772884412
 30
0.0
 11
137.1325660185757
 21
256.0116772884394
 31
0.0
  0
LINE
  5
351C
330
1A
100
AcDbEntity
  8
1
 48
0.5
100
AcDbLine
 10
162.8825660185793
 20
509.0116772884393
 30
0.0
 11
189.3825660185793
 21
509.0116772884411
 31
0.0
  0
LINE
  5
351D
330
1A
100
AcDbEntity
  8
1
 48
0.5
100
AcDbLine
 10
157.1325660185793
 20
499.0116772884394
 30
0.0
 11
195.1325660185793
 21
499.0116772884412
 31
0.0
  0
LINE
  5
351E
330
1A
100
AcDbEntity
  8
1
 48
0.5
100
AcDbLine
 10
157.1325660185811
 20
458.0116772884394
 30
0.0
 11
195.1325660185812
 21
458.0116772884411
 31
0.0
  0
LINE
  5
3521
330
1A
100
AcDbEntity
  8
1
 48
0.5
100
AcDbLine
 10
465.9898663962803
 20
457.0116772884411
 30
0.0
 11
465.9898663962693
 21
357.0116772884393
 31
0.0
  0
LINE
  5
3522
330
1A
100
AcDbEntity
  8
1
 48
0.5
100
AcDbLine
 10
480.989866396274
 20
457.0116772884429
 30
0.0
 11
480.9898663962735
 21
357.0116772884375
 31
0.0
  0
LINE
  5
3523
330
1A
100
AcDbEntity
  8
CENTER
 48
0.3
100
AcDbLine
 10
140.9991546032214
 20
266.0116772884393
 30
0.0
 11
171.2659774339371
 21
266.0116772884393
 31
0.0
  0
LINE
  5
3524
330
1A
100
AcDbEntity
  8
CENTER
 48
0.3
100
AcDbLine
 10
171.0733270889559
 20
266.0116772884393
 30
0.0
 11
141.1918049482028
 21
266.0116772884393
 31
0.0
  0
LINE
  5
3525
330
1A
100
AcDbEntity
  8
1
 48
0.7
100
AcDbLine
 10
246.1325660185784
 20
345.0116772884375
 30
0.0
 11
246.1325660185784
 21
289.0116772884393
 31
0.0
  0
LINE
  5
3526
330
1A
100
AcDbEntity
  8
1
 48
0.7
100
AcDbLine
 10
166.1325660185766
 20
345.0116772884393
 30
0.0
 11
166.1325660185784
 21
289.0116772884393
 31
0.0
  0
LINE
  5
3527
330
1A
100
AcDbEntity
  8
CENTER
 48
0.7
100
AcDbLine
 10
322.2650329076504
 20
357.0116772884393
 30
0.0
 11
101.9321758931745
 21
357.0116772884393
 31
0.0
  0
LINE
  5
3528
330
1A
100
AcDbEntity
  8
1
 48
0.3
100
AcDbLine
 10
301.1325660185793
 20
257.0116772884393
 30
0.0
 11
111.1325660185812
 21
257.0116772884393
 31
0.0
  0
LINE
  5
3529
330
1A
100
AcDbEntity
  8
CENTER
 48
0.3
100
AcDbLine
 10
171.2659774339371
 20
448.0116772884393
 30
0.0
 11
140.9991546032214
 21
448.0116772884393
 31
0.0
  0
LINE
  5
352A
330
1A
100
AcDbEntity
  8
CENTER
 48
0.3
100
AcDbLine
 10
171.0733270889559
 20
448.0116772884393
 30
0.0
 11
141.1918049482028
 21
448.0116772884393
 31
0.0
  0
LINE
  5
352B
330
1A
100
AcDbEntity
  8
1
 48
0.3
100
AcDbLine
 10
301.1325660185812
 20
457.0116772884394
 30
0.0
 11
111.1325660185812
 21
457.0116772884394
 31
0.0
  0
ARC
  5
352D
330
1A
100
AcDbEntity
  8
1
 48
0.3
100
AcDbCircle
 10
135.1325660185784
 20
442.0116772884393
 30
0.0
 40
5.0
100
AcDbArc
 50
269.9999999999998
 51
0.0
  0
ARC
  5
352E
330
1A
100
AcDbEntity
  8
1
 48
0.3
100
AcDbCircle
 10
131.1325660185802
 20
432.0116772884394
 30
0.0
 40
5.0
100
AcDbArc
 50
89.99999999999984
 51
180.0000000000015
  0
LINE
  5
352F
330
1A
100
AcDbEntity
  8
CENTER
 48
0.3
100
AcDbLine
 10
156.1325660185793
 20
433.0709162180646
 30
0.0
 11
156.1325660185793
 21
462.9524383588177
 31
0.0
  0
LINE
  5
3530
330
1A
100
AcDbEntity
  8
CENTER
 48
0.3
100
AcDbLine
 10
156.1325660185793
 20
462.9524383588177
 30
0.0
 11
156.1325660185793
 21
433.0709162180628
 31
0.0
  0
LINE
  5
3531
330
1A
100
AcDbEntity
  8
1
 48
0.3
100
AcDbLine
 10
106.1325660185812
 20
452.0116772884393
 30
0.0
 11
106.1325660185866
 21
262.0116772884393
 31
0.0
  0
LINE
  5
3535
330
1A
100
AcDbEntity
  8
1
 48
0.5
100
AcDbLine
 10
162.8825660185793
 20
499.0116772884394
 30
0.0
 11
162.8825660185793
 21
509.0116772884393
 31
0.0
  0
LINE
  5
3536
330
1A
100
AcDbEntity
  8
1
 48
0.5
100
AcDbLine
 10
157.1325660185793
 20
458.0116772884394
 30
0.0
 11
157.1325660185775
 21
499.0116772884394
 31
0.0
  0
LINE
  5
3537
330
1A
100
AcDbEntity
  8
1
 48
0.5
100
AcDbLine
 10
163.5854900156045
 20
458.0116772884394
 30
0.0
 11
163.5854900156064
 21
499.0116772884394
 31
0.0
  0
LINE
  5
3538
330
1A
100
AcDbEntity
  8
1
 48
0.5
100
AcDbLine
 10
157.5027274853108
 20
458.0116772884394
 30
0.0
 11
157.502727485309
 21
499.0116772884394
 31
0.0
  0
LINE
  5
3539
330
1A
100
AcDbEntity
  8
1
 48
0.5
100
AcDbLine
 10
159.6325660185793
 20
457.0116772884394
 30
0.0
 11
159.6325660185793
 21
458.0116772884394
 31
0.0
  0
LINE
  5
353A
330
1A
100
AcDbEntity
  8
1
 48
0.3
100
AcDbLine
 10
135.1325660185793
 20
437.0116772884394
 30
0.0
 11
131.1325660185812
 21
437.0116772884394
 31
0.0
  0
ARC
  5
353B
330
1A
100
AcDbEntity
  8
1
 48
0.3
100
AcDbCircle
 10
111.1325660185803
 20
452.0116772884393
 30
0.0
 40
5.0
100
AcDbArc
 50
89.99999999999998
 51
180.0000000000014
  0
LINE
  5
353C
330
1A
100
AcDbEntity
  8
1
 48
0.5
100
AcDbLine
 10
166.1325660185793
 20
448.0116772884428
 30
0.0
 11
166.1325660185775
 21
457.0116772884394
 31
0.0
  0
LINE
  5
353D
330
1A
100
AcDbEntity
  8
1
 48
0.5
100
AcDbLine
 10
146.1325660185793
 20
448.0116772884393
 30
0.0
 11
146.1325660185793
 21
457.0116772884394
 31
0.0
  0
LINE
  5
353F
330
1A
100
AcDbEntity
  8
1
 48
0.3
100
AcDbLine
 10
140.1325660185793
 20
457.0116772884394
 30
0.0
 11
140.1325660185793
 21
442.0116772884393
 31
0.0
  0
ARC
  5
3540
330
1A
100
AcDbEntity
  8
1
 48
0.5
100
AcDbCircle
 10
156.1325660185765
 20
448.0116772884411
 30
0.0
 40
10.0
100
AcDbArc
 50
180.0
 51
0.0
  0
LINE
  5
3544
330
1A
100
AcDbEntity
  8
CENTER
 48
0.5
100
AcDbLine
 10
156.1325660185765
 20
292.0116772884393
 30
0.0
 11
156.1325660185756
 21
197.817839196623
 31
0.0
  0
LINE
  5
3545
330
1A
100
AcDbEntity
  8
1
 48
0.5
100
AcDbLine
 10
143.5854900156082
 20
256.0116772884412
 30
0.0
 11
143.5854900156082
 21
215.0116772884393
 31
0.0
  0
LINE
  5
3546
330
1A
100
AcDbEntity
  8
1
 48
0.5
100
AcDbLine
 10
137.1325660185775
 20
256.0116772884394
 30
0.0
 11
137.1325660185775
 21
215.0116772884393
 31
0.0
  0
LINE
  5
3547
330
1A
100
AcDbEntity
  8
1
 48
0.5
100
AcDbLine
 10
150.0498034882857
 20
256.0116772884412
 30
0.0
 11
150.0498034882839
 21
215.0116772884412
 31
0.0
  0
LINE
  5
3548
330
1A
100
AcDbEntity
  8
1
 48
0.5
100
AcDbLine
 10
137.502727485309
 20
256.0116772884412
 30
0.0
 11
137.502727485309
 21
215.0116772884393
 31
0.0
  0
LINE
  5
3549
330
1A
100
AcDbEntity
  8
1
 48
0.5
100
AcDbLine
 10
168.6796420215523
 20
256.0116772884412
 30
0.0
 11
168.6796420215505
 21
215.0116772884412
 31
0.0
  0
LINE
  5
354A
330
1A
100
AcDbEntity
  8
1
 48
0.5
100
AcDbLine
 10
162.2153285488801
 20
256.0116772884412
 30
0.0
 11
162.2153285488784
 21
215.0116772884412
 31
0.0
  0
LINE
  5
354D
330
1A
100
AcDbEntity
  8
1
 48
0.3
100
AcDbLine
 10
126.132566018583
 20
386.0116772884394
 30
0.0
 11
126.1325660185866
 21
328.0116772884393
 31
0.0
  0
LINE
  5
354E
330
1A
100
AcDbEntity
  8
1
 48
0.7
100
AcDbLine
 10
168.1325660185784
 20
287.0116772884393
 30
0.0
 11
244.1325660185784
 21
287.0116772884411
 31
0.0
  0
LINE
  5
354F
330
1A
100
AcDbEntity
  8
CENTER
 48
0.3
100
AcDbLine
 10
115.132566018581
 20
422.1450887037971
 30
0.0
 11
115.132566018581
 21
391.8782658730814
 31
0.0
  0
LINE
  5
3550
330
1A
100
AcDbEntity
  8
CENTER
 48
0.3
100
AcDbLine
 10
130.0733270889558
 20
407.0116772884394
 30
0.0
 11
100.1918049482028
 21
407.0116772884394
 31
0.0
  0
LINE
  5
3551
330
1A
100
AcDbEntity
  8
CENTER
 48
0.3
100
AcDbLine
 10
115.1325660185793
 20
421.9524383588177
 30
0.0
 11
115.1325660185793
 21
392.0709162180628
 31
0.0
  0
LINE
  5
3553
330
1A
100
AcDbEntity
  8
1
 48
0.3
100
AcDbLine
 10
126.1325660185812
 20
432.0116772884394
 30
0.0
 11
126.132566018583
 21
428.0116772884394
 31
0.0
  0
LINE
  5
3554
330
1A
100
AcDbEntity
  8
1
 48
0.3
100
AcDbLine
 10
121.1325660185829
 20
423.0116772884393
 30
0.0
 11
106.1325660185829
 21
423.0116772884411
 31
0.0
  0
ARC
  5
3555
330
1A
100
AcDbEntity
  8
1
 48
0.3
100
AcDbCircle
 10
121.132566018582
 20
428.0116772884394
 30
0.0
 40
5.0
100
AcDbArc
 50
270.0
 51
0.000000000001832
  0
ARC
  5
3556
330
1A
100
AcDbEntity
  8
1
 48
0.5
100
AcDbCircle
 10
115.1325660185802
 20
407.0116772884394
 30
0.0
 40
10.0
100
AcDbArc
 50
270.0
 51
89.99999999999998
  0
LINE
  5
3557
330
1A
100
AcDbEntity
  8
1
 48
0.5
100
AcDbLine
 10
115.1325660185793
 20
417.0116772884393
 30
0.0
 11
106.1325660185812
 21
417.0116772884393
 31
0.0
  0
LINE
  5
3558
330
1A
100
AcDbEntity
  8
1
 48
0.5
100
AcDbLine
 10
115.132566018581
 20
397.0116772884393
 30
0.0
 11
106.1325660185812
 21
397.0116772884393
 31
0.0
  0
LINE
  5
3559
330
1A
100
AcDbEntity
  8
1
 48
0.5
100
AcDbLine
 10
121.1325660185829
 20
391.0116772884393
 30
0.0
 11
106.1325660185812
 21
391.0116772884393
 31
0.0
  0
ARC
  5
355A
330
1A
100
AcDbEntity
  8
1
 48
0.5
100
AcDbCircle
 10
121.132566018582
 20
386.0116772884394
 30
0.0
 40
5.0
100
AcDbArc
 50
0.0000000000016284
 51
90.00000000000126
  0
ARC
  5
355B
330
1A
100
AcDbEntity
  8
1
 48
0.7
100
AcDbCircle
 10
168.1325660185789
 20
289.0116772884393
 30
0.0
 40
2.0
100
AcDbArc
 50
180.0
 51
270.0
  0
LINE
  5
355C
330
1A
100
AcDbEntity
  8
CENTER
 48
0.3
100
AcDbLine
 10
156.1325660185775
 20
292.0116772884393
 30
0.0
 11
156.1325660185793
 21
251.0709162180628
 31
0.0
  0
LINE
  5
355D
330
1A
100
AcDbEntity
  8
1
 48
0.5
100
AcDbLine
 10
139.6325660185757
 20
257.0116772884393
 30
0.0
 11
139.6325660185757
 21
256.0116772884394
 31
0.0
  0
LINE
  5
355E
330
1A
100
AcDbEntity
  8
CENTER
 48
0.3
100
AcDbLine
 10
115.132566018581
 20
322.1450887037971
 30
0.0
 11
115.132566018581
 21
291.8782658730814
 31
0.0
  0
LINE
  5
355F
330
1A
100
AcDbEntity
  8
CENTER
 48
0.3
100
AcDbLine
 10
130.0733270889558
 20
307.0116772884393
 30
0.0
 11
100.1918049482028
 21
307.0116772884393
 31
0.0
  0
LINE
  5
3560
330
1A
100
AcDbEntity
  8
CENTER
 48
0.3
100
AcDbLine
 10
115.1325660185793
 20
321.9524383588177
 30
0.0
 11
115.1325660185793
 21
292.0709162180628
 31
0.0
  0
ARC
  5
3561
330
1A
100
AcDbEntity
  8
1
 48
0.3
100
AcDbCircle
 10
111.1325660185803
 20
262.0116772884393
 30
0.0
 40
5.0
100
AcDbArc
 50
180.0
 51
270.0
  0
LINE
  5
3564
330
1A
100
AcDbEntity
  8
1
 48
0.3
100
AcDbLine
 10
135.1325660185793
 20
277.0116772884394
 30
0.0
 11
131.1325660185848
 21
277.0116772884394
 31
0.0
  0
ARC
  5
3565
330
1A
100
AcDbEntity
  8
1
 48
0.5
100
AcDbCircle
 10
115.1325660185802
 20
307.0116772884393
 30
0.0
 40
10.0
100
AcDbArc
 50
270.0
 51
89.99999999999998
  0
LINE
  5
3566
330
1A
100
AcDbEntity
  8
1
 48
0.5
100
AcDbLine
 10
115.1325660185793
 20
317.0116772884393
 30
0.0
 11
106.1325660185812
 21
317.0116772884393
 31
0.0
  0
LINE
  5
3567
330
1A
100
AcDbEntity
  8
1
 48
0.5
100
AcDbLine
 10
115.132566018581
 20
297.0116772884393
 30
0.0
 11
106.1325660185812
 21
297.0116772884393
 31
0.0
  0
LINE
  5
3568
330
1A
100
AcDbEntity
  8
1
 48
0.3
100
AcDbLine
 10
126.1325660185848
 20
286.0116772884394
 30
0.0
 11
126.1325660185848
 21
282.0116772884393
 31
0.0
  0
ARC
  5
3569
330
1A
100
AcDbEntity
  8
1
 48
0.3
100
AcDbCircle
 10
131.1325660185838
 20
282.0116772884393
 30
0.0
 40
5.0
100
AcDbArc
 50
180.0000000000015
 51
269.9999999999998
  0
LINE
  5
356A
330
1A
100
AcDbEntity
  8
1
 48
0.3
100
AcDbLine
 10
121.1325660185848
 20
291.0116772884393
 30
0.0
 11
106.1325660185848
 21
291.0116772884393
 31
0.0
  0
LINE
  5
356B
330
1A
100
AcDbEntity
  8
1
 48
0.3
100
AcDbLine
 10
140.1325660185793
 20
272.0116772884393
 30
0.0
 11
140.1325660185793
 21
257.0116772884393
 31
0.0
  0
ARC
  5
356C
330
1A
100
AcDbEntity
  8
1
 48
0.3
100
AcDbCircle
 10
121.1325660185839
 20
286.0116772884394
 30
0.0
 40
5.0
100
AcDbArc
 50
0.0000000000012086
 51
89.99999999999998
  0
ARC
  5
356D
330
1A
100
AcDbEntity
  8
1
 48
0.3
100
AcDbCircle
 10
135.1325660185784
 20
272.0116772884393
 30
0.0
 40
5.0
100
AcDbArc
 50
0.000000000002519
 51
89.99999999999998
  0
LINE
  5
356E
330
1A
100
AcDbEntity
  8
1
 48
0.5
100
AcDbLine
 10
121.1325660185865
 20
323.0116772884394
 30
0.0
 11
106.1325660185812
 21
323.0116772884394
 31
0.0
  0
ARC
  5
356F
330
1A
100
AcDbEntity
  8
1
 48
0.5
100
AcDbCircle
 10
121.1325660185857
 20
328.0116772884393
 30
0.0
 40
5.0
100
AcDbArc
 50
270.0000000000026
 51
0.0000000000016666
  0
ARC
  5
3570
330
1A
100
AcDbEntity
  8
1
 48
0.5
100
AcDbCircle
 10
156.1325660185801
 20
266.0116772884393
 30
0.0
 40
10.0
100
AcDbArc
 50
0.0
 51
180.0
  0
LINE
  5
3572
330
1A
100
AcDbEntity
  8
1
 48
0.5
100
AcDbLine
 10
166.1325660185793
 20
266.0116772884393
 30
0.0
 11
166.1325660185793
 21
257.0116772884393
 31
0.0
  0
LINE
  5
3573
330
1A
100
AcDbEntity
  8
1
 48
0.5
100
AcDbLine
 10
146.1325660185793
 20
266.0116772884393
 30
0.0
 11
146.1325660185811
 21
257.0116772884393
 31
0.0
  0
ARC
  5
3574
330
1A
100
AcDbEntity
  8
1
 48
0.7
100
AcDbCircle
 10
244.1325660185789
 20
289.0116772884393
 30
0.0
 40
2.0
100
AcDbArc
 50
270.0
 51
0.0
  0
LINE
  5
3575
330
1A
100
AcDbEntity
  8
CENTER
 48
0.3
100
AcDbLine
 10
156.1325660185793
 20
280.952438358814
 30
0.0
 11
156.1325660185793
 21
251.070916218061
 31
0.0
  0
LINE
  5
3576
330
1A
100
AcDbEntity
  8
CENTER
 48
0.3
100
AcDbLine
 10
156.1325660185775
 20
292.0116772884393
 30
0.0
 11
156.1325660185793
 21
251.0709162180628
 31
0.0
  0
LINE
  5
3578
330
1A
100
AcDbEntity
  8
1
 62
     9
 48
0.5
100
AcDbLine
 10
161.7506172821395
 20
215.0116772884412
 30
0.0
 11
150.5145147550174
 21
205.0116772884412
 31
0.0
  0
LINE
  5
3579
330
1A
100
AcDbEntity
  8
1
 62
     9
 48
0.5
100
AcDbLine
 10
161.7506172821395
 20
205.0116772884412
 30
0.0
 11
150.5145147550156
 21
215.0116772884412
 31
0.0
  0
LINE
  5
357A
330
1A
100
AcDbEntity
  8
1
 48
0.5
100
AcDbLine
 10
150.5145147550174
 20
205.0116772884412
 30
0.0
 11
150.5145147550156
 21
215.0116772884393
 31
0.0
  0
LINE
  5
357B
330
1A
100
AcDbEntity
  8
1
 48
0.5
100
AcDbLine
 10
142.8825660185775
 20
215.0116772884393
 30
0.0
 11
142.8825660185793
 21
205.0116772884393
 31
0.0
  0
LINE
  5
357C
330
1A
100
AcDbEntity
  8
1
 48
0.5
100
AcDbLine
 10
161.7506172821395
 20
205.0116772884412
 30
0.0
 11
161.7506172821395
 21
215.0116772884412
 31
0.0
  0
LINE
  5
357D
330
1A
100
AcDbEntity
  8
1
 48
0.5
100
AcDbLine
 10
169.3825660185775
 20
215.0116772884412
 30
0.0
 11
169.3825660185775
 21
205.0116772884412
 31
0.0
  0
LINE
  5
357E
330
1A
100
AcDbEntity
  8
1
 48
0.5
100
AcDbLine
 10
169.3825660185775
 20
205.0116772884412
 30
0.0
 11
142.8825660185775
 21
205.0116772884393
 31
0.0
  0
LINE
  5
358C
330
1A
100
AcDbEntity
  8
1
 48
0.5
100
AcDbLine
 10
565.9898663962739
 20
438.7262993889634
 30
0.0
 11
565.9898663962731
 21
274.7262993889635
 31
0.0
  0
LINE
  5
35B8
330
1A
100
AcDbEntity
  8
1
 48
0.5
100
AcDbLine
 10
495.9898663962676
 20
272.7262993889635
 30
0.0
 11
495.9898663962676
 21
256.7262993889635
 31
0.0
  0
ARC
  5
35B9
330
1A
100
AcDbEntity
  8
1
 48
0.5
100
AcDbCircle
 10
497.9898663962676
 20
272.7262993889635
 30
0.0
 40
2.0
100
AcDbArc
 50
90.0
 51
179.9999999999983
  0
LINE
  5
35BA
330
1A
100
AcDbEntity
  8
1
 48
0.5
100
AcDbLine
 10
480.9898663962735
 20
256.7262993889635
 30
0.0
 11
495.9898663962676
 21
256.7262993889635
 31
0.0
  0
LINE
  5
35BB
330
1A
100
AcDbEntity
  8
1
 48
0.5
100
AcDbLine
 10
497.9898663962676
 20
274.7262993889635
 30
0.0
 11
565.9898663962739
 21
274.7262993889635
 31
0.0
  0
ARC
  5
35E3
330
1A
100
AcDbEntity
  8
1
 48
0.5
100
AcDbCircle
 10
497.9898663962731
 20
440.7262993889652
 30
0.0
 40
2.0
100
AcDbArc
 50
180.0
 51
269.9999999999998
  0
LINE
  5
35E4
330
1A
100
AcDbEntity
  8
1
 48
0.5
100
AcDbLine
 10
495.9898663962676
 20
456.7262993889634
 30
0.0
 11
495.9898663962676
 21
272.7262993889635
 31
0.0
  0
LINE
  5
35E5
330
1A
100
AcDbEntity
  8
1
 48
0.5
100
AcDbLine
 10
480.989866396274
 20
456.7262993889634
 30
0.0
 11
495.9898663962676
 21
456.7262993889634
 31
0.0
  0
LINE
  5
35E6
330
1A
100
AcDbEntity
  8
1
 48
0.5
100
AcDbLine
 10
497.9898663962731
 20
438.7262993889653
 30
0.0
 11
565.9898663962739
 21
438.7262993889653
 31
0.0
  0
LINE
  5
35FE
330
1A
100
AcDbEntity
  8
CENTER
 48
0.5
100
AcDbLine
 10
236.1325660185812
 20
422.0116772884393
 30
0.0
 11
236.1325660185829
 21
517.2663139006798
 31
0.0
  0
LINE
  5
35FF
330
1A
100
AcDbEntity
  8
CENTER
 48
0.5
100
AcDbLine
 10
176.1325660185793
 20
422.0116772884393
 30
0.0
 11
176.1325660185812
 21
517.2663139006798
 31
0.0
  0
ARC
  5
3600
330
1A
100
AcDbEntity
  8
1
 48
0.3
100
AcDbCircle
 10
277.1325660185784
 20
442.0116772884393
 30
0.0
 40
5.0
100
AcDbArc
 50
180.0
 51
269.9999999999998
  0
ARC
  5
3601
330
1A
100
AcDbEntity
  8
1
 48
0.5
100
AcDbCircle
 10
235.1325660185784
 20
442.0116772884393
 30
0.0
 40
5.0
100
AcDbArc
 50
270.0000000000016
 51
0.0000000000012468
  0
ARC
  5
3602
330
1A
100
AcDbEntity
  8
1
 48
0.3
100
AcDbCircle
 10
281.132566018582
 20
432.0116772884394
 30
0.0
 40
5.0
100
AcDbArc
 50
359.9999999999993
 51
89.99999999999984
  0
ARC
  5
3603
330
1A
100
AcDbEntity
  8
1
 48
0.5
100
AcDbCircle
 10
177.1325660185784
 20
442.0116772884356
 30
0.0
 40
5.0
100
AcDbArc
 50
180.0000000000025
 51
270.0000000000016
  0
LINE
  5
3604
330
1A
100
AcDbEntity
  8
CENTER
 48
0.3
100
AcDbLine
 10
256.1325660185793
 20
433.0709162180646
 30
0.0
 11
256.1325660185793
 21
462.9524383588177
 31
0.0
  0
LINE
  5
3605
330
1A
100
AcDbEntity
  8
CENTER
 48
0.3
100
AcDbLine
 10
256.1325660185793
 20
462.9524383588177
 30
0.0
 11
256.1325660185793
 21
433.0709162180628
 31
0.0
  0
LINE
  5
3606
330
1A
100
AcDbEntity
  8
CENTER
 48
0.7
100
AcDbLine
 10
206.1325660185793
 20
461.3813801533996
 30
0.0
 11
206.1325660185779
 21
197.8178391966247
 31
0.0
  0
LINE
  5
3607
330
1A
100
AcDbEntity
  8
1
 48
0.3
100
AcDbLine
 10
306.1325660185811
 20
452.0116772884393
 30
0.0
 11
306.1325660185794
 21
262.0116772884393
 31
0.0
  0
LINE
  5
3608
330
1A
100
AcDbEntity
  8
1
 48
0.5
100
AcDbLine
 10
217.1325660185812
 20
499.0116772884394
 30
0.0
 11
255.1325660185812
 21
499.0116772884412
 31
0.0
  0
LINE
  5
3609
330
1A
100
AcDbEntity
  8
1
 48
0.5
100
AcDbLine
 10
217.1325660185829
 20
458.0116772884394
 30
0.0
 11
255.1325660185829
 21
458.0116772884411
 31
0.0
  0
LINE
  5
360A
330
1A
100
AcDbEntity
  8
1
 48
0.5
100
AcDbLine
 10
222.882566018581
 20
509.0116772884393
 30
0.0
 11
249.3825660185811
 21
509.0116772884411
 31
0.0
  0
LINE
  5
360B
330
1A
100
AcDbEntity
  8
1
 62
     9
 48
0.5
100
AcDbLine
 10
230.5145147550191
 20
509.0116772884393
 30
0.0
 11
241.7506172821431
 21
499.0116772884412
 31
0.0
  0
LINE
  5
360C
330
1A
100
AcDbEntity
  8
1
 62
     9
 48
0.5
100
AcDbLine
 10
230.5145147550191
 20
499.0116772884412
 30
0.0
 11
241.7506172821413
 21
509.0116772884411
 31
0.0
  0
LINE
  5
360D
330
1A
100
AcDbEntity
  8
1
 48
0.5
100
AcDbLine
 10
217.5027274853126
 20
458.0116772884394
 30
0.0
 11
217.5027274853108
 21
499.0116772884394
 31
0.0
  0
LINE
  5
360E
330
1A
100
AcDbEntity
  8
1
 48
0.5
100
AcDbLine
 10
230.0498034882783
 20
458.0116772884394
 30
0.0
 11
230.0498034882803
 21
499.0116772884394
 31
0.0
  0
LINE
  5
360F
330
1A
100
AcDbEntity
  8
1
 48
0.5
100
AcDbLine
 10
223.5854900156064
 20
458.0116772884394
 30
0.0
 11
223.5854900156081
 21
499.0116772884394
 31
0.0
  0
LINE
  5
3610
330
1A
100
AcDbEntity
  8
1
 48
0.5
100
AcDbLine
 10
217.1325660185812
 20
458.0116772884394
 30
0.0
 11
217.1325660185793
 21
499.0116772884394
 31
0.0
  0
LINE
  5
3611
330
1A
100
AcDbEntity
  8
1
 48
0.5
100
AcDbLine
 10
222.882566018581
 20
499.0116772884394
 30
0.0
 11
222.882566018581
 21
509.0116772884393
 31
0.0
  0
LINE
  5
3612
330
1A
100
AcDbEntity
  8
1
 48
0.5
100
AcDbLine
 10
230.5145147550191
 20
509.0116772884393
 30
0.0
 11
230.5145147550191
 21
499.0116772884412
 31
0.0
  0
LINE
  5
3613
330
1A
100
AcDbEntity
  8
1
 48
0.5
100
AcDbLine
 10
254.7624045518495
 20
458.0116772884411
 30
0.0
 11
254.7624045518495
 21
499.0116772884412
 31
0.0
  0
LINE
  5
3614
330
1A
100
AcDbEntity
  8
1
 48
0.5
100
AcDbLine
 10
255.1325660185812
 20
458.0116772884411
 30
0.0
 11
255.1325660185812
 21
499.0116772884412
 31
0.0
  0
LINE
  5
3615
330
1A
100
AcDbEntity
  8
1
 48
0.5
100
AcDbLine
 10
248.6796420215504
 20
458.0116772884411
 30
0.0
 11
248.6796420215504
 21
499.0116772884412
 31
0.0
  0
LINE
  5
3616
330
1A
100
AcDbEntity
  8
1
 48
0.5
100
AcDbLine
 10
242.2153285488729
 20
458.0116772884411
 30
0.0
 11
242.2153285488748
 21
499.0116772884412
 31
0.0
  0
LINE
  5
3617
330
1A
100
AcDbEntity
  8
1
 48
0.5
100
AcDbLine
 10
249.3825660185811
 20
499.0116772884412
 30
0.0
 11
249.3825660185793
 21
509.0116772884411
 31
0.0
  0
LINE
  5
3618
330
1A
100
AcDbEntity
  8
1
 48
0.5
100
AcDbLine
 10
241.7506172821413
 20
509.0116772884411
 30
0.0
 11
241.7506172821431
 21
499.0116772884412
 31
0.0
  0
LINE
  5
3619
330
1A
100
AcDbEntity
  8
1
 48
0.5
100
AcDbLine
 10
195.1325660185793
 20
458.0116772884411
 30
0.0
 11
195.1325660185793
 21
499.0116772884412
 31
0.0
  0
LINE
  5
361A
330
1A
100
AcDbEntity
  8
1
 48
0.5
100
AcDbLine
 10
194.7624045518476
 20
458.0116772884411
 30
0.0
 11
194.7624045518476
 21
499.0116772884412
 31
0.0
  0
LINE
  5
361B
330
1A
100
AcDbEntity
  8
1
 48
0.5
100
AcDbLine
 10
252.6325660185829
 20
457.0116772884394
 30
0.0
 11
252.6325660185829
 21
458.0116772884411
 31
0.0
  0
LINE
  5
361C
330
1A
100
AcDbEntity
  8
1
 48
0.5
100
AcDbLine
 10
219.6325660185812
 20
457.0116772884394
 30
0.0
 11
219.6325660185812
 21
458.0116772884394
 31
0.0
  0
LINE
  5
361D
330
1A
100
AcDbEntity
  8
1
 48
0.5
100
AcDbLine
 10
192.6325660185812
 20
457.0116772884394
 30
0.0
 11
192.6325660185812
 21
458.0116772884411
 31
0.0
  0
LINE
  5
361E
330
1A
100
AcDbEntity
  8
1
 62
     9
 48
0.5
100
AcDbLine
 10
170.5145147550174
 20
499.0116772884412
 30
0.0
 11
181.7506172821395
 21
509.0116772884411
 31
0.0
  0
LINE
  5
361F
330
1A
100
AcDbEntity
  8
1
 62
     9
 48
0.5
100
AcDbLine
 10
170.5145147550174
 20
509.0116772884393
 30
0.0
 11
181.7506172821413
 21
499.0116772884412
 31
0.0
  0
LINE
  5
3620
330
1A
100
AcDbEntity
  8
1
 48
0.5
100
AcDbLine
 10
181.7506172821395
 20
509.0116772884411
 30
0.0
 11
181.7506172821413
 21
499.0116772884412
 31
0.0
  0
LINE
  5
3621
330
1A
100
AcDbEntity
  8
1
 48
0.5
100
AcDbLine
 10
189.3825660185793
 20
499.0116772884412
 30
0.0
 11
189.3825660185775
 21
509.0116772884411
 31
0.0
  0
LINE
  5
3622
330
1A
100
AcDbEntity
  8
1
 48
0.5
100
AcDbLine
 10
170.5145147550174
 20
509.0116772884393
 30
0.0
 11
170.5145147550174
 21
499.0116772884412
 31
0.0
  0
LINE
  5
3623
330
1A
100
AcDbEntity
  8
1
 48
0.5
100
AcDbLine
 10
188.6796420215486
 20
458.0116772884411
 30
0.0
 11
188.6796420215486
 21
499.0116772884412
 31
0.0
  0
LINE
  5
3624
330
1A
100
AcDbEntity
  8
1
 48
0.5
100
AcDbLine
 10
182.215328548871
 20
458.0116772884411
 30
0.0
 11
182.2153285488729
 21
499.0116772884412
 31
0.0
  0
LINE
  5
3625
330
1A
100
AcDbEntity
  8
1
 48
0.5
100
AcDbLine
 10
170.0498034882766
 20
458.0116772884394
 30
0.0
 11
170.0498034882784
 21
499.0116772884394
 31
0.0
  0
LINE
  5
3626
330
1A
100
AcDbEntity
  8
1
 48
0.3
100
AcDbLine
 10
281.1325660185829
 20
437.0116772884394
 30
0.0
 11
277.1325660185794
 21
437.0116772884394
 31
0.0
  0
LINE
  5
3627
330
1A
100
AcDbEntity
  8
1
 48
0.3
100
AcDbLine
 10
235.1325660185793
 20
437.0116772884375
 30
0.0
 11
177.1325660185793
 21
437.0116772884338
 31
0.0
  0
LINE
  5
3628
330
1A
100
AcDbEntity
  8
CENTER
 48
0.3
100
AcDbLine
 10
271.2659774339371
 20
448.0116772884393
 30
0.0
 11
240.9991546032215
 21
448.0116772884393
 31
0.0
  0
LINE
  5
3629
330
1A
100
AcDbEntity
  8
CENTER
 48
0.3
100
AcDbLine
 10
271.0733270889559
 20
448.0116772884393
 30
0.0
 11
241.1918049482028
 21
448.0116772884393
 31
0.0
  0
ARC
  5
362A
330
1A
100
AcDbEntity
  8
1
 48
0.3
100
AcDbCircle
 10
301.1325660185783
 20
452.0116772884393
 30
0.0
 40
5.0
100
AcDbArc
 50
0.0000000000005089
 51
89.99999999999998
  0
ARC
  5
362B
330
1A
100
AcDbEntity
  8
1
 48
0.3
100
AcDbCircle
 10
301.1325660185803
 20
452.0116772884393
 30
0.0
 40
5.0
100
AcDbArc
 50
0.0
 51
89.99999999999998
  0
LINE
  5
362C
330
1A
100
AcDbEntity
  8
1
 48
0.5
100
AcDbLine
 10
246.1325660185794
 20
448.0116772884393
 30
0.0
 11
246.1325660185794
 21
457.0116772884394
 31
0.0
  0
LINE
  5
362D
330
1A
100
AcDbEntity
  8
1
 48
0.5
100
AcDbLine
 10
266.1325660185793
 20
448.0116772884428
 30
0.0
 11
266.1325660185775
 21
457.0116772884394
 31
0.0
  0
ARC
  5
362F
330
1A
100
AcDbEntity
  8
1
 48
0.5
100
AcDbCircle
 10
256.1325660185766
 20
448.0116772884411
 30
0.0
 40
10.0
100
AcDbArc
 50
180.0
 51
0.0
  0
LINE
  5
3631
330
1A
100
AcDbEntity
  8
1
 48
0.3
100
AcDbLine
 10
272.1325660185793
 20
442.0116772884393
 30
0.0
 11
272.1325660185775
 21
457.0116772884394
 31
0.0
  0
LINE
  5
3632
330
1A
100
AcDbEntity
  8
1
 48
0.5
100
AcDbLine
 10
240.1325660185793
 20
442.0116772884376
 30
0.0
 11
240.1325660185793
 21
457.0116772884394
 31
0.0
  0
LINE
  5
3633
330
1A
100
AcDbEntity
  8
1
 48
0.5
100
AcDbLine
 10
172.1325660185793
 20
442.0116772884338
 30
0.0
 11
172.1325660185793
 21
457.0116772884394
 31
0.0
  0
LINE
  5
3634
330
1A
100
AcDbEntity
  8
1
 48
0.5
100
AcDbLine
 10
187.5027274853108
 20
256.0116772884394
 30
0.0
 11
187.5027274853108
 21
215.0116772884393
 31
0.0
  0
LINE
  5
3635
330
1A
100
AcDbEntity
  8
1
 48
0.5
100
AcDbLine
 10
187.1325660185793
 20
256.0116772884394
 30
0.0
 11
187.1325660185793
 21
215.0116772884393
 31
0.0
  0
LINE
  5
3636
330
1A
100
AcDbEntity
  8
1
 48
0.5
100
AcDbLine
 10
193.58549001561
 20
256.0116772884394
 30
0.0
 11
193.58549001561
 21
215.0116772884393
 31
0.0
  0
LINE
  5
3638
330
1A
100
AcDbEntity
  8
1
 48
0.5
100
AcDbLine
 10
224.7624045518477
 20
256.0116772884412
 30
0.0
 11
224.7624045518495
 21
215.0116772884412
 31
0.0
  0
LINE
  5
3639
330
1A
100
AcDbEntity
  8
1
 48
0.5
100
AcDbLine
 10
212.215328548882
 20
256.0116772884412
 30
0.0
 11
212.2153285488801
 21
215.0116772884412
 31
0.0
  0
LINE
  5
363A
330
1A
100
AcDbEntity
  8
1
 48
0.5
100
AcDbLine
 10
218.6796420215541
 20
256.0116772884412
 30
0.0
 11
218.6796420215523
 21
215.0116772884412
 31
0.0
  0
LINE
  5
363B
330
1A
100
AcDbEntity
  8
1
 48
0.5
100
AcDbLine
 10
225.1325660185794
 20
256.0116772884412
 30
0.0
 11
225.1325660185812
 21
215.0116772884412
 31
0.0
  0
LINE
  5
363C
330
1A
100
AcDbEntity
  8
1
 48
0.5
100
AcDbLine
 10
200.0498034882876
 20
256.0116772884394
 30
0.0
 11
200.0498034882856
 21
215.0116772884393
 31
0.0
  0
LINE
  5
363D
330
1A
100
AcDbEntity
  8
1
 48
0.5
100
AcDbLine
 10
175.1325660185775
 20
256.0116772884412
 30
0.0
 11
175.1325660185793
 21
215.0116772884412
 31
0.0
  0
LINE
  5
363E
330
1A
100
AcDbEntity
  8
1
 48
0.5
100
AcDbLine
 10
174.7624045518458
 20
256.0116772884429
 30
0.0
 11
174.7624045518476
 21
215.0116772884429
 31
0.0
  0
LINE
  5
363F
330
1A
100
AcDbEntity
  8
1
 48
0.5
100
AcDbLine
 10
243.58549001561
 20
256.0116772884394
 30
0.0
 11
243.58549001561
 21
215.0116772884393
 31
0.0
  0
LINE
  5
3640
330
1A
100
AcDbEntity
  8
1
 48
0.5
100
AcDbLine
 10
237.1325660185793
 20
256.0116772884394
 30
0.0
 11
237.1325660185793
 21
215.0116772884393
 31
0.0
  0
LINE
  5
3641
330
1A
100
AcDbEntity
  8
1
 48
0.5
100
AcDbLine
 10
250.0498034882876
 20
256.0116772884394
 30
0.0
 11
250.0498034882856
 21
215.0116772884393
 31
0.0
  0
LINE
  5
3642
330
1A
100
AcDbEntity
  8
1
 48
0.5
100
AcDbLine
 10
237.5027274853108
 20
256.0116772884394
 30
0.0
 11
237.5027274853108
 21
215.0116772884393
 31
0.0
  0
LINE
  5
3643
330
1A
100
AcDbEntity
  8
CENTER
 48
0.5
100
AcDbLine
 10
256.1325660185789
 20
292.0116772884393
 30
0.0
 11
256.1325660185775
 21
197.817839196623
 31
0.0
  0
LINE
  5
3644
330
1A
100
AcDbEntity
  8
1
 48
0.5
100
AcDbLine
 10
275.1325660185794
 20
256.0116772884412
 30
0.0
 11
275.1325660185812
 21
215.0116772884412
 31
0.0
  0
LINE
  5
3645
330
1A
100
AcDbEntity
  8
1
 48
0.5
100
AcDbLine
 10
268.6796420215541
 20
256.0116772884412
 30
0.0
 11
268.6796420215523
 21
215.0116772884412
 31
0.0
  0
LINE
  5
3646
330
1A
100
AcDbEntity
  8
1
 48
0.5
100
AcDbLine
 10
262.215328548882
 20
256.0116772884394
 30
0.0
 11
262.2153285488802
 21
215.0116772884412
 31
0.0
  0
LINE
  5
3647
330
1A
100
AcDbEntity
  8
1
 48
0.5
100
AcDbLine
 10
274.7624045518477
 20
256.0116772884412
 30
0.0
 11
274.7624045518496
 21
215.0116772884412
 31
0.0
  0
LINE
  5
3648
330
1A
100
AcDbEntity
  8
1
 48
0.3
100
AcDbLine
 10
286.1325660185793
 20
328.0116772884393
 30
0.0
 11
286.1325660185757
 21
386.0116772884411
 31
0.0
  0
LINE
  5
3649
330
1A
100
AcDbEntity
  8
1
 48
0.7
100
AcDbLine
 10
168.1325660185784
 20
347.0116772884393
 30
0.0
 11
244.1325660185784
 21
347.0116772884393
 31
0.0
  0
LINE
  5
364A
330
1A
100
AcDbEntity
  8
CENTER
 48
0.3
100
AcDbLine
 10
297.1325660185793
 20
391.8782658730814
 30
0.0
 11
297.1325660185793
 21
422.1450887037971
 31
0.0
  0
LINE
  5
364B
330
1A
100
AcDbEntity
  8
CENTER
 48
0.3
100
AcDbLine
 10
282.1918049482046
 20
407.0116772884394
 30
0.0
 11
312.0733270889576
 21
407.0116772884394
 31
0.0
  0
LINE
  5
364C
330
1A
100
AcDbEntity
  8
CENTER
 48
0.3
100
AcDbLine
 10
297.1325660185793
 20
421.9524383588177
 30
0.0
 11
297.1325660185793
 21
392.0709162180628
 31
0.0
  0
LINE
  5
364D
330
1A
100
AcDbEntity
  8
CENTER
 48
0.3
100
AcDbLine
 10
312.0733270889558
 20
407.0116772884394
 30
0.0
 11
282.1918049482028
 21
407.0116772884394
 31
0.0
  0
LINE
  5
364F
330
1A
100
AcDbEntity
  8
1
 48
0.3
100
AcDbLine
 10
286.132566018583
 20
432.0116772884394
 30
0.0
 11
286.132566018583
 21
428.0116772884394
 31
0.0
  0
LINE
  5
3650
330
1A
100
AcDbEntity
  8
1
 48
0.5
100
AcDbLine
 10
297.1325660185793
 20
417.0116772884393
 30
0.0
 11
306.1325660185794
 21
417.0116772884393
 31
0.0
  0
ARC
  5
3652
330
1A
100
AcDbEntity
  8
1
 48
0.5
100
AcDbCircle
 10
297.1325660185785
 20
407.0116772884394
 30
0.0
 40
10.0
100
AcDbArc
 50
89.99999999999998
 51
270.0
  0
LINE
  5
3653
330
1A
100
AcDbEntity
  8
1
 48
0.5
100
AcDbLine
 10
297.1325660185812
 20
397.0116772884393
 30
0.0
 11
306.1325660185794
 21
397.0116772884411
 31
0.0
  0
LINE
  5
3654
330
1A
100
AcDbEntity
  8
1
 48
0.5
100
AcDbLine
 10
291.1325660185756
 20
391.0116772884411
 30
0.0
 11
306.1325660185811
 21
391.0116772884411
 31
0.0
  0
ARC
  5
3655
330
1A
100
AcDbEntity
  8
1
 48
0.5
100
AcDbCircle
 10
291.1325660185748
 20
386.0116772884411
 30
0.0
 40
5.0
100
AcDbArc
 50
90.00000000000261
 51
180.0000000000015
  0
LINE
  5
3656
330
1A
100
AcDbEntity
  8
1
 48
0.3
100
AcDbLine
 10
291.132566018583
 20
423.0116772884393
 30
0.0
 11
306.1325660185811
 21
423.0116772884393
 31
0.0
  0
ARC
  5
3657
330
1A
100
AcDbEntity
  8
1
 48
0.3
100
AcDbCircle
 10
291.1325660185821
 20
428.0116772884394
 30
0.0
 40
5.0
100
AcDbArc
 50
179.9999999999986
 51
270.0
  0
ARC
  5
3658
330
1A
100
AcDbEntity
  8
1
 48
0.7
100
AcDbCircle
 10
168.1325660185789
 20
345.0116772884393
 30
0.0
 40
2.0
100
AcDbArc
 50
90.0
 51
180.0
  0
LINE
  5
3659
330
1A
100
AcDbEntity
  8
CENTER
 48
0.3
100
AcDbLine
 10
256.1325660185793
 20
292.0116772884393
 30
0.0
 11
256.1325660185793
 21
251.0709162180628
 31
0.0
  0
LINE
  5
365A
330
1A
100
AcDbEntity
  8
1
 48
0.5
100
AcDbLine
 10
275.1325660185774
 20
256.0116772884412
 30
0.0
 11
237.1325660185775
 21
256.0116772884394
 31
0.0
  0
LINE
  5
365B
330
1A
100
AcDbEntity
  8
1
 48
0.5
100
AcDbLine
 10
222.6325660185793
 20
257.0116772884393
 30
0.0
 11
222.6325660185793
 21
256.0116772884412
 31
0.0
  0
LINE
  5
365C
330
1A
100
AcDbEntity
  8
1
 48
0.5
100
AcDbLine
 10
239.6325660185774
 20
257.0116772884393
 30
0.0
 11
239.6325660185774
 21
256.0116772884394
 31
0.0
  0
LINE
  5
365D
330
1A
100
AcDbEntity
  8
1
 48
0.5
100
AcDbLine
 10
272.6325660185793
 20
257.0116772884393
 30
0.0
 11
272.6325660185793
 21
256.0116772884412
 31
0.0
  0
LINE
  5
365E
330
1A
100
AcDbEntity
  8
1
 48
0.5
100
AcDbLine
 10
172.6325660185775
 20
257.0116772884393
 30
0.0
 11
172.6325660185775
 21
256.0116772884412
 31
0.0
  0
LINE
  5
365F
330
1A
100
AcDbEntity
  8
1
 48
0.5
100
AcDbLine
 10
189.6325660185775
 20
257.0116772884393
 30
0.0
 11
189.6325660185775
 21
256.0116772884394
 31
0.0
  0
LINE
  5
3660
330
1A
100
AcDbEntity
  8
1
 48
0.5
100
AcDbLine
 10
225.1325660185774
 20
256.0116772884412
 30
0.0
 11
187.1325660185775
 21
256.0116772884394
 31
0.0
  0
LINE
  5
3661
330
1A
100
AcDbEntity
  8
CENTER
 48
0.3
100
AcDbLine
 10
297.1325660185793
 20
291.8782658730814
 30
0.0
 11
297.1325660185793
 21
322.1450887037971
 31
0.0
  0
LINE
  5
3662
330
1A
100
AcDbEntity
  8
CENTER
 48
0.3
100
AcDbLine
 10
282.1918049482046
 20
307.0116772884393
 30
0.0
 11
312.0733270889576
 21
307.0116772884393
 31
0.0
  0
LINE
  5
3663
330
1A
100
AcDbEntity
  8
CENTER
 48
0.3
100
AcDbLine
 10
240.9991546032215
 20
266.0116772884393
 30
0.0
 11
271.2659774339371
 21
266.0116772884393
 31
0.0
  0
LINE
  5
3664
330
1A
100
AcDbEntity
  8
CENTER
 48
0.3
100
AcDbLine
 10
297.1325660185793
 20
321.9524383588177
 30
0.0
 11
297.1325660185793
 21
292.0709162180628
 31
0.0
  0
LINE
  5
3665
330
1A
100
AcDbEntity
  8
CENTER
 48
0.3
100
AcDbLine
 10
271.0733270889559
 20
266.0116772884393
 30
0.0
 11
241.1918049482028
 21
266.0116772884393
 31
0.0
  0
LINE
  5
3666
330
1A
100
AcDbEntity
  8
CENTER
 48
0.3
100
AcDbLine
 10
312.0733270889558
 20
307.0116772884393
 30
0.0
 11
282.1918049482028
 21
307.0116772884393
 31
0.0
  0
ARC
  5
3667
330
1A
100
AcDbEntity
  8
1
 48
0.3
100
AcDbCircle
 10
301.1325660185783
 20
262.0116772884393
 30
0.0
 40
5.0
100
AcDbArc
 50
269.9999999999998
 51
0.0000000000004834
  0
LINE
  5
366A
330
1A
100
AcDbEntity
  8
1
 48
0.5
100
AcDbLine
 10
246.1325660185794
 20
266.0116772884393
 30
0.0
 11
246.1325660185812
 21
257.0116772884393
 31
0.0
  0
ARC
  5
366B
330
1A
100
AcDbEntity
  8
1
 48
0.5
100
AcDbCircle
 10
256.1325660185801
 20
266.0116772884393
 30
0.0
 40
10.0
100
AcDbArc
 50
0.0
 51
180.0
  0
LINE
  5
366D
330
1A
100
AcDbEntity
  8
1
 48
0.5
100
AcDbLine
 10
266.1325660185793
 20
266.0116772884393
 30
0.0
 11
266.1325660185793
 21
257.0116772884393
 31
0.0
  0
LINE
  5
366E
330
1A
100
AcDbEntity
  8
1
 48
0.5
100
AcDbLine
 10
297.1325660185812
 20
297.0116772884393
 30
0.0
 11
306.1325660185794
 21
297.0116772884411
 31
0.0
  0
LINE
  5
366F
330
1A
100
AcDbEntity
  8
1
 48
0.5
100
AcDbLine
 10
297.1325660185793
 20
317.0116772884393
 30
0.0
 11
306.1325660185794
 21
317.0116772884393
 31
0.0
  0
ARC
  5
3671
330
1A
100
AcDbEntity
  8
1
 48
0.5
100
AcDbCircle
 10
297.1325660185785
 20
307.0116772884393
 30
0.0
 40
10.0
100
AcDbArc
 50
89.99999999999998
 51
270.0
  0
ARC
  5
3672
330
1A
100
AcDbEntity
  8
1
 48
0.5
100
AcDbCircle
 10
235.1325660185803
 20
272.0116772884448
 30
0.0
 40
5.0
100
AcDbArc
 50
0.0000000000026081
 51
90.00000000000166
  0
LINE
  5
3673
330
1A
100
AcDbEntity
  8
1
 48
0.5
100
AcDbLine
 10
240.1325660185793
 20
272.0116772884466
 30
0.0
 11
240.1325660185793
 21
257.0116772884393
 31
0.0
  0
LINE
  5
3674
330
1A
100
AcDbEntity
  8
1
 48
0.5
100
AcDbLine
 10
291.1325660185793
 20
323.0116772884394
 30
0.0
 11
306.1325660185811
 21
323.0116772884394
 31
0.0
  0
ARC
  5
3675
330
1A
100
AcDbEntity
  8
1
 48
0.5
100
AcDbCircle
 10
291.1325660185783
 20
328.0116772884393
 30
0.0
 40
5.0
100
AcDbArc
 50
180.0000000000015
 51
270.0000000000012
  0
LINE
  5
3676
330
1A
100
AcDbEntity
  8
1
 48
0.3
100
AcDbLine
 10
291.1325660185811
 20
291.0116772884393
 30
0.0
 11
306.1325660185811
 21
291.0116772884393
 31
0.0
  0
LINE
  5
3677
330
1A
100
AcDbEntity
  8
1
 48
0.3
100
AcDbLine
 10
272.1325660185812
 20
272.0116772884393
 30
0.0
 11
272.1325660185812
 21
257.0116772884393
 31
0.0
  0
LINE
  5
3678
330
1A
100
AcDbEntity
  8
1
 48
0.3
100
AcDbLine
 10
286.1325660185812
 20
286.0116772884394
 30
0.0
 11
286.1325660185793
 21
282.0116772884393
 31
0.0
  0
LINE
  5
3679
330
1A
100
AcDbEntity
  8
1
 48
0.3
100
AcDbLine
 10
281.1325660185793
 20
277.0116772884394
 30
0.0
 11
277.1325660185812
 21
277.0116772884394
 31
0.0
  0
ARC
  5
367A
330
1A
100
AcDbEntity
  8
1
 48
0.3
100
AcDbCircle
 10
281.1325660185784
 20
282.0116772884393
 30
0.0
 40
5.0
100
AcDbArc
 50
269.9999999999998
 51
359.9999999999993
  0
ARC
  5
367B
330
1A
100
AcDbEntity
  8
1
 48
0.3
100
AcDbCircle
 10
291.1325660185801
 20
286.0116772884394
 30
0.0
 40
5.0
100
AcDbArc
 50
89.99999999999998
 51
179.9999999999993
  0
ARC
  5
367C
330
1A
100
AcDbEntity
  8
1
 48
0.3
100
AcDbCircle
 10
277.1325660185801
 20
272.0116772884393
 30
0.0
 40
5.0
100
AcDbArc
 50
89.99999999999984
 51
180.0
  0
ARC
  5
367D
330
1A
100
AcDbEntity
  8
1
 48
0.5
100
AcDbCircle
 10
177.1325660185784
 20
272.0116772884412
 30
0.0
 40
5.0
100
AcDbArc
 50
90.00000000000161
 51
180.0000000000012
  0
LINE
  5
367E
330
1A
100
AcDbEntity
  8
1
 48
0.5
100
AcDbLine
 10
172.1325660185793
 20
272.0116772884429
 30
0.0
 11
172.1325660185793
 21
257.0116772884393
 31
0.0
  0
ARC
  5
367F
330
1A
100
AcDbEntity
  8
1
 48
0.7
100
AcDbCircle
 10
244.1325660185789
 20
345.0116772884375
 30
0.0
 40
2.0
100
AcDbArc
 50
0.0
 51
90.0
  0
LINE
  5
3680
330
1A
100
AcDbEntity
  8
1
 48
0.3
100
AcDbLine
 10
177.1325660185793
 20
277.0116772884429
 30
0.0
 11
235.1325660185793
 21
277.0116772884466
 31
0.0
  0
LINE
  5
3681
330
1A
100
AcDbEntity
  8
CENTER
 48
0.3
100
AcDbLine
 10
256.1325660185793
 20
280.952438358814
 30
0.0
 11
256.1325660185793
 21
251.070916218061
 31
0.0
  0
LINE
  5
3682
330
1A
100
AcDbEntity
  8
CENTER
 48
0.3
100
AcDbLine
 10
256.1325660185793
 20
292.0116772884393
 30
0.0
 11
256.1325660185793
 21
251.0709162180628
 31
0.0
  0
LINE
  5
3683
330
1A
100
AcDbEntity
  8
1
 48
0.5
100
AcDbLine
 10
219.3825660185793
 20
205.0116772884412
 30
0.0
 11
192.8825660185793
 21
205.0116772884393
 31
0.0
  0
LINE
  5
3684
330
1A
100
AcDbEntity
  8
1
 48
0.5
100
AcDbLine
 10
192.8825660185793
 20
215.0116772884393
 30
0.0
 11
192.882566018581
 21
205.0116772884393
 31
0.0
  0
LINE
  5
3685
330
1A
100
AcDbEntity
  8
1
 48
0.5
100
AcDbLine
 10
219.3825660185793
 20
215.0116772884412
 30
0.0
 11
219.3825660185793
 21
205.0116772884412
 31
0.0
  0
LINE
  5
3686
330
1A
100
AcDbEntity
  8
1
 48
0.5
100
AcDbLine
 10
211.7506172821412
 20
205.0116772884412
 30
0.0
 11
211.7506172821412
 21
215.0116772884393
 31
0.0
  0
LINE
  5
3687
330
1A
100
AcDbEntity
  8
1
 48
0.5
100
AcDbLine
 10
200.5145147550191
 20
205.0116772884393
 30
0.0
 11
200.5145147550174
 21
215.0116772884393
 31
0.0
  0
LINE
  5
3688
330
1A
100
AcDbEntity
  8
1
 62
     9
 48
0.5
100
AcDbLine
 10
211.7506172821412
 20
205.0116772884412
 30
0.0
 11
200.5145147550174
 21
215.0116772884393
 31
0.0
  0
LINE
  5
3689
330
1A
100
AcDbEntity
  8
1
 62
     9
 48
0.5
100
AcDbLine
 10
211.7506172821412
 20
215.0116772884393
 30
0.0
 11
200.5145147550191
 21
205.0116772884393
 31
0.0
  0
LINE
  5
368A
330
1A
100
AcDbEntity
  8
1
 48
0.5
100
AcDbLine
 10
269.3825660185793
 20
205.0116772884393
 30
0.0
 11
242.8825660185793
 21
205.0116772884393
 31
0.0
  0
LINE
  5
368B
330
1A
100
AcDbEntity
  8
1
 48
0.5
100
AcDbLine
 10
275.1325660185794
 20
215.0116772884412
 30
0.0
 11
237.1325660185793
 21
215.0116772884393
 31
0.0
  0
LINE
  5
368C
330
1A
100
AcDbEntity
  8
1
 62
     9
 48
0.5
100
AcDbLine
 10
261.7506172821413
 20
215.0116772884393
 30
0.0
 11
250.5145147550191
 21
205.0116772884393
 31
0.0
  0
LINE
  5
368D
330
1A
100
AcDbEntity
  8
1
 62
     9
 48
0.5
100
AcDbLine
 10
261.7506172821413
 20
205.0116772884393
 30
0.0
 11
250.5145147550174
 21
215.0116772884393
 31
0.0
  0
LINE
  5
368E
330
1A
100
AcDbEntity
  8
1
 48
0.5
100
AcDbLine
 10
250.5145147550191
 20
205.0116772884393
 30
0.0
 11
250.5145147550174
 21
215.0116772884393
 31
0.0
  0
LINE
  5
368F
330
1A
100
AcDbEntity
  8
1
 48
0.5
100
AcDbLine
 10
242.8825660185793
 20
215.0116772884393
 30
0.0
 11
242.8825660185812
 21
205.0116772884393
 31
0.0
  0
LINE
  5
3690
330
1A
100
AcDbEntity
  8
1
 48
0.5
100
AcDbLine
 10
261.7506172821413
 20
205.0116772884393
 30
0.0
 11
261.7506172821413
 21
215.0116772884393
 31
0.0
  0
LINE
  5
3691
330
1A
100
AcDbEntity
  8
1
 48
0.5
100
AcDbLine
 10
269.3825660185793
 20
215.0116772884393
 30
0.0
 11
269.3825660185793
 21
205.0116772884393
 31
0.0
  0
LINE
  5
3692
330
1A
100
AcDbEntity
  8
1
 48
0.5
100
AcDbLine
 10
225.1325660185794
 20
215.0116772884412
 30
0.0
 11
187.1325660185793
 21
215.0116772884393
 31
0.0
  0
LINE
  5
3693
330
1A
100
AcDbEntity
  8
CENTER
 48
0.5
100
AcDbLine
 10
456.3835346144306
 20
357.0116772884393
 30
0.0
 11
570.6361897918632
 21
357.0116772884393
 31
0.0
  0
LINE
  5
3695
330
1A
100
AcDbEntity
  8
1
 48
0.7
100
AcDbLine
 10
465.9898663962739
 20
457.0116772884411
 30
0.0
 11
480.9898663962743
 21
457.0116772884411
 31
0.0
  0
LINE
  5
3696
330
1A
100
AcDbEntity
  8
1
 48
0.5
100
AcDbLine
 10
473.9898663962734
 20
416.0116772884411
 30
0.0
 11
473.9898663962734
 21
398.0116772884411
 31
0.0
  0
LINE
  5
3697
330
1A
100
AcDbEntity
  8
1
 48
0.7
100
AcDbLine
 10
466.9898663962738
 20
437.0116772884411
 30
0.0
 11
472.9898663962734
 21
437.0116772884411
 31
0.0
  0
LINE
  5
3698
330
1A
100
AcDbEntity
  8
1
 48
0.7
100
AcDbLine
 10
466.9898663962738
 20
423.0116772884448
 30
0.0
 11
472.989866396274
 21
423.0116772884428
 31
0.0
  0
LINE
  5
3699
330
1A
100
AcDbEntity
  8
1
 48
0.7
100
AcDbLine
 10
466.989866396273
 20
391.0116772884411
 30
0.0
 11
472.989866396274
 21
391.0116772884411
 31
0.0
  0
LINE
  5
369A
330
1A
100
AcDbEntity
  8
1
 48
0.7
100
AcDbLine
 10
466.9898663962738
 20
417.0116772884411
 30
0.0
 11
472.9898663962734
 21
417.0116772884411
 31
0.0
  0
LINE
  5
369B
330
1A
100
AcDbEntity
  8
1
 48
0.7
100
AcDbLine
 10
466.9898663962735
 20
397.0116772884393
 30
0.0
 11
472.9898663962734
 21
397.0116772884411
 31
0.0
  0
ARC
  5
369C
330
1A
100
AcDbEntity
  8
1
 48
0.5
100
AcDbCircle
 10
472.9898663962734
 20
416.0116772884411
 30
0.0
 40
1.0
100
AcDbArc
 50
359.9999999999997
 51
90.0
  0
ARC
  5
369D
330
1A
100
AcDbEntity
  8
1
 48
0.7
100
AcDbCircle
 10
472.9898663962734
 20
398.0116772884411
 30
0.0
 40
1.0
100
AcDbArc
 50
270.0
 51
0.0
  0
LINE
  5
369E
330
1A
100
AcDbEntity
  8
1
 48
0.5
100
AcDbLine
 10
473.989866396274
 20
457.0116772884429
 30
0.0
 11
473.9898663962734
 21
424.0116772884429
 31
0.0
  0
ARC
  5
369F
330
1A
100
AcDbEntity
  8
1
 48
0.7
100
AcDbCircle
 10
472.989866396274
 20
424.0116772884429
 30
0.0
 40
1.0
100
AcDbArc
 50
270.0
 51
0.0
  0
ARC
  5
36A0
330
1A
100
AcDbEntity
  8
1
 48
0.5
100
AcDbCircle
 10
472.989866396274
 20
390.0116772884411
 30
0.0
 40
1.0
100
AcDbArc
 50
0.0
 51
90.0
  0
ARC
  5
36A1
330
1A
100
AcDbEntity
  8
1
 48
0.7
100
AcDbCircle
 10
472.9898663962734
 20
438.0116772884411
 30
0.0
 40
1.0
100
AcDbArc
 50
270.0
 51
0.0
  0
ARC
  5
36A2
330
1A
100
AcDbEntity
  8
1
 48
0.5
100
AcDbCircle
 10
466.9898663962738
 20
436.0116772884411
 30
0.0
 40
1.0
100
AcDbArc
 50
90.0
 51
180.0
  0
ARC
  5
36A3
330
1A
100
AcDbEntity
  8
1
 48
0.5
100
AcDbCircle
 10
466.9898663962738
 20
422.0116772884448
 30
0.0
 40
1.0
100
AcDbArc
 50
90.00000000000399
 51
180.0
  0
ARC
  5
36A4
330
1A
100
AcDbEntity
  8
1
 48
0.7
100
AcDbCircle
 10
466.9898663962738
 20
418.0116772884411
 30
0.0
 40
1.0
100
AcDbArc
 50
180.0
 51
270.0
  0
ARC
  5
36A5
330
1A
100
AcDbEntity
  8
1
 48
0.7
100
AcDbCircle
 10
466.989866396273
 20
392.0116772884411
 30
0.0
 40
1.0
100
AcDbArc
 50
179.9999999999995
 51
270.0
  0
ARC
  5
36A6
330
1A
100
AcDbEntity
  8
1
 48
0.5
100
AcDbCircle
 10
466.9898663962735
 20
396.0116772884394
 30
0.0
 40
1.0
100
AcDbArc
 50
90.0
 51
179.999999999999
  0
LINE
  5
36A8
330
1A
100
AcDbEntity
  8
1
 48
0.5
100
AcDbLine
 10
473.989866396274
 20
390.0116772884411
 30
0.0
 11
473.9898663962734
 21
357.0116772884393
 31
0.0
  0
LINE
  5
3727
330
1A
100
AcDbEntity
  8
1
 48
0.5
100
AcDbLine
 10
465.9898663962803
 20
257.0116772884375
 30
0.0
 11
465.9898663962693
 21
357.0116772884393
 31
0.0
  0
LINE
  5
3728
330
1A
100
AcDbEntity
  8
1
 48
0.5
100
AcDbLine
 10
480.989866396274
 20
257.0116772884357
 30
0.0
 11
480.9898663962735
 21
357.0116772884411
 31
0.0
  0
LINE
  5
3729
330
1A
100
AcDbEntity
  8
1
 48
0.5
100
AcDbLine
 10
473.9898663962734
 20
298.0116772884375
 30
0.0
 11
473.9898663962734
 21
316.0116772884375
 31
0.0
  0
LINE
  5
372A
330
1A
100
AcDbEntity
  8
1
 48
0.5
100
AcDbLine
 10
473.989866396274
 20
324.0116772884375
 30
0.0
 11
473.9898663962734
 21
357.0116772884393
 31
0.0
  0
ARC
  5
372B
330
1A
100
AcDbEntity
  8
1
 48
0.5
100
AcDbCircle
 10
466.9898663962735
 20
318.0116772884393
 30
0.0
 40
1.0
100
AcDbArc
 50
180.0000000000006
 51
270.0
  0
ARC
  5
372C
330
1A
100
AcDbEntity
  8
1
 48
0.7
100
AcDbCircle
 10
466.989866396273
 20
322.0116772884375
 30
0.0
 40
1.0
100
AcDbArc
 50
90.00000000000005
 51
180.0000000000004
  0
ARC
  5
372D
330
1A
100
AcDbEntity
  8
1
 48
0.5
100
AcDbCircle
 10
472.989866396274
 20
324.0116772884375
 30
0.0
 40
1.0
100
AcDbArc
 50
270.0
 51
0.0
  0
ARC
  5
372E
330
1A
100
AcDbEntity
  8
1
 48
0.7
100
AcDbCircle
 10
472.9898663962734
 20
316.0116772884375
 30
0.0
 40
1.0
100
AcDbArc
 50
0.0
 51
90.00000000000005
  0
LINE
  5
372F
330
1A
100
AcDbEntity
  8
1
 48
0.7
100
AcDbLine
 10
466.9898663962735
 20
317.0116772884393
 30
0.0
 11
472.9898663962734
 21
317.0116772884375
 31
0.0
  0
LINE
  5
3730
330
1A
100
AcDbEntity
  8
1
 48
0.7
100
AcDbLine
 10
466.989866396273
 20
323.0116772884375
 30
0.0
 11
472.989866396274
 21
323.0116772884375
 31
0.0
  0
LINE
  5
3731
330
1A
100
AcDbEntity
  8
CENTER
 48
0.5
100
AcDbLine
 10
456.3835346144306
 20
357.0116772884393
 30
0.0
 11
495.6942103246318
 21
357.0116772884393
 31
0.0
  0
ARC
  5
3732
330
1A
100
AcDbEntity
  8
1
 48
0.7
100
AcDbCircle
 10
466.9898663962738
 20
296.0116772884375
 30
0.0
 40
1.0
100
AcDbArc
 50
90.00000000000005
 51
180.0
  0
ARC
  5
3733
330
1A
100
AcDbEntity
  8
1
 48
0.5
100
AcDbCircle
 10
466.9898663962738
 20
292.0116772884338
 30
0.0
 40
1.0
100
AcDbArc
 50
180.0
 51
269.999999999996
  0
ARC
  5
3734
330
1A
100
AcDbEntity
  8
1
 48
0.5
100
AcDbCircle
 10
466.9898663962738
 20
278.0116772884375
 30
0.0
 40
1.0
100
AcDbArc
 50
180.0
 51
270.0
  0
ARC
  5
3735
330
1A
100
AcDbEntity
  8
1
 48
0.7
100
AcDbCircle
 10
472.9898663962734
 20
276.0116772884375
 30
0.0
 40
1.0
100
AcDbArc
 50
0.0
 51
90.00000000000005
  0
ARC
  5
3736
330
1A
100
AcDbEntity
  8
1
 48
0.7
100
AcDbCircle
 10
472.989866396274
 20
290.0116772884357
 30
0.0
 40
1.0
100
AcDbArc
 50
0.0
 51
90.00000000000005
  0
LINE
  5
3737
330
1A
100
AcDbEntity
  8
1
 48
0.5
100
AcDbLine
 10
473.989866396274
 20
257.0116772884357
 30
0.0
 11
473.9898663962734
 21
290.0116772884357
 31
0.0
  0
ARC
  5
3738
330
1A
100
AcDbEntity
  8
1
 48
0.5
100
AcDbCircle
 10
472.9898663962734
 20
298.0116772884375
 30
0.0
 40
1.0
100
AcDbArc
 50
270.0
 51
0.0000000000002685
  0
LINE
  5
3739
330
1A
100
AcDbEntity
  8
1
 48
0.7
100
AcDbLine
 10
466.9898663962738
 20
297.0116772884375
 30
0.0
 11
472.9898663962734
 21
297.0116772884375
 31
0.0
  0
LINE
  5
373A
330
1A
100
AcDbEntity
  8
1
 48
0.7
100
AcDbLine
 10
466.9898663962738
 20
291.0116772884338
 30
0.0
 11
472.989866396274
 21
291.0116772884356
 31
0.0
  0
LINE
  5
373B
330
1A
100
AcDbEntity
  8
1
 48
0.7
100
AcDbLine
 10
466.9898663962738
 20
277.0116772884374
 30
0.0
 11
472.9898663962734
 21
277.0116772884374
 31
0.0
  0
LINE
  5
373C
330
1A
100
AcDbEntity
  8
1
 48
0.7
100
AcDbLine
 10
465.9898663962739
 20
257.0116772884375
 30
0.0
 11
480.9898663962743
 21
257.0116772884375
 31
0.0
  0
LINE
  5
3769
330
1A
100
AcDbEntity
  8
CENTER
 48
0.5
100
AcDbLine
 10
520.989866396273
 20
406.6034209332411
 30
0.0
 11
520.9898663962749
 21
516.9809360012041
 31
0.0
  0
LINE
  5
376A
330
1A
100
AcDbEntity
  8
1
 48
0.5
100
AcDbLine
 10
533.5369423992424
 20
457.7262993889653
 30
0.0
 11
533.5369423992424
 21
498.7262993889652
 31
0.0
  0
LINE
  5
376B
330
1A
100
AcDbEntity
  8
1
 48
0.5
100
AcDbLine
 10
539.9898663962731
 20
457.7262993889653
 30
0.0
 11
539.9898663962731
 21
498.7262993889652
 31
0.0
  0
LINE
  5
376C
330
1A
100
AcDbEntity
  8
1
 48
0.5
100
AcDbLine
 10
501.9898663962731
 20
457.7262993889634
 30
0.0
 11
501.9898663962712
 21
498.7262993889634
 31
0.0
  0
LINE
  5
376D
330
1A
100
AcDbEntity
  8
1
 48
0.5
100
AcDbLine
 10
508.4427903932983
 20
457.7262993889634
 30
0.0
 11
508.4427903933001
 21
498.7262993889634
 31
0.0
  0
LINE
  5
376E
330
1A
100
AcDbEntity
  8
1
 48
0.5
100
AcDbLine
 10
514.9071038659704
 20
457.7262993889653
 30
0.0
 11
514.907103865972
 21
498.7262993889634
 31
0.0
  0
LINE
  5
376F
330
1A
100
AcDbEntity
  8
1
 48
0.5
100
AcDbLine
 10
527.0726289265649
 20
457.7262993889653
 30
0.0
 11
527.0726289265667
 21
498.7262993889652
 31
0.0
  0
LINE
  5
3770
330
1A
100
AcDbEntity
  8
1
 48
0.5
100
AcDbLine
 10
502.3600278630047
 20
457.7262993889634
 30
0.0
 11
502.3600278630027
 21
498.7262993889634
 31
0.0
  0
LINE
  5
3771
330
1A
100
AcDbEntity
  8
1
 48
0.5
100
AcDbLine
 10
539.6197049295415
 20
457.7262993889653
 30
0.0
 11
539.6197049295415
 21
498.7262993889652
 31
0.0
  0
LINE
  5
3772
330
1A
100
AcDbEntity
  8
1
 48
0.5
100
AcDbLine
 10
502.3600278630055
 20
255.7262993889635
 30
0.0
 11
502.3600278630055
 21
214.7262993889616
 31
0.0
  0
LINE
  5
3773
330
1A
100
AcDbEntity
  8
1
 48
0.5
100
AcDbLine
 10
539.6197049295424
 20
255.7262993889635
 30
0.0
 11
539.6197049295442
 21
214.7262993889635
 31
0.0
  0
LINE
  5
3774
330
1A
100
AcDbEntity
  8
1
 48
0.5
100
AcDbLine
 10
514.9071038659822
 20
255.7262993889635
 30
0.0
 11
514.9071038659804
 21
214.7262993889635
 31
0.0
  0
LINE
  5
3775
330
1A
100
AcDbEntity
  8
1
 48
0.5
100
AcDbLine
 10
527.0726289265767
 20
255.7262993889635
 30
0.0
 11
527.0726289265748
 21
214.7262993889635
 31
0.0
  0
LINE
  5
3776
330
1A
100
AcDbEntity
  8
1
 48
0.5
100
AcDbLine
 10
533.5369423992488
 20
255.7262993889635
 30
0.0
 11
533.5369423992468
 21
214.7262993889635
 31
0.0
  0
LINE
  5
3777
330
1A
100
AcDbEntity
  8
1
 48
0.5
100
AcDbLine
 10
539.989866396274
 20
255.7262993889635
 30
0.0
 11
539.9898663962757
 21
214.7262993889635
 31
0.0
  0
LINE
  5
3778
330
1A
100
AcDbEntity
  8
1
 48
0.5
100
AcDbLine
 10
501.989866396274
 20
255.7262993889616
 30
0.0
 11
501.989866396274
 21
214.7262993889616
 31
0.0
  0
LINE
  5
3779
330
1A
100
AcDbEntity
  8
1
 48
0.5
100
AcDbLine
 10
508.4427903933046
 20
255.7262993889635
 30
0.0
 11
508.4427903933046
 21
214.7262993889616
 31
0.0
  0
LINE
  5
377A
330
1A
100
AcDbEntity
  8
CENTER
 48
0.5
100
AcDbLine
 10
520.9898663962738
 20
306.8491778446877
 30
0.0
 11
520.9898663962722
 21
196.4716627767229
 31
0.0
  0
LINE
  5
377B
330
1A
100
AcDbEntity
  8
1
 48
0.5
100
AcDbLine
 10
539.9898663962722
 20
255.7262993889635
 30
0.0
 11
501.9898663962721
 21
255.7262993889616
 31
0.0
  0
LINE
  5
377C
330
1A
100
AcDbEntity
  8
1
 48
0.5
100
AcDbLine
 10
539.989866396274
 20
261.7262993889635
 30
0.0
 11
501.989866396274
 21
261.7262993889635
 31
0.0
  0
LINE
  5
377D
330
1A
100
AcDbEntity
  8
1
 48
0.5
100
AcDbLine
 10
538.989866396274
 20
274.7262993889635
 30
0.0
 11
502.989866396274
 21
274.7262993889616
 31
0.0
  0
LINE
  5
377E
330
1A
100
AcDbEntity
  8
1
 48
0.5
100
AcDbLine
 10
539.989866396274
 20
271.7262993889635
 30
0.0
 11
501.989866396274
 21
271.7262993889635
 31
0.0
  0
LINE
  5
377F
330
1A
100
AcDbEntity
  8
1
 48
0.5
100
AcDbLine
 10
504.4898663962722
 20
261.7262993889635
 30
0.0
 11
504.4898663962722
 21
255.7262993889616
 31
0.0
  0
LINE
  5
3780
330
1A
100
AcDbEntity
  8
1
 48
0.5
100
AcDbLine
 10
537.4898663962738
 20
261.7262993889635
 30
0.0
 11
537.4898663962738
 21
255.7262993889635
 31
0.0
  0
LINE
  5
3784
330
1A
100
AcDbEntity
  8
1
 48
0.5
100
AcDbLine
 10
502.9898663962722
 20
274.7262993889616
 30
0.0
 11
502.9898663962722
 21
271.7262993889635
 31
0.0
  0
LINE
  5
378A
330
1A
100
AcDbEntity
  8
1
 48
0.5
100
AcDbLine
 10
501.989866396274
 20
271.7262993889635
 30
0.0
 11
501.989866396274
 21
261.7262993889635
 31
0.0
  0
LINE
  5
378B
330
1A
100
AcDbEntity
  8
1
 48
0.5
100
AcDbLine
 10
527.0726289265767
 20
271.7262993889635
 30
0.0
 11
527.0726289265767
 21
261.7262993889635
 31
0.0
  0
LINE
  5
378C
330
1A
100
AcDbEntity
  8
1
 48
0.5
100
AcDbLine
 10
514.9071038659804
 20
271.7262993889635
 30
0.0
 11
514.9071038659822
 21
261.7262993889635
 31
0.0
  0
LINE
  5
378D
330
1A
100
AcDbEntity
  8
1
 48
0.5
100
AcDbLine
 10
533.5369423992488
 20
271.7262993889635
 30
0.0
 11
533.5369423992488
 21
261.7262993889635
 31
0.0
  0
LINE
  5
378E
330
1A
100
AcDbEntity
  8
1
 48
0.5
100
AcDbLine
 10
502.3600278630055
 20
271.7262993889635
 30
0.0
 11
502.3600278630055
 21
261.7262993889635
 31
0.0
  0
LINE
  5
378F
330
1A
100
AcDbEntity
  8
1
 48
0.5
100
AcDbLine
 10
508.4427903933046
 20
271.7262993889635
 30
0.0
 11
508.4427903933046
 21
261.7262993889635
 31
0.0
  0
LINE
  5
3790
330
1A
100
AcDbEntity
  8
1
 48
0.5
100
AcDbLine
 10
502.3600278630047
 20
441.7262993889634
 30
0.0
 11
502.3600278630047
 21
451.7262993889635
 31
0.0
  0
LINE
  5
3791
330
1A
100
AcDbEntity
  8
1
 48
0.5
100
AcDbLine
 10
501.9898663962731
 20
441.7262993889634
 30
0.0
 11
501.9898663962731
 21
451.7262993889635
 31
0.0
  0
LINE
  5
3792
330
1A
100
AcDbEntity
  8
1
 48
0.5
100
AcDbLine
 10
502.9898663962731
 20
438.7262993889653
 30
0.0
 11
502.9898663962748
 21
441.7262993889634
 31
0.0
  0
LINE
  5
3793
330
1A
100
AcDbEntity
  8
1
 48
0.5
100
AcDbLine
 10
533.5369423992424
 20
441.7262993889653
 30
0.0
 11
533.5369423992424
 21
451.7262993889652
 31
0.0
  0
LINE
  5
3794
330
1A
100
AcDbEntity
  8
1
 48
0.5
100
AcDbLine
 10
539.6197049295415
 20
441.7262993889653
 30
0.0
 11
539.6197049295415
 21
451.7262993889652
 31
0.0
  0
LINE
  5
3795
330
1A
100
AcDbEntity
  8
1
 48
0.5
100
AcDbLine
 10
508.4427903932983
 20
441.7262993889634
 30
0.0
 11
508.4427903932983
 21
451.7262993889635
 31
0.0
  0
LINE
  5
3796
330
1A
100
AcDbEntity
  8
1
 48
0.5
100
AcDbLine
 10
527.0726289265667
 20
441.7262993889653
 30
0.0
 11
527.0726289265649
 21
451.7262993889652
 31
0.0
  0
LINE
  5
3797
330
1A
100
AcDbEntity
  8
1
 48
0.5
100
AcDbLine
 10
514.9071038659704
 20
441.7262993889634
 30
0.0
 11
514.9071038659704
 21
451.7262993889635
 31
0.0
  0
LINE
  5
3798
330
1A
100
AcDbEntity
  8
1
 48
0.5
100
AcDbLine
 10
539.9898663962731
 20
441.7262993889653
 30
0.0
 11
539.9898663962731
 21
451.7262993889652
 31
0.0
  0
LINE
  5
379E
330
1A
100
AcDbEntity
  8
1
 48
0.5
100
AcDbLine
 10
538.9898663962749
 20
438.7262993889653
 30
0.0
 11
538.9898663962749
 21
441.7262993889653
 31
0.0
  0
LINE
  5
37A2
330
1A
100
AcDbEntity
  8
1
 48
0.5
100
AcDbLine
 10
504.489866396273
 20
451.7262993889635
 30
0.0
 11
504.489866396273
 21
457.7262993889634
 31
0.0
  0
LINE
  5
37A3
330
1A
100
AcDbEntity
  8
1
 48
0.5
100
AcDbLine
 10
537.4898663962749
 20
451.7262993889652
 30
0.0
 11
537.4898663962749
 21
457.7262993889653
 31
0.0
  0
LINE
  5
37A4
330
1A
100
AcDbEntity
  8
1
 48
0.5
100
AcDbLine
 10
501.9898663962731
 20
441.7262993889634
 30
0.0
 11
539.9898663962731
 21
441.7262993889653
 31
0.0
  0
LINE
  5
37A5
330
1A
100
AcDbEntity
  8
1
 48
0.5
100
AcDbLine
 10
502.9898663962731
 20
438.7262993889653
 30
0.0
 11
538.9898663962731
 21
438.7262993889653
 31
0.0
  0
LINE
  5
37A6
330
1A
100
AcDbEntity
  8
1
 48
0.5
100
AcDbLine
 10
501.9898663962731
 20
451.7262993889635
 30
0.0
 11
539.9898663962731
 21
451.7262993889652
 31
0.0
  0
LINE
  5
37A7
330
1A
100
AcDbEntity
  8
1
 48
0.5
100
AcDbLine
 10
501.9898663962748
 20
457.7262993889634
 30
0.0
 11
539.9898663962749
 21
457.7262993889653
 31
0.0
  0
LINE
  5
37A8
330
1A
100
AcDbEntity
  8
1
 48
0.5
100
AcDbLine
 10
538.989866396274
 20
274.7262993889635
 30
0.0
 11
538.989866396272
 21
271.7262993889635
 31
0.0
  0
LINE
  5
37A9
330
1A
100
AcDbEntity
  8
1
 48
0.5
100
AcDbLine
 10
539.989866396274
 20
271.7262993889635
 30
0.0
 11
539.989866396274
 21
261.7262993889635
 31
0.0
  0
LINE
  5
37AA
330
1A
100
AcDbEntity
  8
1
 48
0.5
100
AcDbLine
 10
539.6197049295424
 20
271.7262993889635
 30
0.0
 11
539.6197049295424
 21
261.7262993889635
 31
0.0
  0
LINE
  5
37AB
330
1A
100
AcDbEntity
  8
1
 48
0.5
100
AcDbLine
 10
539.989866396274
 20
214.7262993889635
 30
0.0
 11
501.989866396274
 21
214.7262993889616
 31
0.0
  0
LINE
  5
37B2
330
1A
100
AcDbEntity
  8
1
 48
0.5
100
AcDbLine
 10
532.9898663962739
 20
204.7262993889634
 30
0.0
 11
508.9898663962757
 21
204.7262993889634
 31
0.0
  0
LINE
  5
37B3
330
1A
100
AcDbEntity
  8
1
 48
0.5
100
AcDbLine
 10
508.9898663962729
 20
508.726299388967
 30
0.0
 11
532.9898663962715
 21
508.726299388967
 31
0.0
  0
LINE
  5
37BA
330
1A
100
AcDbEntity
  8
1
 48
0.5
100
AcDbLine
 10
501.9898663962731
 20
498.7262993889634
 30
0.0
 11
539.9898663962731
 21
498.7262993889652
 31
0.0
  0
LINE
  5
37D6
330
1A
100
AcDbEntity
  8
1
 48
0.5
100
AcDbLine
 10
558.9898663962734
 20
377.0116772884394
 30
0.0
 11
558.989866396274
 21
337.0116772884411
 31
0.0
  0
LINE
  5
37D7
330
1A
100
AcDbEntity
  8
1
 48
0.5
100
AcDbLine
 10
558.989866396274
 20
377.0116772884394
 30
0.0
 11
565.9898663962734
 21
377.0116772884394
 31
0.0
  0
LINE
  5
37D8
330
1A
100
AcDbEntity
  8
1
 48
0.5
100
AcDbLine
 10
558.9898663962745
 20
337.0116772884394
 30
0.0
 11
565.9898663962731
 21
337.0116772884411
 31
0.0
  0
LINE
  5
37DE
330
1A
100
AcDbEntity
  8
CENTER
100
AcDbLine
 10
475.1619739897937
 20
307.0116772884375
 30
0.0
 11
467.9898663962736
 21
307.0116772884375
 31
0.0
  0
LINE
  5
37E7
330
1A
100
AcDbEntity
  8
CENTER
100
AcDbLine
 10
475.1619739897937
 20
407.0116772884411
 30
0.0
 11
467.9898663962736
 21
407.0116772884411
 31
0.0
  0
LINE
  5
3883
330
1A
100
AcDbEntity
  8
1
 48
0.5
100
AcDbLine
 10
508.9898663962729
 20
498.7262993889652
 30
0.0
 11
508.9898663962729
 21
508.7262993889653
 31
0.0
  0
LINE
  5
3884
330
1A
100
AcDbEntity
  8
1
 48
0.5
100
AcDbLine
 10
532.9898663962731
 20
498.7262993889652
 30
0.0
 11
532.9898663962713
 21
508.7262993889653
 31
0.0
  0
LINE
  5
3885
330
1A
100
AcDbEntity
  8
1
 48
0.5
100
AcDbLine
 10
532.9898663962739
 20
214.7262993889635
 30
0.0
 11
532.9898663962739
 21
204.7262993889634
 31
0.0
  0
LINE
  5
3886
330
1A
100
AcDbEntity
  8
1
 48
0.5
100
AcDbLine
 10
508.989866396274
 20
214.7262993889616
 30
0.0
 11
508.9898663962757
 21
204.7262993889616
 31
0.0
  0
LINE
  5
40D7
330
1A
100
AcDbEntity
  8
1
 48
0.5
100
AcDbLine
 10
313.1325660185748
 20
337.0116772884394
 30
0.0
 11
306.1325660185821
 21
337.0116772884394
 31
0.0
  0
ARC
  5
40D8
330
1A
100
AcDbEntity
  8
1
 48
0.5
100
AcDbCircle
 10
313.1325660185748
 20
340.0116772884393
 30
0.0
 40
3.0
100
AcDbArc
 50
269.9999999999985
 51
0.0000000000000127
  0
LINE
  5
40D9
330
1A
100
AcDbEntity
  8
1
 48
0.5
100
AcDbLine
 10
316.1325660185748
 20
374.0116772884393
 30
0.0
 11
316.1325660185748
 21
340.0116772884393
 31
0.0
  0
ARC
  5
40DA
330
1A
100
AcDbEntity
  8
1
 48
0.5
100
AcDbCircle
 10
313.1325660185748
 20
374.0116772884411
 30
0.0
 40
3.0
100
AcDbArc
 50
0.0000000000000127
 51
89.99999999999998
  0
ARC
  5
40DB
330
1A
100
AcDbEntity
  8
1
 48
0.3
100
AcDbCircle
 10
306.1325660185783
 20
357.0116772884411
 30
0.0
 40
3.5
100
AcDbArc
 50
270.0000000000296
 51
89.99999999997022
  0
LINE
  5
40DC
330
1A
100
AcDbEntity
  8
1
 48
0.5
100
AcDbLine
 10
313.1325660185748
 20
377.0116772884394
 30
0.0
 11
306.1325660185821
 21
377.0116772884394
 31
0.0
  0
ARC
  5
40DD
330
1A
100
AcDbEntity
  8
1
 48
0.3
100
AcDbCircle
 10
106.1325660185784
 20
357.0116772884429
 30
0.0
 40
3.5
100
AcDbArc
 50
90.00000000002872
 51
269.999999999969
  0
LINE
  5
40DE
330
1A
100
AcDbEntity
  8
1
 48
0.5
100
AcDbLine
 10
99.13256601858256
 20
377.0116772884411
 30
0.0
 11
106.1325660185752
 21
377.0116772884411
 31
0.0
  0
ARC
  5
40DF
330
1A
100
AcDbEntity
  8
1
 48
0.5
100
AcDbCircle
 10
99.13256601858215
 20
374.0116772884429
 30
0.0
 40
3.0
100
AcDbArc
 50
89.99999999999898
 51
179.9999999999988
  0
LINE
  5
40E0
330
1A
100
AcDbEntity
  8
1
 48
0.5
100
AcDbLine
 10
96.13256601858214
 20
374.0116772884411
 30
0.0
 11
96.13256601858166
 21
340.0116772884412
 31
0.0
  0
ARC
  5
40E1
330
1A
100
AcDbEntity
  8
1
 48
0.5
100
AcDbCircle
 10
99.13256601858165
 20
340.0116772884412
 30
0.0
 40
3.0
100
AcDbArc
 50
179.9999999999988
 51
270.0000000000004
  0
LINE
  5
40E2
330
1A
100
AcDbEntity
  8
1
 48
0.5
100
AcDbLine
 10
99.13256601858165
 20
337.0116772884411
 30
0.0
 11
106.1325660185743
 21
337.0116772884411
 31
0.0
  0
LINE
  5
40FA
330
1A
100
AcDbEntity
  8
CENTER
 48
0.5
100
AcDbLine
 10
206.1325660185775
 20
171.8749423470579
 30
0.0
 11
206.1325660185775
 21
57.62228716962454
 31
0.0
  0
LINE
  5
40FB
330
1A
100
AcDbEntity
  8
1
 48
0.5
100
AcDbLine
 10
287.8471881191035
 20
130.2686105652154
 30
0.0
 11
287.8471881191035
 21
62.26861056521737
 31
0.0
  0
LINE
  5
40FC
330
1A
100
AcDbEntity
  8
1
 48
0.5
100
AcDbLine
 10
123.8471881191017
 20
130.2686105652209
 30
0.0
 11
123.8471881191017
 21
62.26861056521556
 31
0.0
  0
LINE
  5
40FD
330
1A
100
AcDbEntity
  8
1
 48
0.5
100
AcDbLine
 10
306.1325660185811
 20
154.2686105652154
 30
0.0
 11
273.1325660185812
 21
154.2686105652154
 31
0.0
  0
LINE
  5
40FE
330
1A
100
AcDbEntity
  8
CENTER
 48
0.5
100
AcDbLine
 10
117.9340669271154
 20
107.2686105652155
 30
0.0
 11
297.6626913165418
 21
107.2686105652137
 31
0.0
  0
LINE
  5
40FF
330
1A
100
AcDbEntity
  8
1
 48
0.5
100
AcDbLine
 10
305.8471881191016
 20
132.2686105652209
 30
0.0
 11
121.8471881191017
 21
132.2686105652209
 31
0.0
  0
LINE
  5
4100
330
1A
100
AcDbEntity
  8
1
 48
0.5
100
AcDbLine
 10
306.1325660185811
 20
147.2686105652154
 30
0.0
 11
206.1325660185757
 21
147.2686105652154
 31
0.0
  0
LINE
  5
4101
330
1A
100
AcDbEntity
  8
1
 48
0.5
100
AcDbLine
 10
306.1325660185794
 20
162.2686105652081
 30
0.0
 11
206.1325660185775
 21
162.2686105652192
 31
0.0
  0
ARC
  5
4102
330
1A
100
AcDbEntity
  8
1
 48
0.7
100
AcDbCircle
 10
267.1325660185784
 20
161.2686105652154
 30
0.0
 40
1.0
100
AcDbArc
 50
89.99999999999998
 51
180.0
  0
ARC
  5
4103
330
1A
100
AcDbEntity
  8
1
 48
0.5
100
AcDbCircle
 10
271.132566018582
 20
161.2686105652154
 30
0.0
 40
1.0
100
AcDbArc
 50
0.0000000000039821
 51
89.99999999999998
  0
ARC
  5
4104
330
1A
100
AcDbEntity
  8
1
 48
0.7
100
AcDbCircle
 10
273.1325660185802
 20
155.2686105652154
 30
0.0
 40
1.0
100
AcDbArc
 50
180.0
 51
270.0
  0
ARC
  5
4105
330
1A
100
AcDbEntity
  8
1
 48
0.5
100
AcDbCircle
 10
265.1325660185784
 20
155.2686105652154
 30
0.0
 40
1.0
100
AcDbArc
 50
269.9999999999997
 51
0.0
  0
LINE
  5
4106
330
1A
100
AcDbEntity
  8
1
 48
0.7
100
AcDbLine
 10
266.1325660185793
 20
161.2686105652154
 30
0.0
 11
266.1325660185793
 21
155.2686105652154
 31
0.0
  0
LINE
  5
4107
330
1A
100
AcDbEntity
  8
1
 48
0.7
100
AcDbLine
 10
272.132566018583
 20
161.2686105652154
 30
0.0
 11
272.1325660185812
 21
155.2686105652154
 31
0.0
  0
LINE
  5
4113
330
1A
100
AcDbEntity
  8
CENTER
100
AcDbLine
 10
256.1325660185793
 20
153.0965029716953
 30
0.0
 11
256.1325660185793
 21
160.2686105652154
 31
0.0
  0
LINE
  5
411C
330
1A
100
AcDbEntity
  8
CENTER
100
AcDbLine
 10
156.1325660185756
 20
153.0965029716953
 30
0.0
 11
156.1325660185756
 21
160.2686105652154
 31
0.0
  0
LINE
  5
4126
330
1A
100
AcDbEntity
  8
1
 48
0.7
100
AcDbLine
 10
106.1325660185757
 20
162.2686105652154
 30
0.0
 11
106.1325660185757
 21
147.2686105652137
 31
0.0
  0
LINE
  5
4127
330
1A
100
AcDbEntity
  8
1
 48
0.7
100
AcDbLine
 10
126.1325660185756
 20
161.2686105652154
 30
0.0
 11
126.1325660185756
 21
155.2686105652154
 31
0.0
  0
LINE
  5
4128
330
1A
100
AcDbEntity
  8
1
 48
0.7
100
AcDbLine
 10
140.1325660185721
 20
161.2686105652154
 30
0.0
 11
140.1325660185739
 21
155.2686105652154
 31
0.0
  0
LINE
  5
4129
330
1A
100
AcDbEntity
  8
1
 48
0.7
100
AcDbLine
 10
146.1325660185756
 20
161.2686105652154
 30
0.0
 11
146.1325660185756
 21
155.2686105652154
 31
0.0
  0
ARC
  5
412A
330
1A
100
AcDbEntity
  8
1
 48
0.5
100
AcDbCircle
 10
147.1325660185748
 20
155.2686105652154
 30
0.0
 40
1.0
100
AcDbArc
 50
180.0
 51
270.0000000000001
  0
LINE
  5
412B
330
1A
100
AcDbEntity
  8
1
 48
0.5
100
AcDbLine
 10
106.1325660185739
 20
154.2686105652154
 30
0.0
 11
139.1325660185739
 21
154.2686105652154
 31
0.0
  0
ARC
  5
412C
330
1A
100
AcDbEntity
  8
1
 48
0.7
100
AcDbCircle
 10
139.132566018573
 20
155.2686105652154
 30
0.0
 40
1.0
100
AcDbArc
 50
270.0
 51
0.0000000000000127
  0
ARC
  5
412D
330
1A
100
AcDbEntity
  8
1
 48
0.7
100
AcDbCircle
 10
125.1325660185747
 20
155.2686105652154
 30
0.0
 40
1.0
100
AcDbArc
 50
270.0
 51
0.0000000000000127
  0
ARC
  5
412E
330
1A
100
AcDbEntity
  8
1
 48
0.5
100
AcDbCircle
 10
127.1325660185747
 20
161.2686105652154
 30
0.0
 40
1.0
100
AcDbArc
 50
89.99999999999998
 51
180.0
  0
ARC
  5
412F
330
1A
100
AcDbEntity
  8
1
 48
0.5
100
AcDbCircle
 10
141.1325660185712
 20
161.2686105652154
 30
0.0
 40
1.0
100
AcDbArc
 50
89.99999999999998
 51
179.9999999999959
  0
ARC
  5
4130
330
1A
100
AcDbEntity
  8
1
 48
0.7
100
AcDbCircle
 10
145.1325660185748
 20
161.2686105652154
 30
0.0
 40
1.0
100
AcDbArc
 50
0.0000000000000127
 51
89.99999999999998
  0
LINE
  5
4131
330
1A
100
AcDbEntity
  8
CENTER
 48
0.5
100
AcDbLine
 10
206.1325660185775
 20
171.8749423470579
 30
0.0
 11
206.1325660185775
 21
132.5642666368565
 31
0.0
  0
LINE
  5
4132
330
1A
100
AcDbEntity
  8
1
 48
0.7
100
AcDbLine
 10
172.1325660185757
 20
161.2686105652154
 30
0.0
 11
172.1325660185757
 21
155.2686105652154
 31
0.0
  0
LINE
  5
4133
330
1A
100
AcDbEntity
  8
1
 48
0.7
100
AcDbLine
 10
166.1325660185775
 20
161.2686105652154
 30
0.0
 11
166.1325660185756
 21
155.2686105652154
 31
0.0
  0
ARC
  5
4134
330
1A
100
AcDbEntity
  8
1
 48
0.7
100
AcDbCircle
 10
165.1325660185747
 20
155.2686105652154
 30
0.0
 40
1.0
100
AcDbArc
 50
270.0
 51
0.0000000000000127
  0
ARC
  5
4135
330
1A
100
AcDbEntity
  8
1
 48
0.5
100
AcDbCircle
 10
173.1325660185748
 20
155.2686105652154
 30
0.0
 40
1.0
100
AcDbArc
 50
180.0
 51
270.0
  0
ARC
  5
4136
330
1A
100
AcDbEntity
  8
1
 48
0.7
100
AcDbCircle
 10
171.1325660185748
 20
161.2686105652154
 30
0.0
 40
1.0
100
AcDbArc
 50
0.0000000000000127
 51
90.0000000000004
  0
ARC
  5
4137
330
1A
100
AcDbEntity
  8
1
 48
0.5
100
AcDbCircle
 10
167.1325660185766
 20
161.2686105652154
 30
0.0
 40
1.0
100
AcDbArc
 50
90.00000000000078
 51
180.0
  0
LINE
  5
4138
330
1A
100
AcDbEntity
  8
1
 48
0.5
100
AcDbLine
 10
173.1325660185757
 20
154.2686105652154
 30
0.0
 11
206.1325660185775
 21
154.2686105652154
 31
0.0
  0
LINE
  5
4139
330
1A
100
AcDbEntity
  8
1
 48
0.5
100
AcDbLine
 10
147.1325660185756
 20
154.2686105652154
 30
0.0
 11
165.1325660185756
 21
154.2686105652154
 31
0.0
  0
LINE
  5
413A
330
1A
100
AcDbEntity
  8
1
 48
0.5
100
AcDbLine
 10
106.1325660185739
 20
147.2686105652154
 30
0.0
 11
206.1325660185793
 21
147.2686105652154
 31
0.0
  0
LINE
  5
413B
330
1A
100
AcDbEntity
  8
1
 48
0.5
100
AcDbLine
 10
106.1325660185757
 20
162.2686105652081
 30
0.0
 11
206.1325660185775
 21
162.2686105652192
 31
0.0
  0
LINE
  5
413C
330
1A
100
AcDbEntity
  8
1
 48
0.5
100
AcDbLine
 10
239.1325660185793
 20
154.2686105652154
 30
0.0
 11
206.1325660185775
 21
154.2686105652154
 31
0.0
  0
ARC
  5
413D
330
1A
100
AcDbEntity
  8
1
 48
0.5
100
AcDbCircle
 10
245.1325660185765
 20
161.2686105652154
 30
0.0
 40
1.0
100
AcDbArc
 50
0.0
 51
89.99999999999918
  0
ARC
  5
413E
330
1A
100
AcDbEntity
  8
1
 48
0.7
100
AcDbCircle
 10
241.1325660185784
 20
161.2686105652154
 30
0.0
 40
1.0
100
AcDbArc
 50
89.99999999999957
 51
180.0
  0
ARC
  5
413F
330
1A
100
AcDbEntity
  8
1
 48
0.5
100
AcDbCircle
 10
239.1325660185784
 20
155.2686105652154
 30
0.0
 40
1.0
100
AcDbArc
 50
270.0
 51
0.0
  0
ARC
  5
4140
330
1A
100
AcDbEntity
  8
1
 48
0.7
100
AcDbCircle
 10
247.1325660185784
 20
155.2686105652154
 30
0.0
 40
1.0
100
AcDbArc
 50
180.0
 51
270.0
  0
LINE
  5
4141
330
1A
100
AcDbEntity
  8
1
 48
0.7
100
AcDbLine
 10
246.1325660185774
 20
161.2686105652154
 30
0.0
 11
246.1325660185794
 21
155.2686105652154
 31
0.0
  0
LINE
  5
4142
330
1A
100
AcDbEntity
  8
1
 48
0.7
100
AcDbLine
 10
240.1325660185793
 20
161.2686105652154
 30
0.0
 11
240.1325660185793
 21
155.2686105652154
 31
0.0
  0
LINE
  5
4143
330
1A
100
AcDbEntity
  8
1
 48
0.5
100
AcDbLine
 10
105.8471881191016
 20
147.2686105652154
 30
0.0
 11
105.8471881191016
 21
132.2686105652209
 31
0.0
  0
ARC
  5
4144
330
1A
100
AcDbEntity
  8
1
 48
0.5
100
AcDbCircle
 10
121.8471881191008
 20
130.2686105652209
 30
0.0
 40
2.0
100
AcDbArc
 50
0.0
 51
89.99999999999833
  0
LINE
  5
4145
330
1A
100
AcDbEntity
  8
1
 48
0.5
100
AcDbLine
 10
121.8471881191017
 20
132.2686105652209
 30
0.0
 11
105.8471881191016
 21
132.2686105652209
 31
0.0
  0
LINE
  5
4146
330
1A
100
AcDbEntity
  8
1
 48
0.5
100
AcDbLine
 10
265.1325660185793
 20
154.2686105652154
 30
0.0
 11
247.1325660185793
 21
154.2686105652154
 31
0.0
  0
LINE
  5
414D
330
1A
100
AcDbEntity
  8
1
 48
0.7
100
AcDbLine
 10
306.1325660185794
 20
162.2686105652154
 30
0.0
 11
306.1325660185794
 21
147.2686105652137
 31
0.0
  0
LINE
  5
414E
330
1A
100
AcDbEntity
  8
1
 48
0.5
100
AcDbLine
 10
305.8471881191016
 20
147.2686105652154
 30
0.0
 11
305.8471881191016
 21
132.2686105652209
 31
0.0
  0
ARC
  5
4150
330
1A
100
AcDbEntity
  8
1
 48
0.5
100
AcDbCircle
 10
285.1325660185783
 20
161.2686105652154
 30
0.0
 40
1.0
100
AcDbArc
 50
0.0
 51
89.99999999999998
  0
ARC
  5
4151
330
1A
100
AcDbEntity
  8
1
 48
0.7
100
AcDbCircle
 10
287.1325660185783
 20
155.2686105652154
 30
0.0
 40
1.0
100
AcDbArc
 50
180.0
 51
270.0
  0
LINE
  5
4152
330
1A
100
AcDbEntity
  8
1
 48
0.7
100
AcDbLine
 10
286.1325660185793
 20
161.2686105652154
 30
0.0
 11
286.1325660185793
 21
155.2686105652154
 31
0.0
  0
ARC
  5
4153
330
1A
100
AcDbEntity
  8
1
 48
0.5
100
AcDbCircle
 10
289.8471881191026
 20
130.2686105652154
 30
0.0
 40
2.0
100
AcDbArc
 50
89.99999999999998
 51
179.9999999999998
  0
LINE
  5
4158
330
1A
100
AcDbEntity
  8
1
 48
0.5
100
AcDbLine
 10
316.1325660185775
 20
62.26861056521556
 30
0.0
 11
96.13256601857756
 21
62.26861056521556
 31
0.0
  0
LINE
  5
415D
330
1A
100
AcDbEntity
  8
1
 48
0.5
100
AcDbLine
 10
316.132566018578
 20
69.26861056521556
 30
0.0
 11
289.8471881191035
 21
69.26861056521373
 31
0.0
  0
LINE
  5
4173
330
1A
100
AcDbEntity
  8
1
 48
0.5
100
AcDbLine
 10
96.13256601857713
 20
69.26861056521921
 30
0.0
 11
96.13256601857713
 21
62.26861056521737
 31
0.0
  0
LINE
  5
4174
330
1A
100
AcDbEntity
  8
1
 48
0.5
100
AcDbLine
 10
316.1325660185771
 20
69.26861056521373
 30
0.0
 11
316.1325660185775
 21
62.26861056521737
 31
0.0
  0
LINE
  5
4175
330
1A
100
AcDbEntity
  8
1
 48
0.5
100
AcDbLine
 10
121.8471881191017
 20
69.26861056521739
 30
0.0
 11
96.13256601857713
 21
69.26861056521739
 31
0.0
  0
LINE
  5
4176
330
1A
100
AcDbEntity
  8
CENTER
 48
0.5
100
AcDbLine
 10
106.1325660185775
 20
80.46637418859061
 30
0.0
 11
106.1325660185775
 21
57.62228716962454
 31
0.0
  0
LINE
  5
4177
330
1A
100
AcDbEntity
  8
CENTER
 48
0.5
100
AcDbLine
 10
306.1325660185775
 20
80.46637418859061
 30
0.0
 11
306.1325660185775
 21
57.62228716962454
 31
0.0
  0
ARC
  5
4181
330
1A
100
AcDbEntity
  8
1
 48
0.5
100
AcDbCircle
 10
121.8471881191017
 20
71.26861056521739
 30
0.0
 40
2.0
100
AcDbArc
 50
270.0
 51
0.0
  0
ARC
  5
4182
330
1A
100
AcDbEntity
  8
1
 48
0.5
100
AcDbCircle
 10
289.8471881191035
 20
71.26861056521375
 30
0.0
 40
2.0
100
AcDbArc
 50
180.0
 51
270.0000000000035
  0
CIRCLE
  5
4184
330
1A
100
AcDbEntity
  8
1
 48
0.5
100
AcDbCircle
 10
206.1325660185775
 20
107.2686105652155
 30
0.0
 40
4.5
  0
CIRCLE
  5
4185
330
1A
100
AcDbEntity
  8
1
 48
0.5
100
AcDbCircle
 10
206.1325660185775
 20
107.2686105652155
 30
0.0
 40
9.25
  0
ARC
  5
4186
330
1A
100
AcDbEntity
  8
1
 48
0.5
100
AcDbCircle
 10
206.1325660185775
 20
107.2686105652155
 30
0.0
 40
13.25
100
AcDbArc
 50
25.08762784150793
 51
154.9123721584919
  0
LINE
  5
4187
330
1A
100
AcDbEntity
  8
1
 48
0.5
100
AcDbLine
 10
194.1325660185775
 20
112.8866618287775
 30
0.0
 11
194.1325660185775
 21
101.6505593016554
 31
0.0
  0
LINE
  5
4188
330
1A
100
AcDbEntity
  8
1
 48
0.5
100
AcDbLine
 10
218.1325660185775
 20
112.8866618287756
 30
0.0
 11
218.132566018577
 21
101.6505593016536
 31
0.0
  0
ARC
  5
4189
330
1A
100
AcDbEntity
  8
1
 48
0.5
100
AcDbCircle
 10
206.1325660185775
 20
107.2686105652155
 30
0.0
 40
13.25
100
AcDbArc
 50
205.0876278415079
 51
334.912372158492
  0
ARC
  5
418A
330
1A
100
AcDbEntity
  8
1
 48
0.5
100
AcDbCircle
 10
206.1325660185775
 20
107.2686105652155
 30
0.0
 40
19.0
100
AcDbArc
 50
228.6717180640085
 51
251.3282819359921
  0
CIRCLE
  5
418B
330
1A
100
AcDbEntity
  8
1
 48
0.5
100
AcDbCircle
 10
206.1325660185775
 20
107.2686105652155
 30
0.0
 40
13.75
  0
ARC
  5
4193
330
1A
100
AcDbEntity
  8
1
 48
0.5
100
AcDbCircle
 10
206.1325660185775
 20
107.2686105652155
 30
0.0
 40
19.0
100
AcDbArc
 50
168.6717180640085
 51
191.3282819359914
  0
ARC
  5
4194
330
1A
100
AcDbEntity
  8
1
 48
0.5
100
AcDbCircle
 10
206.1325660185775
 20
107.2686105652155
 30
0.0
 40
19.0
100
AcDbArc
 50
108.6717180640077
 51
131.3282819359903
  0
ARC
  5
4195
330
1A
100
AcDbEntity
  8
1
 48
0.5
100
AcDbCircle
 10
206.1325660185775
 20
107.2686105652155
 30
0.0
 40
19.0
100
AcDbArc
 50
48.67171806401425
 51
71.32828193599227
  0
ARC
  5
4196
330
1A
100
AcDbEntity
  8
1
 48
0.5
100
AcDbCircle
 10
206.1325660185775
 20
107.2686105652155
 30
0.0
 40
19.0
100
AcDbArc
 50
348.6717180640206
 51
11.32828193600327
  0
ARC
  5
4197
330
1A
100
AcDbEntity
  8
1
 48
0.5
100
AcDbCircle
 10
206.1325660185775
 20
107.2686105652155
 30
0.0
 40
19.0
100
AcDbArc
 50
288.6717180640076
 51
311.3282819359969
  0
ARC
  5
4199
330
1A
100
AcDbEntity
  8
1
 48
0.5
100
AcDbCircle
 10
156.1325660185753
 20
107.2686105652137
 30
0.0
 40
19.0
100
AcDbArc
 50
288.6717180640076
 51
311.3282819359969
  0
ARC
  5
419A
330
1A
100
AcDbEntity
  8
1
 48
0.5
100
AcDbCircle
 10
156.1325660185753
 20
107.2686105652137
 30
0.0
 40
19.0
100
AcDbArc
 50
228.6717180640085
 51
251.3282819359921
  0
ARC
  5
419B
330
1A
100
AcDbEntity
  8
1
 48
0.5
100
AcDbCircle
 10
156.1325660185753
 20
107.2686105652137
 30
0.0
 40
19.0
100
AcDbArc
 50
348.6717180640206
 51
11.32828193600327
  0
ARC
  5
419C
330
1A
100
AcDbEntity
  8
1
 48
0.5
100
AcDbCircle
 10
156.1325660185753
 20
107.2686105652137
 30
0.0
 40
19.0
100
AcDbArc
 50
48.67171806401425
 51
71.32828193599227
  0
ARC
  5
419D
330
1A
100
AcDbEntity
  8
1
 48
0.5
100
AcDbCircle
 10
156.1325660185753
 20
107.2686105652137
 30
0.0
 40
19.0
100
AcDbArc
 50
108.6717180640077
 51
131.3282819359903
  0
ARC
  5
419E
330
1A
100
AcDbEntity
  8
1
 48
0.5
100
AcDbCircle
 10
156.1325660185753
 20
107.2686105652137
 30
0.0
 40
19.0
100
AcDbArc
 50
168.6717180640085
 51
191.3282819359914
  0
CIRCLE
  5
41A5
330
1A
100
AcDbEntity
  8
1
 48
0.5
100
AcDbCircle
 10
156.1325660185753
 20
107.2686105652137
 30
0.0
 40
13.75
  0
LINE
  5
41A6
330
1A
100
AcDbEntity
  8
1
 48
0.5
100
AcDbLine
 10
144.1325660185752
 20
112.8866618287756
 30
0.0
 11
144.1325660185752
 21
101.6505593016536
 31
0.0
  0
ARC
  5
41A7
330
1A
100
AcDbEntity
  8
1
 48
0.5
100
AcDbCircle
 10
156.1325660185753
 20
107.2686105652137
 30
0.0
 40
13.25
100
AcDbArc
 50
205.0876278415079
 51
334.912372158492
  0
ARC
  5
41A8
330
1A
100
AcDbEntity
  8
1
 48
0.5
100
AcDbCircle
 10
156.1325660185753
 20
107.2686105652137
 30
0.0
 40
13.25
100
AcDbArc
 50
25.08762784150793
 51
154.9123721584919
  0
LINE
  5
41A9
330
1A
100
AcDbEntity
  8
1
 48
0.5
100
AcDbLine
 10
168.1325660185752
 20
112.8866618287738
 30
0.0
 11
168.1325660185748
 21
101.6505593016517
 31
0.0
  0
CIRCLE
  5
41AA
330
1A
100
AcDbEntity
  8
1
 48
0.5
100
AcDbCircle
 10
156.1325660185753
 20
107.2686105652137
 30
0.0
 40
9.25
  0
CIRCLE
  5
41AB
330
1A
100
AcDbEntity
  8
1
 48
0.5
100
AcDbCircle
 10
156.1325660185753
 20
107.2686105652137
 30
0.0
 40
4.5
  0
ARC
  5
41AC
330
1A
100
AcDbEntity
  8
1
 48
0.5
100
AcDbCircle
 10
256.1325660185762
 20
107.2686105652137
 30
0.0
 40
19.0
100
AcDbArc
 50
288.6717180640076
 51
311.3282819359969
  0
ARC
  5
41AD
330
1A
100
AcDbEntity
  8
1
 48
0.5
100
AcDbCircle
 10
256.1325660185762
 20
107.2686105652137
 30
0.0
 40
19.0
100
AcDbArc
 50
228.6717180640085
 51
251.3282819359921
  0
ARC
  5
41AE
330
1A
100
AcDbEntity
  8
1
 48
0.5
100
AcDbCircle
 10
256.1325660185762
 20
107.2686105652137
 30
0.0
 40
19.0
100
AcDbArc
 50
348.6717180640206
 51
11.32828193600327
  0
ARC
  5
41AF
330
1A
100
AcDbEntity
  8
1
 48
0.5
100
AcDbCircle
 10
256.1325660185762
 20
107.2686105652137
 30
0.0
 40
19.0
100
AcDbArc
 50
48.67171806401425
 51
71.32828193599227
  0
ARC
  5
41B0
330
1A
100
AcDbEntity
  8
1
 48
0.5
100
AcDbCircle
 10
256.1325660185762
 20
107.2686105652137
 30
0.0
 40
19.0
100
AcDbArc
 50
108.6717180640077
 51
131.3282819359903
  0
ARC
  5
41B1
330
1A
100
AcDbEntity
  8
1
 48
0.5
100
AcDbCircle
 10
256.1325660185762
 20
107.2686105652137
 30
0.0
 40
19.0
100
AcDbArc
 50
168.6717180640085
 51
191.3282819359914
  0
CIRCLE
  5
41B8
330
1A
100
AcDbEntity
  8
1
 48
0.5
100
AcDbCircle
 10
256.1325660185762
 20
107.2686105652137
 30
0.0
 40
13.75
  0
LINE
  5
41B9
330
1A
100
AcDbEntity
  8
1
 48
0.5
100
AcDbLine
 10
244.1325660185762
 20
112.8866618287756
 30
0.0
 11
244.1325660185762
 21
101.6505593016536
 31
0.0
  0
ARC
  5
41BA
330
1A
100
AcDbEntity
  8
1
 48
0.5
100
AcDbCircle
 10
256.1325660185762
 20
107.2686105652137
 30
0.0
 40
13.25
100
AcDbArc
 50
205.0876278415079
 51
334.912372158492
  0
ARC
  5
41BB
330
1A
100
AcDbEntity
  8
1
 48
0.5
100
AcDbCircle
 10
256.1325660185762
 20
107.2686105652137
 30
0.0
 40
13.25
100
AcDbArc
 50
25.08762784150793
 51
154.9123721584919
  0
LINE
  5
41BC
330
1A
100
AcDbEntity
  8
1
 48
0.5
100
AcDbLine
 10
268.1325660185762
 20
112.8866618287738
 30
0.0
 11
268.1325660185756
 21
101.6505593016517
 31
0.0
  0
CIRCLE
  5
41BD
330
1A
100
AcDbEntity
  8
1
 48
0.5
100
AcDbCircle
 10
256.1325660185762
 20
107.2686105652137
 30
0.0
 40
9.25
  0
CIRCLE
  5
41BE
330
1A
100
AcDbEntity
  8
1
 48
0.5
100
AcDbCircle
 10
256.1325660185762
 20
107.2686105652137
 30
0.0
 40
4.5
  0
LINE
  5
41C2
330
1A
100
AcDbEntity
  8
CENTER
 48
0.5
100
AcDbLine
 10
156.1325660185761
 20
130.4467858863754
 30
0.0
 11
156.1325660185756
 21
83.82499757718141
 31
0.0
  0
LINE
  5
41C3
330
1A
100
AcDbEntity
  8
CENTER
 48
0.5
100
AcDbLine
 10
256.1325660185766
 20
130.4467858863754
 30
0.0
 11
256.1325660185756
 21
83.82499757718141
 31
0.0
  0
LINE
  5
42C1
330
1A
100
AcDbEntity
  8
1
 48
0.3
100
AcDbLine
 10
243.6325660185789
 20
344.5116772884393
 30
0.0
 11
168.6325660185788
 21
344.5116772884393
 31
0.0
  0
LINE
  5
42C2
330
1A
100
AcDbEntity
  8
1
 48
0.3
100
AcDbLine
 10
168.6325660185788
 20
344.5116772884393
 30
0.0
 11
168.6325660185788
 21
289.5116772884394
 31
0.0
  0
LINE
  5
42C3
330
1A
100
AcDbEntity
  8
1
 48
0.3
100
AcDbLine
 10
168.6325660185788
 20
289.5116772884394
 30
0.0
 11
243.6325660185789
 21
289.5116772884394
 31
0.0
  0
LINE
  5
42C5
330
1A
100
AcDbEntity
  8
1
 48
0.3
100
AcDbLine
 10
243.6325660185789
 20
289.5116772884394
 30
0.0
 11
243.6325660185789
 21
344.5116772884393
 31
0.0
  0
LINE
  5
4405
330
1A
100
AcDbEntity
  8
1
 48
0.3
100
AcDbLine
 10
150.1325660185757
 20
154.2686105652154
 30
0.0
 11
162.1325660185756
 21
154.2686105652154
 31
0.0
  0
LINE
  5
4406
330
1A
100
AcDbEntity
  8
1
 48
0.3
100
AcDbLine
 10
162.1325660185756
 20
155.7686105652154
 30
0.0
 11
150.1325660185757
 21
155.7686105652154
 31
0.0
  0
LINE
  5
4407
330
1A
100
AcDbEntity
  8
1
 48
0.3
100
AcDbLine
 10
150.1325660185757
 20
155.7686105652154
 30
0.0
 11
150.1325660185757
 21
154.2686105652154
 31
0.0
  0
LINE
  5
4408
330
1A
100
AcDbEntity
  8
1
100
AcDbLine
 10
150.3590633266794
 20
155.7686105652154
 30
0.0
 11
161.9060687104719
 21
155.7686105652154
 31
0.0
  0
LINE
  5
4409
330
1A
100
AcDbEntity
  8
1
 48
0.3
100
AcDbLine
 10
162.1325660185756
 20
154.2686105652154
 30
0.0
 11
162.1325660185756
 21
155.7686105652154
 31
0.0
  0
LINE
  5
440A
330
1A
100
AcDbEntity
  8
1
 48
0.3
100
AcDbLine
 10
161.1325660185756
 20
161.3686105652158
 30
0.0
 11
160.732566018576
 21
161.7686105652154
 31
0.0
  0
LINE
  5
440B
330
1A
100
AcDbEntity
  8
1
 48
0.3
100
AcDbLine
 10
151.5325660185752
 20
161.7686105652154
 30
0.0
 11
160.732566018576
 21
161.7686105652154
 31
0.0
  0
LINE
  5
440C
330
1A
100
AcDbEntity
  8
1
 48
0.2
100
AcDbLine
 10
151.5325660185752
 20
161.7686105652154
 30
0.0
 11
151.1325660185756
 21
161.3686105652158
 31
0.0
  0
LINE
  5
440D
330
1A
100
AcDbEntity
  8
1
 48
0.3
100
AcDbLine
 10
161.1325660185756
 20
161.3686105652158
 30
0.0
 11
151.1325660185756
 21
161.3686105652158
 31
0.0
  0
LINE
  5
440E
330
1A
100
AcDbEntity
  8
1
 48
0.2
100
AcDbLine
 10
161.1325660185756
 20
161.3686105652158
 30
0.0
 11
161.1325660185756
 21
155.7686105652154
 31
0.0
  0
LINE
  5
440F
330
1A
100
AcDbEntity
  8
1
 48
0.2
100
AcDbLine
 10
151.1325660185756
 20
161.3686105652158
 30
0.0
 11
151.1325660185756
 21
155.7686105652154
 31
0.0
  0
LINE
  5
4410
330
1A
100
AcDbEntity
  8
1
100
AcDbLine
 10
250.359063326683
 20
155.7686105652154
 30
0.0
 11
261.9060687104755
 21
155.7686105652154
 31
0.0
  0
LINE
  5
4411
330
1A
100
AcDbEntity
  8
1
 48
0.3
100
AcDbLine
 10
262.1325660185793
 20
155.7686105652154
 30
0.0
 11
250.1325660185794
 21
155.7686105652154
 31
0.0
  0
LINE
  5
4412
330
1A
100
AcDbEntity
  8
1
 48
0.3
100
AcDbLine
 10
262.1325660185793
 20
154.2686105652154
 30
0.0
 11
262.1325660185793
 21
155.7686105652154
 31
0.0
  0
LINE
  5
4413
330
1A
100
AcDbEntity
  8
1
 48
0.3
100
AcDbLine
 10
250.1325660185794
 20
154.2686105652154
 30
0.0
 11
262.1325660185793
 21
154.2686105652154
 31
0.0
  0
LINE
  5
4414
330
1A
100
AcDbEntity
  8
1
 48
0.3
100
AcDbLine
 10
250.1325660185794
 20
155.7686105652154
 30
0.0
 11
250.1325660185794
 21
154.2686105652154
 31
0.0
  0
LINE
  5
4415
330
1A
100
AcDbEntity
  8
1
 48
0.2
100
AcDbLine
 10
251.1325660185793
 20
161.3686105652158
 30
0.0
 11
251.1325660185793
 21
155.7686105652154
 31
0.0
  0
LINE
  5
4416
330
1A
100
AcDbEntity
  8
1
 48
0.2
100
AcDbLine
 10
261.1325660185793
 20
161.3686105652158
 30
0.0
 11
261.1325660185793
 21
155.7686105652154
 31
0.0
  0
LINE
  5
4417
330
1A
100
AcDbEntity
  8
1
 48
0.3
100
AcDbLine
 10
261.1325660185793
 20
161.3686105652158
 30
0.0
 11
251.1325660185793
 21
161.3686105652158
 31
0.0
  0
LINE
  5
4418
330
1A
100
AcDbEntity
  8
1
 48
0.2
100
AcDbLine
 10
251.5325660185789
 20
161.7686105652154
 30
0.0
 11
251.1325660185793
 21
161.3686105652158
 31
0.0
  0
LINE
  5
4419
330
1A
100
AcDbEntity
  8
1
 48
0.3
100
AcDbLine
 10
251.5325660185789
 20
161.7686105652154
 30
0.0
 11
260.7325660185797
 21
161.7686105652154
 31
0.0
  0
LINE
  5
441A
330
1A
100
AcDbEntity
  8
1
 48
0.3
100
AcDbLine
 10
261.1325660185793
 20
161.3686105652158
 30
0.0
 11
260.7325660185797
 21
161.7686105652154
 31
0.0
  0
CIRCLE
  5
441B
330
1A
100
AcDbEntity
  8
1
 48
0.3
100
AcDbCircle
 10
156.1325660185765
 20
266.0116772884411
 30
0.0
 40
6.0
  0
CIRCLE
  5
441C
330
1A
100
AcDbEntity
  8
1
 48
0.3
100
AcDbCircle
 10
115.1325660185784
 20
307.0116772884412
 30
0.0
 40
6.0
  0
CIRCLE
  5
441E
330
1A
100
AcDbEntity
  8
1
 48
0.3
100
AcDbCircle
 10
115.1325660185765
 20
307.0116772884412
 30
0.0
 40
5.0
  0
CIRCLE
  5
441F
330
1A
100
AcDbEntity
  8
1
 48
0.3
100
AcDbCircle
 10
115.1325660185784
 20
407.0116772884411
 30
0.0
 40
6.0
  0
CIRCLE
  5
4421
330
1A
100
AcDbEntity
  8
1
 48
0.3
100
AcDbCircle
 10
115.1325660185765
 20
407.0116772884411
 30
0.0
 40
5.0
  0
CIRCLE
  5
4422
330
1A
100
AcDbEntity
  8
1
 48
0.3
100
AcDbCircle
 10
156.1325660185748
 20
266.0116772884411
 30
0.0
 40
5.0
  0
CIRCLE
  5
4424
330
1A
100
AcDbEntity
  8
1
 48
0.3
100
AcDbCircle
 10
156.1325660185765
 20
448.0116772884411
 30
0.0
 40
6.0
  0
CIRCLE
  5
4425
330
1A
100
AcDbEntity
  8
1
 48
0.3
100
AcDbCircle
 10
156.1325660185765
 20
448.0116772884411
 30
0.0
 40
5.0
  0
CIRCLE
  5
4427
330
1A
100
AcDbEntity
  8
1
 48
0.3
100
AcDbCircle
 10
297.1325660185765
 20
307.0116772884412
 30
0.0
 40
6.0
  0
CIRCLE
  5
4428
330
1A
100
AcDbEntity
  8
1
 48
0.3
100
AcDbCircle
 10
297.1325660185765
 20
307.0116772884412
 30
0.0
 40
5.0
  0
CIRCLE
  5
442A
330
1A
100
AcDbEntity
  8
1
 48
0.3
100
AcDbCircle
 10
256.1325660185766
 20
266.0116772884411
 30
0.0
 40
6.0
  0
CIRCLE
  5
442C
330
1A
100
AcDbEntity
  8
1
 48
0.3
100
AcDbCircle
 10
256.1325660185748
 20
266.0116772884411
 30
0.0
 40
5.0
  0
CIRCLE
  5
442D
330
1A
100
AcDbEntity
  8
1
 48
0.3
100
AcDbCircle
 10
297.1325660185765
 20
407.0116772884411
 30
0.0
 40
6.0
  0
CIRCLE
  5
442F
330
1A
100
AcDbEntity
  8
1
 48
0.3
100
AcDbCircle
 10
297.1325660185765
 20
407.0116772884411
 30
0.0
 40
5.0
  0
CIRCLE
  5
4430
330
1A
100
AcDbEntity
  8
1
 48
0.3
100
AcDbCircle
 10
256.1325660185766
 20
448.0116772884411
 30
0.0
 40
6.0
  0
CIRCLE
  5
4431
330
1A
100
AcDbEntity
  8
1
 48
0.3
100
AcDbCircle
 10
256.1325660185766
 20
448.0116772884411
 30
0.0
 40
5.0
  0
LINE
  5
4433
330
1A
100
AcDbEntity
  8
1
 48
0.3
100
AcDbLine
 10
473.9898663962734
 20
301.0116772884375
 30
0.0
 11
472.4898663962735
 21
301.0116772884375
 31
0.0
  0
LINE
  5
4434
330
1A
100
AcDbEntity
  8
1
 48
0.3
100
AcDbLine
 10
472.4898663962735
 20
301.0116772884375
 30
0.0
 11
472.4898663962735
 21
313.0116772884375
 31
0.0
  0
LINE
  5
4435
330
1A
100
AcDbEntity
  8
1
 48
0.3
100
AcDbLine
 10
473.9898663962734
 20
313.0116772884375
 30
0.0
 11
473.9898663962734
 21
301.0116772884375
 31
0.0
  0
LINE
  5
4436
330
1A
100
AcDbEntity
  8
1
 48
0.3
100
AcDbLine
 10
472.4898663962735
 20
313.0116772884375
 30
0.0
 11
473.9898663962734
 21
313.0116772884375
 31
0.0
  0
LINE
  5
4437
330
1A
100
AcDbEntity
  8
1
100
AcDbLine
 10
472.4898663962735
 20
312.7851799803338
 30
0.0
 11
472.4898663962735
 21
301.2381745965411
 31
0.0
  0
LINE
  5
4438
330
1A
100
AcDbEntity
  8
1
 48
0.3
100
AcDbLine
 10
466.8898663962732
 20
312.0116772884375
 30
0.0
 11
466.8898663962732
 21
302.0116772884374
 31
0.0
  0
LINE
  5
4439
330
1A
100
AcDbEntity
  8
1
 48
0.2
100
AcDbLine
 10
466.4898663962735
 20
302.4116772884372
 30
0.0
 11
466.8898663962732
 21
302.0116772884374
 31
0.0
  0
LINE
  5
443A
330
1A
100
AcDbEntity
  8
1
 48
0.3
100
AcDbLine
 10
466.4898663962735
 20
302.4116772884372
 30
0.0
 11
466.4898663962735
 21
311.6116772884378
 31
0.0
  0
LINE
  5
443B
330
1A
100
AcDbEntity
  8
1
 48
0.3
100
AcDbLine
 10
466.8898663962732
 20
312.0116772884375
 30
0.0
 11
466.4898663962735
 21
311.6116772884378
 31
0.0
  0
LINE
  5
443C
330
1A
100
AcDbEntity
  8
1
 48
0.2
100
AcDbLine
 10
466.8898663962732
 20
302.0116772884374
 30
0.0
 11
472.4898663962735
 21
302.0116772884374
 31
0.0
  0
LINE
  5
443D
330
1A
100
AcDbEntity
  8
1
 48
0.2
100
AcDbLine
 10
466.8898663962732
 20
312.0116772884375
 30
0.0
 11
472.4898663962735
 21
312.0116772884375
 31
0.0
  0
LINE
  5
443E
330
1A
100
AcDbEntity
  8
1
 48
0.3
100
AcDbLine
 10
472.4898663962735
 20
309.2204560799928
 30
0.0
 11
473.9898663962734
 21
308.1849094085846
 31
0.0
  0
LINE
  5
443F
330
1A
100
AcDbEntity
  8
1
 48
0.3
100
AcDbLine
 10
472.4898663962735
 20
308.5944206842323
 30
0.0
 11
473.9898663962734
 21
307.5588740128241
 31
0.0
  0
LINE
  5
4440
330
1A
100
AcDbEntity
  8
1
100
AcDbLine
 10
472.4898663962735
 20
412.7851799803375
 30
0.0
 11
472.4898663962735
 21
401.2381745965448
 31
0.0
  0
LINE
  5
4441
330
1A
100
AcDbEntity
  8
1
 48
0.3
100
AcDbLine
 10
472.4898663962735
 20
413.0116772884411
 30
0.0
 11
473.9898663962734
 21
413.0116772884411
 31
0.0
  0
LINE
  5
4442
330
1A
100
AcDbEntity
  8
1
 48
0.3
100
AcDbLine
 10
473.9898663962734
 20
413.0116772884411
 30
0.0
 11
473.9898663962734
 21
401.0116772884411
 31
0.0
  0
LINE
  5
4443
330
1A
100
AcDbEntity
  8
1
 48
0.3
100
AcDbLine
 10
473.9898663962734
 20
401.0116772884411
 30
0.0
 11
472.4898663962735
 21
401.0116772884411
 31
0.0
  0
LINE
  5
4444
330
1A
100
AcDbEntity
  8
1
 48
0.3
100
AcDbLine
 10
472.4898663962735
 20
401.0116772884411
 30
0.0
 11
472.4898663962735
 21
413.0116772884411
 31
0.0
  0
LINE
  5
4445
330
1A
100
AcDbEntity
  8
1
 48
0.3
100
AcDbLine
 10
466.4898663962735
 20
402.4116772884408
 30
0.0
 11
466.4898663962735
 21
411.6116772884415
 31
0.0
  0
LINE
  5
4446
330
1A
100
AcDbEntity
  8
1
 48
0.2
100
AcDbLine
 10
466.8898663962732
 20
412.0116772884411
 30
0.0
 11
472.4898663962735
 21
412.0116772884411
 31
0.0
  0
LINE
  5
4447
330
1A
100
AcDbEntity
  8
1
 48
0.2
100
AcDbLine
 10
466.8898663962732
 20
402.0116772884411
 30
0.0
 11
472.4898663962735
 21
402.0116772884411
 31
0.0
  0
LINE
  5
4448
330
1A
100
AcDbEntity
  8
1
 48
0.3
100
AcDbLine
 10
466.8898663962732
 20
412.0116772884411
 30
0.0
 11
466.4898663962735
 21
411.6116772884415
 31
0.0
  0
LINE
  5
4449
330
1A
100
AcDbEntity
  8
1
 48
0.2
100
AcDbLine
 10
466.4898663962735
 20
402.4116772884408
 30
0.0
 11
466.8898663962732
 21
402.0116772884411
 31
0.0
  0
LINE
  5
444A
330
1A
100
AcDbEntity
  8
1
 48
0.3
100
AcDbLine
 10
466.8898663962732
 20
412.0116772884411
 30
0.0
 11
466.8898663962732
 21
402.0116772884411
 31
0.0
  0
LINE
  5
444B
330
1A
100
AcDbEntity
  8
1
 48
0.3
100
AcDbLine
 10
472.4898663962735
 20
409.2204560799963
 30
0.0
 11
473.9898663962734
 21
408.1849094085883
 31
0.0
  0
LINE
  5
444C
330
1A
100
AcDbEntity
  8
1
 48
0.3
100
AcDbLine
 10
472.4898663962735
 20
408.5944206842358
 30
0.0
 11
473.9898663962734
 21
407.5588740128278
 31
0.0
  0
LINE
  5
4467
330
1A
100
AcDbEntity
  8
1
100
AcDbLine
 10
104.7385660185846
 20
342.4216772884391
 30
0.0
 11
104.0825660185841
 21
342.4216772884391
 31
0.0
  0
LINE
  5
4468
330
1A
100
AcDbEntity
  8
1
100
AcDbLine
 10
105.4355660185841
 20
342.7086772884395
 30
0.0
 11
104.7385660185846
 21
342.4216772884391
 31
0.0
  0
LINE
  5
4469
330
1A
100
AcDbEntity
  8
1
100
AcDbLine
 10
105.7225660185844
 20
343.4056772884396
 30
0.0
 11
105.4355660185841
 21
342.7086772884395
 31
0.0
  0
LINE
  5
446A
330
1A
100
AcDbEntity
  8
1
100
AcDbLine
 10
105.7225660185844
 20
344.0616772884404
 30
0.0
 11
105.7225660185844
 21
343.4056772884396
 31
0.0
  0
LINE
  5
446B
330
1A
100
AcDbEntity
  8
1
100
AcDbLine
 10
105.7225660185844
 20
344.0616772884404
 30
0.0
 11
106.1325660185943
 21
344.0616772884404
 31
0.0
  0
LINE
  5
446C
330
1A
100
AcDbEntity
  8
1
100
AcDbLine
 10
105.722566018584
 20
340.6176772884391
 30
0.0
 11
105.722566018584
 21
339.9616772884401
 31
0.0
  0
LINE
  5
446D
330
1A
100
AcDbEntity
  8
1
100
AcDbLine
 10
105.722566018584
 20
339.9616772884401
 30
0.0
 11
106.1325660185943
 21
339.9616772884401
 31
0.0
  0
LINE
  5
446E
330
1A
100
AcDbEntity
  8
1
100
AcDbLine
 10
105.4355660185841
 20
341.3146772884391
 30
0.0
 11
105.722566018584
 21
340.6176772884391
 31
0.0
  0
LINE
  5
446F
330
1A
100
AcDbEntity
  8
1
100
AcDbLine
 10
104.7385660185846
 20
341.6016772884394
 30
0.0
 11
105.4355660185841
 21
341.3146772884391
 31
0.0
  0
LINE
  5
4470
330
1A
100
AcDbEntity
  8
1
100
AcDbLine
 10
104.0825660185841
 20
341.6016772884394
 30
0.0
 11
104.7385660185846
 21
341.6016772884394
 31
0.0
  0
LINE
  5
4471
330
1A
100
AcDbEntity
  8
1
100
AcDbLine
 10
104.0825660185841
 20
342.4216772884391
 30
0.0
 11
104.0825660185841
 21
341.6016772884394
 31
0.0
  0
ARC
  5
4472
330
1A
100
AcDbEntity
  8
1
100
AcDbCircle
 10
106.1325660185842
 20
342.0116772884393
 30
0.0
 40
3.5
100
AcDbArc
 50
89.9999999998362
 51
270.0000000001673
  0
ARC
  5
4473
330
1A
100
AcDbEntity
  8
1
100
AcDbCircle
 10
103.9864898992532
 20
70.26349780506461
 30
0.0
 40
1.3
100
AcDbArc
 50
106.1832992197575
 51
176.9999999999994
  0
ARC
  5
4474
330
1A
100
AcDbEntity
  8
1
100
AcDbCircle
 10
108.2786421379027
 20
70.26349780506461
 30
0.0
 40
1.3
100
AcDbArc
 50
3.000000000000228
 51
73.81670078024204
  0
ARC
  5
4475
330
1A
100
AcDbEntity
  8
1
100
AcDbCircle
 10
106.1325660185779
 20
62.86861056521593
 30
0.0
 40
8.999999999999831
100
AcDbArc
 50
73.81670078024182
 51
106.1832992197581
  0
LINE
  5
4476
330
1A
100
AcDbEntity
  8
1
100
AcDbLine
 10
102.6325660185775
 20
69.26861056521739
 30
0.0
 11
102.6882715040719
 21
70.33153454818057
 31
0.0
  0
LINE
  5
4477
330
1A
100
AcDbEntity
  8
1
100
AcDbLine
 10
109.6325660185775
 20
69.26861056521739
 30
0.0
 11
102.6325660185775
 21
69.26861056521739
 31
0.0
  0
LINE
  5
4478
330
1A
100
AcDbEntity
  8
1
100
AcDbLine
 10
109.576860533083
 20
70.33153454818057
 30
0.0
 11
109.6325660185775
 21
69.26861056521739
 31
0.0
  0
LINE
  5
45B1
330
1A
100
AcDbEntity
  8
1
 48
0.5
100
AcDbLine
 10
162.2153285488733
 20
125.2686105652137
 30
0.0
 11
150.049803488277
 21
125.2686105652137
 31
0.0
  0
LINE
  5
45B2
330
1A
100
AcDbEntity
  8
1
 48
0.5
100
AcDbLine
 10
174.7624045518423
 20
111.0007836887907
 30
0.0
 11
168.6796420215449
 21
121.536437441642
 31
0.0
  0
LINE
  5
45B3
330
1A
100
AcDbEntity
  8
1
 48
0.5
100
AcDbLine
 10
168.6796420215469
 20
93.00078368878892
 30
0.0
 11
174.7624045518463
 21
103.536437441644
 31
0.0
  0
LINE
  5
45B4
330
1A
100
AcDbEntity
  8
1
 48
0.5
100
AcDbLine
 10
150.049803488277
 20
89.26861056521373
 30
0.0
 11
162.2153285488733
 21
89.26861056521373
 31
0.0
  0
LINE
  5
45B5
330
1A
100
AcDbEntity
  8
1
 48
0.5
100
AcDbLine
 10
143.5854900156049
 20
121.5364374416403
 30
0.0
 11
137.5027274853064
 21
111.000783688787
 31
0.0
  0
LINE
  5
45B6
330
1A
100
AcDbEntity
  8
1
 48
0.5
100
AcDbLine
 10
137.5027274853064
 20
103.5364374416402
 30
0.0
 11
143.5854900156044
 21
93.00078368878713
 31
0.0
  0
LINE
  5
45B7
330
1A
100
AcDbEntity
  8
1
 48
0.5
100
AcDbLine
 10
187.5027274853087
 20
103.5364374416422
 30
0.0
 11
193.5854900156068
 21
93.00078368878892
 31
0.0
  0
LINE
  5
45B8
330
1A
100
AcDbEntity
  8
1
 48
0.5
100
AcDbLine
 10
200.0498034882792
 20
89.26861056521557
 30
0.0
 11
212.2153285488757
 21
89.26861056521557
 31
0.0
  0
LINE
  5
45B9
330
1A
100
AcDbEntity
  8
1
 48
0.5
100
AcDbLine
 10
218.6796420215491
 20
93.00078368879075
 30
0.0
 11
224.7624045518486
 21
103.5364374416457
 31
0.0
  0
LINE
  5
45BA
330
1A
100
AcDbEntity
  8
1
 48
0.5
100
AcDbLine
 10
224.7624045518444
 20
111.0007836887924
 30
0.0
 11
218.6796420215473
 21
121.5364374416439
 31
0.0
  0
LINE
  5
45BB
330
1A
100
AcDbEntity
  8
1
 48
0.5
100
AcDbLine
 10
212.2153285488757
 20
125.2686105652154
 30
0.0
 11
200.0498034882792
 21
125.2686105652154
 31
0.0
  0
LINE
  5
45BC
330
1A
100
AcDbEntity
  8
1
 48
0.5
100
AcDbLine
 10
193.5854900156073
 20
121.536437441642
 30
0.0
 11
187.5027274853087
 21
111.0007836887889
 31
0.0
  0
LINE
  5
45BD
330
1A
100
AcDbEntity
  8
1
 48
0.5
100
AcDbLine
 10
262.2153285488743
 20
125.2686105652137
 30
0.0
 11
250.049803488278
 21
125.2686105652137
 31
0.0
  0
LINE
  5
45BE
330
1A
100
AcDbEntity
  8
1
 48
0.5
100
AcDbLine
 10
274.7624045518431
 20
111.0007836887907
 30
0.0
 11
268.6796420215459
 21
121.536437441642
 31
0.0
  0
LINE
  5
45BF
330
1A
100
AcDbEntity
  8
1
 48
0.5
100
AcDbLine
 10
268.6796420215478
 20
93.00078368878892
 30
0.0
 11
274.7624045518473
 21
103.536437441644
 31
0.0
  0
LINE
  5
45C0
330
1A
100
AcDbEntity
  8
1
 48
0.5
100
AcDbLine
 10
250.049803488278
 20
89.26861056521373
 30
0.0
 11
262.2153285488743
 21
89.26861056521373
 31
0.0
  0
LINE
  5
45C1
330
1A
100
AcDbEntity
  8
1
 48
0.5
100
AcDbLine
 10
243.5854900156058
 20
121.5364374416403
 30
0.0
 11
237.5027274853072
 21
111.000783688787
 31
0.0
  0
LINE
  5
45C2
330
1A
100
AcDbEntity
  8
1
 48
0.5
100
AcDbLine
 10
237.5027274853072
 20
103.5364374416402
 30
0.0
 11
243.5854900156054
 21
93.00078368878713
 31
0.0
  0
LINE
  5
45C3
330
1A
100
AcDbEntity
  8
1
 48
0.3
100
AcDbLine
 10
113.6891903456024
 20
409.5116772884411
 30
0.0
 11
112.2458146726285
 21
407.0116772884411
 31
0.0
  0
LINE
  5
45C4
330
1A
100
AcDbEntity
  8
1
 48
0.3
100
AcDbLine
 10
112.2458146726285
 20
407.0116772884411
 30
0.0
 11
113.6891903456024
 21
404.5116772884411
 31
0.0
  0
LINE
  5
45C5
330
1A
100
AcDbEntity
  8
1
 48
0.3
100
AcDbLine
 10
113.6891903456024
 20
404.5116772884411
 30
0.0
 11
116.5759416915507
 21
404.5116772884411
 31
0.0
  0
LINE
  5
45C6
330
1A
100
AcDbEntity
  8
1
 48
0.3
100
AcDbLine
 10
116.5759416915507
 20
404.5116772884411
 30
0.0
 11
118.0193173645248
 21
407.0116772884411
 31
0.0
  0
LINE
  5
45C7
330
1A
100
AcDbEntity
  8
1
 48
0.3
100
AcDbLine
 10
118.0193173645248
 20
407.0116772884411
 30
0.0
 11
116.5759416915507
 21
409.5116772884411
 31
0.0
  0
LINE
  5
45C8
330
1A
100
AcDbEntity
  8
1
 48
0.3
100
AcDbLine
 10
116.5759416915507
 20
409.5116772884411
 30
0.0
 11
113.6891903456024
 21
409.5116772884411
 31
0.0
  0
LINE
  5
45C9
330
1A
100
AcDbEntity
  8
1
 48
0.3
100
AcDbLine
 10
113.6891903456024
 20
309.5116772884412
 30
0.0
 11
112.2458146726285
 21
307.0116772884412
 31
0.0
  0
LINE
  5
45CA
330
1A
100
AcDbEntity
  8
1
 48
0.3
100
AcDbLine
 10
112.2458146726285
 20
307.0116772884412
 30
0.0
 11
113.6891903456024
 21
304.5116772884412
 31
0.0
  0
LINE
  5
45CB
330
1A
100
AcDbEntity
  8
1
 48
0.3
100
AcDbLine
 10
113.6891903456024
 20
304.5116772884412
 30
0.0
 11
116.5759416915507
 21
304.5116772884412
 31
0.0
  0
LINE
  5
45CC
330
1A
100
AcDbEntity
  8
1
 48
0.3
100
AcDbLine
 10
116.5759416915507
 20
304.5116772884412
 30
0.0
 11
118.0193173645248
 21
307.0116772884412
 31
0.0
  0
LINE
  5
45CD
330
1A
100
AcDbEntity
  8
1
 48
0.3
100
AcDbLine
 10
118.0193173645248
 20
307.0116772884412
 30
0.0
 11
116.5759416915507
 21
309.5116772884412
 31
0.0
  0
LINE
  5
45CE
330
1A
100
AcDbEntity
  8
1
 48
0.3
100
AcDbLine
 10
116.5759416915507
 20
309.5116772884412
 30
0.0
 11
113.6891903456024
 21
309.5116772884412
 31
0.0
  0
LINE
  5
45CF
330
1A
100
AcDbEntity
  8
1
 48
0.3
100
AcDbLine
 10
154.6891903456006
 20
268.5116772884412
 30
0.0
 11
153.2458146726265
 21
266.0116772884411
 31
0.0
  0
LINE
  5
45D0
330
1A
100
AcDbEntity
  8
1
 48
0.3
100
AcDbLine
 10
153.2458146726265
 20
266.0116772884411
 30
0.0
 11
154.6891903456006
 21
263.5116772884412
 31
0.0
  0
LINE
  5
45D1
330
1A
100
AcDbEntity
  8
1
 48
0.3
100
AcDbLine
 10
154.6891903456006
 20
263.5116772884412
 30
0.0
 11
157.5759416915489
 21
263.5116772884412
 31
0.0
  0
LINE
  5
45D2
330
1A
100
AcDbEntity
  8
1
 48
0.3
100
AcDbLine
 10
157.5759416915489
 20
263.5116772884412
 30
0.0
 11
159.0193173645229
 21
266.0116772884411
 31
0.0
  0
LINE
  5
45D3
330
1A
100
AcDbEntity
  8
1
 48
0.3
100
AcDbLine
 10
159.0193173645229
 20
266.0116772884411
 30
0.0
 11
157.5759416915489
 21
268.5116772884412
 31
0.0
  0
LINE
  5
45D4
330
1A
100
AcDbEntity
  8
1
 48
0.3
100
AcDbLine
 10
157.5759416915489
 20
268.5116772884412
 30
0.0
 11
154.6891903456006
 21
268.5116772884412
 31
0.0
  0
CIRCLE
  5
45D5
330
1A
100
AcDbEntity
  8
1
100
AcDbCircle
 10
176.1325660185788
 20
317.0116772884393
 30
0.0
 40
2.75
  0
LINE
  5
45D6
330
1A
100
AcDbEntity
  8
1
100
AcDbLine
 10
177.8825660185789
 20
316.6616772884389
 30
0.0
 11
177.8825660185789
 21
317.3616772884396
 31
0.0
  0
LINE
  5
45D7
330
1A
100
AcDbEntity
  8
1
100
AcDbLine
 10
174.3825660185789
 20
316.6616772884389
 30
0.0
 11
174.3825660185789
 21
317.3616772884396
 31
0.0
  0
LINE
  5
45D8
330
1A
100
AcDbEntity
  8
1
100
AcDbLine
 10
176.4825660185793
 20
318.7616772884394
 30
0.0
 11
175.782566018579
 21
318.7616772884394
 31
0.0
  0
LINE
  5
45D9
330
1A
100
AcDbEntity
  8
1
100
AcDbLine
 10
175.782566018579
 20
318.7616772884394
 30
0.0
 11
175.782566018579
 21
318.2016772884398
 31
0.0
  0
LINE
  5
45DA
330
1A
100
AcDbEntity
  8
1
100
AcDbLine
 10
175.782566018579
 20
318.2016772884398
 30
0.0
 11
175.5375660185791
 21
317.6066772884386
 31
0.0
  0
LINE
  5
45DB
330
1A
100
AcDbEntity
  8
1
100
AcDbLine
 10
175.5375660185791
 20
317.6066772884386
 30
0.0
 11
174.9425660185787
 21
317.3616772884396
 31
0.0
  0
LINE
  5
45DC
330
1A
100
AcDbEntity
  8
1
100
AcDbLine
 10
174.9425660185787
 20
317.3616772884396
 30
0.0
 11
174.3825660185789
 21
317.3616772884396
 31
0.0
  0
LINE
  5
45DD
330
1A
100
AcDbEntity
  8
1
100
AcDbLine
 10
177.8825660185789
 20
317.3616772884396
 30
0.0
 11
177.3225660185788
 21
317.3616772884396
 31
0.0
  0
LINE
  5
45DE
330
1A
100
AcDbEntity
  8
1
100
AcDbLine
 10
177.3225660185788
 20
317.3616772884396
 30
0.0
 11
176.7275660185786
 21
317.6066772884386
 31
0.0
  0
LINE
  5
45DF
330
1A
100
AcDbEntity
  8
1
100
AcDbLine
 10
176.7275660185786
 20
317.6066772884386
 30
0.0
 11
176.4825660185793
 21
318.2016772884398
 31
0.0
  0
LINE
  5
45E0
330
1A
100
AcDbEntity
  8
1
100
AcDbLine
 10
176.4825660185793
 20
318.2016772884398
 30
0.0
 11
176.4825660185793
 21
318.7616772884394
 31
0.0
  0
LINE
  5
45E1
330
1A
100
AcDbEntity
  8
1
100
AcDbLine
 10
176.4825660185788
 20
315.2616772884393
 30
0.0
 11
175.7825660185784
 21
315.2616772884393
 31
0.0
  0
LINE
  5
45E2
330
1A
100
AcDbEntity
  8
1
100
AcDbLine
 10
176.4825660185788
 20
315.2616772884393
 30
0.0
 11
176.4825660185788
 21
315.8216772884388
 31
0.0
  0
LINE
  5
45E3
330
1A
100
AcDbEntity
  8
1
100
AcDbLine
 10
176.4825660185788
 20
315.8216772884388
 30
0.0
 11
176.7275660185786
 21
316.4166772884399
 31
0.0
  0
LINE
  5
45E4
330
1A
100
AcDbEntity
  8
1
100
AcDbLine
 10
176.7275660185786
 20
316.4166772884399
 30
0.0
 11
177.3225660185788
 21
316.6616772884389
 31
0.0
  0
LINE
  5
45E5
330
1A
100
AcDbEntity
  8
1
100
AcDbLine
 10
177.3225660185788
 20
316.6616772884389
 30
0.0
 11
177.8825660185789
 21
316.6616772884389
 31
0.0
  0
LINE
  5
45E6
330
1A
100
AcDbEntity
  8
1
100
AcDbLine
 10
175.7825660185784
 20
315.8216772884388
 30
0.0
 11
175.7825660185784
 21
315.2616772884393
 31
0.0
  0
LINE
  5
45E7
330
1A
100
AcDbEntity
  8
1
100
AcDbLine
 10
175.5375660185791
 20
316.4166772884399
 30
0.0
 11
175.7825660185784
 21
315.8216772884388
 31
0.0
  0
LINE
  5
45E8
330
1A
100
AcDbEntity
  8
1
100
AcDbLine
 10
174.9425660185787
 20
316.6616772884389
 30
0.0
 11
175.5375660185791
 21
316.4166772884399
 31
0.0
  0
LINE
  5
45E9
330
1A
100
AcDbEntity
  8
1
100
AcDbLine
 10
174.3825660185789
 20
316.6616772884389
 30
0.0
 11
174.9425660185787
 21
316.6616772884389
 31
0.0
  0
LINE
  5
45EA
330
1A
100
AcDbEntity
  8
1
 48
0.3
100
AcDbLine
 10
295.6891903456024
 20
409.5116772884411
 30
0.0
 11
294.2458146726285
 21
407.0116772884411
 31
0.0
  0
LINE
  5
45EB
330
1A
100
AcDbEntity
  8
1
 48
0.3
100
AcDbLine
 10
294.2458146726285
 20
407.0116772884411
 30
0.0
 11
295.6891903456024
 21
404.5116772884411
 31
0.0
  0
LINE
  5
45EC
330
1A
100
AcDbEntity
  8
1
 48
0.3
100
AcDbLine
 10
295.6891903456024
 20
404.5116772884411
 30
0.0
 11
298.5759416915506
 21
404.5116772884411
 31
0.0
  0
LINE
  5
45ED
330
1A
100
AcDbEntity
  8
1
 48
0.3
100
AcDbLine
 10
298.5759416915506
 20
404.5116772884411
 30
0.0
 11
300.0193173645246
 21
407.0116772884411
 31
0.0
  0
LINE
  5
45EE
330
1A
100
AcDbEntity
  8
1
 48
0.3
100
AcDbLine
 10
300.0193173645246
 20
407.0116772884411
 30
0.0
 11
298.5759416915506
 21
409.5116772884411
 31
0.0
  0
LINE
  5
45EF
330
1A
100
AcDbEntity
  8
1
 48
0.3
100
AcDbLine
 10
298.5759416915506
 20
409.5116772884411
 30
0.0
 11
295.6891903456024
 21
409.5116772884411
 31
0.0
  0
LINE
  5
45F0
330
1A
100
AcDbEntity
  8
1
 48
0.3
100
AcDbLine
 10
254.6891903456006
 20
268.5116772884412
 30
0.0
 11
253.2458146726266
 21
266.0116772884411
 31
0.0
  0
LINE
  5
45F1
330
1A
100
AcDbEntity
  8
1
 48
0.3
100
AcDbLine
 10
253.2458146726266
 20
266.0116772884411
 30
0.0
 11
254.6891903456006
 21
263.5116772884412
 31
0.0
  0
LINE
  5
45F2
330
1A
100
AcDbEntity
  8
1
 48
0.3
100
AcDbLine
 10
254.6891903456006
 20
263.5116772884412
 30
0.0
 11
257.5759416915488
 21
263.5116772884412
 31
0.0
  0
LINE
  5
45F3
330
1A
100
AcDbEntity
  8
1
 48
0.3
100
AcDbLine
 10
257.5759416915488
 20
263.5116772884412
 30
0.0
 11
259.0193173645229
 21
266.0116772884411
 31
0.0
  0
LINE
  5
45F4
330
1A
100
AcDbEntity
  8
1
 48
0.3
100
AcDbLine
 10
259.0193173645229
 20
266.0116772884411
 30
0.0
 11
257.5759416915488
 21
268.5116772884412
 31
0.0
  0
LINE
  5
45F5
330
1A
100
AcDbEntity
  8
1
 48
0.3
100
AcDbLine
 10
257.5759416915488
 20
268.5116772884412
 30
0.0
 11
254.6891903456006
 21
268.5116772884412
 31
0.0
  0
LINE
  5
45F6
330
1A
100
AcDbEntity
  8
1
 48
0.3
100
AcDbLine
 10
295.6891903456024
 20
309.5116772884412
 30
0.0
 11
294.2458146726285
 21
307.0116772884412
 31
0.0
  0
LINE
  5
45F7
330
1A
100
AcDbEntity
  8
1
 48
0.3
100
AcDbLine
 10
294.2458146726285
 20
307.0116772884412
 30
0.0
 11
295.6891903456024
 21
304.5116772884412
 31
0.0
  0
LINE
  5
45F8
330
1A
100
AcDbEntity
  8
1
 48
0.3
100
AcDbLine
 10
295.6891903456024
 20
304.5116772884412
 30
0.0
 11
298.5759416915506
 21
304.5116772884412
 31
0.0
  0
LINE
  5
45F9
330
1A
100
AcDbEntity
  8
1
 48
0.3
100
AcDbLine
 10
298.5759416915506
 20
304.5116772884412
 30
0.0
 11
300.0193173645246
 21
307.0116772884412
 31
0.0
  0
LINE
  5
45FA
330
1A
100
AcDbEntity
  8
1
 48
0.3
100
AcDbLine
 10
300.0193173645246
 20
307.0116772884412
 30
0.0
 11
298.5759416915506
 21
309.5116772884412
 31
0.0
  0
LINE
  5
45FB
330
1A
100
AcDbEntity
  8
1
 48
0.3
100
AcDbLine
 10
298.5759416915506
 20
309.5116772884412
 30
0.0
 11
295.6891903456024
 21
309.5116772884412
 31
0.0
  0
CIRCLE
  5
45FC
330
1A
100
AcDbEntity
  8
1
100
AcDbCircle
 10
236.1325660185784
 20
317.0116772884393
 30
0.0
 40
2.75
  0
LINE
  5
45FD
330
1A
100
AcDbEntity
  8
1
100
AcDbLine
 10
237.8825660185784
 20
316.6616772884389
 30
0.0
 11
237.8825660185784
 21
317.3616772884396
 31
0.0
  0
LINE
  5
45FE
330
1A
100
AcDbEntity
  8
1
100
AcDbLine
 10
234.3825660185784
 20
316.6616772884389
 30
0.0
 11
234.3825660185784
 21
317.3616772884396
 31
0.0
  0
LINE
  5
45FF
330
1A
100
AcDbEntity
  8
1
100
AcDbLine
 10
236.4825660185787
 20
318.7616772884394
 30
0.0
 11
235.7825660185784
 21
318.7616772884394
 31
0.0
  0
LINE
  5
4600
330
1A
100
AcDbEntity
  8
1
100
AcDbLine
 10
235.7825660185784
 20
318.7616772884394
 30
0.0
 11
235.7825660185784
 21
318.2016772884398
 31
0.0
  0
LINE
  5
4601
330
1A
100
AcDbEntity
  8
1
100
AcDbLine
 10
235.7825660185784
 20
318.2016772884398
 30
0.0
 11
235.5375660185786
 21
317.6066772884386
 31
0.0
  0
LINE
  5
4602
330
1A
100
AcDbEntity
  8
1
100
AcDbLine
 10
235.5375660185786
 20
317.6066772884386
 30
0.0
 11
234.9425660185784
 21
317.3616772884396
 31
0.0
  0
LINE
  5
4603
330
1A
100
AcDbEntity
  8
1
100
AcDbLine
 10
234.9425660185784
 20
317.3616772884396
 30
0.0
 11
234.3825660185784
 21
317.3616772884396
 31
0.0
  0
LINE
  5
4604
330
1A
100
AcDbEntity
  8
1
100
AcDbLine
 10
237.8825660185784
 20
317.3616772884396
 30
0.0
 11
237.3225660185784
 21
317.3616772884396
 31
0.0
  0
LINE
  5
4605
330
1A
100
AcDbEntity
  8
1
100
AcDbLine
 10
237.3225660185784
 20
317.3616772884396
 30
0.0
 11
236.7275660185781
 21
317.6066772884386
 31
0.0
  0
LINE
  5
4606
330
1A
100
AcDbEntity
  8
1
100
AcDbLine
 10
236.7275660185781
 20
317.6066772884386
 30
0.0
 11
236.4825660185787
 21
318.2016772884398
 31
0.0
  0
LINE
  5
4607
330
1A
100
AcDbEntity
  8
1
100
AcDbLine
 10
236.4825660185787
 20
318.2016772884398
 30
0.0
 11
236.4825660185787
 21
318.7616772884394
 31
0.0
  0
LINE
  5
4608
330
1A
100
AcDbEntity
  8
1
100
AcDbLine
 10
236.4825660185783
 20
315.2616772884393
 30
0.0
 11
235.7825660185781
 21
315.2616772884393
 31
0.0
  0
LINE
  5
4609
330
1A
100
AcDbEntity
  8
1
100
AcDbLine
 10
236.4825660185783
 20
315.2616772884393
 30
0.0
 11
236.4825660185783
 21
315.8216772884388
 31
0.0
  0
LINE
  5
460A
330
1A
100
AcDbEntity
  8
1
100
AcDbLine
 10
236.4825660185783
 20
315.8216772884388
 30
0.0
 11
236.7275660185781
 21
316.4166772884399
 31
0.0
  0
LINE
  5
460B
330
1A
100
AcDbEntity
  8
1
100
AcDbLine
 10
236.7275660185781
 20
316.4166772884399
 30
0.0
 11
237.3225660185784
 21
316.6616772884389
 31
0.0
  0
LINE
  5
460C
330
1A
100
AcDbEntity
  8
1
100
AcDbLine
 10
237.3225660185784
 20
316.6616772884389
 30
0.0
 11
237.8825660185784
 21
316.6616772884389
 31
0.0
  0
LINE
  5
460D
330
1A
100
AcDbEntity
  8
1
100
AcDbLine
 10
235.7825660185781
 20
315.8216772884388
 30
0.0
 11
235.7825660185781
 21
315.2616772884393
 31
0.0
  0
LINE
  5
460E
330
1A
100
AcDbEntity
  8
1
100
AcDbLine
 10
235.5375660185786
 20
316.4166772884399
 30
0.0
 11
235.7825660185781
 21
315.8216772884388
 31
0.0
  0
LINE
  5
460F
330
1A
100
AcDbEntity
  8
1
100
AcDbLine
 10
234.9425660185784
 20
316.6616772884389
 30
0.0
 11
235.5375660185786
 21
316.4166772884399
 31
0.0
  0
LINE
  5
4610
330
1A
100
AcDbEntity
  8
1
100
AcDbLine
 10
234.3825660185784
 20
316.6616772884389
 30
0.0
 11
234.9425660185784
 21
316.6616772884389
 31
0.0
  0
LINE
  5
4611
330
1A
100
AcDbEntity
  8
1
 48
0.3
100
AcDbLine
 10
154.6891903456025
 20
450.5116772884411
 30
0.0
 11
153.2458146726285
 21
448.0116772884411
 31
0.0
  0
LINE
  5
4612
330
1A
100
AcDbEntity
  8
1
 48
0.3
100
AcDbLine
 10
153.2458146726285
 20
448.0116772884411
 30
0.0
 11
154.6891903456025
 21
445.5116772884411
 31
0.0
  0
LINE
  5
4613
330
1A
100
AcDbEntity
  8
1
 48
0.3
100
AcDbLine
 10
154.6891903456025
 20
445.5116772884411
 30
0.0
 11
157.5759416915506
 21
445.5116772884411
 31
0.0
  0
LINE
  5
4614
330
1A
100
AcDbEntity
  8
1
 48
0.3
100
AcDbLine
 10
157.5759416915506
 20
445.5116772884411
 30
0.0
 11
159.0193173645246
 21
448.0116772884411
 31
0.0
  0
LINE
  5
4615
330
1A
100
AcDbEntity
  8
1
 48
0.3
100
AcDbLine
 10
159.0193173645246
 20
448.0116772884411
 30
0.0
 11
157.5759416915506
 21
450.5116772884411
 31
0.0
  0
LINE
  5
4616
330
1A
100
AcDbEntity
  8
1
 48
0.3
100
AcDbLine
 10
157.5759416915506
 20
450.5116772884411
 30
0.0
 11
154.6891903456025
 21
450.5116772884411
 31
0.0
  0
LINE
  5
4617
330
1A
100
AcDbEntity
  8
1
 48
0.3
100
AcDbLine
 10
254.6891903456026
 20
450.5116772884411
 30
0.0
 11
253.2458146726284
 21
448.0116772884411
 31
0.0
  0
LINE
  5
4618
330
1A
100
AcDbEntity
  8
1
 48
0.3
100
AcDbLine
 10
253.2458146726284
 20
448.0116772884411
 30
0.0
 11
254.6891903456026
 21
445.5116772884411
 31
0.0
  0
LINE
  5
4619
330
1A
100
AcDbEntity
  8
1
 48
0.3
100
AcDbLine
 10
254.6891903456026
 20
445.5116772884411
 30
0.0
 11
257.5759416915506
 21
445.5116772884411
 31
0.0
  0
LINE
  5
461A
330
1A
100
AcDbEntity
  8
1
 48
0.3
100
AcDbLine
 10
257.5759416915506
 20
445.5116772884411
 30
0.0
 11
259.0193173645248
 21
448.0116772884411
 31
0.0
  0
LINE
  5
461B
330
1A
100
AcDbEntity
  8
1
 48
0.3
100
AcDbLine
 10
259.0193173645248
 20
448.0116772884411
 30
0.0
 11
257.5759416915506
 21
450.5116772884411
 31
0.0
  0
LINE
  5
461C
330
1A
100
AcDbEntity
  8
1
 48
0.3
100
AcDbLine
 10
257.5759416915506
 20
450.5116772884411
 30
0.0
 11
254.6891903456026
 21
450.5116772884411
 31
0.0
  0
VIEWPORT
  5
22
330
17
100
AcDbEntity
 67
     1
  8
0
100
AcDbViewport
 10
204.0995788574217
 20
181.0103145830326
 30
0.0
 40
503.2899474294436
 41
390.9898363346444
 68
     1
 69
     1
 12
204.0995788574217
 22
181.0103145830326
 13
0.0
 23
0.0
 14
1.0
 24
1.0
 15
10.0
 25
10.0
 16
0.0
 26
0.0
 36
1.0
 17
0.0
 27
0.0
 37
0.0
 42
50.0
 43
0.0
 44
0.0
 45
390.9898363346444
 50
0.0
 51
0.0
 72
   100
 90
    32768
  1

281
     0
 71
     1
 74
     0
110
0.0
120
0.0
130
0.0
111
1.0
121
0.0
131
0.0
112
0.0
122
1.0
132
0.0
 79
     0
146
0.0
  0
VIEWPORT
  5
2A3
330
17
100
AcDbEntity
 67
     1
  8
0
100
AcDbViewport
 10
212.4999999999999
 20
149.4999999999999
 30
0.0
 40
384.9999999999998
 41
265.0
 68
     2
 69
     2
 12
309.3106741643858
 22
280.2469614116306
 13
0.0
 23
0.0
 14
168.0
 24
168.0
 15
0.0
 25
0.0
 16
0.0
 26
0.0
 36
1.0
 17
0.0
 27
0.0
 37
0.0
 42
50.0
 43
0.0
 44
0.0
 45
748.6578133427037
 50
0.0
 51
0.0
 72
   100
 90
    36864
  1

281
     0
 71
     1
 74
     0
110
0.0
120
0.0
130
0.0
111
1.0
121
0.0
131
0.0
112
0.0
122
1.0
132
0.0
 79
     0
146
0.0
  0
ENDSEC
  0
SECTION
  2
OBJECTS
  0
DICTIONARY
  5
C
330
0
100
AcDbDictionary
281
     1
  3
ACAD_GROUP
350
D
  3
ACAD_LAYOUT
350
44D2
  3
ACAD_MLINESTYLE
350
E
  3
ACAD_PLOTSETTINGS
350
44D3
  3
ACAD_PLOTSTYLENAME
350
44D0
  3
ACDBVARIABLEDICTIONARY
350
1671
  3
CONTENTDICTIONARY
350
1619
  3
DWGPROPS
350
454D
  0
DICTIONARY
  5
4503
330
1A
100
AcDbDictionary
280
     1
281
     1
  3
ACAD_LAYOUTSELFREF
360
469B
  0
DICTIONARY
  5
4501
330
17
100
AcDbDictionary
280
     1
281
     1
  3
ACAD_LAYOUTSELFREF
360
469A
  0
DICTIONARY
  5
D
102
{ACAD_REACTORS
330
C
102
}
330
C
100
AcDbDictionary
281
     1
  0
DICTIONARY
  5
44D2
102
{ACAD_REACTORS
330
C
102
}
330
C
100
AcDbDictionary
281
     1
  3
Model
350
46A1
  3
ﾚｲｱｳﾄ1
350
46A2
  0
DICTIONARY
  5
E
102
{ACAD_REACTORS
330
C
102
}
330
C
100
AcDbDictionary
281
     1
  3
STANDARD
350
13
  0
DICTIONARY
  5
44D3
102
{ACAD_REACTORS
330
C
102
}
330
C
100
AcDbDictionary
281
     1
  0
ACDBDICTIONARYWDFLT
  5
44D0
102
{ACAD_REACTORS
330
C
102
}
330
C
100
AcDbDictionary
281
     1
  3
Normal
350
44D1
100
AcDbDictionaryWithDefault
340
44D1
  0
DICTIONARY
  5
1671
102
{ACAD_REACTORS
330
C
102
}
330
C
100
AcDbDictionary
281
     1
  3
SORTENTS
350
1672
  0
DICTIONARY
  5
1619
102
{ACAD_REACTORS
330
C
102
}
330
C
100
AcDbDictionary
281
     1
  0
XRECORD
  5
454D
102
{ACAD_REACTORS
330
C
102
}
330
C
100
AcDbXrecord
280
     1
  1
DWGPROPS COOKIE
  2

  3

  4

  6

  7

  8

  9

300
=
301
=
302
=
303
=
304
=
305
=
306
=
307
=
308
=
309
=
 40
1.084659895833332
 41
2450863.599069907
 42
2453993.868411366
  1

 90
        0
  0
XRECORD
  5
469B
102
{ACAD_REACTORS
330
4503
102
}
330
4503
100
AcDbXrecord
280
     1
340
1A
  0
XRECORD
  5
469A
102
{ACAD_REACTORS
330
4501
102
}
330
4501
100
AcDbXrecord
280
     1
340
17
  0
LAYOUT
  5
46A1
102
{ACAD_REACTORS
330
44D2
102
}
330
44D2
100
AcDbPlotSettings
  1

  2
C:\Program Files\ACAD LT 2000\plotters\DWF Classic.pc3
  4

  6

 40
0.0
 41
0.0
 42
0.0
 43
0.0
 44
0.0
 45
0.0
 46
0.0
 47
0.0
 48
0.0
 49
0.0
140
0.0
141
0.0
142
1.0
143
1.0
 70
  1712
 72
     0
 73
     0
 74
     0
  7

 75
     0
147
1.0
148
0.0
149
0.0
100
AcDbLayout
  1
Model
 70
     1
 71
     0
 10
0.0
 20
0.0
 11
12.0
 21
9.0
 12
0.0
 22
0.0
 32
0.0
 14
0.0
 24
0.0
 34
0.0
 15
0.0
 25
0.0
 35
0.0
146
0.0
 13
0.0
 23
0.0
 33
0.0
 16
1.0
 26
0.0
 36
0.0
 17
0.0
 27
1.0
 37
0.0
 76
     0
330
1A
  0
LAYOUT
  5
46A2
102
{ACAD_REACTORS
330
44D2
102
}
330
44D2
100
AcDbPlotSettings
  1

  2
C:\Program Files\ACAD LT 2000\plotters\DWF Classic.pc3
  4
ANSI_A_(8.50_x_11.00_Inches)
  6

 40
5.793749809265136
 41
17.79375076293945
 42
5.793746948242187
 43
17.79376220703125
 44
215.8999938964843
 45
279.3999938964843
 46
0.0
 47
0.0
 48
0.0
 49
0.0
140
0.0
141
0.0
142
1.0
143
1.579284839250481
 70
   688
 72
     1
 73
     1
 74
     1
  7

 75
     0
147
0.6331979989591959
148
-19.96922190503255
149
-16.99738169359409
100
AcDbLayout
  1
ﾚｲｱｳﾄ1
 70
     1
 71
     1
 10
-8.132196981760081
 20
7.847400457411294
 11
433.1199774656346
 21
348.8149876124005
 12
0.0
 22
0.0
 32
0.0
 14
19.96922190503255
 24
16.99738169359409
 34
-0.0015258207003583
 15
405.0185766523227
 25
282.0224986928774
 35
0.0000000349246037
146
0.0
 13
0.0
 23
0.0
 33
0.0
 16
1.0
 26
0.0
 36
0.0
 17
0.0
 27
1.0
 37
0.0
 76
     0
330
17
331
22
  0
MLINESTYLE
  5
13
102
{ACAD_REACTORS
330
E
102
}
330
E
100
AcDbMlineStyle
  2
STANDARD
 70
     0
  3

 62
     0
 51
90.0
 52
90.0
 71
     2
 49
0.5
 62
   256
  6
BYLAYER
 49
-0.5
 62
   256
  6
BYLAYER
  0
ACDBPLACEHOLDER
  5
44D1
102
{ACAD_REACTORS
330
44D0
102
}
330
44D0
  0
DICTIONARYVAR
  5
1672
102
{ACAD_REACTORS
330
1671
102
}
330
1671
100
DictionaryVariables
280
     0
  1
96
  0
ENDSEC
  0
EOF
