  0
SECTION
  2
HEADER
  9
$ACADVER
  1
AC1015
  9
$ACADMAINTVER
 70
    20
  9
$DWGCODEPAGE
  3
ANSI_932
  9
$INSBASE
 10
0.0
 20
0.0
 30
0.0
  9
$EXTMIN
 10
95.15625108866515
 20
27.80623287891478
 30
-0.0015258207003583
  9
$EXTMAX
 10
281.2326057968109
 20
293.3503423300011
 30
0.0000000349246037
  9
$LIMMIN
 10
0.0
 20
0.0
  9
$LIMMAX
 10
420.0
 20
297.0
  9
$ORTHOMODE
 70
     0
  9
$REGENMODE
 70
     1
  9
$FILLMODE
 70
     1
  9
$QTEXTMODE
 70
     0
  9
$MIRRTEXT
 70
     1
  9
$LTSCALE
 40
1.0
  9
$ATTMODE
 70
     1
  9
$TEXTSIZE
 40
2.5
  9
$TRACEWID
 40
1.0
  9
$TEXTSTYLE
  7
Standard
  9
$CLAYER
  8
0
  9
$CELTYPE
  6
ByLayer
  9
$CECOLOR
 62
   256
  9
$CELTSCALE
 40
1.0
  9
$DISPSILH
 70
     0
  9
$DIMSCALE
 40
1.0
  9
$DIMASZ
 40
2.5
  9
$DIMEXO
 40
0.625
  9
$DIMDLI
 40
3.75
  9
$DIMRND
 40
0.0
  9
$DIMDLE
 40
0.0
  9
$DIMEXE
 40
1.25
  9
$DIMTP
 40
0.0
  9
$DIMTM
 40
0.0
  9
$DIMTXT
 40
2.5
  9
$DIMCEN
 40
2.5
  9
$DIMTSZ
 40
0.0
  9
$DIMTOL
 70
     0
  9
$DIMLIM
 70
     0
  9
$DIMTIH
 70
     0
  9
$DIMTOH
 70
     0
  9
$DIMSE1
 70
     0
  9
$DIMSE2
 70
     0
  9
$DIMTAD
 70
     1
  9
$DIMZIN
 70
     8
  9
$DIMBLK
  1

  9
$DIMASO
 70
     1
  9
$DIMSHO
 70
     1
  9
$DIMPOST
  1

  9
$DIMAPOST
  1

  9
$DIMALT
 70
     0
  9
$DIMALTD
 70
     3
  9
$DIMALTF
 40
0.0393700787
  9
$DIMLFAC
 40
1.0
  9
$DIMTOFL
 70
     1
  9
$DIMTVP
 40
0.0
  9
$DIMTIX
 70
     0
  9
$DIMSOXD
 70
     0
  9
$DIMSAH
 70
     0
  9
$DIMBLK1
  1

  9
$DIMBLK2
  1

  9
$DIMSTYLE
  2
ISO-25
  9
$DIMCLRD
 70
     0
  9
$DIMCLRE
 70
     0
  9
$DIMCLRT
 70
     0
  9
$DIMTFAC
 40
1.0
  9
$DIMGAP
 40
0.625
  9
$DIMJUST
 70
     0
  9
$DIMSD1
 70
     0
  9
$DIMSD2
 70
     0
  9
$DIMTOLJ
 70
     0
  9
$DIMTZIN
 70
     8
  9
$DIMALTZ
 70
     0
  9
$DIMALTTZ
 70
     0
  9
$DIMUPT
 70
     0
  9
$DIMDEC
 70
     2
  9
$DIMTDEC
 70
     2
  9
$DIMALTU
 70
     2
  9
$DIMALTTD
 70
     3
  9
$DIMTXSTY
  7
Standard
  9
$DIMAUNIT
 70
     0
  9
$DIMADEC
 70
     0
  9
$DIMALTRND
 40
0.0
  9
$DIMAZIN
 70
     0
  9
$DIMDSEP
 70
    44
  9
$DIMATFIT
 70
     3
  9
$DIMFRAC
 70
     0
  9
$DIMLDRBLK
  1

  9
$DIMLUNIT
 70
     2
  9
$DIMLWD
 70
    -2
  9
$DIMLWE
 70
    -2
  9
$DIMTMOVE
 70
     0
  9
$LUNITS
 70
     2
  9
$LUPREC
 70
     4
  9
$SKETCHINC
 40
1.0
  9
$FILLETRAD
 40
10.0
  9
$AUNITS
 70
     0
  9
$AUPREC
 70
     0
  9
$MENU
  1
.
  9
$ELEVATION
 40
0.0
  9
$PELEVATION
 40
0.0
  9
$THICKNESS
 40
0.0
  9
$LIMCHECK
 70
     0
  9
$CHAMFERA
 40
0.0
  9
$CHAMFERB
 40
0.0
  9
$CHAMFERC
 40
0.0
  9
$CHAMFERD
 40
0.0
  9
$SKPOLY
 70
     0
  9
$TDCREATE
 40
2460097.506497859
  9
$TDUCREATE
 40
2460097.131497859
  9
$TDUPDATE
 40
2460097.519789143
  9
$TDUUPDATE
 40
2460097.144789143
  9
$TDINDWG
 40
0.0126729977
  9
$TDUSRTIMER
 40
0.0126729167
  9
$USRTIMER
 70
     1
  9
$ANGBASE
 50
0.0
  9
$ANGDIR
 70
     0
  9
$PDMODE
 70
     0
  9
$PDSIZE
 40
0.0
  9
$PLINEWID
 40
0.0
  9
$SPLFRAME
 70
     0
  9
$SPLINETYPE
 70
     6
  9
$SPLINESEGS
 70
     8
  9
$HANDSEED
  5
406
  9
$SURFTAB1
 70
     6
  9
$SURFTAB2
 70
     6
  9
$SURFTYPE
 70
     6
  9
$SURFU
 70
     6
  9
$SURFV
 70
     6
  9
$UCSBASE
  2

  9
$UCSNAME
  2

  9
$UCSORG
 10
0.0
 20
0.0
 30
0.0
  9
$UCSXDIR
 10
1.0
 20
0.0
 30
0.0
  9
$UCSYDIR
 10
0.0
 20
1.0
 30
0.0
  9
$UCSORTHOREF
  2

  9
$UCSORTHOVIEW
 70
     0
  9
$UCSORGTOP
 10
0.0
 20
0.0
 30
0.0
  9
$UCSORGBOTTOM
 10
0.0
 20
0.0
 30
0.0
  9
$UCSORGLEFT
 10
0.0
 20
0.0
 30
0.0
  9
$UCSORGRIGHT
 10
0.0
 20
0.0
 30
0.0
  9
$UCSORGFRONT
 10
0.0
 20
0.0
 30
0.0
  9
$UCSORGBACK
 10
0.0
 20
0.0
 30
0.0
  9
$PUCSBASE
  2

  9
$PUCSNAME
  2

  9
$PUCSORG
 10
0.0
 20
0.0
 30
0.0
  9
$PUCSXDIR
 10
1.0
 20
0.0
 30
0.0
  9
$PUCSYDIR
 10
0.0
 20
1.0
 30
0.0
  9
$PUCSORTHOREF
  2

  9
$PUCSORTHOVIEW
 70
     0
  9
$PUCSORGTOP
 10
0.0
 20
0.0
 30
0.0
  9
$PUCSORGBOTTOM
 10
0.0
 20
0.0
 30
0.0
  9
$PUCSORGLEFT
 10
0.0
 20
0.0
 30
0.0
  9
$PUCSORGRIGHT
 10
0.0
 20
0.0
 30
0.0
  9
$PUCSORGFRONT
 10
0.0
 20
0.0
 30
0.0
  9
$PUCSORGBACK
 10
0.0
 20
0.0
 30
0.0
  9
$USERI1
 70
     0
  9
$USERI2
 70
     0
  9
$USERI3
 70
     0
  9
$USERI4
 70
     0
  9
$USERI5
 70
     0
  9
$USERR1
 40
0.0
  9
$USERR2
 40
0.0
  9
$USERR3
 40
0.0
  9
$USERR4
 40
0.0
  9
$USERR5
 40
0.0
  9
$WORLDVIEW
 70
     1
  9
$SHADEDGE
 70
     3
  9
$SHADEDIF
 70
    70
  9
$TILEMODE
 70
     1
  9
$MAXACTVP
 70
    64
  9
$PINSBASE
 10
0.0
 20
0.0
 30
0.0
  9
$PLIMCHECK
 70
     0
  9
$PEXTMIN
 10
0.0
 20
0.0
 30
0.0
  9
$PEXTMAX
 10
420.0
 20
297.0
 30
0.0
  9
$PLIMMIN
 10
0.0
 20
0.0
  9
$PLIMMAX
 10
420.0
 20
297.0
  9
$UNITMODE
 70
     0
  9
$VISRETAIN
 70
     1
  9
$PLINEGEN
 70
     0
  9
$PSLTSCALE
 70
     1
  9
$TREEDEPTH
 70
  3020
  9
$CMLSTYLE
  2
Standard
  9
$CMLJUST
 70
     0
  9
$CMLSCALE
 40
20.0
  9
$PROXYGRAPHICS
 70
     1
  9
$MEASUREMENT
 70
     1
  9
$CELWEIGHT
370
    -1
  9
$ENDCAPS
280
     0
  9
$JOINSTYLE
280
     0
  9
$LWDISPLAY
290
     0
  9
$INSUNITS
 70
     4
  9
$HYPERLINKBASE
  1

  9
$STYLESHEET
  1

  9
$XEDIT
290
     1
  9
$CEPSNTYPE
380
     0
  9
$PSTYLEMODE
290
     1
  9
$FINGERPRINTGUID
  2
{735D604B-B0E4-4C13-9C5D-F4B48DD507DB}
  9
$VERSIONGUID
  2
{0D96D6BA-8999-4286-B9D6-26109F1A7695}
  9
$EXTNAMES
290
     1
  9
$PSVPSCALE
 40
0.0
  9
$OLESTARTUP
290
     0
  0
ENDSEC
  0
SECTION
  2
CLASSES
  0
CLASS
  1
ACDBDICTIONARYWDFLT
  2
AcDbDictionaryWithDefault
  3
ObjectDBX Classes
 90
        0
280
     0
281
     0
  0
CLASS
  1
VISUALSTYLE
  2
AcDbVisualStyle
  3
ObjectDBX Classes
 90
     4095
280
     0
281
     0
  0
CLASS
  1
MATERIAL
  2
AcDbMaterial
  3
ObjectDBX Classes
 90
     1153
280
     0
281
     0
  0
CLASS
  1
SCALE
  2
AcDbScale
  3
ObjectDBX Classes
 90
     1153
280
     0
281
     0
  0
CLASS
  1
TABLESTYLE
  2
AcDbTableStyle
  3
ObjectDBX Classes
 90
     4095
280
     0
281
     0
  0
CLASS
  1
MLEADERSTYLE
  2
AcDbMLeaderStyle
  3
ACDB_MLEADERSTYLE_CLASS
 90
     4095
280
     0
281
     0
  0
CLASS
  1
SUN
  2
AcDbSun
  3
SCENEOE
 90
     1153
280
     0
281
     0
  0
CLASS
  1
DICTIONARYVAR
  2
AcDbDictionaryVar
  3
ObjectDBX Classes
 90
        0
280
     0
281
     0
  0
CLASS
  1
CELLSTYLEMAP
  2
AcDbCellStyleMap
  3
ObjectDBX Classes
 90
     1152
280
     0
281
     0
  0
CLASS
  1
ACDBPLACEHOLDER
  2
AcDbPlaceHolder
  3
ObjectDBX Classes
 90
        0
280
     0
281
     0
  0
CLASS
  1
LAYOUT
  2
AcDbLayout
  3
ObjectDBX Classes
 90
        0
280
     0
281
     0
  0
ENDSEC
  0
SECTION
  2
TABLES
  0
TABLE
  2
VPORT
  5
8
330
0
100
AcDbSymbolTable
 70
     1
  0
VPORT
  5
29
330
8
100
AcDbSymbolTableRecord
100
AcDbViewportTableRecord
  2
*Active
 70
     0
 10
0.0
 20
0.0
 11
1.0
 21
1.0
 12
298.955701740734
 22
134.5654642889246
 13
0.0
 23
0.0
 14
10.0
 24
10.0
 15
10.0
 25
10.0
 16
0.0
 26
0.0
 36
1.0
 17
0.0
 27
0.0
 37
0.0
 40
436.9276571667874
 41
1.711401425178147
 42
50.0
 43
0.0
 44
0.0
 50
0.0
 51
0.0
 71
     0
 72
   100
 73
     1
 74
     3
 75
     0
 76
     0
 77
     0
 78
     0
281
     0
 65
     1
110
0.0
120
0.0
130
0.0
111
1.0
121
0.0
131
0.0
112
0.0
122
1.0
132
0.0
 79
     0
146
0.0
1001
ACAD_NAV_VCDISPLAY
1070
     3
  0
ENDTAB
  0
TABLE
  2
LTYPE
  5
5
330
0
100
AcDbSymbolTable
 70
     2
  0
LTYPE
  5
14
330
5
100
AcDbSymbolTableRecord
100
AcDbLinetypeTableRecord
  2
ByBlock
 70
     0
  3

 72
    65
 73
     0
 40
0.0
  0
LTYPE
  5
15
330
5
100
AcDbSymbolTableRecord
100
AcDbLinetypeTableRecord
  2
ByLayer
 70
     0
  3

 72
    65
 73
     0
 40
0.0
  0
LTYPE
  5
16
330
5
100
AcDbSymbolTableRecord
100
AcDbLinetypeTableRecord
  2
Continuous
 70
     0
  3
Solid line
 72
    65
 73
     0
 40
0.0
  0
LTYPE
  5
7A
330
5
100
AcDbSymbolTableRecord
100
AcDbLinetypeTableRecord
  2
HIDDEN2
 70
     0
  3
Hidden (.5x) _ _ _ _ _ _ _ _ _ _ _ _ _ _ _ _ _ 
 72
    65
 73
     2
 40
4.7625
 49
3.174999999999998
 74
     4
 75
     0
340
0
 46
0.0
 50
0.0
 44
0.0
 45
0.0
 49
-1.587499999999999
 74
     4
 75
     0
340
0
 46
0.0
 50
0.0
 44
0.0
 45
0.0
  0
ENDTAB
  0
TABLE
  2
LAYER
  5
2
330
0
100
AcDbSymbolTable
 70
     4
  0
LAYER
  5
10
102
{ACAD_XDICTIONARY
360
3BE
102
}
330
2
100
AcDbSymbolTableRecord
100
AcDbLayerTableRecord
  2
0
 70
     0
 62
     7
  6
Continuous
370
    -3
390
F
  0
LAYER
  5
6E
102
{ACAD_XDICTIONARY
360
3C0
102
}
330
2
100
AcDbSymbolTableRecord
100
AcDbLayerTableRecord
  2
Default
 70
     0
 62
     7
  6
Continuous
370
    -3
390
F
  0
LAYER
  5
71
102
{ACAD_XDICTIONARY
360
3C2
102
}
330
2
100
AcDbSymbolTableRecord
100
AcDbLayerTableRecord
  2
AD-4382
 70
     0
 62
     7
  6
Continuous
370
    -3
390
F
  0
LAYER
  5
3B7
102
{ACAD_XDICTIONARY
360
3C4
102
}
330
2
100
AcDbSymbolTableRecord
100
AcDbLayerTableRecord
  2
NAME
 70
     0
 62
     7
  6
Continuous
370
    -3
390
F
1001
AcAecLayerStandard
1000

1000

1001
AcCmTransparency
1071
        0
  0
ENDTAB
  0
TABLE
  2
STYLE
  5
3
330
0
100
AcDbSymbolTable
 70
     4
  0
STYLE
  5
11
330
3
100
AcDbSymbolTableRecord
100
AcDbTextStyleTableRecord
  2
Standard
 70
     0
 40
0.0
 41
1.0
 50
0.0
 71
     0
 42
2.5
  3
txt
  4

  0
ENDTAB
  0
TABLE
  2
VIEW
  5
6
330
0
100
AcDbSymbolTable
 70
     0
  0
ENDTAB
  0
TABLE
  2
UCS
  5
7
330
0
100
AcDbSymbolTable
 70
     0
  0
ENDTAB
  0
TABLE
  2
APPID
  5
9
330
0
100
AcDbSymbolTable
 70
     6
  0
APPID
  5
12
330
9
100
AcDbSymbolTableRecord
100
AcDbRegAppTableRecord
  2
ACAD
 70
     0
  0
APPID
  5
3A7
330
9
100
AcDbSymbolTableRecord
100
AcDbRegAppTableRecord
  2
ACAD_MLEADERVER
 70
     0
  0
APPID
  5
3B8
330
9
100
AcDbSymbolTableRecord
100
AcDbRegAppTableRecord
  2
AcAecLayerStandard
 70
     0
  0
APPID
  5
3B9
330
9
100
AcDbSymbolTableRecord
100
AcDbRegAppTableRecord
  2
AcCmTransparency
 70
     0
  0
APPID
  5
3BA
330
9
100
AcDbSymbolTableRecord
100
AcDbRegAppTableRecord
  2
ACAD_EXEMPT_FROM_CAD_STANDARDS
 70
     0
  0
APPID
  5
3BD
330
9
100
AcDbSymbolTableRecord
100
AcDbRegAppTableRecord
  2
ACAD_NAV_VCDISPLAY
 70
     0
  0
ENDTAB
  0
TABLE
  2
DIMSTYLE
  5
A
330
0
100
AcDbSymbolTable
 70
     4
100
AcDbDimStyleTable
 71
     1
340
27
  0
DIMSTYLE
105
27
330
A
100
AcDbSymbolTableRecord
100
AcDbDimStyleTableRecord
  2
ISO-25
 70
     0
 41
2.5
 42
0.625
 43
3.75
 44
1.25
 73
     0
 74
     0
 77
     1
 78
     8
140
2.5
141
2.5
143
0.0393700787
147
0.625
171
     3
172
     1
271
     2
272
     2
274
     3
278
    44
283
     0
284
     8
340
11
  0
ENDTAB
  0
TABLE
  2
BLOCK_RECORD
  5
1
330
0
100
AcDbSymbolTable
 70
     5
  0
BLOCK_RECORD
  5
1F
330
1
100
AcDbSymbolTableRecord
100
AcDbBlockTableRecord
  2
*Model_Space
340
22
  0
BLOCK_RECORD
  5
1B
330
1
100
AcDbSymbolTableRecord
100
AcDbBlockTableRecord
  2
*Paper_Space
340
1E
  0
BLOCK_RECORD
  5
6F
330
1
100
AcDbSymbolTableRecord
100
AcDbBlockTableRecord
  2
SE
340
0
102
{BLKREFS
331
70
102
}
  0
BLOCK_RECORD
  5
219
330
1
100
AcDbSymbolTableRecord
100
AcDbBlockTableRecord
  2
SE1
340
0
102
{BLKREFS
331
21A
102
}
  0
ENDTAB
  0
ENDSEC
  0
SECTION
  2
BLOCKS
  0
BLOCK
  5
20
330
1F
100
AcDbEntity
  8
0
100
AcDbBlockBegin
  2
*Model_Space
 70
     0
 10
0.0
 20
0.0
 30
0.0
  3
*Model_Space
  1

  0
ENDBLK
  5
21
330
1F
100
AcDbEntity
  8
0
100
AcDbBlockEnd
  0
BLOCK
  5
1C
330
1B
100
AcDbEntity
 67
     1
  8
0
100
AcDbBlockBegin
  2
*Paper_Space
 70
     0
 10
0.0
 20
0.0
 30
0.0
  3
*Paper_Space
  1

  0
ENDBLK
  5
1D
330
1B
100
AcDbEntity
 67
     1
  8
0
100
AcDbBlockEnd
  0
BLOCK
  5
217
330
6F
100
AcDbEntity
  8
0
100
AcDbBlockBegin
  2
SE
 70
     0
 10
0.0
 20
0.0
 30
0.0
  3
SE
  1

  0
LINE
  5
72
330
6F
100
AcDbEntity
  8
AD-4382
  6
Continuous
 62
     7
100
AcDbLine
 10
254.4065308332
 20
172.0852443802
 30
0.0
 11
188.9065308332
 21
172.0852443802
 31
0.0
  0
ARC
  5
73
330
6F
100
AcDbEntity
  8
AD-4382
  6
Continuous
 62
     7
100
AcDbCircle
 10
254.4065308332
 20
182.0852443802
 30
0.0
 40
10.0
100
AcDbArc
 50
270.0
 51
0.0
  0
ARC
  5
74
330
6F
100
AcDbEntity
  8
AD-4382
  6
Continuous
 62
     7
100
AcDbCircle
 10
188.9065308332
 20
182.0852443802
 30
0.0
 40
10.0
100
AcDbArc
 50
180.0
 51
270.0
  0
LINE
  5
75
330
6F
100
AcDbEntity
  8
AD-4382
  6
Continuous
 62
     7
100
AcDbLine
 10
264.4065308332
 20
247.5852443802
 30
0.0
 11
264.4065308332
 21
182.0852443802
 31
0.0
  0
LINE
  5
76
330
6F
100
AcDbEntity
  8
AD-4382
  6
Continuous
 62
     7
100
AcDbLine
 10
178.9065308332
 20
182.0852443802
 30
0.0
 11
178.9065308332
 21
247.5852443802
 31
0.0
  0
ARC
  5
77
330
6F
100
AcDbEntity
  8
AD-4382
  6
Continuous
 62
     7
100
AcDbCircle
 10
254.4065308332
 20
247.5852443802
 30
0.0
 40
10.0
100
AcDbArc
 50
0.0
 51
90.0
  0
ARC
  5
78
330
6F
100
AcDbEntity
  8
AD-4382
  6
Continuous
 62
     7
100
AcDbCircle
 10
188.9065308332
 20
247.5852443802
 30
0.0
 40
10.0
100
AcDbArc
 50
90.0
 51
180.0
  0
LINE
  5
79
330
6F
100
AcDbEntity
  8
AD-4382
  6
Continuous
 62
     7
100
AcDbLine
 10
188.9065308332
 20
257.5852443802
 30
0.0
 11
254.4065308332
 21
257.5852443802
 31
0.0
  0
ARC
  5
7B
330
6F
100
AcDbEntity
  8
AD-4382
  6
HIDDEN2
 62
     7
100
AcDbCircle
 10
184.6565308332
 20
190.4920986297
 30
0.0
 40
4.0
100
AcDbArc
 50
221.4096221093
 51
225.0
  0
LINE
  5
7C
330
6F
100
AcDbEntity
  8
AD-4382
  6
HIDDEN2
 62
     7
100
AcDbLine
 10
181.8281037084999
 20
242.0068172555
 30
0.0
 11
194.484957958
 21
254.663671505
 31
0.0
  0
ARC
  5
7D
330
6F
100
AcDbEntity
  8
AD-4382
  6
HIDDEN2
 62
     7
100
AcDbCircle
 10
197.3133850827
 20
251.8352443802
 30
0.0
 40
4.000000000000001
100
AcDbArc
 50
131.4096221093
 51
135.0
  0
LINE
  5
7E
330
6F
100
AcDbEntity
  8
AD-4382
  6
HIDDEN2
 62
     7
100
AcDbLine
 10
248.8281037085
 20
254.663671505
 30
0.0
 11
261.484957958
 21
242.0068172555
 31
0.0
  0
ARC
  5
7F
330
6F
100
AcDbEntity
  8
AD-4382
  6
HIDDEN2
 62
     7
100
AcDbCircle
 10
258.6565308332
 20
239.1783901307
 30
0.0
 40
3.999999999999998
100
AcDbArc
 50
41.40962210929999
 51
45.0
  0
LINE
  5
80
330
6F
100
AcDbEntity
  8
AD-4382
  6
HIDDEN2
 62
     7
100
AcDbLine
 10
261.484957958
 20
187.663671505
 30
0.0
 11
248.8281037085
 21
175.0068172555
 31
0.0
  0
ARC
  5
81
330
6F
100
AcDbEntity
  8
AD-4382
  6
HIDDEN2
 62
     7
100
AcDbCircle
 10
245.9996765838
 20
177.8352443802
 30
0.0
 40
4.0
100
AcDbArc
 50
311.4096221093
 51
315.0
  0
LINE
  5
82
330
6F
100
AcDbEntity
  8
AD-4382
  6
HIDDEN2
 62
     7
100
AcDbLine
 10
194.484957958
 20
175.0068172555
 30
0.0
 11
181.8281037084999
 21
187.663671505
 31
0.0
  0
ARC
  5
83
330
6F
100
AcDbEntity
  8
AD-4382
  6
HIDDEN2
 62
     7
100
AcDbCircle
 10
258.6565308332
 20
190.4920986297
 30
0.0
 40
4.0
100
AcDbArc
 50
315.0
 51
318.5903778907
  0
ARC
  5
84
330
6F
100
AcDbEntity
  8
AD-4382
  6
HIDDEN2
 62
     7
100
AcDbCircle
 10
245.9996765838
 20
177.8352443802
 30
0.0
 40
3.999999999999982
100
AcDbArc
 50
270.0
 51
311.4096221093
  0
ARC
  5
85
330
6F
100
AcDbEntity
  8
AD-4382
  6
HIDDEN2
 62
     7
100
AcDbCircle
 10
258.6565308332
 20
190.4920986297
 30
0.0
 40
3.999999999999879
100
AcDbArc
 50
318.5903778907
 51
0.0
  0
ARC
  5
86
330
6F
100
AcDbEntity
  8
AD-4382
  6
HIDDEN2
 62
     7
100
AcDbCircle
 10
197.3133850827
 20
177.8352443802
 30
0.0
 40
3.999999999999998
100
AcDbArc
 50
225.0
 51
228.5903778907
  0
ARC
  5
87
330
6F
100
AcDbEntity
  8
AD-4382
  6
HIDDEN2
 62
     7
100
AcDbCircle
 10
197.3133850827
 20
177.8352443802
 30
0.0
 40
3.999999999999926
100
AcDbArc
 50
228.5903778907
 51
270.0
  0
ARC
  5
88
330
6F
100
AcDbEntity
  8
AD-4382
  6
HIDDEN2
 62
     7
100
AcDbCircle
 10
184.6565308332
 20
190.4920986297
 30
0.0
 40
3.999999999999996
100
AcDbArc
 50
180.0
 51
221.4096221093
  0
ARC
  5
89
330
6F
100
AcDbEntity
  8
AD-4382
  6
HIDDEN2
 62
     7
100
AcDbCircle
 10
245.9996765838
 20
251.8352443802
 30
0.0
 40
4.0
100
AcDbArc
 50
45.0
 51
48.5903778907
  0
ARC
  5
8A
330
6F
100
AcDbEntity
  8
AD-4382
  6
HIDDEN2
 62
     7
100
AcDbCircle
 10
245.9996765838
 20
251.8352443802
 30
0.0
 40
3.999999999999977
100
AcDbArc
 50
48.5903778907
 51
90.0
  0
ARC
  5
8B
330
6F
100
AcDbEntity
  8
AD-4382
  6
HIDDEN2
 62
     7
100
AcDbCircle
 10
258.6565308332
 20
239.1783901307
 30
0.0
 40
3.999999999999904
100
AcDbArc
 50
0.0
 51
41.40962210929999
  0
ARC
  5
8C
330
6F
100
AcDbEntity
  8
AD-4382
  6
HIDDEN2
 62
     7
100
AcDbCircle
 10
184.6565308332
 20
239.1783901307
 30
0.0
 40
4.0
100
AcDbArc
 50
135.0
 51
138.5903778907
  0
ARC
  5
8D
330
6F
100
AcDbEntity
  8
AD-4382
  6
HIDDEN2
 62
     7
100
AcDbCircle
 10
184.6565308332
 20
239.1783901307
 30
0.0
 40
3.999999999999917
100
AcDbArc
 50
138.5903778907
 51
180.0
  0
ARC
  5
8E
330
6F
100
AcDbEntity
  8
AD-4382
  6
HIDDEN2
 62
     7
100
AcDbCircle
 10
197.3133850827
 20
251.8352443802
 30
0.0
 40
4.000000000000011
100
AcDbArc
 50
90.0
 51
131.4096221093
  0
CIRCLE
  5
8F
330
6F
100
AcDbEntity
  8
AD-4382
  6
Continuous
 62
     7
100
AcDbCircle
 10
188.4065308332
 20
181.5852443802
 30
0.0
 40
5.7
  0
CIRCLE
  5
90
330
6F
100
AcDbEntity
  8
AD-4382
  6
Continuous
 62
     7
100
AcDbCircle
 10
188.4065308332
 20
181.5852443802
 30
0.0
 40
4.15
  0
LINE
  5
91
330
6F
100
AcDbEntity
  8
AD-4382
  6
Continuous
 62
     7
100
AcDbLine
 10
186.9368369875999
 20
182.3352443802
 30
0.0
 11
185.1565308332
 21
182.3352443802
 31
0.0
  0
LINE
  5
92
330
6F
100
AcDbEntity
  8
AD-4382
  6
Continuous
 62
     7
100
AcDbLine
 10
185.1565308332
 20
182.3352443802
 30
0.0
 11
185.1565308332
 21
180.8352443802
 31
0.0
  0
LINE
  5
93
330
6F
100
AcDbEntity
  8
AD-4382
  6
Continuous
 62
     7
100
AcDbLine
 10
185.1565308332
 20
180.8352443802
 30
0.0
 11
186.9368369875999
 21
180.8352443802
 31
0.0
  0
LINE
  5
94
330
6F
100
AcDbEntity
  8
AD-4382
  6
Continuous
 62
     7
100
AcDbLine
 10
187.6565308332
 20
184.8352443802
 30
0.0
 11
187.6565308332
 21
183.0549382259
 31
0.0
  0
LINE
  5
95
330
6F
100
AcDbEntity
  8
AD-4382
  6
Continuous
 62
     7
100
AcDbLine
 10
189.1565308332
 20
184.8352443802
 30
0.0
 11
187.6565308332
 21
184.8352443802
 31
0.0
  0
LINE
  5
96
330
6F
100
AcDbEntity
  8
AD-4382
  6
Continuous
 62
     7
100
AcDbLine
 10
189.1565308332
 20
183.0549382259
 30
0.0
 11
189.1565308332
 21
184.8352443802
 31
0.0
  0
LINE
  5
97
330
6F
100
AcDbEntity
  8
AD-4382
  6
Continuous
 62
     7
100
AcDbLine
 10
191.6565308332
 20
182.3352443802
 30
0.0
 11
189.8762246789
 21
182.3352443802
 31
0.0
  0
LINE
  5
98
330
6F
100
AcDbEntity
  8
AD-4382
  6
Continuous
 62
     7
100
AcDbLine
 10
191.6565308332
 20
180.8352443802
 30
0.0
 11
191.6565308332
 21
182.3352443802
 31
0.0
  0
LINE
  5
99
330
6F
100
AcDbEntity
  8
AD-4382
  6
Continuous
 62
     7
100
AcDbLine
 10
189.8762246789
 20
180.8352443802
 30
0.0
 11
191.6565308332
 21
180.8352443802
 31
0.0
  0
LINE
  5
9A
330
6F
100
AcDbEntity
  8
AD-4382
  6
Continuous
 62
     7
100
AcDbLine
 10
189.1565308332
 20
178.3352443802
 30
0.0
 11
189.1565308332
 21
180.1155505345
 31
0.0
  0
LINE
  5
9B
330
6F
100
AcDbEntity
  8
AD-4382
  6
Continuous
 62
     7
100
AcDbLine
 10
187.6565308332
 20
178.3352443802
 30
0.0
 11
189.1565308332
 21
178.3352443802
 31
0.0
  0
LINE
  5
9C
330
6F
100
AcDbEntity
  8
AD-4382
  6
Continuous
 62
     7
100
AcDbLine
 10
187.6565308332
 20
180.1155505345
 30
0.0
 11
187.6565308332
 21
178.3352443802
 31
0.0
  0
LINE
  5
9D
330
6F
100
AcDbEntity
  8
AD-4382
  6
Continuous
 62
     7
100
AcDbLine
 10
189.1565308332
 20
180.8352443802
 30
0.0
 11
189.8762246789
 21
180.8352443802
 31
0.0
  0
LINE
  5
9E
330
6F
100
AcDbEntity
  8
AD-4382
  6
Continuous
 62
     7
100
AcDbLine
 10
189.1565308332
 20
182.3352443802
 30
0.0
 11
189.1565308332
 21
183.0549382259
 31
0.0
  0
LINE
  5
9F
330
6F
100
AcDbEntity
  8
AD-4382
  6
Continuous
 62
     7
100
AcDbLine
 10
187.6565308332
 20
182.3352443802
 30
0.0
 11
186.9368369875999
 21
182.3352443802
 31
0.0
  0
LINE
  5
A0
330
6F
100
AcDbEntity
  8
AD-4382
  6
Continuous
 62
     7
100
AcDbLine
 10
187.6565308332
 20
180.8352443802
 30
0.0
 11
187.6565308332
 21
180.1155505345
 31
0.0
  0
LINE
  5
A1
330
6F
100
AcDbEntity
  8
AD-4382
  6
Continuous
 62
     7
100
AcDbLine
 10
189.8762246789
 20
182.3352443802
 30
0.0
 11
189.1565308332
 21
182.3352443802
 31
0.0
  0
LINE
  5
A2
330
6F
100
AcDbEntity
  8
AD-4382
  6
Continuous
 62
     7
100
AcDbLine
 10
187.6565308332
 20
183.0549382259
 30
0.0
 11
187.6565308332
 21
182.3352443802
 31
0.0
  0
LINE
  5
A3
330
6F
100
AcDbEntity
  8
AD-4382
  6
Continuous
 62
     7
100
AcDbLine
 10
186.9368369875999
 20
180.8352443802
 30
0.0
 11
187.6565308332
 21
180.8352443802
 31
0.0
  0
LINE
  5
A4
330
6F
100
AcDbEntity
  8
AD-4382
  6
Continuous
 62
     7
100
AcDbLine
 10
189.1565308332
 20
180.1155505345
 30
0.0
 11
189.1565308332
 21
180.8352443802
 31
0.0
  0
CIRCLE
  5
A5
330
6F
100
AcDbEntity
  8
AD-4382
  6
Continuous
 62
     7
100
AcDbCircle
 10
254.9065308332
 20
181.5852443802
 30
0.0
 40
5.7
  0
LINE
  5
A6
330
6F
100
AcDbEntity
  8
AD-4382
  6
Continuous
 62
     7
100
AcDbLine
 10
254.1565308332
 20
182.3352443802
 30
0.0
 11
253.4368369876
 21
182.3352443802
 31
0.0
  0
LINE
  5
A7
330
6F
100
AcDbEntity
  8
AD-4382
  6
Continuous
 62
     7
100
AcDbLine
 10
254.1565308332
 20
183.0549382259
 30
0.0
 11
254.1565308332
 21
182.3352443802
 31
0.0
  0
LINE
  5
A8
330
6F
100
AcDbEntity
  8
AD-4382
  6
Continuous
 62
     7
100
AcDbLine
 10
255.6565308332
 20
182.3352443802
 30
0.0
 11
255.6565308332
 21
183.0549382259
 31
0.0
  0
LINE
  5
A9
330
6F
100
AcDbEntity
  8
AD-4382
  6
Continuous
 62
     7
100
AcDbLine
 10
256.3762246789
 20
182.3352443802
 30
0.0
 11
255.6565308332
 21
182.3352443802
 31
0.0
  0
LINE
  5
AA
330
6F
100
AcDbEntity
  8
AD-4382
  6
Continuous
 62
     7
100
AcDbLine
 10
255.6565308332
 20
180.8352443802
 30
0.0
 11
256.3762246789
 21
180.8352443802
 31
0.0
  0
LINE
  5
AB
330
6F
100
AcDbEntity
  8
AD-4382
  6
Continuous
 62
     7
100
AcDbLine
 10
255.6565308332
 20
180.1155505345
 30
0.0
 11
255.6565308332
 21
180.8352443802
 31
0.0
  0
LINE
  5
AC
330
6F
100
AcDbEntity
  8
AD-4382
  6
Continuous
 62
     7
100
AcDbLine
 10
254.1565308332
 20
180.8352443802
 30
0.0
 11
254.1565308332
 21
180.1155505345
 31
0.0
  0
LINE
  5
AD
330
6F
100
AcDbEntity
  8
AD-4382
  6
Continuous
 62
     7
100
AcDbLine
 10
253.4368369876
 20
180.8352443802
 30
0.0
 11
254.1565308332
 21
180.8352443802
 31
0.0
  0
CIRCLE
  5
AE
330
6F
100
AcDbEntity
  8
AD-4382
  6
Continuous
 62
     7
100
AcDbCircle
 10
254.9065308332
 20
181.5852443802
 30
0.0
 40
4.15
  0
LINE
  5
AF
330
6F
100
AcDbEntity
  8
AD-4382
  6
Continuous
 62
     7
100
AcDbLine
 10
254.1565308332
 20
178.3352443802
 30
0.0
 11
255.6565308332
 21
178.3352443802
 31
0.0
  0
LINE
  5
B0
330
6F
100
AcDbEntity
  8
AD-4382
  6
Continuous
 62
     7
100
AcDbLine
 10
255.6565308332
 20
178.3352443802
 30
0.0
 11
255.6565308332
 21
180.1155505345
 31
0.0
  0
LINE
  5
B1
330
6F
100
AcDbEntity
  8
AD-4382
  6
Continuous
 62
     7
100
AcDbLine
 10
256.3762246789
 20
180.8352443802
 30
0.0
 11
258.1565308332
 21
180.8352443802
 31
0.0
  0
LINE
  5
B2
330
6F
100
AcDbEntity
  8
AD-4382
  6
Continuous
 62
     7
100
AcDbLine
 10
258.1565308332
 20
180.8352443802
 30
0.0
 11
258.1565308332
 21
182.3352443802
 31
0.0
  0
LINE
  5
B3
330
6F
100
AcDbEntity
  8
AD-4382
  6
Continuous
 62
     7
100
AcDbLine
 10
258.1565308332
 20
182.3352443802
 30
0.0
 11
256.3762246789
 21
182.3352443802
 31
0.0
  0
LINE
  5
B4
330
6F
100
AcDbEntity
  8
AD-4382
  6
Continuous
 62
     7
100
AcDbLine
 10
255.6565308332
 20
183.0549382259
 30
0.0
 11
255.6565308332
 21
184.8352443802
 31
0.0
  0
LINE
  5
B5
330
6F
100
AcDbEntity
  8
AD-4382
  6
Continuous
 62
     7
100
AcDbLine
 10
255.6565308332
 20
184.8352443802
 30
0.0
 11
254.1565308332
 21
184.8352443802
 31
0.0
  0
LINE
  5
B6
330
6F
100
AcDbEntity
  8
AD-4382
  6
Continuous
 62
     7
100
AcDbLine
 10
254.1565308332
 20
184.8352443802
 30
0.0
 11
254.1565308332
 21
183.0549382259
 31
0.0
  0
LINE
  5
B7
330
6F
100
AcDbEntity
  8
AD-4382
  6
Continuous
 62
     7
100
AcDbLine
 10
253.4368369876
 20
182.3352443802
 30
0.0
 11
251.6565308332
 21
182.3352443802
 31
0.0
  0
LINE
  5
B8
330
6F
100
AcDbEntity
  8
AD-4382
  6
Continuous
 62
     7
100
AcDbLine
 10
251.6565308332
 20
182.3352443802
 30
0.0
 11
251.6565308332
 21
180.8352443802
 31
0.0
  0
LINE
  5
B9
330
6F
100
AcDbEntity
  8
AD-4382
  6
Continuous
 62
     7
100
AcDbLine
 10
251.6565308332
 20
180.8352443802
 30
0.0
 11
253.4368369876
 21
180.8352443802
 31
0.0
  0
LINE
  5
BA
330
6F
100
AcDbEntity
  8
AD-4382
  6
Continuous
 62
     7
100
AcDbLine
 10
254.1565308332
 20
180.1155505345
 30
0.0
 11
254.1565308332
 21
178.3352443802
 31
0.0
  0
CIRCLE
  5
BB
330
6F
100
AcDbEntity
  8
AD-4382
  6
Continuous
 62
     7
100
AcDbCircle
 10
188.4065308332
 20
248.0852443802
 30
0.0
 40
5.7
  0
LINE
  5
BC
330
6F
100
AcDbEntity
  8
AD-4382
  6
Continuous
 62
     7
100
AcDbLine
 10
187.6565308332
 20
248.8352443802
 30
0.0
 11
186.9368369875999
 21
248.8352443802
 31
0.0
  0
LINE
  5
BD
330
6F
100
AcDbEntity
  8
AD-4382
  6
Continuous
 62
     7
100
AcDbLine
 10
187.6565308332
 20
249.5549382259
 30
0.0
 11
187.6565308332
 21
248.8352443802
 31
0.0
  0
LINE
  5
BE
330
6F
100
AcDbEntity
  8
AD-4382
  6
Continuous
 62
     7
100
AcDbLine
 10
189.1565308332
 20
248.8352443802
 30
0.0
 11
189.1565308332
 21
249.5549382259
 31
0.0
  0
LINE
  5
BF
330
6F
100
AcDbEntity
  8
AD-4382
  6
Continuous
 62
     7
100
AcDbLine
 10
189.8762246789
 20
248.8352443802
 30
0.0
 11
189.1565308332
 21
248.8352443802
 31
0.0
  0
LINE
  5
C0
330
6F
100
AcDbEntity
  8
AD-4382
  6
Continuous
 62
     7
100
AcDbLine
 10
189.1565308332
 20
247.3352443802
 30
0.0
 11
189.8762246789
 21
247.3352443802
 31
0.0
  0
LINE
  5
C1
330
6F
100
AcDbEntity
  8
AD-4382
  6
Continuous
 62
     7
100
AcDbLine
 10
189.1565308332
 20
246.6155505345
 30
0.0
 11
189.1565308332
 21
247.3352443802
 31
0.0
  0
LINE
  5
C2
330
6F
100
AcDbEntity
  8
AD-4382
  6
Continuous
 62
     7
100
AcDbLine
 10
187.6565308332
 20
247.3352443802
 30
0.0
 11
187.6565308332
 21
246.6155505345
 31
0.0
  0
LINE
  5
C3
330
6F
100
AcDbEntity
  8
AD-4382
  6
Continuous
 62
     7
100
AcDbLine
 10
186.9368369875999
 20
247.3352443802
 30
0.0
 11
187.6565308332
 21
247.3352443802
 31
0.0
  0
CIRCLE
  5
C4
330
6F
100
AcDbEntity
  8
AD-4382
  6
Continuous
 62
     7
100
AcDbCircle
 10
188.4065308332
 20
248.0852443802
 30
0.0
 40
4.15
  0
LINE
  5
C5
330
6F
100
AcDbEntity
  8
AD-4382
  6
Continuous
 62
     7
100
AcDbLine
 10
187.6565308332
 20
244.8352443802
 30
0.0
 11
189.1565308332
 21
244.8352443802
 31
0.0
  0
LINE
  5
C6
330
6F
100
AcDbEntity
  8
AD-4382
  6
Continuous
 62
     7
100
AcDbLine
 10
189.1565308332
 20
244.8352443802
 30
0.0
 11
189.1565308332
 21
246.6155505345
 31
0.0
  0
LINE
  5
C7
330
6F
100
AcDbEntity
  8
AD-4382
  6
Continuous
 62
     7
100
AcDbLine
 10
189.8762246789
 20
247.3352443802
 30
0.0
 11
191.6565308332
 21
247.3352443802
 31
0.0
  0
LINE
  5
C8
330
6F
100
AcDbEntity
  8
AD-4382
  6
Continuous
 62
     7
100
AcDbLine
 10
191.6565308332
 20
247.3352443802
 30
0.0
 11
191.6565308332
 21
248.8352443802
 31
0.0
  0
LINE
  5
C9
330
6F
100
AcDbEntity
  8
AD-4382
  6
Continuous
 62
     7
100
AcDbLine
 10
191.6565308332
 20
248.8352443802
 30
0.0
 11
189.8762246789
 21
248.8352443802
 31
0.0
  0
LINE
  5
CA
330
6F
100
AcDbEntity
  8
AD-4382
  6
Continuous
 62
     7
100
AcDbLine
 10
189.1565308332
 20
249.5549382259
 30
0.0
 11
189.1565308332
 21
251.3352443802
 31
0.0
  0
LINE
  5
CB
330
6F
100
AcDbEntity
  8
AD-4382
  6
Continuous
 62
     7
100
AcDbLine
 10
189.1565308332
 20
251.3352443802
 30
0.0
 11
187.6565308332
 21
251.3352443802
 31
0.0
  0
LINE
  5
CC
330
6F
100
AcDbEntity
  8
AD-4382
  6
Continuous
 62
     7
100
AcDbLine
 10
187.6565308332
 20
251.3352443802
 30
0.0
 11
187.6565308332
 21
249.5549382259
 31
0.0
  0
LINE
  5
CD
330
6F
100
AcDbEntity
  8
AD-4382
  6
Continuous
 62
     7
100
AcDbLine
 10
186.9368369875999
 20
248.8352443802
 30
0.0
 11
185.1565308332
 21
248.8352443802
 31
0.0
  0
LINE
  5
CE
330
6F
100
AcDbEntity
  8
AD-4382
  6
Continuous
 62
     7
100
AcDbLine
 10
185.1565308332
 20
248.8352443802
 30
0.0
 11
185.1565308332
 21
247.3352443802
 31
0.0
  0
LINE
  5
CF
330
6F
100
AcDbEntity
  8
AD-4382
  6
Continuous
 62
     7
100
AcDbLine
 10
185.1565308332
 20
247.3352443802
 30
0.0
 11
186.9368369875999
 21
247.3352443802
 31
0.0
  0
LINE
  5
D0
330
6F
100
AcDbEntity
  8
AD-4382
  6
Continuous
 62
     7
100
AcDbLine
 10
187.6565308332
 20
246.6155505345
 30
0.0
 11
187.6565308332
 21
244.8352443802
 31
0.0
  0
LINE
  5
D1
330
6F
100
AcDbEntity
  8
AD-4382
  6
Continuous
 62
     7
100
AcDbLine
 10
254.1565308332
 20
246.6155505345
 30
0.0
 11
254.1565308332
 21
244.8352443802
 31
0.0
  0
LINE
  5
D2
330
6F
100
AcDbEntity
  8
AD-4382
  6
Continuous
 62
     7
100
AcDbLine
 10
251.6565308332
 20
247.3352443802
 30
0.0
 11
253.4368369876
 21
247.3352443802
 31
0.0
  0
LINE
  5
D3
330
6F
100
AcDbEntity
  8
AD-4382
  6
Continuous
 62
     7
100
AcDbLine
 10
251.6565308332
 20
248.8352443802
 30
0.0
 11
251.6565308332
 21
247.3352443802
 31
0.0
  0
LINE
  5
D4
330
6F
100
AcDbEntity
  8
AD-4382
  6
Continuous
 62
     7
100
AcDbLine
 10
253.4368369876
 20
248.8352443802
 30
0.0
 11
251.6565308332
 21
248.8352443802
 31
0.0
  0
LINE
  5
D5
330
6F
100
AcDbEntity
  8
AD-4382
  6
Continuous
 62
     7
100
AcDbLine
 10
254.1565308332
 20
251.3352443802
 30
0.0
 11
254.1565308332
 21
249.5549382259
 31
0.0
  0
LINE
  5
D6
330
6F
100
AcDbEntity
  8
AD-4382
  6
Continuous
 62
     7
100
AcDbLine
 10
255.6565308332
 20
251.3352443802
 30
0.0
 11
254.1565308332
 21
251.3352443802
 31
0.0
  0
LINE
  5
D7
330
6F
100
AcDbEntity
  8
AD-4382
  6
Continuous
 62
     7
100
AcDbLine
 10
255.6565308332
 20
249.5549382259
 30
0.0
 11
255.6565308332
 21
251.3352443802
 31
0.0
  0
LINE
  5
D8
330
6F
100
AcDbEntity
  8
AD-4382
  6
Continuous
 62
     7
100
AcDbLine
 10
258.1565308332
 20
248.8352443802
 30
0.0
 11
256.3762246789
 21
248.8352443802
 31
0.0
  0
LINE
  5
D9
330
6F
100
AcDbEntity
  8
AD-4382
  6
Continuous
 62
     7
100
AcDbLine
 10
258.1565308332
 20
247.3352443802
 30
0.0
 11
258.1565308332
 21
248.8352443802
 31
0.0
  0
LINE
  5
DA
330
6F
100
AcDbEntity
  8
AD-4382
  6
Continuous
 62
     7
100
AcDbLine
 10
256.3762246789
 20
247.3352443802
 30
0.0
 11
258.1565308332
 21
247.3352443802
 31
0.0
  0
LINE
  5
DB
330
6F
100
AcDbEntity
  8
AD-4382
  6
Continuous
 62
     7
100
AcDbLine
 10
255.6565308332
 20
244.8352443802
 30
0.0
 11
255.6565308332
 21
246.6155505345
 31
0.0
  0
LINE
  5
DC
330
6F
100
AcDbEntity
  8
AD-4382
  6
Continuous
 62
     7
100
AcDbLine
 10
254.1565308332
 20
244.8352443802
 30
0.0
 11
255.6565308332
 21
244.8352443802
 31
0.0
  0
CIRCLE
  5
DD
330
6F
100
AcDbEntity
  8
AD-4382
  6
Continuous
 62
     7
100
AcDbCircle
 10
254.9065308332
 20
248.0852443802
 30
0.0
 40
4.15
  0
LINE
  5
DE
330
6F
100
AcDbEntity
  8
AD-4382
  6
Continuous
 62
     7
100
AcDbLine
 10
253.4368369876
 20
247.3352443802
 30
0.0
 11
254.1565308332
 21
247.3352443802
 31
0.0
  0
LINE
  5
DF
330
6F
100
AcDbEntity
  8
AD-4382
  6
Continuous
 62
     7
100
AcDbLine
 10
254.1565308332
 20
247.3352443802
 30
0.0
 11
254.1565308332
 21
246.6155505345
 31
0.0
  0
LINE
  5
E0
330
6F
100
AcDbEntity
  8
AD-4382
  6
Continuous
 62
     7
100
AcDbLine
 10
255.6565308332
 20
246.6155505345
 30
0.0
 11
255.6565308332
 21
247.3352443802
 31
0.0
  0
LINE
  5
E1
330
6F
100
AcDbEntity
  8
AD-4382
  6
Continuous
 62
     7
100
AcDbLine
 10
255.6565308332
 20
247.3352443802
 30
0.0
 11
256.3762246789
 21
247.3352443802
 31
0.0
  0
LINE
  5
E2
330
6F
100
AcDbEntity
  8
AD-4382
  6
Continuous
 62
     7
100
AcDbLine
 10
256.3762246789
 20
248.8352443802
 30
0.0
 11
255.6565308332
 21
248.8352443802
 31
0.0
  0
LINE
  5
E3
330
6F
100
AcDbEntity
  8
AD-4382
  6
Continuous
 62
     7
100
AcDbLine
 10
255.6565308332
 20
248.8352443802
 30
0.0
 11
255.6565308332
 21
249.5549382259
 31
0.0
  0
LINE
  5
E4
330
6F
100
AcDbEntity
  8
AD-4382
  6
Continuous
 62
     7
100
AcDbLine
 10
254.1565308332
 20
249.5549382259
 30
0.0
 11
254.1565308332
 21
248.8352443802
 31
0.0
  0
LINE
  5
E5
330
6F
100
AcDbEntity
  8
AD-4382
  6
Continuous
 62
     7
100
AcDbLine
 10
254.1565308332
 20
248.8352443802
 30
0.0
 11
253.4368369876
 21
248.8352443802
 31
0.0
  0
CIRCLE
  5
E6
330
6F
100
AcDbEntity
  8
AD-4382
  6
Continuous
 62
     7
100
AcDbCircle
 10
254.9065308332
 20
248.0852443802
 30
0.0
 40
5.7
  0
LINE
  5
E7
330
6F
100
AcDbEntity
  8
AD-4382
  6
Continuous
 62
     7
100
AcDbLine
 10
157.6565308332
 20
203.8352443802
 30
0.0
 11
157.6565308332
 21
225.8352443802
 31
0.0
  0
LINE
  5
E8
330
6F
100
AcDbEntity
  8
AD-4382
  6
Continuous
 62
     7
100
AcDbLine
 10
152.6565308332
 20
213.9434611342
 30
0.0
 11
152.6565308332
 21
217.64578175
 31
0.0
  0
LINE
  5
E9
330
6F
100
AcDbEntity
  8
AD-4382
  6
Continuous
 62
     7
100
AcDbLine
 10
152.6565308332
 20
207.1073419495
 30
0.0
 11
152.6565308332
 21
207.2357074958
 31
0.0
  0
LINE
  5
EA
330
6F
100
AcDbEntity
  8
AD-4382
  6
Continuous
 62
     7
100
AcDbLine
 10
147.6565308332
 20
213.9434611342
 30
0.0
 11
147.6565308332
 21
207.2357074958
 31
0.0
  0
LINE
  5
EB
330
6F
100
AcDbEntity
  8
AD-4382
  6
Continuous
 62
     7
100
AcDbLine
 10
147.6565308332
 20
204.8944308522
 30
0.0
 11
147.6565308332
 21
203.8352443802
 31
0.0
  0
LINE
  5
EC
330
6F
100
AcDbEntity
  8
AD-4382
  6
Continuous
 62
     7
100
AcDbLine
 10
147.6565308332
 20
225.522340269
 30
0.0
 11
147.6565308332
 21
225.8352443802
 31
0.0
  0
LINE
  5
ED
330
6F
100
AcDbEntity
  8
AD-4382
  6
Continuous
 62
     7
100
AcDbLine
 10
147.6565308332
 20
223.8842746622
 30
0.0
 11
147.6565308332
 21
217.9228033847
 31
0.0
  0
LINE
  5
EE
330
6F
100
AcDbEntity
  8
AD-4382
  6
Continuous
 62
     7
100
AcDbLine
 10
152.6565308332
 20
213.9434611342
 30
0.0
 11
152.6565308332
 21
207.2357074958
 31
0.0
  0
LINE
  5
EF
330
6F
100
AcDbEntity
  8
AD-4382
  6
Continuous
 62
     7
100
AcDbLine
 10
152.6565308332
 20
204.8944308522
 30
0.0
 11
152.6565308332
 21
203.8352443802
 31
0.0
  0
LINE
  5
F0
330
6F
100
AcDbEntity
  8
AD-4382
  6
Continuous
 62
     7
100
AcDbLine
 10
152.6565308332
 20
225.522340269
 30
0.0
 11
152.6565308332
 21
225.8352443802
 31
0.0
  0
LINE
  5
F1
330
6F
100
AcDbEntity
  8
AD-4382
  6
Continuous
 62
     7
100
AcDbLine
 10
152.6565308332
 20
223.8842746622
 30
0.0
 11
152.6565308332
 21
217.9228033847
 31
0.0
  0
LINE
  5
F2
330
6F
100
AcDbEntity
  8
AD-4382
  6
Continuous
 62
     7
100
AcDbLine
 10
147.6565308332
 20
217.9228033847
 30
0.0
 11
152.6565308332
 21
217.9228033847
 31
0.0
  0
LINE
  5
F3
330
6F
100
AcDbEntity
  8
AD-4382
  6
Continuous
 62
     7
100
AcDbLine
 10
152.6565308332
 20
213.9434611342
 30
0.0
 11
147.6565308332
 21
213.9434611342
 31
0.0
  0
LINE
  5
F4
330
6F
100
AcDbEntity
  8
AD-4382
  6
HIDDEN2
 62
     7
100
AcDbLine
 10
152.6565308332
 20
213.6575714177
 30
0.0
 11
147.6565308332
 21
213.6575714177
 31
0.0
  0
LINE
  5
F5
330
6F
100
AcDbEntity
  8
AD-4382
  6
Continuous
 62
     7
100
AcDbLine
 10
152.6565308332
 20
217.6369136681
 30
0.0
 11
147.6565308332
 21
217.6369136681
 31
0.0
  0
LINE
  5
F6
330
6F
100
AcDbEntity
  8
AD-4382
  6
Continuous
 62
     7
100
AcDbLine
 10
152.6565308332
 20
217.64578175
 30
0.0
 11
152.6565308332
 21
217.9228033847
 31
0.0
  0
LINE
  5
F7
330
6F
100
AcDbEntity
  8
AD-4382
  6
Continuous
 62
     7
100
AcDbLine
 10
147.6565308332
 20
213.9434611342
 30
0.0
 11
147.6565308332
 21
217.6369136681
 31
0.0
  0
LINE
  5
F8
330
6F
100
AcDbEntity
  8
AD-4382
  6
Continuous
 62
     7
100
AcDbLine
 10
147.6565308332
 20
217.6369136681
 30
0.0
 11
147.6565308332
 21
217.9228033847
 31
0.0
  0
LINE
  5
F9
330
6F
100
AcDbEntity
  8
AD-4382
  6
Continuous
 62
     7
100
AcDbLine
 10
147.6565308332
 20
207.2357074958
 30
0.0
 11
152.6565308332
 21
207.2357074958
 31
0.0
  0
LINE
  5
FA
330
6F
100
AcDbEntity
  8
AD-4382
  6
Continuous
 62
     7
100
AcDbLine
 10
152.6565308332
 20
204.8944308522
 30
0.0
 11
147.6565308332
 21
204.8944308522
 31
0.0
  0
LINE
  5
FB
330
6F
100
AcDbEntity
  8
AD-4382
  6
HIDDEN2
 62
     7
100
AcDbLine
 10
152.6565308332
 20
209.5194588249
 30
0.0
 11
147.6565308332
 21
209.5194588249
 31
0.0
  0
LINE
  5
FC
330
6F
100
AcDbEntity
  8
AD-4382
  6
Continuous
 62
     7
100
AcDbLine
 10
152.6565308332
 20
207.1781821814
 30
0.0
 11
147.6565308332
 21
207.1781821814
 31
0.0
  0
LINE
  5
FD
330
6F
100
AcDbEntity
  8
AD-4382
  6
Continuous
 62
     7
100
AcDbLine
 10
152.6565308332
 20
204.8944308522
 30
0.0
 11
152.6565308332
 21
207.1073419495
 31
0.0
  0
LINE
  5
FE
330
6F
100
AcDbEntity
  8
AD-4382
  6
Continuous
 62
     7
100
AcDbLine
 10
147.6565308332
 20
204.8944308522
 30
0.0
 11
147.6565308332
 21
207.1781821814
 31
0.0
  0
LINE
  5
FF
330
6F
100
AcDbEntity
  8
AD-4382
  6
Continuous
 62
     7
100
AcDbLine
 10
147.6565308332
 20
207.1781821814
 30
0.0
 11
147.6565308332
 21
207.2357074958
 31
0.0
  0
LINE
  5
100
330
6F
100
AcDbEntity
  8
AD-4382
  6
HIDDEN2
 62
     7
100
AcDbLine
 10
147.6565308332
 20
204.1481484914
 30
0.0
 11
152.6565308332
 21
204.1481484914
 31
0.0
  0
LINE
  5
101
330
6F
100
AcDbEntity
  8
AD-4382
  6
HIDDEN2
 62
     7
100
AcDbLine
 10
152.6565308332
 20
205.7862140982
 30
0.0
 11
147.6565308332
 21
205.7862140982
 31
0.0
  0
LINE
  5
102
330
6F
100
AcDbEntity
  8
AD-4382
  6
HIDDEN2
 62
     7
100
AcDbLine
 10
152.6565308332
 20
206.717789537
 30
0.0
 11
147.6565308332
 21
206.717789537
 31
0.0
  0
LINE
  5
103
330
6F
100
AcDbEntity
  8
AD-4382
  6
HIDDEN2
 62
     7
100
AcDbLine
 10
152.6565308332
 20
208.3558551438
 30
0.0
 11
147.6565308332
 21
208.3558551438
 31
0.0
  0
LINE
  5
104
330
6F
100
AcDbEntity
  8
AD-4382
  6
HIDDEN2
 62
     7
100
AcDbLine
 10
152.6565308332
 20
215.7270276262
 30
0.0
 11
147.6565308332
 21
215.7270276262
 31
0.0
  0
LINE
  5
105
330
6F
100
AcDbEntity
  8
AD-4382
  6
HIDDEN2
 62
     7
100
AcDbLine
 10
147.6565308332
 20
211.7476853758
 30
0.0
 11
152.6565308332
 21
211.7476853758
 31
0.0
  0
LINE
  5
106
330
6F
100
AcDbEntity
  8
AD-4382
  6
HIDDEN2
 62
     7
100
AcDbLine
 10
152.6565308332
 20
216.0129173427
 30
0.0
 11
147.6565308332
 21
216.0129173427
 31
0.0
  0
LINE
  5
107
330
6F
100
AcDbEntity
  8
AD-4382
  6
HIDDEN2
 62
     7
100
AcDbLine
 10
152.6565308332
 20
212.0335750923
 30
0.0
 11
147.6565308332
 21
212.0335750923
 31
0.0
  0
LINE
  5
108
330
6F
100
AcDbEntity
  8
AD-4382
  6
HIDDEN2
 62
     7
100
AcDbLine
 10
152.6565308332
 20
224.7760579082
 30
0.0
 11
147.6565308332
 21
224.7760579082
 31
0.0
  0
LINE
  5
109
330
6F
100
AcDbEntity
  8
AD-4382
  6
HIDDEN2
 62
     7
100
AcDbLine
 10
147.6565308332
 20
222.4347812646
 30
0.0
 11
152.6565308332
 21
222.4347812646
 31
0.0
  0
LINE
  5
10A
330
6F
100
AcDbEntity
  8
AD-4382
  6
HIDDEN2
 62
     7
100
AcDbLine
 10
152.6565308332
 20
222.4923065791
 30
0.0
 11
147.6565308332
 21
222.4923065791
 31
0.0
  0
LINE
  5
10B
330
6F
100
AcDbEntity
  8
AD-4382
  6
HIDDEN2
 62
     7
100
AcDbLine
 10
152.6565308332
 20
220.1510299355
 30
0.0
 11
147.6565308332
 21
220.1510299355
 31
0.0
  0
LINE
  5
10C
330
6F
100
AcDbEntity
  8
AD-4382
  6
Continuous
 62
     7
100
AcDbLine
 10
152.6565308332
 20
223.8842746622
 30
0.0
 11
147.6565308332
 21
223.8842746622
 31
0.0
  0
LINE
  5
10D
330
6F
100
AcDbEntity
  8
AD-4382
  6
Continuous
 62
     7
100
AcDbLine
 10
147.6565308332
 20
225.522340269
 30
0.0
 11
152.6565308332
 21
225.522340269
 31
0.0
  0
LINE
  5
10E
330
6F
100
AcDbEntity
  8
AD-4382
  6
HIDDEN2
 62
     7
100
AcDbLine
 10
152.6565308332
 20
221.3146336166
 30
0.0
 11
147.6565308332
 21
221.3146336166
 31
0.0
  0
LINE
  5
10F
330
6F
100
AcDbEntity
  8
AD-4382
  6
HIDDEN2
 62
     7
100
AcDbLine
 10
152.6565308332
 20
222.9526992234
 30
0.0
 11
147.6565308332
 21
222.9526992234
 31
0.0
  0
LINE
  5
110
330
6F
100
AcDbEntity
  8
AD-4382
  6
Continuous
 62
     7
100
AcDbLine
 10
152.6565308332
 20
223.8842746622
 30
0.0
 11
152.6565308332
 21
225.522340269
 31
0.0
  0
LINE
  5
111
330
6F
100
AcDbEntity
  8
AD-4382
  6
Continuous
 62
     7
100
AcDbLine
 10
147.6565308332
 20
223.8842746622
 30
0.0
 11
147.6565308332
 21
225.522340269
 31
0.0
  0
LINE
  5
112
330
6F
100
AcDbEntity
  8
AD-4382
  6
HIDDEN2
 62
     7
100
AcDbLine
 10
245.9065308332
 20
173.8352443802
 30
0.0
 11
252.6565308332
 21
173.8352443802
 31
0.0
  0
ARC
  5
113
330
6F
100
AcDbEntity
  8
AD-4382
  6
HIDDEN2
 62
     7
100
AcDbCircle
 10
252.6565308332
 20
183.8352443802
 30
0.0
 40
9.999999999999998
100
AcDbArc
 50
270.0
 51
360.0
  0
LINE
  5
114
330
6F
100
AcDbEntity
  8
AD-4382
  6
HIDDEN2
 62
     7
100
AcDbLine
 10
262.6565308332
 20
183.8352443802
 30
0.0
 11
262.6565308332
 21
190.5852443802
 31
0.0
  0
LINE
  5
115
330
6F
100
AcDbEntity
  8
AD-4382
  6
HIDDEN2
 62
     7
100
AcDbLine
 10
262.6565308332
 20
239.0852443802
 30
0.0
 11
262.6565308332
 21
245.8352443802
 31
0.0
  0
ARC
  5
116
330
6F
100
AcDbEntity
  8
AD-4382
  6
HIDDEN2
 62
     7
100
AcDbCircle
 10
252.6565308332
 20
245.8352443802
 30
0.0
 40
9.999999999999998
100
AcDbArc
 50
0.0
 51
90.0
  0
LINE
  5
117
330
6F
100
AcDbEntity
  8
AD-4382
  6
HIDDEN2
 62
     7
100
AcDbLine
 10
252.6565308332
 20
255.8352443802
 30
0.0
 11
245.9065308332
 21
255.8352443802
 31
0.0
  0
LINE
  5
118
330
6F
100
AcDbEntity
  8
AD-4382
  6
HIDDEN2
 62
     7
100
AcDbLine
 10
180.6565308332
 20
245.8352443802
 30
0.0
 11
180.6565308332
 21
239.0852443802
 31
0.0
  0
LINE
  5
119
330
6F
100
AcDbEntity
  8
AD-4382
  6
HIDDEN2
 62
     7
100
AcDbLine
 10
197.4065308332
 20
255.8352443802
 30
0.0
 11
190.6565308332
 21
255.8352443802
 31
0.0
  0
ARC
  5
11A
330
6F
100
AcDbEntity
  8
AD-4382
  6
HIDDEN2
 62
     7
100
AcDbCircle
 10
190.6565308332
 20
245.8352443802
 30
0.0
 40
9.999999999999996
100
AcDbArc
 50
90.0
 51
180.0
  0
LINE
  5
11B
330
6F
100
AcDbEntity
  8
AD-4382
  6
HIDDEN2
 62
     7
100
AcDbLine
 10
197.4065308332
 20
173.8352443802
 30
0.0
 11
190.6565308332
 21
173.8352443802
 31
0.0
  0
ARC
  5
11C
330
6F
100
AcDbEntity
  8
AD-4382
  6
HIDDEN2
 62
     7
100
AcDbCircle
 10
190.6565308332
 20
183.8352443802
 30
0.0
 40
9.999999999999998
100
AcDbArc
 50
180.0
 51
270.0
  0
LINE
  5
11D
330
6F
100
AcDbEntity
  8
AD-4382
  6
HIDDEN2
 62
     7
100
AcDbLine
 10
180.6565308332
 20
183.8352443802
 30
0.0
 11
180.6565308332
 21
190.5852443802
 31
0.0
  0
ARC
  5
11E
330
6F
100
AcDbEntity
  8
AD-4382
  6
HIDDEN2
 62
     7
100
AcDbCircle
 10
254.9065308332
 20
248.0852443802
 30
0.0
 40
5.0
100
AcDbArc
 50
180.0
 51
270.0
  0
LINE
  5
11F
330
6F
100
AcDbEntity
  8
AD-4382
  6
HIDDEN2
 62
     7
100
AcDbLine
 10
249.9065308332
 20
248.0852443802
 30
0.0
 11
249.9065308332
 21
251.8352443802
 31
0.0
  0
ARC
  5
120
330
6F
100
AcDbEntity
  8
AD-4382
  6
HIDDEN2
 62
     7
100
AcDbCircle
 10
245.9065308332
 20
251.8352443802
 30
0.0
 40
4.0
100
AcDbArc
 50
0.0
 51
90.0
  0
LINE
  5
121
330
6F
100
AcDbEntity
  8
AD-4382
  6
HIDDEN2
 62
     7
100
AcDbLine
 10
245.9065308332
 20
255.8352443802
 30
0.0
 11
197.4065308332
 21
255.8352443802
 31
0.0
  0
ARC
  5
122
330
6F
100
AcDbEntity
  8
AD-4382
  6
HIDDEN2
 62
     7
100
AcDbCircle
 10
197.4065308332
 20
251.8352443802
 30
0.0
 40
4.000000000000004
100
AcDbArc
 50
90.0
 51
180.0
  0
LINE
  5
123
330
6F
100
AcDbEntity
  8
AD-4382
  6
HIDDEN2
 62
     7
100
AcDbLine
 10
193.4065308332
 20
251.8352443802
 30
0.0
 11
193.4065308332
 21
248.0852443802
 31
0.0
  0
ARC
  5
124
330
6F
100
AcDbEntity
  8
AD-4382
  6
HIDDEN2
 62
     7
100
AcDbCircle
 10
188.4065308332
 20
248.0852443802
 30
0.0
 40
5.0
100
AcDbArc
 50
270.0
 51
0.0
  0
LINE
  5
125
330
6F
100
AcDbEntity
  8
AD-4382
  6
HIDDEN2
 62
     7
100
AcDbLine
 10
188.4065308332
 20
243.0852443802
 30
0.0
 11
184.6565308332
 21
243.0852443802
 31
0.0
  0
ARC
  5
126
330
6F
100
AcDbEntity
  8
AD-4382
  6
HIDDEN2
 62
     7
100
AcDbCircle
 10
184.6565308332
 20
239.0852443802
 30
0.0
 40
4.0
100
AcDbArc
 50
90.0
 51
180.0
  0
LINE
  5
127
330
6F
100
AcDbEntity
  8
AD-4382
  6
HIDDEN2
 62
     7
100
AcDbLine
 10
180.6565308332
 20
239.0852443802
 30
0.0
 11
180.6565308332
 21
190.5852443802
 31
0.0
  0
ARC
  5
128
330
6F
100
AcDbEntity
  8
AD-4382
  6
HIDDEN2
 62
     7
100
AcDbCircle
 10
184.6565308332
 20
190.5852443802
 30
0.0
 40
4.000000000000004
100
AcDbArc
 50
180.0
 51
270.0
  0
LINE
  5
129
330
6F
100
AcDbEntity
  8
AD-4382
  6
HIDDEN2
 62
     7
100
AcDbLine
 10
184.6565308332
 20
186.5852443802
 30
0.0
 11
188.4065308332
 21
186.5852443802
 31
0.0
  0
ARC
  5
12A
330
6F
100
AcDbEntity
  8
AD-4382
  6
HIDDEN2
 62
     7
100
AcDbCircle
 10
188.4065308332
 20
181.5852443802
 30
0.0
 40
5.0
100
AcDbArc
 50
0.0
 51
90.0
  0
LINE
  5
12B
330
6F
100
AcDbEntity
  8
AD-4382
  6
HIDDEN2
 62
     7
100
AcDbLine
 10
193.4065308332
 20
181.5852443802
 30
0.0
 11
193.4065308332
 21
177.8352443802
 31
0.0
  0
ARC
  5
12C
330
6F
100
AcDbEntity
  8
AD-4382
  6
HIDDEN2
 62
     7
100
AcDbCircle
 10
197.4065308332
 20
177.8352443802
 30
0.0
 40
4.0
100
AcDbArc
 50
180.0
 51
270.0
  0
LINE
  5
12D
330
6F
100
AcDbEntity
  8
AD-4382
  6
HIDDEN2
 62
     7
100
AcDbLine
 10
197.4065308332
 20
173.8352443802
 30
0.0
 11
245.9065308332
 21
173.8352443802
 31
0.0
  0
ARC
  5
12E
330
6F
100
AcDbEntity
  8
AD-4382
  6
HIDDEN2
 62
     7
100
AcDbCircle
 10
245.9065308332
 20
177.8352443802
 30
0.0
 40
3.999999999999996
100
AcDbArc
 50
270.0
 51
360.0
  0
LINE
  5
12F
330
6F
100
AcDbEntity
  8
AD-4382
  6
HIDDEN2
 62
     7
100
AcDbLine
 10
249.9065308332
 20
177.8352443802
 30
0.0
 11
249.9065308332
 21
181.5852443802
 31
0.0
  0
ARC
  5
130
330
6F
100
AcDbEntity
  8
AD-4382
  6
HIDDEN2
 62
     7
100
AcDbCircle
 10
254.9065308332
 20
181.5852443802
 30
0.0
 40
5.0
100
AcDbArc
 50
90.0
 51
180.0
  0
LINE
  5
131
330
6F
100
AcDbEntity
  8
AD-4382
  6
HIDDEN2
 62
     7
100
AcDbLine
 10
254.9065308332
 20
186.5852443802
 30
0.0
 11
258.6565308332
 21
186.5852443802
 31
0.0
  0
ARC
  5
132
330
6F
100
AcDbEntity
  8
AD-4382
  6
HIDDEN2
 62
     7
100
AcDbCircle
 10
258.6565308332
 20
190.5852443802
 30
0.0
 40
4.0
100
AcDbArc
 50
270.0
 51
0.0
  0
LINE
  5
133
330
6F
100
AcDbEntity
  8
AD-4382
  6
HIDDEN2
 62
     7
100
AcDbLine
 10
262.6565308332
 20
190.5852443802
 30
0.0
 11
262.6565308332
 21
239.0852443802
 31
0.0
  0
ARC
  5
134
330
6F
100
AcDbEntity
  8
AD-4382
  6
HIDDEN2
 62
     7
100
AcDbCircle
 10
258.6565308332
 20
239.0852443802
 30
0.0
 40
4.000000000000004
100
AcDbArc
 50
0.0
 51
90.0
  0
LINE
  5
135
330
6F
100
AcDbEntity
  8
AD-4382
  6
HIDDEN2
 62
     7
100
AcDbLine
 10
258.6565308332
 20
243.0852443802
 30
0.0
 11
254.9065308332
 21
243.0852443802
 31
0.0
  0
CIRCLE
  5
136
330
6F
100
AcDbEntity
  8
AD-4382
  6
HIDDEN2
 62
     7
100
AcDbCircle
 10
254.9065308332
 20
248.0852443802
 30
0.0
 40
2.000000000000002
  0
CIRCLE
  5
137
330
6F
100
AcDbEntity
  8
AD-4382
  6
HIDDEN2
 62
     7
100
AcDbCircle
 10
188.4065308332
 20
248.0852443802
 30
0.0
 40
2.000000000000002
  0
CIRCLE
  5
138
330
6F
100
AcDbEntity
  8
AD-4382
  6
HIDDEN2
 62
     7
100
AcDbCircle
 10
188.4065308332
 20
181.5852443802
 30
0.0
 40
2.000000000000002
  0
CIRCLE
  5
139
330
6F
100
AcDbEntity
  8
AD-4382
  6
HIDDEN2
 62
     7
100
AcDbCircle
 10
254.9065308332
 20
181.5852443802
 30
0.0
 40
2.000000000000002
  0
ARC
  5
13A
330
6F
100
AcDbEntity
  8
AD-4382
  6
HIDDEN2
 62
     7
100
AcDbCircle
 10
188.9065308332
 20
247.5852443802
 30
0.0
 40
9.989999999999998
100
AcDbArc
 50
90.0
 51
180.0
  0
LINE
  5
13B
330
6F
100
AcDbEntity
  8
AD-4382
  6
HIDDEN2
 62
     7
100
AcDbLine
 10
178.9165308332
 20
247.5852443802
 30
0.0
 11
178.9165308332
 21
182.0852443802
 31
0.0
  0
ARC
  5
13C
330
6F
100
AcDbEntity
  8
AD-4382
  6
HIDDEN2
 62
     7
100
AcDbCircle
 10
188.9065308332
 20
182.0852443802
 30
0.0
 40
9.989999999999998
100
AcDbArc
 50
180.0
 51
270.0
  0
LINE
  5
13D
330
6F
100
AcDbEntity
  8
AD-4382
  6
HIDDEN2
 62
     7
100
AcDbLine
 10
188.9065308332
 20
172.0952443802
 30
0.0
 11
254.4065308332
 21
172.0952443802
 31
0.0
  0
ARC
  5
13E
330
6F
100
AcDbEntity
  8
AD-4382
  6
HIDDEN2
 62
     7
100
AcDbCircle
 10
254.4065308332
 20
182.0852443802
 30
0.0
 40
9.989999999999998
100
AcDbArc
 50
270.0
 51
0.0
  0
LINE
  5
13F
330
6F
100
AcDbEntity
  8
AD-4382
  6
HIDDEN2
 62
     7
100
AcDbLine
 10
264.3965308332
 20
182.0852443802
 30
0.0
 11
264.3965308332
 21
247.5852443802
 31
0.0
  0
ARC
  5
140
330
6F
100
AcDbEntity
  8
AD-4382
  6
HIDDEN2
 62
     7
100
AcDbCircle
 10
254.4065308332
 20
247.5852443802
 30
0.0
 40
9.989999999999998
100
AcDbArc
 50
0.0
 51
90.0
  0
LINE
  5
141
330
6F
100
AcDbEntity
  8
AD-4382
  6
HIDDEN2
 62
     7
100
AcDbLine
 10
254.4065308332
 20
257.5752443802
 30
0.0
 11
188.9065308332
 21
257.5752443802
 31
0.0
  0
LINE
  5
142
330
6F
100
AcDbEntity
  8
AD-4382
  6
Continuous
 62
     7
100
AcDbLine
 10
255.0406487248
 20
238.1922645069
 30
0.0
 11
255.0460090173
 21
238.1909042043
 31
0.0
  0
ARC
  5
143
330
6F
100
AcDbEntity
  8
AD-4382
  6
Continuous
 62
     7
100
AcDbCircle
 10
254.8421021907
 20
237.5305821164
 30
0.0
 40
0.6910837949552663
100
AcDbArc
 50
15.6705763441
 51
72.83923201420002
  0
ARC
  5
144
330
6F
100
AcDbEntity
  8
AD-4382
  6
Continuous
 62
     7
100
AcDbCircle
 10
254.8420811347
 20
192.1399203402
 30
0.0
 40
0.6911077677789592
100
AcDbArc
 50
287.1619936822
 51
344.3288018905
  0
LINE
  5
145
330
6F
100
AcDbEntity
  8
AD-4382
  6
Continuous
 62
     7
100
AcDbLine
 10
255.0460090169
 20
191.4795845559
 30
0.0
 11
255.0406486827
 21
191.4782243145
 31
0.0
  0
LINE
  5
146
330
6F
100
AcDbEntity
  8
AD-4382
  6
Continuous
 62
     7
100
AcDbLine
 10
245.0135509599
 20
181.4511264887
 30
0.0
 11
245.0121906573
 21
181.4457661962
 31
0.0
  0
ARC
  5
147
330
6F
100
AcDbEntity
  8
AD-4382
  6
Continuous
 62
     7
100
AcDbCircle
 10
244.3518685695
 20
181.6496730228
 30
0.0
 40
0.6910837949502062
100
AcDbArc
 50
285.670576344
 51
342.8392320144
  0
ARC
  5
148
330
6F
100
AcDbEntity
  8
AD-4382
  6
Continuous
 62
     7
100
AcDbCircle
 10
198.9612067932
 20
181.6496940787
 30
0.0
 40
0.6911077677790699
100
AcDbArc
 50
197.1619936822
 51
254.3288018905
  0
LINE
  5
149
330
6F
100
AcDbEntity
  8
AD-4382
  6
Continuous
 62
     7
100
AcDbLine
 10
198.300871009
 20
181.4457661965
 30
0.0
 11
198.2995107675
 21
181.4511265308
 31
0.0
  0
LINE
  5
14A
330
6F
100
AcDbEntity
  8
AD-4382
  6
Continuous
 62
     7
100
AcDbLine
 10
188.2724129418999
 20
191.4782242535
 30
0.0
 11
188.2670526491999
 21
191.4795845561
 31
0.0
  0
ARC
  5
14B
330
6F
100
AcDbEntity
  8
AD-4382
  6
Continuous
 62
     7
100
AcDbCircle
 10
188.4709594758
 20
192.139906644
 30
0.0
 40
0.691083794953814
100
AcDbArc
 50
195.6705763441
 51
252.8392320142
  0
ARC
  5
14C
330
6F
100
AcDbEntity
  8
AD-4382
  6
Continuous
 62
     7
100
AcDbCircle
 10
188.4709805318
 20
237.5305684202
 30
0.0
 40
0.6911077677796066
100
AcDbArc
 50
107.1619936822
 51
164.3288018905
  0
LINE
  5
14D
330
6F
100
AcDbEntity
  8
AD-4382
  6
Continuous
 62
     7
100
AcDbLine
 10
188.2670526496
 20
238.1909042045
 30
0.0
 11
188.2724129838
 21
238.192264446
 31
0.0
  0
LINE
  5
14E
330
6F
100
AcDbEntity
  8
AD-4382
  6
Continuous
 62
     7
100
AcDbLine
 10
198.2995107066
 20
248.2193622716
 30
0.0
 11
198.3008710092
 21
248.2247225643
 31
0.0
  0
ARC
  5
14F
330
6F
100
AcDbEntity
  8
AD-4382
  6
Continuous
 62
     7
100
AcDbCircle
 10
198.961193097
 20
248.0208157377
 30
0.0
 40
0.6910837949492971
100
AcDbArc
 50
105.670576344
 51
162.8392320145
  0
ARC
  5
150
330
6F
100
AcDbEntity
  8
AD-4382
  6
Continuous
 62
     7
100
AcDbCircle
 10
244.3518548732
 20
248.0207946817
 30
0.0
 40
0.6911077677775683
100
AcDbArc
 50
17.1619936821
 51
74.3288018905
  0
LINE
  5
151
330
6F
100
AcDbEntity
  8
AD-4382
  6
Continuous
 62
     7
100
AcDbLine
 10
245.0121906575
 20
248.2247225639
 30
0.0
 11
245.013550899
 21
248.2193622296
 31
0.0
  0
ARC
  5
152
330
6F
100
AcDbEntity
  8
AD-4382
  6
HIDDEN2
 62
     7
100
AcDbCircle
 10
221.6565308332
 20
214.8352443802
 30
0.0
 40
40.0
100
AcDbArc
 50
90.0
 51
163.749731592
  0
ARC
  5
153
330
6F
100
AcDbEntity
  8
AD-4382
  6
HIDDEN2
 62
     7
100
AcDbCircle
 10
221.6565308332
 20
214.8352443802
 30
0.0
 40
40.0
100
AcDbArc
 50
16.250268408
 51
90.0
  0
ARC
  5
154
330
6F
100
AcDbEntity
  8
AD-4382
  6
HIDDEN2
 62
     7
100
AcDbCircle
 10
221.6565308332
 20
214.8352443802
 30
0.0
 40
40.0
100
AcDbArc
 50
279.0124514993
 51
350.9875485007
  0
ARC
  5
155
330
6F
100
AcDbEntity
  8
AD-4382
  6
HIDDEN2
 62
     7
100
AcDbCircle
 10
221.6565308332
 20
214.8352443802
 30
0.0
 40
40.00000000000625
100
AcDbArc
 50
9.012451499299999
 51
16.250268408
  0
ARC
  5
156
330
6F
100
AcDbEntity
  8
AD-4382
  6
HIDDEN2
 62
     7
100
AcDbCircle
 10
221.6565308332
 20
214.8352443802
 30
0.0
 40
39.99999999999968
100
AcDbArc
 50
260.9875485007
 51
279.0124514993
  0
ARC
  5
157
330
6F
100
AcDbEntity
  8
AD-4382
  6
HIDDEN2
 62
     7
100
AcDbCircle
 10
221.6565308332
 20
214.8352443802
 30
0.0
 40
40.0
100
AcDbArc
 50
189.0124514993
 51
260.9875485007
  0
ARC
  5
158
330
6F
100
AcDbEntity
  8
AD-4382
  6
HIDDEN2
 62
     7
100
AcDbCircle
 10
221.6565308332
 20
214.8352443802
 30
0.0
 40
39.99999999999987
100
AcDbArc
 50
170.9875485007
 51
189.0124514993
  0
SPLINE
  5
159
330
6F
100
AcDbEntity
  8
AD-4382
  6
HIDDEN2
 62
     7
100
AcDbSpline
210
0.0
220
0.0
230
1.0
 70
     8
 71
     3
 72
    14
 73
    10
 74
     0
 42
0.0000000001
 43
0.0000000001
 40
0.0
 40
0.0
 40
0.0
 40
0.0
 40
0.1250000000000004
 40
0.1250000000000004
 40
0.2500000000000007
 40
0.2500000000000007
 40
0.5000000000000006
 40
0.5000000000000006
 40
1.0
 40
1.0
 40
1.0
 40
1.0
 10
183.2545890937424
 20
226.0285848394157
 30
0.0
 10
183.1949861147467
 20
225.8240998480733
 30
0.0
 10
183.1259840668567
 20
225.622827077129
 30
0.0
 10
182.9832979978108
 20
225.2218816437402
 30
0.0
 10
182.9092537085433
 20
225.0223302942844
 30
0.0
 10
182.6870204430184
 20
224.4237433439351
 30
0.0
 10
182.5389680459847
 20
224.0246483967626
 30
0.0
 10
182.1171228274488
 20
222.8193616514325
 30
0.0
 10
181.8661215564746
 20
222.0044108628063
 30
0.0
 10
181.6565308332486
 20
221.1795331504404
 30
0.0
  0
SPLINE
  5
15A
330
6F
100
AcDbEntity
  8
AD-4382
  6
HIDDEN2
 62
     7
100
AcDbSpline
210
0.0
220
0.0
230
1.0
 70
     8
 71
     3
 72
    14
 73
    10
 74
     0
 42
0.0000000001
 43
0.0000000001
 40
0.0
 40
0.0
 40
0.0
 40
0.0
 40
0.4999999999999984
 40
0.4999999999999984
 40
0.7499999999999979
 40
0.7499999999999979
 40
0.8749999999999989
 40
0.8749999999999989
 40
1.0
 40
1.0
 40
1.0
 40
1.0
 10
261.6565308332487
 20
221.1795331504404
 30
0.0
 10
261.4469401100229
 20
222.0044108628063
 30
0.0
 10
261.1959388390486
 20
222.8193616514325
 30
0.0
 10
260.7740936205126
 20
224.0246483967626
 30
0.0
 10
260.626041223479
 20
224.4237433439351
 30
0.0
 10
260.403807957954
 20
225.0223302942843
 30
0.0
 10
260.3297636686866
 20
225.2218816437402
 30
0.0
 10
260.1870775996406
 20
225.622827077129
 30
0.0
 10
260.1180755517506
 20
225.8240998480733
 30
0.0
 10
260.058472572755
 20
226.0285848394157
 30
0.0
  0
ARC
  5
15B
330
6F
100
AcDbEntity
  8
AD-4382
  6
HIDDEN2
 62
     7
100
AcDbCircle
 10
221.6565308332
 20
214.8352443802
 30
0.0
 40
39.9999999999984
100
AcDbArc
 50
163.749731592
 51
170.9875485007
  0
ARC
  5
15C
330
6F
100
AcDbEntity
  8
AD-4382
  6
HIDDEN2
 62
     7
100
AcDbCircle
 10
221.6565308332
 20
214.8352443802
 30
0.0
 40
39.99999999999987
100
AcDbArc
 50
350.9875485007
 51
9.012451499299999
  0
CIRCLE
  5
15D
330
6F
100
AcDbEntity
  8
AD-4382
  6
HIDDEN2
 62
     7
100
AcDbCircle
 10
221.6565308332
 20
214.8352443802
 30
0.0
 40
38.0
  0
CIRCLE
  5
15E
330
6F
100
AcDbEntity
  8
AD-4382
  6
HIDDEN2
 62
     7
100
AcDbCircle
 10
221.6565308332
 20
214.8352443802
 30
0.0
 40
39.00000000000001
  0
CIRCLE
  5
15F
330
6F
100
AcDbEntity
  8
AD-4382
  6
HIDDEN2
 62
     7
100
AcDbCircle
 10
221.6565308332
 20
214.8352443802
 30
0.0
 40
41.0
  0
CIRCLE
  5
160
330
6F
100
AcDbEntity
  8
AD-4382
  6
Continuous
 62
     7
100
AcDbCircle
 10
268.6411618725
 20
197.7342372139
 30
0.0
 40
3.5
  0
CIRCLE
  5
161
330
6F
100
AcDbEntity
  8
AD-4382
  6
Continuous
 62
     7
100
AcDbCircle
 10
174.671899794
 20
231.9362515465
 30
0.0
 40
3.5
  0
LINE
  5
162
330
6F
100
AcDbEntity
  8
AD-4382
  6
HIDDEN2
 62
     7
100
AcDbLine
 10
251.0527402231
 20
188.1732325749
 30
0.0
 11
250.8898681063
 21
188.2708925284999
 31
0.0
  0
ARC
  5
163
330
6F
100
AcDbEntity
  8
AD-4382
  6
HIDDEN2
 62
     7
100
AcDbCircle
 10
221.6565308332
 20
214.8352443802
 30
0.0
 40
38.99999999998943
100
AcDbArc
 50
181.5361758355
 51
182.318001733
  0
LINE
  5
164
330
6F
100
AcDbEntity
  8
AD-4382
  6
HIDDEN2
 62
     7
100
AcDbLine
 10
182.1869139801
 20
213.2765859524
 30
0.0
 11
181.9997327527
 21
213.306471881
 31
0.0
  0
LINE
  5
165
330
6F
100
AcDbEntity
  8
AD-4382
  6
HIDDEN2
 62
     7
100
AcDbLine
 10
181.9997249869
 20
213.3064747072
 30
0.0
 11
181.1751720993
 21
213.6065874149
 31
0.0
  0
LINE
  5
166
330
6F
100
AcDbEntity
  8
AD-4382
  6
HIDDEN2
 62
     7
100
AcDbLine
 10
261.1258158754
 20
216.3938919502
 30
0.0
 11
261.3133289138001
 21
216.3640168794
 31
0.0
  0
LINE
  5
167
330
6F
100
AcDbEntity
  8
AD-4382
  6
HIDDEN2
 62
     7
100
AcDbLine
 10
261.3133366408
 20
216.3640140673
 30
0.0
 11
262.1378895672
 21
216.0639013456
 31
0.0
  0
LINE
  5
168
330
6F
100
AcDbEntity
  8
AD-4382
  6
HIDDEN2
 62
     7
100
AcDbLine
 10
192.2603214434
 20
241.4972561855
 30
0.0
 11
192.422936496
 21
241.3998266799
 31
0.0
  0
SPLINE
  5
169
330
6F
100
AcDbEntity
  8
AD-4382
  6
HIDDEN2
 62
     7
100
AcDbSpline
210
0.0
220
0.0
230
1.0
 70
    12
 71
     2
 72
     6
 73
     3
 74
     0
 42
0.0000000001
 43
0.0000000001
 40
0.0
 40
0.0
 40
0.0
 40
1.0
 40
1.0
 40
1.0
 10
192.4635799725561
 20
240.6958634765402
 30
0.0
 41
1.0
 10
192.7932854870643
 20
241.0680539816374
 30
0.0
 41
0.6552314078664081
 10
192.435946348444
 20
241.4143492302706
 30
0.0
 41
0.853902012642251
  0
ARC
  5
16A
330
6F
100
AcDbEntity
  8
AD-4382
  6
HIDDEN2
 62
     7
100
AcDbCircle
 10
189.7003283613999
 20
237.7753034916
 30
0.0
 40
4.552610202866626
100
AcDbArc
 50
46.7592122023
 51
53.0663335063
  0
LINE
  5
16B
330
6F
100
AcDbEntity
  8
AD-4382
  6
HIDDEN2
 62
     7
100
AcDbLine
 10
260.6246185688
 20
216.4126277311
 30
0.0
 11
261.1251718079
 21
216.4133765563
 31
0.0
  0
SPLINE
  5
16C
330
6F
100
AcDbEntity
  8
AD-4382
  6
HIDDEN2
 62
     7
100
AcDbSpline
210
0.0
220
0.0
230
1.0
 70
     8
 71
     3
 72
    10
 73
     6
 74
     0
 42
0.0000000001
 43
0.0000000001
 40
0.0
 40
0.0
 40
0.0
 40
0.0
 40
0.5
 40
0.5
 40
1.0
 40
1.0
 40
1.0
 40
1.0
 10
260.6425141522682
 20
215.8807608311304
 30
0.0
 10
260.6390189003475
 20
216.0110943461888
 30
0.0
 10
260.688967179659
 20
216.1420704326019
 30
0.0
 10
260.8677529752787
 20
216.3318908925686
 30
0.0
 10
260.9955066728464
 20
216.3895845540581
 30
0.0
 10
261.1251718079421
 20
216.4133765563232
 30
0.0
  0
ARC
  5
16D
330
6F
100
AcDbEntity
  8
AD-4382
  6
HIDDEN2
 62
     7
100
AcDbCircle
 10
182.1707272153
 20
213.7763238723
 30
0.0
 40
0.5000000000000008
100
AcDbArc
 50
250.0
 51
272.3991894763
  0
ARC
  5
16E
330
6F
100
AcDbEntity
  8
AD-4382
  6
HIDDEN2
 62
     7
100
AcDbCircle
 10
182.1707272153
 20
213.7763238723
 30
0.0
 40
0.5000000000000008
100
AcDbArc
 50
281.5373278416
 51
295.3807632221
  0
SPLINE
  5
16F
330
6F
100
AcDbEntity
  8
AD-4382
  6
HIDDEN2
 62
     7
100
AcDbSpline
210
0.0
220
0.0
230
1.0
 70
    12
 71
     2
 72
     6
 73
     3
 74
     0
 42
0.0000000001
 43
0.0000000001
 40
0.0
 40
0.0
 40
0.0
 40
1.0
 40
1.0
 40
1.0
 10
182.1875451898007
 20
213.2570984613855
 30
0.0
 41
0.8539020126422656
 10
182.6838771463644
 20
213.2926828415183
 30
0.0
 41
0.6552314078664062
 10
182.6705475142292
 20
213.7897279293009
 30
0.0
 41
1.0
  0
ARC
  5
170
330
6F
100
AcDbEntity
  8
AD-4382
  6
HIDDEN2
 62
     7
100
AcDbCircle
 10
182.4310737447
 20
217.803190607
 30
0.0
 40
4.552610235215091
100
AcDbArc
 50
266.9336665095
 51
273.2407877687
  0
LINE
  5
171
330
6F
100
AcDbEntity
  8
AD-4382
  6
HIDDEN2
 62
     7
100
AcDbLine
 10
250.8768498684
 20
188.2563807914
 30
0.0
 11
250.4938954284
 21
188.57869466
 31
0.0
  0
SPLINE
  5
172
330
6F
100
AcDbEntity
  8
AD-4382
  6
HIDDEN2
 62
     7
100
AcDbSpline
210
0.0
220
0.0
230
1.0
 70
     8
 71
     3
 72
    10
 73
     6
 74
     0
 42
0.0000000001
 43
0.0000000001
 40
0.0
 40
0.0
 40
0.0
 40
0.0
 40
0.5
 40
0.5
 40
1.0
 40
1.0
 40
1.0
 40
1.0
 10
250.8768498683962
 20
188.2563807913945
 30
0.0
 10
250.7928202279992
 20
188.3579525654683
 30
0.0
 10
250.7320440899981
 20
188.4842621705183
 30
0.0
 10
250.7171001395956
 20
188.7445843578886
 30
0.0
 10
250.7630229053647
 20
188.8770190771368
 30
0.0
 10
250.8494761319722
 20
188.9746190050089
 30
0.0
  0
LINE
  5
173
330
6F
100
AcDbEntity
  8
AD-4382
  6
HIDDEN2
 62
     7
100
AcDbLine
 10
252.0610253879
 20
187.8062467872999
 30
0.0
 11
251.8772852314
 21
187.8731227351
 31
0.0
  0
LINE
  5
174
330
6F
100
AcDbEntity
  8
AD-4382
  6
HIDDEN2
 62
     7
100
AcDbLine
 10
251.8772852675
 20
187.873122722
 30
0.0
 11
251.0527402231
 21
188.1732325749
 31
0.0
  0
LINE
  5
175
330
6F
100
AcDbEntity
  8
AD-4382
  6
HIDDEN2
 62
     7
100
AcDbLine
 10
181.1751721353
 20
213.6065874018
 30
0.0
 11
180.9914319788999
 21
213.6734633496
 31
0.0
  0
ARC
  5
176
330
6F
100
AcDbEntity
  8
AD-4382
  6
HIDDEN2
 62
     7
100
AcDbCircle
 10
221.6565308331
 20
214.8352443803
 30
0.0
 40
40.99999999982339
100
AcDbArc
 50
139.0048078372
 51
139.0210649855
  0
ARC
  5
177
330
6F
100
AcDbEntity
  8
AD-4382
  6
HIDDEN2
 62
     7
100
AcDbCircle
 10
221.6565308329
 20
214.8352443802
 30
0.0
 40
41.00000000030617
100
AcDbArc
 50
0.9789350145
 51
0.9939624933999999
  0
ARC
  5
178
330
6F
100
AcDbEntity
  8
AD-4382
  6
HIDDEN2
 62
     7
100
AcDbCircle
 10
221.6565308332
 20
214.8352443802
 30
0.0
 40
40.9999999999779
100
AcDbArc
 50
180.9789350145999
 51
180.9939624935
  0
ARC
  5
179
330
6F
100
AcDbEntity
  8
AD-4382
  6
HIDDEN2
 62
     7
100
AcDbCircle
 10
221.6565308331
 20
214.8352443803
 30
0.0
 40
41.00000000015646
100
AcDbArc
 50
319.0048078411
 51
319.0210649854
  0
LINE
  5
17A
330
6F
100
AcDbEntity
  8
AD-4382
  6
Continuous
 62
     7
100
AcDbLine
 10
269.6417254605
 20
181.4073952633
 30
0.0
 11
264.4065308332
 21
183.3128502782
 31
0.0
  0
LINE
  5
17B
330
6F
100
AcDbEntity
  8
AD-4382
  6
HIDDEN2
 62
     7
100
AcDbLine
 10
264.4065308332
 20
183.3128502782
 30
0.0
 11
254.5663741297
 21
186.8943744188
 31
0.0
  0
LINE
  5
17C
330
6F
100
AcDbEntity
  8
AD-4382
  6
HIDDEN2
 62
     7
100
AcDbLine
 10
254.5663741297
 20
186.8943744188
 30
0.0
 11
252.0610253879
 21
187.8062467872999
 31
0.0
  0
LINE
  5
17D
330
6F
100
AcDbEntity
  8
AD-4382
  6
HIDDEN2
 62
     7
100
AcDbLine
 10
178.486083237
 20
214.5853357181
 30
0.0
 11
163.4107319062
 21
220.0723148736
 31
0.0
  0
LINE
  5
17E
330
6F
100
AcDbEntity
  8
AD-4382
  6
HIDDEN2
 62
     7
100
AcDbLine
 10
180.9914319788999
 20
213.6734633496
 30
0.0
 11
178.486083237
 21
214.5853357181
 31
0.0
  0
ARC
  5
17F
330
6F
100
AcDbEntity
  8
AD-4382
  6
Continuous
 62
     7
100
AcDbCircle
 10
270.3257657472
 20
183.2867805049
 30
0.0
 40
1.999999999999984
100
AcDbArc
 50
250.0
 51
327.0478094041
  0
ARC
  5
180
330
6F
100
AcDbEntity
  8
AD-4382
  6
HIDDEN2
 62
     7
100
AcDbCircle
 10
164.0947721929
 20
221.9517001151
 30
0.0
 40
1.999999999999993
100
AcDbArc
 50
172.9521905959
 51
250.0
  0
ARC
  5
181
330
6F
100
AcDbEntity
  8
AD-4382
  6
Continuous
 62
     7
100
AcDbCircle
 10
221.6565308332
 20
214.8352443802
 30
0.0
 40
60.0
100
AcDbArc
 50
327.0478094041
 51
352.9521905958999
  0
ARC
  5
182
330
6F
100
AcDbEntity
  8
AD-4382
  6
HIDDEN2
 62
     7
100
AcDbCircle
 10
221.6565308332
 20
214.8352443802
 30
0.0
 40
60.0
100
AcDbArc
 50
169.4360224109
 51
172.9521905959
  0
ARC
  5
183
330
6F
100
AcDbEntity
  8
AD-4382
  6
Continuous
 62
     7
100
AcDbCircle
 10
221.6565308332
 20
214.8352443802
 30
0.0
 40
60.0
100
AcDbArc
 50
147.0478094041
 51
169.4360224109
  0
ARC
  5
184
330
6F
100
AcDbEntity
  8
AD-4382
  6
Continuous
 62
     7
100
AcDbCircle
 10
279.2182894736
 20
207.7187886453
 30
0.0
 40
1.999999999999993
100
AcDbArc
 50
352.9521905958999
 51
70.0
  0
ARC
  5
185
330
6F
100
AcDbEntity
  8
AD-4382
  6
Continuous
 62
     7
100
AcDbCircle
 10
172.9872959193
 20
246.3837082556
 30
0.0
 40
1.999999999999992
100
AcDbArc
 50
70.0
 51
147.0478094041
  0
LINE
  5
186
330
6F
100
AcDbEntity
  8
AD-4382
  6
HIDDEN2
 62
     7
100
AcDbLine
 10
262.1378895312
 20
216.0639013587
 30
0.0
 11
262.3216296875999
 21
215.9970254109
 31
0.0
  0
LINE
  5
187
330
6F
100
AcDbEntity
  8
AD-4382
  6
HIDDEN2
 62
     7
100
AcDbLine
 10
262.3216296875999
 20
215.9970254109
 30
0.0
 11
264.4029367287
 21
215.2394915996
 31
0.0
  0
LINE
  5
188
330
6F
100
AcDbEntity
  8
AD-4382
  6
Continuous
 62
     7
100
AcDbLine
 10
264.4029367287
 20
215.2394915996
 30
0.0
 11
264.8269784295
 21
215.0851530424
 31
0.0
  0
LINE
  5
189
330
6F
100
AcDbEntity
  8
AD-4382
  6
Continuous
 62
     7
100
AcDbLine
 10
264.8269784295
 20
215.0851530424
 30
0.0
 11
279.9023297603
 21
209.5981738869
 31
0.0
  0
LINE
  5
18A
330
6F
100
AcDbEntity
  8
AD-4382
  6
HIDDEN2
 62
     7
100
AcDbLine
 10
191.2520362786
 20
241.8642419731
 30
0.0
 11
191.4357764351
 21
241.7973660253
 31
0.0
  0
LINE
  5
18B
330
6F
100
AcDbEntity
  8
AD-4382
  6
HIDDEN2
 62
     7
100
AcDbLine
 10
191.435776399
 20
241.7973660385
 30
0.0
 11
192.2603214434
 21
241.4972561855
 31
0.0
  0
LINE
  5
18C
330
6F
100
AcDbEntity
  8
AD-4382
  6
HIDDEN2
 62
     7
100
AcDbLine
 10
188.7466875368
 20
242.7761143416
 30
0.0
 11
191.2520362786
 21
241.8642419731
 31
0.0
  0
LINE
  5
18D
330
6F
100
AcDbEntity
  8
AD-4382
  6
Continuous
 62
     7
100
AcDbLine
 10
173.6713362059999
 20
248.2630934971
 30
0.0
 11
178.9065308332
 21
246.3576384822
 31
0.0
  0
LINE
  5
18E
330
6F
100
AcDbEntity
  8
AD-4382
  6
HIDDEN2
 62
     7
100
AcDbLine
 10
178.9065308332
 20
246.3576384822
 30
0.0
 11
188.7466875368
 21
242.7761143416
 31
0.0
  0
LINE
  5
18F
330
6F
100
AcDbEntity
  8
AD-4382
  6
HIDDEN2
 62
     7
100
AcDbLine
 10
191.4357763982
 20
241.7973660363
 30
0.0
 11
191.0626805944
 21
242.1302316043
 31
0.0
  0
ARC
  5
190
330
6F
100
AcDbEntity
  8
AD-4382
  6
HIDDEN2
 62
     7
100
AcDbCircle
 10
191.081026207
 20
241.3943956627
 30
0.0
 40
0.5000000000000023
100
AcDbArc
 50
69.99999993739999
 51
139.0210649841
  0
LINE
  5
191
330
6F
100
AcDbEntity
  8
AD-4382
  6
HIDDEN2
 62
     7
100
AcDbLine
 10
262.1378895664
 20
216.0639013433
 30
0.0
 11
262.6376593965
 21
216.0790698021
 31
0.0
  0
ARC
  5
192
330
6F
100
AcDbEntity
  8
AD-4382
  6
HIDDEN2
 62
     7
100
AcDbCircle
 10
262.150619616
 20
215.5271791005
 30
0.0
 40
0.499999999999981
100
AcDbArc
 50
0.9789350159000001
 51
69.9999999125
  0
ARC
  5
193
330
6F
100
AcDbEntity
  8
AD-4382
  6
HIDDEN2
 62
     7
100
AcDbCircle
 10
181.1624420497
 20
214.1433096599
 30
0.0
 40
0.4999999991408395
100
AcDbArc
 50
180.9789350145
 51
250.0000000016
  0
LINE
  5
194
330
6F
100
AcDbEntity
  8
AD-4382
  6
HIDDEN2
 62
     7
100
AcDbLine
 10
180.67540227
 20
213.5914189584
 30
0.0
 11
181.1751721001
 21
213.6065874171
 31
0.0
  0
ARC
  5
195
330
6F
100
AcDbEntity
  8
AD-4382
  6
HIDDEN2
 62
     7
100
AcDbCircle
 10
252.2320354591
 20
188.276093098
 30
0.0
 40
0.500000000126223
100
AcDbArc
 50
249.9999999984
 51
319.0210649855
  0
LINE
  5
196
330
6F
100
AcDbEntity
  8
AD-4382
  6
HIDDEN2
 62
     7
100
AcDbLine
 10
252.2503810335
 20
187.5402571129
 30
0.0
 11
251.8772852683
 21
187.8731227241999
 31
0.0
  0
LINE
  5
197
330
6F
100
AcDbEntity
  8
AD-4382
  6
Continuous
 62
     7
100
AcDbLine
 10
207.1208281355
 20
283.3352443802
 30
0.0
 11
236.192233531
 21
283.3352443802
 31
0.0
  0
LINE
  5
198
330
6F
100
AcDbEntity
  8
AD-4382
  6
Continuous
 62
     7
100
AcDbLine
 10
218.9357263356
 20
288.3352443802
 30
0.0
 11
222.6734444192
 21
288.3352443802
 31
0.0
  0
LINE
  5
199
330
6F
100
AcDbEntity
  8
AD-4382
  6
Continuous
 62
     7
100
AcDbLine
 10
229.3480448433
 20
288.3352443802
 30
0.0
 11
229.4194643872
 21
288.3352443802
 31
0.0
  0
LINE
  5
19A
330
6F
100
AcDbEntity
  8
AD-4382
  6
Continuous
 62
     7
100
AcDbLine
 10
218.6897257461
 20
293.3352443802
 30
0.0
 11
212.6795031858
 21
293.3352443802
 31
0.0
  0
LINE
  5
19B
330
6F
100
AcDbEntity
  8
AD-4382
  6
Continuous
 62
     7
100
AcDbLine
 10
210.6565308332
 20
293.3352443802
 30
0.0
 11
210.9998763755
 21
293.3352443802
 31
0.0
  0
LINE
  5
19C
330
6F
100
AcDbEntity
  8
AD-4382
  6
Continuous
 62
     7
100
AcDbLine
 10
232.6565308332
 20
293.3352443802
 30
0.0
 11
231.6504720666
 21
293.3352443802
 31
0.0
  0
LINE
  5
19D
330
6F
100
AcDbEntity
  8
AD-4382
  6
Continuous
 62
     7
100
AcDbLine
 10
229.3463802039
 20
293.3352443802
 30
0.0
 11
222.6734444192
 21
293.3352443802
 31
0.0
  0
LINE
  5
19E
330
6F
100
AcDbEntity
  8
AD-4382
  6
Continuous
 62
     7
100
AcDbLine
 10
218.6897257461
 20
288.3352443802
 30
0.0
 11
212.6795031858
 21
288.3352443802
 31
0.0
  0
LINE
  5
19F
330
6F
100
AcDbEntity
  8
AD-4382
  6
Continuous
 62
     7
100
AcDbLine
 10
210.6565308332
 20
288.3352443802
 30
0.0
 11
210.9998763755
 21
288.3352443802
 31
0.0
  0
LINE
  5
1A0
330
6F
100
AcDbEntity
  8
AD-4382
  6
Continuous
 62
     7
100
AcDbLine
 10
232.6565308332
 20
288.3352443802
 30
0.0
 11
231.6504720666
 21
288.3352443802
 31
0.0
  0
LINE
  5
1A1
330
6F
100
AcDbEntity
  8
AD-4382
  6
Continuous
 62
     7
100
AcDbLine
 10
229.3463802039
 20
288.3352443802
 30
0.0
 11
222.6734444192
 21
288.3352443802
 31
0.0
  0
LINE
  5
1A2
330
6F
100
AcDbEntity
  8
AD-4382
  6
Continuous
 62
     7
100
AcDbLine
 10
222.6734444192
 20
293.3352443802
 30
0.0
 11
222.6734444192
 21
288.3352443802
 31
0.0
  0
LINE
  5
1A3
330
6F
100
AcDbEntity
  8
AD-4382
  6
Continuous
 62
     7
100
AcDbLine
 10
218.6897257461
 20
288.3352443802
 30
0.0
 11
218.6897257461
 21
293.3352443802
 31
0.0
  0
LINE
  5
1A4
330
6F
100
AcDbEntity
  8
AD-4382
  6
Continuous
 62
     7
100
AcDbLine
 10
218.9436013645
 20
288.3352443802
 30
0.0
 11
218.9436013645
 21
293.3352443802
 31
0.0
  0
LINE
  5
1A5
330
6F
100
AcDbEntity
  8
AD-4382
  6
HIDDEN2
 62
     7
100
AcDbLine
 10
222.9273200376
 20
288.3352443802
 30
0.0
 11
222.9273200376
 21
293.3352443802
 31
0.0
  0
LINE
  5
1A6
330
6F
100
AcDbEntity
  8
AD-4382
  6
Continuous
 62
     7
100
AcDbLine
 10
218.6897257461
 20
288.3352443802
 30
0.0
 11
218.9357263356
 21
288.3352443802
 31
0.0
  0
LINE
  5
1A7
330
6F
100
AcDbEntity
  8
AD-4382
  6
Continuous
 62
     7
100
AcDbLine
 10
218.9436013645
 20
293.3352443802
 30
0.0
 11
222.6734444192
 21
293.3352443802
 31
0.0
  0
LINE
  5
1A8
330
6F
100
AcDbEntity
  8
AD-4382
  6
Continuous
 62
     7
100
AcDbLine
 10
218.6897257461
 20
293.3352443802
 30
0.0
 11
218.9436013645
 21
293.3352443802
 31
0.0
  0
LINE
  5
1A9
330
6F
100
AcDbEntity
  8
AD-4382
  6
Continuous
 62
     7
100
AcDbLine
 10
212.6795031858
 20
293.3352443802
 30
0.0
 11
212.6795031858
 21
288.3352443802
 31
0.0
  0
LINE
  5
1AA
330
6F
100
AcDbEntity
  8
AD-4382
  6
Continuous
 62
     7
100
AcDbLine
 10
210.9998763755
 20
288.3352443802
 30
0.0
 11
210.9998763755
 21
293.3352443802
 31
0.0
  0
LINE
  5
1AB
330
6F
100
AcDbEntity
  8
AD-4382
  6
HIDDEN2
 62
     7
100
AcDbLine
 10
215.2358060275
 20
288.3352443802
 30
0.0
 11
215.2358060275
 21
293.3352443802
 31
0.0
  0
LINE
  5
1AC
330
6F
100
AcDbEntity
  8
AD-4382
  6
HIDDEN2
 62
     7
100
AcDbLine
 10
213.5561792172
 20
288.3352443802
 30
0.0
 11
213.5561792172
 21
293.3352443802
 31
0.0
  0
LINE
  5
1AD
330
6F
100
AcDbEntity
  8
AD-4382
  6
Continuous
 62
     7
100
AcDbLine
 10
210.9998763755
 20
288.3352443802
 30
0.0
 11
212.6795031858
 21
288.3352443802
 31
0.0
  0
LINE
  5
1AE
330
6F
100
AcDbEntity
  8
AD-4382
  6
Continuous
 62
     7
100
AcDbLine
 10
210.9998763755
 20
293.3352443802
 30
0.0
 11
212.6795031858
 21
293.3352443802
 31
0.0
  0
LINE
  5
1AF
330
6F
100
AcDbEntity
  8
AD-4382
  6
HIDDEN2
 62
     7
100
AcDbLine
 10
211.6625895999
 20
293.3352443802
 30
0.0
 11
211.6625895999
 21
288.3352443802
 31
0.0
  0
LINE
  5
1B0
330
6F
100
AcDbEntity
  8
AD-4382
  6
HIDDEN2
 62
     7
100
AcDbLine
 10
213.9666814626
 20
288.3352443802
 30
0.0
 11
213.9666814626
 21
293.3352443802
 31
0.0
  0
LINE
  5
1B1
330
6F
100
AcDbEntity
  8
AD-4382
  6
HIDDEN2
 62
     7
100
AcDbLine
 10
213.9650168232
 20
288.3352443802
 30
0.0
 11
213.9650168232
 21
293.3352443802
 31
0.0
  0
LINE
  5
1B2
330
6F
100
AcDbEntity
  8
AD-4382
  6
HIDDEN2
 62
     7
100
AcDbLine
 10
216.2691086859
 20
288.3352443802
 30
0.0
 11
216.2691086859
 21
293.3352443802
 31
0.0
  0
LINE
  5
1B3
330
6F
100
AcDbEntity
  8
AD-4382
  6
HIDDEN2
 62
     7
100
AcDbLine
 10
224.6233359204
 20
288.3352443802
 30
0.0
 11
224.6233359204
 21
293.3352443802
 31
0.0
  0
LINE
  5
1B4
330
6F
100
AcDbEntity
  8
AD-4382
  6
HIDDEN2
 62
     7
100
AcDbLine
 10
220.6396172473
 20
293.3352443802
 30
0.0
 11
220.6396172473
 21
288.3352443802
 31
0.0
  0
LINE
  5
1B5
330
6F
100
AcDbEntity
  8
AD-4382
  6
HIDDEN2
 62
     7
100
AcDbLine
 10
224.369460302
 20
288.3352443802
 30
0.0
 11
224.369460302
 21
293.3352443802
 31
0.0
  0
LINE
  5
1B6
330
6F
100
AcDbEntity
  8
AD-4382
  6
HIDDEN2
 62
     7
100
AcDbLine
 10
220.3857416289
 20
288.3352443802
 30
0.0
 11
220.3857416289
 21
293.3352443802
 31
0.0
  0
LINE
  5
1B7
330
6F
100
AcDbEntity
  8
AD-4382
  6
HIDDEN2
 62
     7
100
AcDbLine
 10
232.313185291
 20
288.3352443802
 30
0.0
 11
232.313185291
 21
293.3352443802
 31
0.0
  0
LINE
  5
1B8
330
6F
100
AcDbEntity
  8
AD-4382
  6
HIDDEN2
 62
     7
100
AcDbLine
 10
230.6335584807
 20
293.3352443802
 30
0.0
 11
230.6335584807
 21
288.3352443802
 31
0.0
  0
LINE
  5
1B9
330
6F
100
AcDbEntity
  8
AD-4382
  6
HIDDEN2
 62
     7
100
AcDbLine
 10
229.7568824493
 20
288.3352443802
 30
0.0
 11
229.7568824493
 21
293.3352443802
 31
0.0
  0
LINE
  5
1BA
330
6F
100
AcDbEntity
  8
AD-4382
  6
HIDDEN2
 62
     7
100
AcDbLine
 10
228.077255639
 20
288.3352443802
 30
0.0
 11
228.077255639
 21
293.3352443802
 31
0.0
  0
LINE
  5
1BB
330
6F
100
AcDbEntity
  8
AD-4382
  6
Continuous
 62
     7
100
AcDbLine
 10
229.3463802039
 20
288.3352443802
 30
0.0
 11
229.3463802039
 21
293.3352443802
 31
0.0
  0
LINE
  5
1BC
330
6F
100
AcDbEntity
  8
AD-4382
  6
Continuous
 62
     7
100
AcDbLine
 10
231.6504720666
 20
293.3352443802
 30
0.0
 11
231.6504720666
 21
288.3352443802
 31
0.0
  0
LINE
  5
1BD
330
6F
100
AcDbEntity
  8
AD-4382
  6
HIDDEN2
 62
     7
100
AcDbLine
 10
227.0439529806
 20
288.3352443802
 30
0.0
 11
227.0439529806
 21
293.3352443802
 31
0.0
  0
LINE
  5
1BE
330
6F
100
AcDbEntity
  8
AD-4382
  6
Continuous
 62
     7
100
AcDbLine
 10
229.3480448433
 20
288.3352443802
 30
0.0
 11
229.3480448433
 21
293.3352443802
 31
0.0
  0
LINE
  5
1BF
330
6F
100
AcDbEntity
  8
AD-4382
  6
Continuous
 62
     7
100
AcDbLine
 10
229.4194643872
 20
288.3352443802
 30
0.0
 11
231.6504720666
 21
288.3352443802
 31
0.0
  0
LINE
  5
1C0
330
6F
100
AcDbEntity
  8
AD-4382
  6
Continuous
 62
     7
100
AcDbLine
 10
229.3480448433
 20
293.3352443802
 30
0.0
 11
231.6504720666
 21
293.3352443802
 31
0.0
  0
LINE
  5
1C1
330
6F
100
AcDbEntity
  8
AD-4382
  6
Continuous
 62
     7
100
AcDbLine
 10
229.3463802039
 20
293.3352443802
 30
0.0
 11
229.3480448433
 21
293.3352443802
 31
0.0
  0
LINE
  5
1C2
330
6F
100
AcDbEntity
  8
AD-4382
  6
Continuous
 62
     7
100
AcDbLine
 10
207.1208281355
 20
146.3352443802
 30
0.0
 11
236.192233531
 21
146.3352443802
 31
0.0
  0
LINE
  5
1C3
330
6F
100
AcDbEntity
  8
AD-4382
  6
Continuous
 62
     7
100
AcDbLine
 10
219.6565308332
 20
141.3352443802
 30
0.0
 11
223.6565308332
 21
141.3352443802
 31
0.0
  0
LINE
  5
1C4
330
6F
100
AcDbEntity
  8
AD-4382
  6
Continuous
 62
     7
100
AcDbLine
 10
219.6565308332
 20
141.3352443802
 30
0.0
 11
213.2890338357
 21
141.3352443802
 31
0.0
  0
LINE
  5
1C5
330
6F
100
AcDbEntity
  8
AD-4382
  6
Continuous
 62
     7
100
AcDbLine
 10
219.6565308332
 20
136.3352443802
 30
0.0
 11
213.2890338357
 21
136.3352443802
 31
0.0
  0
LINE
  5
1C6
330
6F
100
AcDbEntity
  8
AD-4382
  6
Continuous
 62
     7
100
AcDbLine
 10
211.2890338357
 20
141.3352443802
 30
0.0
 11
210.6565308332
 21
141.3352443802
 31
0.0
  0
LINE
  5
1C7
330
6F
100
AcDbEntity
  8
AD-4382
  6
Continuous
 62
     7
100
AcDbLine
 10
211.2890338357
 20
136.3352443802
 30
0.0
 11
210.6565308332
 21
136.3352443802
 31
0.0
  0
LINE
  5
1C8
330
6F
100
AcDbEntity
  8
AD-4382
  6
Continuous
 62
     7
100
AcDbLine
 10
232.0240278308
 20
141.3352443802
 30
0.0
 11
232.6565308332
 21
141.3352443802
 31
0.0
  0
LINE
  5
1C9
330
6F
100
AcDbEntity
  8
AD-4382
  6
Continuous
 62
     7
100
AcDbLine
 10
232.0240278308
 20
136.3352443802
 30
0.0
 11
232.6565308332
 21
136.3352443802
 31
0.0
  0
LINE
  5
1CA
330
6F
100
AcDbEntity
  8
AD-4382
  6
Continuous
 62
     7
100
AcDbLine
 10
230.0240278308
 20
136.3352443802
 30
0.0
 11
223.6565308332
 21
136.3352443802
 31
0.0
  0
LINE
  5
1CB
330
6F
100
AcDbEntity
  8
AD-4382
  6
Continuous
 62
     7
100
AcDbLine
 10
230.0240278308
 20
141.3352443802
 30
0.0
 11
223.6565308332
 21
141.3352443802
 31
0.0
  0
LINE
  5
1CC
330
6F
100
AcDbEntity
  8
AD-4382
  6
Continuous
 62
     7
100
AcDbLine
 10
223.6565308332
 20
136.3352443802
 30
0.0
 11
223.6565308332
 21
141.3352443802
 31
0.0
  0
LINE
  5
1CD
330
6F
100
AcDbEntity
  8
AD-4382
  6
Continuous
 62
     7
100
AcDbLine
 10
219.6565308332
 20
141.3352443802
 30
0.0
 11
219.6565308332
 21
136.3352443802
 31
0.0
  0
LINE
  5
1CE
330
6F
100
AcDbEntity
  8
AD-4382
  6
Continuous
 62
     7
100
AcDbLine
 10
219.6565308332
 20
136.3352443802
 30
0.0
 11
223.6565308332
 21
136.3352443802
 31
0.0
  0
LINE
  5
1CF
330
6F
100
AcDbEntity
  8
AD-4382
  6
Continuous
 62
     7
100
AcDbLine
 10
213.2890338357
 20
136.3352443802
 30
0.0
 11
213.2890338357
 21
141.3352443802
 31
0.0
  0
LINE
  5
1D0
330
6F
100
AcDbEntity
  8
AD-4382
  6
HIDDEN2
 62
     7
100
AcDbLine
 10
215.728327603
 20
141.3352443802
 30
0.0
 11
215.728327603
 21
136.3352443802
 31
0.0
  0
LINE
  5
1D1
330
6F
100
AcDbEntity
  8
AD-4382
  6
Continuous
 62
     7
100
AcDbLine
 10
211.2890338357
 20
141.3352443802
 30
0.0
 11
211.2890338357
 21
136.3352443802
 31
0.0
  0
LINE
  5
1D2
330
6F
100
AcDbEntity
  8
AD-4382
  6
Continuous
 62
     7
100
AcDbLine
 10
211.2890338357
 20
136.3352443802
 30
0.0
 11
213.2890338357
 21
136.3352443802
 31
0.0
  0
LINE
  5
1D3
330
6F
100
AcDbEntity
  8
AD-4382
  6
HIDDEN2
 62
     7
100
AcDbLine
 10
213.728327603
 20
141.3352443802
 30
0.0
 11
213.728327603
 21
136.3352443802
 31
0.0
  0
LINE
  5
1D4
330
6F
100
AcDbEntity
  8
AD-4382
  6
Continuous
 62
     7
100
AcDbLine
 10
211.2890338357
 20
141.3352443802
 30
0.0
 11
213.2890338357
 21
141.3352443802
 31
0.0
  0
LINE
  5
1D5
330
6F
100
AcDbEntity
  8
AD-4382
  6
Continuous
 62
     7
100
AcDbLine
 10
230.0240278308
 20
141.3352443802
 30
0.0
 11
230.0240278308
 21
136.3352443802
 31
0.0
  0
LINE
  5
1D6
330
6F
100
AcDbEntity
  8
AD-4382
  6
HIDDEN2
 62
     7
100
AcDbLine
 10
227.5847340635
 20
141.3352443802
 30
0.0
 11
227.5847340635
 21
136.3352443802
 31
0.0
  0
LINE
  5
1D7
330
6F
100
AcDbEntity
  8
AD-4382
  6
Continuous
 62
     7
100
AcDbLine
 10
232.0240278308
 20
136.3352443802
 30
0.0
 11
232.0240278308
 21
141.3352443802
 31
0.0
  0
LINE
  5
1D8
330
6F
100
AcDbEntity
  8
AD-4382
  6
Continuous
 62
     7
100
AcDbLine
 10
230.0240278308
 20
141.3352443802
 30
0.0
 11
232.0240278308
 21
141.3352443802
 31
0.0
  0
LINE
  5
1D9
330
6F
100
AcDbEntity
  8
AD-4382
  6
HIDDEN2
 62
     7
100
AcDbLine
 10
229.5847340635
 20
141.3352443802
 30
0.0
 11
229.5847340635
 21
136.3352443802
 31
0.0
  0
LINE
  5
1DA
330
6F
100
AcDbEntity
  8
AD-4382
  6
Continuous
 62
     7
100
AcDbLine
 10
230.0240278308
 20
136.3352443802
 30
0.0
 11
232.0240278308
 21
136.3352443802
 31
0.0
  0
LINE
  5
1DB
330
6F
100
AcDbEntity
  8
AD-4382
  6
HIDDEN2
 62
     7
100
AcDbLine
 10
216.6565308332
 20
292.3352443802
 30
0.0
 11
216.6565308332
 21
137.3352443802
 31
0.0
  0
LINE
  5
1DC
330
6F
100
AcDbEntity
  8
AD-4382
  6
HIDDEN2
 62
     7
100
AcDbLine
 10
226.6565308332
 20
137.3352443802
 30
0.0
 11
226.6565308332
 21
292.3352443802
 31
0.0
  0
LINE
  5
1DD
330
6F
100
AcDbEntity
  8
AD-4382
  6
HIDDEN2
 62
     7
100
AcDbLine
 10
180.6565308332
 20
225.8352443802
 30
0.0
 11
178.9065308332
 21
225.8352443802
 31
0.0
  0
LINE
  5
1DE
330
6F
100
AcDbEntity
  8
AD-4382
  6
Continuous
 62
     7
100
AcDbLine
 10
178.9065308332
 20
225.8352443802
 30
0.0
 11
157.6565308332
 21
225.8352443802
 31
0.0
  0
LINE
  5
1DF
330
6F
100
AcDbEntity
  8
AD-4382
  6
Continuous
 62
     7
100
AcDbLine
 10
157.6565308332
 20
203.8352443802
 30
0.0
 11
178.9065308332
 21
203.8352443802
 31
0.0
  0
LINE
  5
1E0
330
6F
100
AcDbEntity
  8
AD-4382
  6
HIDDEN2
 62
     7
100
AcDbLine
 10
178.9065308332
 20
203.8352443802
 30
0.0
 11
180.6565308332
 21
203.8352443802
 31
0.0
  0
LINE
  5
1E1
330
6F
100
AcDbEntity
  8
AD-4382
  6
HIDDEN2
 62
     7
100
AcDbLine
 10
148.6565308332
 20
209.8352443802
 30
0.0
 11
157.6565308332
 21
209.8352443802
 31
0.0
  0
LINE
  5
1E2
330
6F
100
AcDbEntity
  8
AD-4382
  6
HIDDEN2
 62
     7
100
AcDbLine
 10
157.6565308332
 20
219.8352443802
 30
0.0
 11
148.6565308332
 21
219.8352443802
 31
0.0
  0
LINE
  5
1E3
330
6F
100
AcDbEntity
  8
AD-4382
  6
Continuous
 62
     7
100
AcDbLine
 10
152.6565308332
 20
225.8352443802
 30
0.0
 11
147.6565308332
 21
225.8352443802
 31
0.0
  0
LINE
  5
1E4
330
6F
100
AcDbEntity
  8
AD-4382
  6
Continuous
 62
     7
100
AcDbLine
 10
147.6565308332
 20
203.8352443802
 30
0.0
 11
152.6565308332
 21
203.8352443802
 31
0.0
  0
LINE
  5
1E5
330
6F
100
AcDbEntity
  8
AD-4382
  6
Continuous
 62
     7
100
AcDbLine
 10
157.6565308332
 20
223.1662443802
 30
0.0
 11
152.6565308332
 21
223.1662443802
 31
0.0
  0
LINE
  5
1E6
330
6F
100
AcDbEntity
  8
AD-4382
  6
Continuous
 62
     7
100
AcDbLine
 10
152.6565308332
 20
206.5042443802
 30
0.0
 11
157.6565308332
 21
206.5042443802
 31
0.0
  0
ARC
  5
1E7
330
6F
100
AcDbEntity
  8
AD-4382
  6
HIDDEN2
 62
     7
100
AcDbCircle
 10
148.6565308332
 20
220.8352443802
 30
0.0
 40
0.9999999999999975
100
AcDbArc
 50
180.0
 51
270.0
  0
ARC
  5
1E8
330
6F
100
AcDbEntity
  8
AD-4382
  6
HIDDEN2
 62
     7
100
AcDbCircle
 10
148.6565308332
 20
208.8352443802
 30
0.0
 40
1.000000000000001
100
AcDbArc
 50
90.0
 51
180.0
  0
ARC
  5
1E9
330
6F
100
AcDbEntity
  8
AD-4382
  6
HIDDEN2
 62
     7
100
AcDbCircle
 10
192.1094600675
 20
241.0222601012
 30
0.0
 40
0.4825629796549066
100
AcDbArc
 50
322.2426010836
 51
27.1043143619
  0
ARC
  5
1EA
330
6F
100
AcDbEntity
  8
AD-4382
  6
HIDDEN2
 62
     7
100
AcDbCircle
 10
192.2204035622
 20
241.1061943895
 30
0.0
 40
0.3464061969418149
100
AcDbArc
 50
23.1034449831
 51
49.62000065899999
  0
ARC
  5
1EB
330
6F
100
AcDbEntity
  8
AD-4382
  6
HIDDEN2
 62
     7
100
AcDbCircle
 10
261.0925998654
 20
216.038407638
 30
0.0
 40
0.3467806228209591
100
AcDbArc
 50
90.38721399100001
 51
116.9006962142
  0
ARC
  5
1EC
330
6F
100
AcDbEntity
  8
AD-4382
  6
HIDDEN2
 62
     7
100
AcDbCircle
 10
261.1236147391
 20
215.9031641865
 30
0.0
 40
0.4825885323772914
100
AcDbArc
 50
112.9164292741
 51
177.7566769277
  0
ARC
  5
1ED
330
6F
100
AcDbEntity
  8
AD-4382
  6
HIDDEN2
 62
     7
100
AcDbCircle
 10
182.2205079497
 20
213.6317069971
 30
0.0
 40
0.3464061969039505
100
AcDbArc
 50
270.3799993417
 51
296.8965550153
  0
ARC
  5
1EE
330
6F
100
AcDbEntity
  8
AD-4382
  6
HIDDEN2
 62
     7
100
AcDbCircle
 10
182.1894722227
 20
213.767317496
 30
0.0
 40
0.4825629796403044
100
AcDbArc
 50
292.8956856318
 51
357.7573988591
  0
ARC
  5
1EF
330
6F
100
AcDbEntity
  8
AD-4382
  6
HIDDEN2
 62
     7
100
AcDbCircle
 10
251.2036260723
 20
188.6482175735
 30
0.0
 40
0.4825891165454216
100
AcDbArc
 50
142.2433396213
 51
207.0830966767
  0
ARC
  5
1F0
330
6F
100
AcDbEntity
  8
AD-4382
  6
HIDDEN2
 62
     7
100
AcDbCircle
 10
251.0929402453
 20
188.564557177
 30
0.0
 40
0.3467891823586421
100
AcDbArc
 50
203.0992093691
 51
229.6126211832
  0
ARC
  5
1F1
330
6F
100
AcDbEntity
  8
AD-4382
  6
HIDDEN2
 62
     7
100
AcDbCircle
 10
227.6565308332
 20
292.3352443802
 30
0.0
 40
0.9999999999999975
100
AcDbArc
 50
90.0
 51
180.0
  0
ARC
  5
1F2
330
6F
100
AcDbEntity
  8
AD-4382
  6
HIDDEN2
 62
     7
100
AcDbCircle
 10
215.6565308332
 20
292.3352443802
 30
0.0
 40
1.000000000000001
100
AcDbArc
 50
0.0
 51
90.0
  0
LINE
  5
1F3
330
6F
100
AcDbEntity
  8
AD-4382
  6
Continuous
 62
     7
100
AcDbLine
 10
232.6565308332
 20
288.3352443802
 30
0.0
 11
232.6565308332
 21
293.3352443802
 31
0.0
  0
LINE
  5
1F4
330
6F
100
AcDbEntity
  8
AD-4382
  6
Continuous
 62
     7
100
AcDbLine
 10
210.6565308332
 20
293.3352443802
 30
0.0
 11
210.6565308332
 21
288.3352443802
 31
0.0
  0
LINE
  5
1F5
330
6F
100
AcDbEntity
  8
AD-4382
  6
Continuous
 62
     7
100
AcDbLine
 10
229.9875308332
 20
283.3352443802
 30
0.0
 11
229.9875308332
 21
288.3352443802
 31
0.0
  0
LINE
  5
1F6
330
6F
100
AcDbEntity
  8
AD-4382
  6
Continuous
 62
     7
100
AcDbLine
 10
213.3255308332
 20
288.3352443802
 30
0.0
 11
213.3255308332
 21
283.3352443802
 31
0.0
  0
ARC
  5
1F7
330
6F
100
AcDbEntity
  8
AD-4382
  6
Continuous
 62
     7
100
AcDbCircle
 10
207.1208281355
 20
282.3352443802
 30
0.0
 40
1.000000000000001
100
AcDbArc
 50
90.0
 51
177.9174347203
  0
ARC
  5
1F8
330
6F
100
AcDbEntity
  8
AD-4382
  6
Continuous
 62
     7
100
AcDbCircle
 10
236.192233531
 20
282.3352443802
 30
0.0
 40
0.9999999999999978
100
AcDbArc
 50
2.082565279699998
 51
90.0
  0
LINE
  5
1F9
330
6F
100
AcDbEntity
  8
AD-4382
  6
HIDDEN2
 62
     7
100
AcDbLine
 10
238.1214886375
 20
256.7989047621
 30
0.0
 11
238.0928944696
 21
257.5852443802
 31
0.0
  0
LINE
  5
1FA
330
6F
100
AcDbEntity
  8
AD-4382
  6
Continuous
 62
     7
100
AcDbLine
 10
238.0928944696
 20
257.5852443802
 30
0.0
 11
237.191573029
 21
282.3715839983
 31
0.0
  0
LINE
  5
1FB
330
6F
100
AcDbEntity
  8
AD-4382
  6
Continuous
 62
     7
100
AcDbLine
 10
206.1214886375
 20
282.3715839983
 30
0.0
 11
205.2201671969
 21
257.5852443802
 31
0.0
  0
LINE
  5
1FC
330
6F
100
AcDbEntity
  8
AD-4382
  6
HIDDEN2
 62
     7
100
AcDbLine
 10
205.2201671969
 20
257.5852443802
 30
0.0
 11
205.191573029
 21
256.7989047621
 31
0.0
  0
ARC
  5
1FD
330
6F
100
AcDbEntity
  8
AD-4382
  6
HIDDEN2
 62
     7
100
AcDbCircle
 10
239.1208281355
 20
256.8352443802
 30
0.0
 40
1.000000000000001
100
AcDbArc
 50
182.0825652797
 51
270.0
  0
ARC
  5
1FE
330
6F
100
AcDbEntity
  8
AD-4382
  6
HIDDEN2
 62
     7
100
AcDbCircle
 10
204.192233531
 20
256.8352443802
 30
0.0
 40
0.9999999999999987
100
AcDbArc
 50
270.0
 51
357.9174347203
  0
ARC
  5
1FF
330
6F
100
AcDbEntity
  8
AD-4382
  6
HIDDEN2
 62
     7
100
AcDbCircle
 10
215.6565308332
 20
137.3352443802
 30
0.0
 40
0.9999999999999975
100
AcDbArc
 50
270.0
 51
0.0
  0
ARC
  5
200
330
6F
100
AcDbEntity
  8
AD-4382
  6
HIDDEN2
 62
     7
100
AcDbCircle
 10
227.6565308332
 20
137.3352443802
 30
0.0
 40
1.000000000000001
100
AcDbArc
 50
180.0
 51
270.0
  0
LINE
  5
201
330
6F
100
AcDbEntity
  8
AD-4382
  6
Continuous
 62
     7
100
AcDbLine
 10
232.6565308332
 20
136.3352443802
 30
0.0
 11
232.6565308332
 21
141.3352443802
 31
0.0
  0
LINE
  5
202
330
6F
100
AcDbEntity
  8
AD-4382
  6
Continuous
 62
     7
100
AcDbLine
 10
210.6565308332
 20
141.3352443802
 30
0.0
 11
210.6565308332
 21
136.3352443802
 31
0.0
  0
LINE
  5
203
330
6F
100
AcDbEntity
  8
AD-4382
  6
Continuous
 62
     7
100
AcDbLine
 10
213.3255308332
 20
146.3352443802
 30
0.0
 11
213.3255308332
 21
141.3352443802
 31
0.0
  0
LINE
  5
204
330
6F
100
AcDbEntity
  8
AD-4382
  6
Continuous
 62
     7
100
AcDbLine
 10
229.9875308332
 20
141.3352443802
 30
0.0
 11
229.9875308332
 21
146.3352443802
 31
0.0
  0
ARC
  5
205
330
6F
100
AcDbEntity
  8
AD-4382
  6
Continuous
 62
     7
100
AcDbCircle
 10
236.192233531
 20
147.3352443802
 30
0.0
 40
1.000000000000001
100
AcDbArc
 50
270.0
 51
357.9174347203
  0
ARC
  5
206
330
6F
100
AcDbEntity
  8
AD-4382
  6
Continuous
 62
     7
100
AcDbCircle
 10
207.1208281355
 20
147.3352443802
 30
0.0
 40
0.9999999999999978
100
AcDbArc
 50
182.0825652797
 51
270.0
  0
LINE
  5
207
330
6F
100
AcDbEntity
  8
AD-4382
  6
HIDDEN2
 62
     7
100
AcDbLine
 10
205.191573029
 20
172.8715839983
 30
0.0
 11
205.2201671969
 21
172.0852443802
 31
0.0
  0
LINE
  5
208
330
6F
100
AcDbEntity
  8
AD-4382
  6
Continuous
 62
     7
100
AcDbLine
 10
205.2201671969
 20
172.0852443802
 30
0.0
 11
206.1214886375
 21
147.2989047621
 31
0.0
  0
LINE
  5
209
330
6F
100
AcDbEntity
  8
AD-4382
  6
Continuous
 62
     7
100
AcDbLine
 10
237.191573029
 20
147.2989047621
 30
0.0
 11
238.0928944696
 21
172.0852443802
 31
0.0
  0
LINE
  5
20A
330
6F
100
AcDbEntity
  8
AD-4382
  6
HIDDEN2
 62
     7
100
AcDbLine
 10
238.0928944696
 20
172.0852443802
 30
0.0
 11
238.1214886375
 21
172.8715839983
 31
0.0
  0
ARC
  5
20B
330
6F
100
AcDbEntity
  8
AD-4382
  6
HIDDEN2
 62
     7
100
AcDbCircle
 10
204.192233531
 20
172.8352443802
 30
0.0
 40
1.000000000000001
100
AcDbArc
 50
2.082565279699998
 51
90.0
  0
ARC
  5
20C
330
6F
100
AcDbEntity
  8
AD-4382
  6
HIDDEN2
 62
     7
100
AcDbCircle
 10
239.1208281355
 20
172.8352443802
 30
0.0
 40
0.9999999999999987
100
AcDbArc
 50
90.0
 51
177.9174347203
  0
LINE
  5
20D
330
6F
100
AcDbEntity
  8
AD-4382
  6
Continuous
 62
     7
100
AcDbLine
 10
157.6565308332
 20
207.3602443802
 30
0.0
 11
152.6565308332
 21
207.3602443802
 31
0.0
  0
LINE
  5
20E
330
6F
100
AcDbEntity
  8
AD-4382
  6
Continuous
 62
     7
100
AcDbLine
 10
157.6565308332
 20
222.3102443802
 30
0.0
 11
152.6565308332
 21
222.3102443802
 31
0.0
  0
CIRCLE
  5
20F
330
6F
100
AcDbEntity
  8
AD-4382
  6
HIDDEN2
 62
     7
100
AcDbCircle
 10
254.9065308332
 20
248.0852443802
 30
0.0
 40
1.5705
  0
CIRCLE
  5
210
330
6F
100
AcDbEntity
  8
AD-4382
  6
HIDDEN2
 62
     7
100
AcDbCircle
 10
188.4065308332
 20
248.0852443802
 30
0.0
 40
1.5705
  0
CIRCLE
  5
211
330
6F
100
AcDbEntity
  8
AD-4382
  6
HIDDEN2
 62
     7
100
AcDbCircle
 10
188.4065308332
 20
181.5852443802
 30
0.0
 40
1.5705
  0
CIRCLE
  5
212
330
6F
100
AcDbEntity
  8
AD-4382
  6
HIDDEN2
 62
     7
100
AcDbCircle
 10
254.9065308332
 20
181.5852443802
 30
0.0
 40
1.5705
  0
LINE
  5
213
330
6F
100
AcDbEntity
  8
AD-4382
  6
Continuous
 62
     7
100
AcDbLine
 10
214.1815308332
 20
283.3352443802
 30
0.0
 11
214.1815308332
 21
288.3352443802
 31
0.0
  0
LINE
  5
214
330
6F
100
AcDbEntity
  8
AD-4382
  6
Continuous
 62
     7
100
AcDbLine
 10
229.1315308332
 20
283.3352443802
 30
0.0
 11
229.1315308332
 21
288.3352443802
 31
0.0
  0
LINE
  5
215
330
6F
100
AcDbEntity
  8
AD-4382
  6
Continuous
 62
     7
100
AcDbLine
 10
214.1815308332
 20
141.3352443802
 30
0.0
 11
214.1815308332
 21
146.3352443802
 31
0.0
  0
LINE
  5
216
330
6F
100
AcDbEntity
  8
AD-4382
  6
Continuous
 62
     7
100
AcDbLine
 10
229.1315308332
 20
141.3352443802
 30
0.0
 11
229.1315308332
 21
146.3352443802
 31
0.0
  0
ENDBLK
  5
218
330
6F
100
AcDbEntity
  8
0
100
AcDbBlockEnd
  0
BLOCK
  5
370
330
219
100
AcDbEntity
  8
0
100
AcDbBlockBegin
  2
SE1
 70
     0
 10
0.0
 20
0.0
 30
0.0
  3
SE1
  1

  0
LINE
  5
21B
330
219
100
AcDbEntity
  8
AD-4382
  6
Continuous
 62
     7
100
AcDbLine
 10
178.9065308332
 20
100.5450565087
 30
0.0
 11
178.9065308332
 21
102.5450565087
 31
0.0
  0
LINE
  5
21C
330
219
100
AcDbEntity
  8
AD-4382
  6
Continuous
 62
     7
100
AcDbLine
 10
181.9065308332
 20
105.5450565087
 30
0.0
 11
188.9065308332
 21
105.5450565087
 31
0.0
  0
LINE
  5
21D
330
219
100
AcDbEntity
  8
AD-4382
  6
Continuous
 62
     7
100
AcDbLine
 10
254.4065308332
 20
105.5450565087
 30
0.0
 11
261.4065308332
 21
105.5450565087
 31
0.0
  0
LINE
  5
21E
330
219
100
AcDbEntity
  8
AD-4382
  6
Continuous
 62
     7
100
AcDbLine
 10
188.9065308332
 20
105.5450565087
 30
0.0
 11
254.4065308332
 21
105.5450565087
 31
0.0
  0
LINE
  5
21F
330
219
100
AcDbEntity
  8
AD-4382
  6
Continuous
 62
     7
100
AcDbLine
 10
264.4065308332
 20
102.5450565087
 30
0.0
 11
264.4065308332
 21
100.5450565087
 31
0.0
  0
ARC
  5
220
330
219
100
AcDbEntity
  8
AD-4382
  6
Continuous
 62
     7
100
AcDbCircle
 10
261.4065308332
 20
102.5450565087
 30
0.0
 40
3.000000000000003
100
AcDbArc
 50
0.0
 51
90.0
  0
ARC
  5
221
330
219
100
AcDbEntity
  8
AD-4382
  6
Continuous
 62
     7
100
AcDbCircle
 10
181.9065308332
 20
102.5450565087
 30
0.0
 40
3.0
100
AcDbArc
 50
90.0
 51
180.0
  0
LINE
  5
222
330
219
100
AcDbEntity
  8
AD-4382
  6
Continuous
 62
     7
100
AcDbLine
 10
262.6565308332
 20
98.04505650870002
 30
0.0
 11
262.6565308332
 21
99.54505650870002
 31
0.0
  0
LINE
  5
223
330
219
100
AcDbEntity
  8
AD-4382
  6
Continuous
 62
     7
100
AcDbLine
 10
249.9065308332
 20
98.04505650870002
 30
0.0
 11
249.9065308332
 21
99.54505650870002
 31
0.0
  0
LINE
  5
224
330
219
100
AcDbEntity
  8
AD-4382
  6
Continuous
 62
     7
100
AcDbLine
 10
193.4065308332
 20
98.04505650870002
 30
0.0
 11
193.4065308332
 21
99.54505650870002
 31
0.0
  0
LINE
  5
225
330
219
100
AcDbEntity
  8
AD-4382
  6
Continuous
 62
     7
100
AcDbLine
 10
180.6565308332
 20
98.04505650870002
 30
0.0
 11
180.6565308332
 21
99.54505650870002
 31
0.0
  0
LINE
  5
226
330
219
100
AcDbEntity
  8
AD-4382
  6
Continuous
 62
     7
100
AcDbLine
 10
261.6565308332
 20
90.29505650870001
 30
0.0
 11
252.6565308332
 21
90.29505650870001
 31
0.0
  0
LINE
  5
227
330
219
100
AcDbEntity
  8
AD-4382
  6
Continuous
 62
     7
100
AcDbLine
 10
252.6565308332
 20
90.29505650870001
 30
0.0
 11
248.6454278948
 21
90.29505650870001
 31
0.0
  0
LINE
  5
228
330
219
100
AcDbEntity
  8
AD-4382
  6
Continuous
 62
     7
100
AcDbLine
 10
262.6565308332
 20
91.29505650870001
 30
0.0
 11
262.6565308332
 21
98.04505650870002
 31
0.0
  0
SPLINE
  5
229
330
219
100
AcDbEntity
  8
AD-4382
  6
Continuous
 62
     7
100
AcDbSpline
210
0.0
220
0.0
230
1.0
 70
     8
 71
     3
 72
    14
 73
    10
 74
     0
 42
0.0000000001
 43
0.0000000001
 40
0.0
 40
0.0
 40
0.0
 40
0.0
 40
0.25
 40
0.25
 40
0.5
 40
0.5
 40
0.75
 40
0.75
 40
1.0
 40
1.0
 40
1.0
 40
1.0
 10
248.6454278948209
 20
90.29505650868129
 30
0.0
 10
248.450280926719
 20
90.29505650868129
 30
0.0
 10
248.2448189693084
 20
90.33698833661741
 30
0.0
 10
247.8117288345221
 20
90.4644895718928
 30
0.0
 10
247.5925226518755
 20
90.54844195151892
 30
0.0
 10
247.1459121201162
 20
90.73771692386662
 30
0.0
 10
246.9169312084709
 20
90.84428196016416
 30
0.0
 10
246.4597522927843
 20
91.06498065729923
 30
0.0
 10
246.229119434223
 20
91.18033542758215
 30
0.0
 10
245.9996765837563
 20
91.29505650868129
 30
0.0
  0
ARC
  5
22A
330
219
100
AcDbEntity
  8
AD-4382
  6
Continuous
 62
     7
100
AcDbCircle
 10
261.6565308332
 20
91.29505650870001
 30
0.0
 40
1.000000000000001
100
AcDbArc
 50
270.0
 51
0.0
  0
LINE
  5
22B
330
219
100
AcDbEntity
  8
AD-4382
  6
Continuous
 62
     7
100
AcDbLine
 10
190.6565308332
 20
90.29505650870001
 30
0.0
 11
181.6565308332
 21
90.29505650870001
 31
0.0
  0
LINE
  5
22C
330
219
100
AcDbEntity
  8
AD-4382
  6
Continuous
 62
     7
100
AcDbLine
 10
194.6676337717
 20
90.29505650870001
 30
0.0
 11
190.6565308332
 21
90.29505650870001
 31
0.0
  0
LINE
  5
22D
330
219
100
AcDbEntity
  8
AD-4382
  6
Continuous
 62
     7
100
AcDbLine
 10
180.6565308332
 20
91.29505650870001
 30
0.0
 11
180.6565308332
 21
98.04505650870002
 31
0.0
  0
SPLINE
  5
22E
330
219
100
AcDbEntity
  8
AD-4382
  6
Continuous
 62
     7
100
AcDbSpline
210
0.0
220
0.0
230
1.0
 70
     8
 71
     3
 72
    14
 73
    10
 74
     0
 42
0.0000000001
 43
0.0000000001
 40
0.0
 40
0.0
 40
0.0
 40
0.0
 40
0.25
 40
0.25
 40
0.5
 40
0.5
 40
0.75
 40
0.75
 40
1.0
 40
1.0
 40
1.0
 40
1.0
 10
197.313385082741
 20
91.29505650868129
 30
0.0
 10
197.0839422322639
 20
91.18033542760244
 30
0.0
 10
196.8533093737131
 20
91.06498065729923
 30
0.0
 10
196.3961304580264
 20
90.84428196016416
 30
0.0
 10
196.1671495463811
 20
90.73771692386662
 30
0.0
 10
195.7205390146218
 20
90.54844195151895
 30
0.0
 10
195.5013328319751
 20
90.4644895718928
 30
0.0
 10
195.0682426971889
 20
90.33698833661741
 30
0.0
 10
194.8627807397784
 20
90.29505650868129
 30
0.0
 10
194.6676337716765
 20
90.29505650868129
 30
0.0
  0
ARC
  5
22F
330
219
100
AcDbEntity
  8
AD-4382
  6
Continuous
 62
     7
100
AcDbCircle
 10
181.6565308332
 20
91.29505650870001
 30
0.0
 40
0.9999999999999939
100
AcDbArc
 50
180.0
 51
270.0
  0
LINE
  5
230
330
219
100
AcDbEntity
  8
AD-4382
  6
Continuous
 62
     7
100
AcDbLine
 10
182.7065308332
 20
106.5450565087
 30
0.0
 11
194.1065308332
 21
106.5450565087
 31
0.0
  0
LINE
  5
231
330
219
100
AcDbEntity
  8
AD-4382
  6
Continuous
 62
     7
100
AcDbLine
 10
189.1565308332
 20
110.5450565087
 30
0.0
 11
189.8762246789
 21
110.5450565087
 31
0.0
  0
LINE
  5
232
330
219
100
AcDbEntity
  8
AD-4382
  6
Continuous
 62
     7
100
AcDbLine
 10
186.9368369875999
 20
110.5450565087
 30
0.0
 11
187.6565308332
 21
110.5450565087
 31
0.0
  0
LINE
  5
233
330
219
100
AcDbEntity
  8
AD-4382
  6
Continuous
 62
     7
100
AcDbLine
 10
185.1565308332
 20
109.8915052225
 30
0.0
 11
185.1565308332
 21
109.9659934628
 31
0.0
  0
SPLINE
  5
234
330
219
100
AcDbEntity
  8
AD-4382
  6
Continuous
 62
     7
100
AcDbSpline
210
0.0
220
0.0
230
1.0
 70
     8
 71
     3
 72
    10
 73
     6
 74
     0
 42
0.0000000001
 43
0.0000000001
 40
0.0
 40
0.0
 40
0.0
 40
0.0
 40
0.5
 40
0.5
 40
1.0
 40
1.0
 40
1.0
 40
1.0
 10
185.1565308332486
 20
109.8915052225383
 30
0.0
 10
185.4009890276909
 20
110.1089293911586
 30
0.0
 10
185.6775290263271
 20
110.2719450522147
 30
0.0
 10
186.2918297641726
 20
110.4941502582387
 30
0.0
 10
186.6104087790086
 20
110.5450565086813
 30
0.0
 10
186.9368369875788
 20
110.5450565086813
 30
0.0
  0
LINE
  5
235
330
219
100
AcDbEntity
  8
AD-4382
  6
Continuous
 62
     7
100
AcDbLine
 10
191.6565308332
 20
109.8915052225
 30
0.0
 11
191.6565308332
 21
109.9659934628
 31
0.0
  0
SPLINE
  5
236
330
219
100
AcDbEntity
  8
AD-4382
  6
Continuous
 62
     7
100
AcDbSpline
210
0.0
220
0.0
230
1.0
 70
     8
 71
     3
 72
    14
 73
    10
 74
     0
 42
0.0000000001
 43
0.0000000001
 40
0.0
 40
0.0
 40
0.0
 40
0.0
 40
0.25
 40
0.25
 40
0.5
 40
0.5
 40
0.75
 40
0.75
 40
1.0
 40
1.0
 40
1.0
 40
1.0
 10
189.8762246789186
 20
110.5450565086813
 30
0.0
 10
190.0391262409426
 20
110.5450565086813
 30
0.0
 10
190.200187677769
 20
110.5323684462219
 30
0.0
 10
190.5182596562857
 20
110.4790605204843
 30
0.0
 10
190.6768354561424
 20
110.4379042374977
 30
0.0
 10
190.9810469402346
 20
110.3277865787193
 30
0.0
 10
191.1262027943367
 20
110.2594117213091
 30
0.0
 10
191.4025449805464
 20
110.0958963164782
 30
0.0
 10
191.5345893372287
 20
109.9999615107513
 30
0.0
 10
191.6565308332486
 20
109.8915052225383
 30
0.0
  0
LINE
  5
237
330
219
100
AcDbEntity
  8
AD-4382
  6
Continuous
 62
     7
100
AcDbLine
 10
189.1565308332
 20
109.8915052225
 30
0.0
 11
189.1565308332
 21
110.5450565087
 31
0.0
  0
SPLINE
  5
238
330
219
100
AcDbEntity
  8
AD-4382
  6
Continuous
 62
     7
100
AcDbSpline
210
0.0
220
0.0
230
1.0
 70
     8
 71
     3
 72
    10
 73
     6
 74
     0
 42
0.0000000001
 43
0.0000000001
 40
0.0
 40
0.0
 40
0.0
 40
0.0
 40
0.5
 40
0.5
 40
1.0
 40
1.0
 40
1.0
 40
1.0
 10
187.6565308332486
 20
109.8915052225383
 30
0.0
 10
187.9051713529234
 20
109.9425384488933
 30
0.0
 10
188.1546939770969
 20
109.9658925609955
 30
0.0
 10
188.6552213365585
 20
109.9660943645507
 30
0.0
 10
188.908053292972
 20
109.9425049975293
 30
0.0
 10
189.1565308332486
 20
109.8915052225383
 30
0.0
  0
LINE
  5
239
330
219
100
AcDbEntity
  8
AD-4382
  6
Continuous
 62
     7
100
AcDbLine
 10
187.6565308332
 20
110.5450565087
 30
0.0
 11
187.6565308332
 21
109.8915052225
 31
0.0
  0
LINE
  5
23A
330
219
100
AcDbEntity
  8
AD-4382
  6
HIDDEN2
 62
     7
100
AcDbLine
 10
185.1565308332
 20
108.0450565087
 30
0.0
 11
185.1565308332
 21
109.8915052225
 31
0.0
  0
LINE
  5
23B
330
219
100
AcDbEntity
  8
AD-4382
  6
HIDDEN2
 62
     7
100
AcDbLine
 10
185.1565308332
 20
108.0450565087
 30
0.0
 11
187.6565308332
 21
108.0450565087
 31
0.0
  0
LINE
  5
23C
330
219
100
AcDbEntity
  8
AD-4382
  6
HIDDEN2
 62
     7
100
AcDbLine
 10
187.6565308332
 20
108.0450565087
 30
0.0
 11
187.6565308332
 21
109.8915052225
 31
0.0
  0
LINE
  5
23D
330
219
100
AcDbEntity
  8
AD-4382
  6
HIDDEN2
 62
     7
100
AcDbLine
 10
187.6565308332
 20
108.0450565087
 30
0.0
 11
189.1565308332
 21
108.0450565087
 31
0.0
  0
LINE
  5
23E
330
219
100
AcDbEntity
  8
AD-4382
  6
HIDDEN2
 62
     7
100
AcDbLine
 10
189.1565308332
 20
108.0450565087
 30
0.0
 11
189.1565308332
 21
109.8915052225
 31
0.0
  0
LINE
  5
23F
330
219
100
AcDbEntity
  8
AD-4382
  6
HIDDEN2
 62
     7
100
AcDbLine
 10
189.1565308332
 20
108.0450565087
 30
0.0
 11
191.6565308332
 21
108.0450565087
 31
0.0
  0
LINE
  5
240
330
219
100
AcDbEntity
  8
AD-4382
  6
HIDDEN2
 62
     7
100
AcDbLine
 10
191.6565308332
 20
108.0450565087
 30
0.0
 11
191.6565308332
 21
109.8915052225
 31
0.0
  0
LINE
  5
241
330
219
100
AcDbEntity
  8
AD-4382
  6
HIDDEN2
 62
     7
100
AcDbLine
 10
251.6565308332
 20
108.0450565087
 30
0.0
 11
251.6565308332
 21
109.8915052225
 31
0.0
  0
LINE
  5
242
330
219
100
AcDbEntity
  8
AD-4382
  6
HIDDEN2
 62
     7
100
AcDbLine
 10
254.1565308332
 20
108.0450565087
 30
0.0
 11
254.1565308332
 21
109.8915052225
 31
0.0
  0
LINE
  5
243
330
219
100
AcDbEntity
  8
AD-4382
  6
HIDDEN2
 62
     7
100
AcDbLine
 10
255.6565308332
 20
108.0450565087
 30
0.0
 11
255.6565308332
 21
109.8915052225
 31
0.0
  0
LINE
  5
244
330
219
100
AcDbEntity
  8
AD-4382
  6
HIDDEN2
 62
     7
100
AcDbLine
 10
258.1565308332
 20
108.0450565087
 30
0.0
 11
258.1565308332
 21
109.8915052225
 31
0.0
  0
LINE
  5
245
330
219
100
AcDbEntity
  8
AD-4382
  6
HIDDEN2
 62
     7
100
AcDbLine
 10
255.6565308332
 20
108.0450565087
 30
0.0
 11
258.1565308332
 21
108.0450565087
 31
0.0
  0
LINE
  5
246
330
219
100
AcDbEntity
  8
AD-4382
  6
HIDDEN2
 62
     7
100
AcDbLine
 10
254.1565308332
 20
108.0450565087
 30
0.0
 11
255.6565308332
 21
108.0450565087
 31
0.0
  0
LINE
  5
247
330
219
100
AcDbEntity
  8
AD-4382
  6
HIDDEN2
 62
     7
100
AcDbLine
 10
251.6565308332
 20
108.0450565087
 30
0.0
 11
254.1565308332
 21
108.0450565087
 31
0.0
  0
LINE
  5
248
330
219
100
AcDbEntity
  8
AD-4382
  6
Continuous
 62
     7
100
AcDbLine
 10
249.2065308332
 20
106.5450565087
 30
0.0
 11
260.6065308332
 21
106.5450565087
 31
0.0
  0
SPLINE
  5
249
330
219
100
AcDbEntity
  8
AD-4382
  6
Continuous
 62
     7
100
AcDbSpline
210
0.0
220
0.0
230
1.0
 70
     8
 71
     3
 72
    10
 73
     6
 74
     0
 42
0.0000000001
 43
0.0000000001
 40
0.0
 40
0.0
 40
0.0
 40
0.0
 40
0.5
 40
0.5
 40
1.0
 40
1.0
 40
1.0
 40
1.0
 10
254.1565308332486
 20
109.8915052225383
 30
0.0
 10
254.4051713529234
 20
109.9425384488933
 30
0.0
 10
254.6546939770969
 20
109.9658925609955
 30
0.0
 10
255.1552213365584
 20
109.9660943645507
 30
0.0
 10
255.408053292972
 20
109.9425049975293
 30
0.0
 10
255.6565308332486
 20
109.8915052225383
 30
0.0
  0
LINE
  5
24A
330
219
100
AcDbEntity
  8
AD-4382
  6
Continuous
 62
     7
100
AcDbLine
 10
255.6565308332
 20
109.8915052225
 30
0.0
 11
255.6565308332
 21
110.5450565087
 31
0.0
  0
LINE
  5
24B
330
219
100
AcDbEntity
  8
AD-4382
  6
Continuous
 62
     7
100
AcDbLine
 10
255.6565308332
 20
110.5450565087
 30
0.0
 11
256.3762246789
 21
110.5450565087
 31
0.0
  0
SPLINE
  5
24C
330
219
100
AcDbEntity
  8
AD-4382
  6
Continuous
 62
     7
100
AcDbSpline
210
0.0
220
0.0
230
1.0
 70
     8
 71
     3
 72
    14
 73
    10
 74
     0
 42
0.0000000001
 43
0.0000000001
 40
0.0
 40
0.0
 40
0.0
 40
0.0
 40
0.25
 40
0.25
 40
0.5
 40
0.5
 40
0.75
 40
0.75
 40
1.0
 40
1.0
 40
1.0
 40
1.0
 10
256.3762246789185
 20
110.5450565086813
 30
0.0
 10
256.5391262409427
 20
110.5450565086813
 30
0.0
 10
256.700187677769
 20
110.5323684462219
 30
0.0
 10
257.0182596562856
 20
110.4790605204843
 30
0.0
 10
257.1768354561424
 20
110.4379042374977
 30
0.0
 10
257.4810469402346
 20
110.3277865787193
 30
0.0
 10
257.6262027943367
 20
110.2594117213091
 30
0.0
 10
257.9025449805465
 20
110.0958963164782
 30
0.0
 10
258.0345893372287
 20
109.9999615107513
 30
0.0
 10
258.1565308332486
 20
109.8915052225383
 30
0.0
  0
LINE
  5
24D
330
219
100
AcDbEntity
  8
AD-4382
  6
Continuous
 62
     7
100
AcDbLine
 10
258.1565308332
 20
109.8915052225
 30
0.0
 11
258.1565308332
 21
109.9659934628
 31
0.0
  0
LINE
  5
24E
330
219
100
AcDbEntity
  8
AD-4382
  6
Continuous
 62
     7
100
AcDbLine
 10
251.6565308332
 20
109.8915052225
 30
0.0
 11
251.6565308332
 21
109.9659934628
 31
0.0
  0
SPLINE
  5
24F
330
219
100
AcDbEntity
  8
AD-4382
  6
Continuous
 62
     7
100
AcDbSpline
210
0.0
220
0.0
230
1.0
 70
     8
 71
     3
 72
    10
 73
     6
 74
     0
 42
0.0000000001
 43
0.0000000001
 40
0.0
 40
0.0
 40
0.0
 40
0.0
 40
0.5
 40
0.5
 40
1.0
 40
1.0
 40
1.0
 40
1.0
 10
251.6565308332486
 20
109.8915052225383
 30
0.0
 10
251.9009890276909
 20
110.1089293911586
 30
0.0
 10
252.1775290263271
 20
110.2719450522147
 30
0.0
 10
252.7918297641726
 20
110.4941502582387
 30
0.0
 10
253.1104087790085
 20
110.5450565086813
 30
0.0
 10
253.4368369875787
 20
110.5450565086813
 30
0.0
  0
LINE
  5
250
330
219
100
AcDbEntity
  8
AD-4382
  6
Continuous
 62
     7
100
AcDbLine
 10
253.4368369876
 20
110.5450565087
 30
0.0
 11
254.1565308332
 21
110.5450565087
 31
0.0
  0
LINE
  5
251
330
219
100
AcDbEntity
  8
AD-4382
  6
Continuous
 62
     7
100
AcDbLine
 10
254.1565308332
 20
110.5450565087
 30
0.0
 11
254.1565308332
 21
109.8915052225
 31
0.0
  0
LINE
  5
252
330
219
100
AcDbEntity
  8
AD-4382
  6
Continuous
 62
     7
100
AcDbLine
 10
157.6565308332
 20
59.7950565087
 30
0.0
 11
157.6565308332
 21
81.7950565087
 31
0.0
  0
LINE
  5
253
330
219
100
AcDbEntity
  8
AD-4382
  6
Continuous
 62
     7
100
AcDbLine
 10
152.6565308332
 20
65.65854014760001
 30
0.0
 11
152.6565308332
 21
68.1900648651
 31
0.0
  0
LINE
  5
254
330
219
100
AcDbEntity
  8
AD-4382
  6
Continuous
 62
     7
100
AcDbLine
 10
152.6565308332
 20
75.5046452808
 30
0.0
 11
152.6565308332
 21
77.150355371
 31
0.0
  0
LINE
  5
255
330
219
100
AcDbEntity
  8
AD-4382
  6
Continuous
 62
     7
100
AcDbLine
 10
147.6565308332
 20
81.75884794419998
 30
0.0
 11
147.6565308332
 21
78.7478572193
 31
0.0
  0
LINE
  5
256
330
219
100
AcDbEntity
  8
AD-4382
  6
Continuous
 62
     7
100
AcDbLine
 10
147.6565308332
 20
75.5046452808
 30
0.0
 11
147.6565308332
 21
68.1900648651
 31
0.0
  0
LINE
  5
257
330
219
100
AcDbEntity
  8
AD-4382
  6
Continuous
 62
     7
100
AcDbLine
 10
147.6565308332
 20
64.5408538452
 30
0.0
 11
147.6565308332
 21
60.23726415449999
 31
0.0
  0
LINE
  5
258
330
219
100
AcDbEntity
  8
AD-4382
  6
Continuous
 62
     7
100
AcDbLine
 10
152.6565308332
 20
81.75884794419998
 30
0.0
 11
152.6565308332
 21
78.7478572193
 31
0.0
  0
LINE
  5
259
330
219
100
AcDbEntity
  8
AD-4382
  6
Continuous
 62
     7
100
AcDbLine
 10
152.6565308332
 20
75.5046452808
 30
0.0
 11
152.6565308332
 21
68.1900648651
 31
0.0
  0
LINE
  5
25A
330
219
100
AcDbEntity
  8
AD-4382
  6
Continuous
 62
     7
100
AcDbLine
 10
152.6565308332
 20
64.5408538452
 30
0.0
 11
152.6565308332
 21
60.23726415449999
 31
0.0
  0
LINE
  5
25B
330
219
100
AcDbEntity
  8
AD-4382
  6
HIDDEN2
 62
     7
100
AcDbLine
 10
147.6565308332
 20
81.3528488629
 30
0.0
 11
152.6565308332
 21
81.3528488629
 31
0.0
  0
LINE
  5
25C
330
219
100
AcDbEntity
  8
AD-4382
  6
Continuous
 62
     7
100
AcDbLine
 10
152.6565308332
 20
81.75884794419998
 30
0.0
 11
147.6565308332
 21
81.75884794419998
 31
0.0
  0
LINE
  5
25D
330
219
100
AcDbEntity
  8
AD-4382
  6
HIDDEN2
 62
     7
100
AcDbLine
 10
152.6565308332
 20
78.95674055020001
 30
0.0
 11
147.6565308332
 21
78.95674055020001
 31
0.0
  0
LINE
  5
25E
330
219
100
AcDbEntity
  8
AD-4382
  6
HIDDEN2
 62
     7
100
AcDbLine
 10
152.6565308332
 20
78.55074146879998
 30
0.0
 11
147.6565308332
 21
78.55074146879998
 31
0.0
  0
LINE
  5
25F
330
219
100
AcDbEntity
  8
AD-4382
  6
Continuous
 62
     7
100
AcDbLine
 10
147.6565308332
 20
78.7478572193
 30
0.0
 11
152.6565308332
 21
78.7478572193
 31
0.0
  0
LINE
  5
260
330
219
100
AcDbEntity
  8
AD-4382
  6
Continuous
 62
     7
100
AcDbLine
 10
152.6565308332
 20
75.5046452808
 30
0.0
 11
147.6565308332
 21
75.5046452808
 31
0.0
  0
LINE
  5
261
330
219
100
AcDbEntity
  8
AD-4382
  6
Continuous
 62
     7
100
AcDbLine
 10
152.6565308332
 20
77.0992157651
 30
0.0
 11
147.6565308332
 21
77.0992157651
 31
0.0
  0
LINE
  5
262
330
219
100
AcDbEntity
  8
AD-4382
  6
HIDDEN2
 62
     7
100
AcDbLine
 10
152.6565308332
 20
73.8560038266
 30
0.0
 11
147.6565308332
 21
73.8560038266
 31
0.0
  0
LINE
  5
263
330
219
100
AcDbEntity
  8
AD-4382
  6
Continuous
 62
     7
100
AcDbLine
 10
152.6565308332
 20
77.150355371
 30
0.0
 11
152.6565308332
 21
78.7478572193
 31
0.0
  0
LINE
  5
264
330
219
100
AcDbEntity
  8
AD-4382
  6
Continuous
 62
     7
100
AcDbLine
 10
147.6565308332
 20
77.0992157651
 30
0.0
 11
147.6565308332
 21
78.7478572193
 31
0.0
  0
LINE
  5
265
330
219
100
AcDbEntity
  8
AD-4382
  6
Continuous
 62
     7
100
AcDbLine
 10
147.6565308332
 20
75.5046452808
 30
0.0
 11
147.6565308332
 21
77.0992157651
 31
0.0
  0
LINE
  5
266
330
219
100
AcDbEntity
  8
AD-4382
  6
Continuous
 62
     7
100
AcDbLine
 10
147.6565308332
 20
68.1900648651
 30
0.0
 11
152.6565308332
 21
68.1900648651
 31
0.0
  0
LINE
  5
267
330
219
100
AcDbEntity
  8
AD-4382
  6
Continuous
 62
     7
100
AcDbLine
 10
152.6565308332
 20
64.5408538452
 30
0.0
 11
147.6565308332
 21
64.5408538452
 31
0.0
  0
LINE
  5
268
330
219
100
AcDbEntity
  8
AD-4382
  6
HIDDEN2
 62
     7
100
AcDbLine
 10
152.6565308332
 20
69.343530805
 30
0.0
 11
147.6565308332
 21
69.343530805
 31
0.0
  0
LINE
  5
269
330
219
100
AcDbEntity
  8
AD-4382
  6
Continuous
 62
     7
100
AcDbLine
 10
152.6565308332
 20
65.6943197851
 30
0.0
 11
147.6565308332
 21
65.6943197851
 31
0.0
  0
LINE
  5
26A
330
219
100
AcDbEntity
  8
AD-4382
  6
Continuous
 62
     7
100
AcDbLine
 10
152.6565308332
 20
64.5408538452
 30
0.0
 11
152.6565308332
 21
65.65854014760001
 31
0.0
  0
LINE
  5
26B
330
219
100
AcDbEntity
  8
AD-4382
  6
Continuous
 62
     7
100
AcDbLine
 10
147.6565308332
 20
64.5408538452
 30
0.0
 11
147.6565308332
 21
65.6943197851
 31
0.0
  0
LINE
  5
26C
330
219
100
AcDbEntity
  8
AD-4382
  6
Continuous
 62
     7
100
AcDbLine
 10
147.6565308332
 20
65.6943197851
 30
0.0
 11
147.6565308332
 21
68.1900648651
 31
0.0
  0
LINE
  5
26D
330
219
100
AcDbEntity
  8
AD-4382
  6
Continuous
 62
     7
100
AcDbLine
 10
152.6565308332
 20
59.8312650731
 30
0.0
 11
147.6565308332
 21
59.8312650731
 31
0.0
  0
LINE
  5
26E
330
219
100
AcDbEntity
  8
AD-4382
  6
Continuous
 62
     7
100
AcDbLine
 10
147.6565308332
 20
60.23726415449999
 30
0.0
 11
152.6565308332
 21
60.23726415449999
 31
0.0
  0
LINE
  5
26F
330
219
100
AcDbEntity
  8
AD-4382
  6
HIDDEN2
 62
     7
100
AcDbLine
 10
152.6565308332
 20
62.6333724672
 30
0.0
 11
147.6565308332
 21
62.6333724672
 31
0.0
  0
LINE
  5
270
330
219
100
AcDbEntity
  8
AD-4382
  6
HIDDEN2
 62
     7
100
AcDbLine
 10
152.6565308332
 20
63.0393715485
 30
0.0
 11
147.6565308332
 21
63.0393715485
 31
0.0
  0
LINE
  5
271
330
219
100
AcDbEntity
  8
AD-4382
  6
Continuous
 62
     7
100
AcDbLine
 10
152.6565308332
 20
59.8312650731
 30
0.0
 11
152.6565308332
 21
60.23726415449999
 31
0.0
  0
LINE
  5
272
330
219
100
AcDbEntity
  8
AD-4382
  6
Continuous
 62
     7
100
AcDbLine
 10
147.6565308332
 20
59.8312650731
 30
0.0
 11
147.6565308332
 21
60.23726415449999
 31
0.0
  0
LINE
  5
273
330
219
100
AcDbEntity
  8
AD-4382
  6
HIDDEN2
 62
     7
100
AcDbLine
 10
152.6565308332
 20
66.08546773659999
 30
0.0
 11
147.6565308332
 21
66.08546773659999
 31
0.0
  0
LINE
  5
274
330
219
100
AcDbEntity
  8
AD-4382
  6
HIDDEN2
 62
     7
100
AcDbLine
 10
147.6565308332
 20
62.84225579810001
 30
0.0
 11
152.6565308332
 21
62.84225579810001
 31
0.0
  0
LINE
  5
275
330
219
100
AcDbEntity
  8
AD-4382
  6
HIDDEN2
 62
     7
100
AcDbLine
 10
152.6565308332
 20
67.73410919079998
 30
0.0
 11
147.6565308332
 21
67.73410919079998
 31
0.0
  0
LINE
  5
276
330
219
100
AcDbEntity
  8
AD-4382
  6
HIDDEN2
 62
     7
100
AcDbLine
 10
152.6565308332
 20
64.4908972523
 30
0.0
 11
147.6565308332
 21
64.4908972523
 31
0.0
  0
LINE
  5
277
330
219
100
AcDbEntity
  8
AD-4382
  6
HIDDEN2
 62
     7
100
AcDbLine
 10
152.6565308332
 20
77.04925917209997
 30
0.0
 11
147.6565308332
 21
77.04925917209997
 31
0.0
  0
LINE
  5
278
330
219
100
AcDbEntity
  8
AD-4382
  6
HIDDEN2
 62
     7
100
AcDbLine
 10
147.6565308332
 20
73.4000481522
 30
0.0
 11
152.6565308332
 21
73.4000481522
 31
0.0
  0
LINE
  5
279
330
219
100
AcDbEntity
  8
AD-4382
  6
HIDDEN2
 62
     7
100
AcDbLine
 10
152.6565308332
 20
75.89579323229997
 30
0.0
 11
147.6565308332
 21
75.89579323229997
 31
0.0
  0
LINE
  5
27A
330
219
100
AcDbEntity
  8
AD-4382
  6
HIDDEN2
 62
     7
100
AcDbLine
 10
152.6565308332
 20
72.2465822124
 30
0.0
 11
147.6565308332
 21
72.2465822124
 31
0.0
  0
LINE
  5
27B
330
219
100
AcDbEntity
  8
AD-4382
  6
Continuous
 62
     7
100
AcDbLine
 10
245.9065308332
 20
98.04505650870002
 30
0.0
 11
252.6565308332
 21
98.04505650870002
 31
0.0
  0
LINE
  5
27C
330
219
100
AcDbEntity
  8
AD-4382
  6
Continuous
 62
     7
100
AcDbLine
 10
252.6565308332
 20
98.04505650870002
 30
0.0
 11
262.6565308332
 21
98.04505650870002
 31
0.0
  0
LINE
  5
27D
330
219
100
AcDbEntity
  8
AD-4382
  6
Continuous
 62
     7
100
AcDbLine
 10
197.4065308332
 20
98.04505650870002
 30
0.0
 11
190.6565308332
 21
98.04505650870002
 31
0.0
  0
LINE
  5
27E
330
219
100
AcDbEntity
  8
AD-4382
  6
Continuous
 62
     7
100
AcDbLine
 10
190.6565308332
 20
98.04505650870002
 30
0.0
 11
180.6565308332
 21
98.04505650870002
 31
0.0
  0
LINE
  5
27F
330
219
100
AcDbEntity
  8
AD-4382
  6
Continuous
 62
     7
100
AcDbLine
 10
178.9065308332
 20
100.5450565087
 30
0.0
 11
188.9065308332
 21
100.5450565087
 31
0.0
  0
LINE
  5
280
330
219
100
AcDbEntity
  8
AD-4382
  6
Continuous
 62
     7
100
AcDbLine
 10
188.9065308332
 20
100.5450565087
 30
0.0
 11
254.4065308332
 21
100.5450565087
 31
0.0
  0
LINE
  5
281
330
219
100
AcDbEntity
  8
AD-4382
  6
Continuous
 62
     7
100
AcDbLine
 10
254.4065308332
 20
100.5450565087
 30
0.0
 11
264.4065308332
 21
100.5450565087
 31
0.0
  0
LINE
  5
282
330
219
100
AcDbEntity
  8
AD-4382
  6
Continuous
 62
     7
100
AcDbLine
 10
178.9165308332
 20
99.54505650870002
 30
0.0
 11
178.9165308332
 21
100.5450565087
 31
0.0
  0
LINE
  5
283
330
219
100
AcDbEntity
  8
AD-4382
  6
Continuous
 62
     7
100
AcDbLine
 10
178.9165308332
 20
99.54505650870002
 30
0.0
 11
188.9065308332
 21
99.54505650870002
 31
0.0
  0
LINE
  5
284
330
219
100
AcDbEntity
  8
AD-4382
  6
Continuous
 62
     7
100
AcDbLine
 10
188.9065308332
 20
99.54505650870002
 30
0.0
 11
254.4065308332
 21
99.54505650870002
 31
0.0
  0
LINE
  5
285
330
219
100
AcDbEntity
  8
AD-4382
  6
Continuous
 62
     7
100
AcDbLine
 10
254.4065308332
 20
99.54505650870002
 30
0.0
 11
264.3965308332
 21
99.54505650870002
 31
0.0
  0
LINE
  5
286
330
219
100
AcDbEntity
  8
AD-4382
  6
Continuous
 62
     7
100
AcDbLine
 10
264.3965308332
 20
99.54505650870002
 30
0.0
 11
264.3965308332
 21
100.5450565087
 31
0.0
  0
ARC
  5
287
330
219
100
AcDbEntity
  8
AD-4382
  6
HIDDEN2
 62
     7
100
AcDbCircle
 10
255.9830178755
 20
106.5450565087
 30
0.0
 40
1.000000000000001
100
AcDbArc
 50
241.6068479178
 51
270.0
  0
ARC
  5
288
330
219
100
AcDbEntity
  8
AD-4382
  6
Continuous
 62
     7
100
AcDbCircle
 10
245.4902306832
 20
106.548479351
 30
0.0
 40
1.00342342222439
100
AcDbArc
 50
241.548546133
 51
269.9383994766
  0
ELLIPSE
  5
289
330
219
100
AcDbEntity
  8
AD-4382
  6
Continuous
 62
     7
100
AcDbEllipse
 10
197.8239097956
 20
106.5450565086
 30
0.0
 11
0.0000000986876587
 21
-0.9999999999531429
 31
0.0
210
0.0
220
0.0
230
1.0
 40
0.9995618795
 41
0.1952289322069891
 42
0.4974319161394882
  0
ARC
  5
28A
330
219
100
AcDbEntity
  8
AD-4382
  6
HIDDEN2
 62
     7
100
AcDbCircle
 10
187.330043791
 20
106.5450565087
 30
0.0
 40
1.000000000000001
100
AcDbArc
 50
270.0
 51
298.3931520822
  0
LINE
  5
28B
330
219
100
AcDbEntity
  8
AD-4382
  6
Continuous
 62
     7
100
AcDbLine
 10
243.4636474237
 20
107.5450565087
 30
0.0
 11
250.7501805076
 21
107.5450565087
 31
0.0
  0
LINE
  5
28C
330
219
100
AcDbEntity
  8
AD-4382
  6
HIDDEN2
 62
     7
100
AcDbLine
 10
250.7501805076
 20
107.5450565087
 30
0.0
 11
253.880043791
 21
107.5450565087
 31
0.0
  0
LINE
  5
28D
330
219
100
AcDbEntity
  8
AD-4382
  6
Continuous
 62
     7
100
AcDbLine
 10
199.8494142428
 20
107.5450565087
 30
0.0
 11
243.4636474237
 21
107.5450565087
 31
0.0
  0
LINE
  5
28E
330
219
100
AcDbEntity
  8
AD-4382
  6
HIDDEN2
 62
     7
100
AcDbLine
 10
189.4330178755
 20
107.5450565087
 30
0.0
 11
192.5633575163
 21
107.5450565087
 31
0.0
  0
LINE
  5
28F
330
219
100
AcDbEntity
  8
AD-4382
  6
Continuous
 62
     7
100
AcDbLine
 10
192.5633575163
 20
107.5450565087
 30
0.0
 11
199.8494142428
 21
107.5450565087
 31
0.0
  0
LINE
  5
290
330
219
100
AcDbEntity
  8
AD-4382
  6
HIDDEN2
 62
     7
100
AcDbLine
 10
255.0307016895
 20
106.2399154124
 30
0.0
 11
255.0319838068
 21
106.2359704363
 31
0.0
  0
LINE
  5
291
330
219
100
AcDbEntity
  8
AD-4382
  6
HIDDEN2
 62
     7
100
AcDbLine
 10
254.8310778597
 20
106.854142581
 30
0.0
 11
255.0307016895
 21
106.2399154124
 31
0.0
  0
ARC
  5
292
330
219
100
AcDbEntity
  8
AD-4382
  6
HIDDEN2
 62
     7
100
AcDbCircle
 10
255.9830178755
 20
106.5450565087
 30
0.0
 40
1.000000000000049
100
AcDbArc
 50
198.0041616059
 51
241.6068479178
  0
SPLINE
  5
293
330
219
100
AcDbEntity
  8
AD-4382
  6
HIDDEN2
 62
     7
100
AcDbSpline
210
0.0
220
0.0
230
1.0
 70
     8
 71
     3
 72
    14
 73
    10
 74
     0
 42
0.0000000001
 43
0.0000000001
 40
0.0
 40
0.0
 40
0.0
 40
0.0
 40
0.4999999999999961
 40
0.4999999999999961
 40
0.7499999999999944
 40
0.7499999999999944
 40
0.8749999999999971
 40
0.8749999999999971
 40
1.0
 40
1.0
 40
1.0
 40
1.0
 10
255.5074988042814
 20
105.6653510961042
 30
0.0
 10
255.4750698730294
 20
105.6828803451561
 30
0.0
 10
255.4170857690542
 20
105.6944963386682
 30
0.0
 10
255.2969840311329
 20
105.69470639793
 30
0.0
 10
255.2512517410047
 20
105.692034902457
 30
0.0
 10
255.177477040501
 20
105.684517626038
 30
0.0
 10
255.1521585951268
 20
105.6814597464137
 30
0.0
 10
255.1001528867139
 20
105.6744284699263
 30
0.0
 10
255.0727671777142
 20
105.6709236540597
 30
0.0
 10
255.0460092859541
 20
105.6662456840716
 30
0.0
  0
LINE
  5
294
330
219
100
AcDbEntity
  8
AD-4382
  6
HIDDEN2
 62
     7
100
AcDbLine
 10
255.0460090169
 20
105.6662456505
 30
0.0
 11
255.0406486827
 21
105.6655805663
 31
0.0
  0
ARC
  5
295
330
219
100
AcDbEntity
  8
AD-4382
  6
HIDDEN2
 62
     7
100
AcDbCircle
 10
253.880043791
 20
106.5450565087
 30
0.0
 40
1.000000000000001
100
AcDbArc
 50
18.0041616059
 51
90.0
  0
LINE
  5
296
330
219
100
AcDbEntity
  8
AD-4382
  6
Continuous
 62
     7
100
AcDbLine
 10
245.0135509599
 20
105.6655805329
 30
0.0
 11
245.0121906573
 21
105.6662456506
 31
0.0
  0
SPLINE
  5
297
330
219
100
AcDbEntity
  8
AD-4382
  6
Continuous
 62
     7
100
AcDbSpline
210
0.0
220
0.0
230
1.0
 70
     8
 71
     3
 72
    14
 73
    10
 74
     0
 42
0.0000000001
 43
0.0000000001
 40
0.0
 40
0.0
 40
0.0
 40
0.0
 40
0.125
 40
0.125
 40
0.25
 40
0.25
 40
0.5
 40
0.5
 40
1.0
 40
1.0
 40
1.0
 40
1.0
 10
245.012185740759
 20
105.6662483170156
 30
0.0
 10
245.0027676784769
 20
105.6709146555498
 30
0.0
 10
244.9933417755124
 20
105.674428469926
 30
0.0
 10
244.96977360512
 20
105.6814597464135
 30
0.0
 10
244.9564759534218
 20
105.6845176260378
 30
0.0
 10
244.9117098123806
 20
105.6920349024569
 30
0.0
 10
244.8754874930263
 20
105.6947063979299
 30
0.0
 10
244.7521397289062
 20
105.6944963386683
 30
0.0
 10
244.6474648603063
 20
105.6828803451598
 30
0.0
 10
244.5385344696703
 20
105.6653510961045
 30
0.0
  0
SPLINE
  5
298
330
219
100
AcDbEntity
  8
AD-4382
  6
Continuous
 62
     7
100
AcDbSpline
210
0.0
220
0.0
230
1.0
 70
     8
 71
     3
 72
    14
 73
    10
 74
     0
 42
0.0000000001
 43
0.0000000001
 40
0.0
 40
0.0
 40
0.0
 40
0.0
 40
0.5000000000000023
 40
0.5000000000000023
 40
0.7500000000000139
 40
0.7500000000000139
 40
0.8750000000000069
 40
0.8750000000000069
 40
1.0
 40
1.0
 40
1.0
 40
1.0
 10
198.774527196827
 20
105.6653510961042
 30
0.0
 10
198.6655968061879
 20
105.6828803451562
 30
0.0
 10
198.5609219375923
 20
105.6944963386682
 30
0.0
 10
198.4375741734725
 20
105.69470639793
 30
0.0
 10
198.4013518541175
 20
105.6920349024569
 30
0.0
 10
198.3565857130764
 20
105.684517626038
 30
0.0
 10
198.3432880613781
 20
105.6814597464137
 30
0.0
 10
198.3197198909857
 20
105.6744284699263
 30
0.0
 10
198.3102891368395
 20
105.6709236540589
 30
0.0
 10
198.3008710787676
 20
105.6662456840716
 30
0.0
  0
LINE
  5
299
330
219
100
AcDbEntity
  8
AD-4382
  6
Continuous
 62
     7
100
AcDbLine
 10
198.300871009
 20
105.6662456505
 30
0.0
 11
198.2995107675
 21
105.6655805663
 31
0.0
  0
ARC
  5
29A
330
219
100
AcDbEntity
  8
AD-4382
  6
HIDDEN2
 62
     7
100
AcDbCircle
 10
187.330043791
 20
106.5450565087
 30
0.0
 40
0.9999999999999808
100
AcDbArc
 50
298.3931520822
 51
341.9958383941
  0
LINE
  5
29B
330
219
100
AcDbEntity
  8
AD-4382
  6
HIDDEN2
 62
     7
100
AcDbLine
 10
188.282359977
 20
106.2399154124
 30
0.0
 11
188.4819838068
 21
106.854142581
 31
0.0
  0
LINE
  5
29C
330
219
100
AcDbEntity
  8
AD-4382
  6
HIDDEN2
 62
     7
100
AcDbLine
 10
188.2810778597
 20
106.2359704363
 30
0.0
 11
188.282359977
 21
106.2399154124
 31
0.0
  0
LINE
  5
29D
330
219
100
AcDbEntity
  8
AD-4382
  6
HIDDEN2
 62
     7
100
AcDbLine
 10
188.2724129418999
 20
105.6655805329
 30
0.0
 11
188.2670526491999
 21
105.6662456506
 31
0.0
  0
SPLINE
  5
29E
330
219
100
AcDbEntity
  8
AD-4382
  6
HIDDEN2
 62
     7
100
AcDbSpline
210
0.0
220
0.0
230
1.0
 70
     8
 71
     3
 72
    14
 73
    10
 74
     0
 42
0.0000000001
 43
0.0000000001
 40
0.0
 40
0.0
 40
0.0
 40
0.0
 40
0.1250000000000099
 40
0.1250000000000099
 40
0.2500000000000197
 40
0.2500000000000197
 40
0.5000000000000063
 40
0.5000000000000063
 40
1.0
 40
1.0
 40
1.0
 40
1.0
 10
188.2670525240673
 20
105.6662483170152
 30
0.0
 10
188.2402946121957
 20
105.6709146555488
 30
0.0
 10
188.212908779785
 20
105.6744284699261
 30
0.0
 10
188.1609030713721
 20
105.6814597464135
 30
0.0
 10
188.135584625998
 20
105.6845176260378
 30
0.0
 10
188.0618099254948
 20
105.6920349024568
 30
0.0
 10
188.0160776353654
 20
105.6947063979299
 30
0.0
 10
187.8959758974446
 20
105.6944963386683
 30
0.0
 10
187.8379917934806
 20
105.6828803451584
 30
0.0
 10
187.8055628622166
 20
105.6653510961045
 30
0.0
  0
ARC
  5
29F
330
219
100
AcDbEntity
  8
AD-4382
  6
HIDDEN2
 62
     7
100
AcDbCircle
 10
189.4330178755
 20
106.5450565087
 30
0.0
 40
1.000000000000001
100
AcDbArc
 50
90.0
 51
161.9958383941
  0
LINE
  5
2A0
330
219
100
AcDbEntity
  8
AD-4382
  6
HIDDEN2
 62
     7
100
AcDbLine
 10
198.2995107066
 20
105.6655805329
 30
0.0
 11
198.3008710092
 21
105.6662456506
 31
0.0
  0
LINE
  5
2A1
330
219
100
AcDbEntity
  8
AD-4382
  6
HIDDEN2
 62
     7
100
AcDbLine
 10
245.0121906575
 20
105.6662456505
 30
0.0
 11
245.013550899
 21
105.6655805663
 31
0.0
  0
LINE
  5
2A2
330
219
100
AcDbEntity
  8
AD-4382
  6
Continuous
 62
     7
100
AcDbLine
 10
195.1920647392
 20
41.5450565087
 30
0.0
 11
182.5352104897
 21
41.5450565087
 31
0.0
  0
LINE
  5
2A3
330
219
100
AcDbEntity
  8
AD-4382
  6
Continuous
 62
     7
100
AcDbLine
 10
182.5352104897
 20
41.5450565087
 30
0.0
 11
181.6565308332
 21
41.5450565087
 31
0.0
  0
LINE
  5
2A4
330
219
100
AcDbEntity
  8
AD-4382
  6
Continuous
 62
     7
100
AcDbLine
 10
197.3133850827
 20
41.5450565087
 30
0.0
 11
195.1920647392
 21
41.5450565087
 31
0.0
  0
LINE
  5
2A5
330
219
100
AcDbEntity
  8
AD-4382
  6
Continuous
 62
     7
100
AcDbLine
 10
245.9996765838
 20
41.5450565087
 30
0.0
 11
228.0008196035
 21
41.5450565087
 31
0.0
  0
LINE
  5
2A6
330
219
100
AcDbEntity
  8
AD-4382
  6
Continuous
 62
     7
100
AcDbLine
 10
248.1209969273
 20
41.5450565087
 30
0.0
 11
245.9996765838
 21
41.5450565087
 31
0.0
  0
LINE
  5
2A7
330
219
100
AcDbEntity
  8
AD-4382
  6
Continuous
 62
     7
100
AcDbLine
 10
260.7778511768
 20
41.5450565087
 30
0.0
 11
248.1209969273
 21
41.5450565087
 31
0.0
  0
LINE
  5
2A8
330
219
100
AcDbEntity
  8
AD-4382
  6
Continuous
 62
     7
100
AcDbLine
 10
261.6565308332
 20
41.5450565087
 30
0.0
 11
260.7778511768
 21
41.5450565087
 31
0.0
  0
LINE
  5
2A9
330
219
100
AcDbEntity
  8
AD-4382
  6
Continuous
 62
     7
100
AcDbLine
 10
262.6565308332
 20
42.5450565087
 30
0.0
 11
262.6565308332
 21
91.29505650870001
 31
0.0
  0
LINE
  5
2AA
330
219
100
AcDbEntity
  8
AD-4382
  6
Continuous
 62
     7
100
AcDbLine
 10
180.6565308332
 20
42.5450565087
 30
0.0
 11
180.6565308332
 21
91.29505650870001
 31
0.0
  0
ARC
  5
2AB
330
219
100
AcDbEntity
  8
AD-4382
  6
Continuous
 62
     7
100
AcDbCircle
 10
181.6565308332
 20
42.5450565087
 30
0.0
 40
1.000000000000001
100
AcDbArc
 50
180.0
 51
270.0
  0
ARC
  5
2AC
330
219
100
AcDbEntity
  8
AD-4382
  6
Continuous
 62
     7
100
AcDbCircle
 10
261.6565308332
 20
42.5450565087
 30
0.0
 40
1.000000000000001
100
AcDbArc
 50
270.0
 51
0.0
  0
LINE
  5
2AD
330
219
100
AcDbEntity
  8
AD-4382
  6
HIDDEN2
 62
     7
100
AcDbLine
 10
221.6565308332
 20
41.5450565087
 30
0.0
 11
215.312242063
 21
41.5450565087
 31
0.0
  0
LINE
  5
2AE
330
219
100
AcDbEntity
  8
AD-4382
  6
Continuous
 62
     7
100
AcDbLine
 10
215.312242063
 20
41.5450565087
 30
0.0
 11
197.3133850827
 21
41.5450565087
 31
0.0
  0
LINE
  5
2AF
330
219
100
AcDbEntity
  8
AD-4382
  6
HIDDEN2
 62
     7
100
AcDbLine
 10
228.0031118873
 20
41.5450565087
 30
0.0
 11
221.6565308332
 21
41.5450565087
 31
0.0
  0
LINE
  5
2B0
330
219
100
AcDbEntity
  8
AD-4382
  6
Continuous
 62
     7
100
AcDbLine
 10
182.1565308332
 20
40.5450565087
 30
0.0
 11
261.1565308332
 21
40.5450565087
 31
0.0
  0
LINE
  5
2B1
330
219
100
AcDbEntity
  8
AD-4382
  6
HIDDEN2
 62
     7
100
AcDbLine
 10
184.6565308332
 20
39.5450565087
 30
0.0
 11
258.6565308332
 21
39.5450565087
 31
0.0
  0
LINE
  5
2B2
330
219
100
AcDbEntity
  8
AD-4382
  6
Continuous
 62
     7
100
AcDbLine
 10
280.7069556454
 20
28.5450565087
 30
0.0
 11
280.7182894736
 21
28.5450565087
 31
0.0
  0
LINE
  5
2B3
330
219
100
AcDbEntity
  8
AD-4382
  6
Continuous
 62
     7
100
AcDbLine
 10
280.7069556454
 20
28.5450565087
 30
0.0
 11
271.584452857
 21
28.5450565087
 31
0.0
  0
LINE
  5
2B4
330
219
100
AcDbEntity
  8
AD-4382
  6
Continuous
 62
     7
100
AcDbLine
 10
271.584452857
 20
28.5450565087
 30
0.0
 11
269.8127355322
 21
28.5450565087
 31
0.0
  0
LINE
  5
2B5
330
219
100
AcDbEntity
  8
AD-4382
  6
Continuous
 62
     7
100
AcDbLine
 10
269.8127355322
 20
28.5450565087
 30
0.0
 11
253.7377001013
 21
28.5450565087
 31
0.0
  0
ARC
  5
2B6
330
219
100
AcDbEntity
  8
AD-4382
  6
HIDDEN2
 62
     7
100
AcDbCircle
 10
263.6534472339
 20
31.5560081709
 30
0.0
 40
3.010952998832323
100
AcDbArc
 50
180.2084009315
 51
219.1073460145
  0
ARC
  5
2B7
330
219
100
AcDbEntity
  8
AD-4382
  6
HIDDEN2
 62
     7
100
AcDbCircle
 10
263.6534472339
 20
31.5560081709
 30
0.0
 40
3.010952998832323
100
AcDbArc
 50
253.2702557404
 51
270.0539860693
  0
LINE
  5
2B8
330
219
100
AcDbEntity
  8
AD-4382
  6
HIDDEN2
 62
     7
100
AcDbLine
 10
261.1258158754
 20
33.5450565087
 30
0.0
 11
261.3133289138001
 21
33.5450565087
 31
0.0
  0
LINE
  5
2B9
330
219
100
AcDbEntity
  8
AD-4382
  6
HIDDEN2
 62
     7
100
AcDbLine
 10
261.3133366408
 20
33.5450565087
 30
0.0
 11
262.1378895672
 21
33.5450565087
 31
0.0
  0
LINE
  5
2BA
330
219
100
AcDbEntity
  8
AD-4382
  6
Continuous
 62
     7
100
AcDbLine
 10
189.5753615652
 20
28.5450565087
 30
0.0
 11
179.6567774087
 21
28.5450565087
 31
0.0
  0
ARC
  5
2BB
330
219
100
AcDbEntity
  8
AD-4382
  6
Continuous
 62
     7
100
AcDbCircle
 10
179.6596144326
 20
31.5560081709
 30
0.0
 40
3.010952998832318
100
AcDbArc
 50
269.9460139307
 51
359.7915990685
  0
LINE
  5
2BC
330
219
100
AcDbEntity
  8
AD-4382
  6
Continuous
 62
     7
100
AcDbLine
 10
163.5817419779
 20
28.5450565087
 30
0.0
 11
162.5947721929
 21
28.5450565087
 31
0.0
  0
LINE
  5
2BD
330
219
100
AcDbEntity
  8
AD-4382
  6
Continuous
 62
     7
100
AcDbLine
 10
179.6567774087
 20
28.5450565087
 30
0.0
 11
163.5817419779
 21
28.5450565087
 31
0.0
  0
LINE
  5
2BE
330
219
100
AcDbEntity
  8
AD-4382
  6
HIDDEN2
 62
     7
100
AcDbLine
 10
260.6087616438
 20
33.5450565087
 30
0.0
 11
252.1317989233
 21
33.5450565087
 31
0.0
  0
SPLINE
  5
2BF
330
219
100
AcDbEntity
  8
AD-4382
  6
HIDDEN2
 62
     7
100
AcDbSpline
210
0.0
220
0.0
230
1.0
 70
     8
 71
     3
 72
    10
 73
     6
 74
     0
 42
0.0000000001
 43
0.0000000001
 40
0.0
 40
0.0
 40
0.0
 40
0.0
 40
0.5
 40
0.5
 40
1.0
 40
1.0
 40
1.0
 40
1.0
 10
192.8191662381005
 20
34.04505650859647
 30
0.0
 10
192.8191663362808
 20
33.91407033406486
 30
0.0
 10
192.7792666254912
 20
33.78389285261722
 30
0.0
 10
192.6422236915074
 20
33.59874657235797
 30
0.0
 10
192.5459265551176
 20
33.54492084469953
 30
0.0
 10
192.435946348444
 20
33.54505650889466
 30
0.0
  0
ELLIPSE
  5
2C0
330
219
100
AcDbEntity
  8
AD-4382
  6
HIDDEN2
 62
     7
100
AcDbEllipse
 10
261.1251718138
 20
34.0450565086
 30
0.0
 11
-0.5005532450478647
 21
-0.000002666103241
 31
0.0
210
0.0
220
0.0
230
1.0
 40
0.9988947326999999
 41
0.0
 42
0.7422346821381902
  0
ELLIPSE
  5
2C1
330
219
100
AcDbEntity
  8
AD-4382
  6
HIDDEN2
 62
     7
100
AcDbEllipse
 10
261.1251718138
 20
34.0450565086
 30
0.0
 11
-0.5005532450478647
 21
-0.000002666103241
 31
0.0
210
0.0
220
0.0
230
1.0
 40
0.9988947326999999
 41
1.206648439191149
 42
1.56927379792775
  0
LINE
  5
2C2
330
219
100
AcDbEntity
  8
AD-4382
  6
HIDDEN2
 62
     7
100
AcDbLine
 10
260.6536532184
 20
33.5450565981
 30
0.0
 11
261.1222646371
 21
33.5450565092
 31
0.0
  0
LINE
  5
2C3
330
219
100
AcDbEntity
  8
AD-4382
  6
HIDDEN2
 62
     7
100
AcDbLine
 10
260.6423344512
 20
31.5450565087
 30
0.0
 11
260.6425141523
 21
31.5450565087
 31
0.0
  0
ARC
  5
2C4
330
219
100
AcDbEntity
  8
AD-4382
  6
HIDDEN2
 62
     7
100
AcDbCircle
 10
182.1886457428
 20
34.0448526936
 30
0.0
 40
0.4997973964402929
100
AcDbArc
 50
269.8738346875
 51
0.0233649436
  0
ELLIPSE
  5
2C5
330
219
100
AcDbEntity
  8
AD-4382
  6
HIDDEN2
 62
     7
100
AcDbEllipse
 10
250.8768499666
 20
34.0450565086
 30
0.0
 11
-0.0000002374441373
 21
-0.499999999915013
 31
0.0
210
0.0
220
0.0
230
1.0
 40
0.7659090765000001
 41
4.712389344105927
 42
6.283185307179584
  0
LINE
  5
2C6
330
219
100
AcDbEntity
  8
AD-4382
  6
Continuous
 62
     7
100
AcDbLine
 10
252.0610253879
 20
33.5450565087
 30
0.0
 11
251.8772852314
 21
33.5450565087
 31
0.0
  0
LINE
  5
2C7
330
219
100
AcDbEntity
  8
AD-4382
  6
Continuous
 62
     7
100
AcDbLine
 10
181.1751721353
 20
33.5450565087
 30
0.0
 11
180.9914319788999
 21
33.5450565087
 31
0.0
  0
LINE
  5
2C8
330
219
100
AcDbEntity
  8
AD-4382
  6
Continuous
 62
     7
100
AcDbLine
 10
251.8772852423
 20
33.5450565087
 30
0.0
 11
181.1751721348
 21
33.5450565087
 31
0.0
  0
ARC
  5
2C9
330
219
100
AcDbEntity
  8
AD-4382
  6
Continuous
 62
     7
100
AcDbCircle
 10
264.6571131161
 20
32.5516334389
 30
0.0
 40
2.006577256736803
100
AcDbArc
 50
256.0894084033
 51
269.9673125856
  0
ARC
  5
2CA
330
219
100
AcDbEntity
  8
AD-4382
  6
HIDDEN2
 62
     7
100
AcDbCircle
 10
264.6571131161
 20
32.5516334389
 30
0.0
 40
2.006577256736803
100
AcDbArc
 50
251.4032865568
 51
256.0894084033
  0
ARC
  5
2CB
330
219
100
AcDbEntity
  8
AD-4382
  6
HIDDEN2
 62
     7
100
AcDbCircle
 10
264.6571131161
 20
32.5516334389
 30
0.0
 40
2.006577256736803
100
AcDbArc
 50
180.1877979109
 51
184.5893365089
  0
LINE
  5
2CC
330
219
100
AcDbEntity
  8
AD-4382
  6
HIDDEN2
 62
     7
100
AcDbLine
 10
178.6570933087
 20
30.5450565087
 30
0.0
 11
188.5756774651
 21
30.5450565087
 31
0.0
  0
ARC
  5
2CD
330
219
100
AcDbEntity
  8
AD-4382
  6
Continuous
 62
     7
100
AcDbCircle
 10
178.6559485504
 20
32.5516334389
 30
0.0
 40
2.006577256736806
100
AcDbArc
 50
270.0326874144
 51
359.8122020891
  0
LINE
  5
2CE
330
219
100
AcDbEntity
  8
AD-4382
  6
Continuous
 62
     7
100
AcDbLine
 10
280.7182894736
 20
30.5450565087
 30
0.0
 11
280.7069556454
 21
30.5450565087
 31
0.0
  0
LINE
  5
2CF
330
219
100
AcDbEntity
  8
AD-4382
  6
Continuous
 62
     7
100
AcDbLine
 10
271.584452857
 20
30.5450565087
 30
0.0
 11
280.7069556454
 21
30.5450565087
 31
0.0
  0
LINE
  5
2D0
330
219
100
AcDbEntity
  8
AD-4382
  6
Continuous
 62
     7
100
AcDbLine
 10
269.8127355322
 20
30.5450565087
 30
0.0
 11
271.584452857
 21
30.5450565087
 31
0.0
  0
LINE
  5
2D1
330
219
100
AcDbEntity
  8
AD-4382
  6
Continuous
 62
     7
100
AcDbLine
 10
254.7373842014
 20
30.5450565087
 30
0.0
 11
269.8127355322
 21
30.5450565087
 31
0.0
  0
LINE
  5
2D2
330
219
100
AcDbEntity
  8
AD-4382
  6
Continuous
 62
     7
100
AcDbLine
 10
162.5947721929
 20
30.5450565087
 30
0.0
 11
163.5817419779
 21
30.5450565087
 31
0.0
  0
LINE
  5
2D3
330
219
100
AcDbEntity
  8
AD-4382
  6
Continuous
 62
     7
100
AcDbLine
 10
163.5817419779
 20
30.5450565087
 30
0.0
 11
178.6570933087
 21
30.5450565087
 31
0.0
  0
LINE
  5
2D4
330
219
100
AcDbEntity
  8
AD-4382
  6
HIDDEN2
 62
     7
100
AcDbLine
 10
262.1378895312
 20
33.5450565087
 30
0.0
 11
262.3216296875999
 21
33.5450565087
 31
0.0
  0
SPLINE
  5
2D5
330
219
100
AcDbEntity
  8
AD-4382
  6
HIDDEN2
 62
     7
100
AcDbSpline
210
0.0
220
0.0
230
1.0
 70
     8
 71
     3
 72
    10
 73
     6
 74
     0
 42
0.0000000001
 43
0.0000000001
 40
0.0
 40
0.0
 40
0.0
 40
0.0
 40
0.5
 40
0.5
 40
1.0
 40
1.0
 40
1.0
 40
1.0
 10
191.4357763982183
 20
33.54505650868143
 30
0.0
 10
191.3381002005318
 20
33.54505650868143
 30
0.0
 10
191.2410254398734
 20
33.59894305687652
 30
0.0
 10
191.1028903842214
 20
33.78406317929979
 30
0.0
 10
191.0626807017925
 20
33.91415681478186
 30
0.0
 10
191.0626805943991
 20
34.04505650859373
 30
0.0
  0
ELLIPSE
  5
2D6
330
219
100
AcDbEntity
  8
AD-4382
  6
HIDDEN2
 62
     7
100
AcDbEllipse
 10
262.1378895713
 20
34.0450565086
 30
0.0
 11
-0.00000531704724
 21
-0.4999999998838434
 31
0.0
210
0.0
220
0.0
230
1.0
 40
0.9995396506999998
 41
0.0000106300230115
 42
1.570806955993981
  0
LINE
  5
2D7
330
219
100
AcDbEntity
  8
AD-4382
  6
HIDDEN2
 62
     7
100
AcDbLine
 10
262.3216296884
 20
33.5450565087
 30
0.0
 11
262.650546638
 21
33.5450590696
 31
0.0
  0
LINE
  5
2D8
330
219
100
AcDbEntity
  8
AD-4382
  6
Continuous
 62
     7
100
AcDbLine
 10
180.6625150285
 20
33.5450609033
 30
0.0
 11
180.9914319781
 21
33.5450565087
 31
0.0
  0
ARC
  5
2D9
330
219
100
AcDbEntity
  8
AD-4382
  6
Continuous
 62
     7
100
AcDbCircle
 10
181.1752872350999
 20
34.0449414738
 30
0.0
 40
0.4998849783340554
100
AcDbArc
 50
179.9868149454
 51
269.9868034728
  0
LINE
  5
2DA
330
219
100
AcDbEntity
  8
AD-4382
  6
Continuous
 62
     7
100
AcDbLine
 10
252.0610253873
 20
33.5450565087
 30
0.0
 11
252.6095108252
 21
33.5450609029
 31
0.0
  0
ELLIPSE
  5
2DB
330
219
100
AcDbEntity
  8
AD-4382
  6
Continuous
 62
     7
100
AcDbEllipse
 10
251.8772853371
 20
34.0450565086
 30
0.0
 11
0.0000001553298185
 21
0.4999999999122652
 31
0.0
210
0.0
220
0.0
230
1.0
 40
0.746191393
 41
3.141592653589792
 42
4.712389212196237
  0
ARC
  5
2DC
330
219
100
AcDbEntity
  8
AD-4382
  6
HIDDEN2
 62
     7
100
AcDbCircle
 10
221.6565308332
 20
64.5450565087
 30
0.0
 40
8.330999999999999
100
AcDbArc
 50
343.8905077043
 51
360.0
  0
ARC
  5
2DD
330
219
100
AcDbEntity
  8
AD-4382
  6
HIDDEN2
 62
     7
100
AcDbCircle
 10
221.6565308332
 20
64.5450565087
 30
0.0
 40
8.330999999999999
100
AcDbArc
 50
0.0
 51
16.1094922957
  0
ARC
  5
2DE
330
219
100
AcDbEntity
  8
AD-4382
  6
HIDDEN2
 62
     7
100
AcDbCircle
 10
221.6565308332
 20
64.5450565087
 30
0.0
 40
11.0
100
AcDbArc
 50
139.5243183036
 51
144.6956209287
  0
ARC
  5
2DF
330
219
100
AcDbEntity
  8
AD-4382
  6
HIDDEN2
 62
     7
100
AcDbCircle
 10
221.6565308332
 20
64.5450565087
 30
0.0
 40
11.00000000000001
100
AcDbArc
 50
199.5243183036
 51
204.6956209287
  0
ARC
  5
2E0
330
219
100
AcDbEntity
  8
AD-4382
  6
HIDDEN2
 62
     7
100
AcDbCircle
 10
221.6565308332
 20
64.5450565087
 30
0.0
 40
11.0
100
AcDbArc
 50
259.5243183036
 51
264.6956209287
  0
ARC
  5
2E1
330
219
100
AcDbEntity
  8
AD-4382
  6
HIDDEN2
 62
     7
100
AcDbCircle
 10
221.6565308332
 20
64.5450565087
 30
0.0
 40
11.0
100
AcDbArc
 50
319.5243183036
 51
324.6956209287
  0
ARC
  5
2E2
330
219
100
AcDbEntity
  8
AD-4382
  6
HIDDEN2
 62
     7
100
AcDbCircle
 10
221.6565308332
 20
64.5450565087
 30
0.0
 40
11.0
100
AcDbArc
 50
19.5243183036
 51
24.6956209287
  0
ARC
  5
2E3
330
219
100
AcDbEntity
  8
AD-4382
  6
HIDDEN2
 62
     7
100
AcDbCircle
 10
221.6565308332
 20
64.5450565087
 30
0.0
 40
11.0
100
AcDbArc
 50
79.5243183036
 51
84.69562092869997
  0
LINE
  5
2E4
330
219
100
AcDbEntity
  8
AD-4382
  6
HIDDEN2
 62
     7
100
AcDbLine
 10
218.9436013645
 20
72.33222632180001
 30
0.0
 11
222.9273200376
 21
72.69276138790002
 31
0.0
  0
LINE
  5
2E5
330
219
100
AcDbEntity
  8
AD-4382
  6
HIDDEN2
 62
     7
100
AcDbLine
 10
218.6897257461
 20
75.1374154327
 30
0.0
 11
218.9357263356
 21
72.41924115759998
 31
0.0
  0
LINE
  5
2E6
330
219
100
AcDbEntity
  8
AD-4382
  6
HIDDEN2
 62
     7
100
AcDbLine
 10
218.9357263356
 20
72.41924115759998
 30
0.0
 11
218.9436013645
 21
72.33222632180001
 31
0.0
  0
LINE
  5
2E7
330
219
100
AcDbEntity
  8
AD-4382
  6
HIDDEN2
 62
     7
100
AcDbLine
 10
222.9273200376
 20
72.69276138790002
 30
0.0
 11
222.9194450087
 21
72.77977622369999
 31
0.0
  0
LINE
  5
2E8
330
219
100
AcDbEntity
  8
AD-4382
  6
HIDDEN2
 62
     7
100
AcDbLine
 10
222.9194450087
 20
72.77977622369999
 30
0.0
 11
222.6734444192
 21
75.4979504988
 31
0.0
  0
LINE
  5
2E9
330
219
100
AcDbEntity
  8
AD-4382
  6
HIDDEN2
 62
     7
100
AcDbLine
 10
210.9998763755
 20
67.2719073972
 30
0.0
 11
213.4768846444
 21
66.1258630195
 31
0.0
  0
LINE
  5
2EA
330
219
100
AcDbEntity
  8
AD-4382
  6
HIDDEN2
 62
     7
100
AcDbLine
 10
213.4768846444
 20
66.1258630195
 30
0.0
 11
213.5561792172
 21
66.08917557659998
 31
0.0
  0
LINE
  5
2EB
330
219
100
AcDbEntity
  8
AD-4382
  6
HIDDEN2
 62
     7
100
AcDbLine
 10
215.2358060275
 20
69.71944468210001
 30
0.0
 11
215.1565114547
 21
69.75613212489999
 31
0.0
  0
LINE
  5
2EC
330
219
100
AcDbEntity
  8
AD-4382
  6
HIDDEN2
 62
     7
100
AcDbLine
 10
215.1565114547
 20
69.75613212489999
 30
0.0
 11
212.6795031858
 21
70.9021765026
 31
0.0
  0
LINE
  5
2ED
330
219
100
AcDbEntity
  8
AD-4382
  6
HIDDEN2
 62
     7
100
AcDbLine
 10
213.5561792172
 20
66.08917557659998
 30
0.0
 11
215.2358060275
 21
69.71944468210001
 31
0.0
  0
LINE
  5
2EE
330
219
100
AcDbEntity
  8
AD-4382
  6
HIDDEN2
 62
     7
100
AcDbLine
 10
213.9666814626
 20
56.67954847319999
 30
0.0
 11
216.197689142
 21
58.2516783705
 31
0.0
  0
LINE
  5
2EF
330
219
100
AcDbEntity
  8
AD-4382
  6
HIDDEN2
 62
     7
100
AcDbLine
 10
216.197689142
 20
58.2516783705
 30
0.0
 11
216.2691086859
 21
58.30200576350001
 31
0.0
  0
LINE
  5
2F0
330
219
100
AcDbEntity
  8
AD-4382
  6
HIDDEN2
 62
     7
100
AcDbLine
 10
213.9650168232
 20
61.5717398029
 30
0.0
 11
213.8935972792
 21
61.52141240989998
 31
0.0
  0
LINE
  5
2F1
330
219
100
AcDbEntity
  8
AD-4382
  6
HIDDEN2
 62
     7
100
AcDbLine
 10
213.8935972792
 20
61.52141240989998
 30
0.0
 11
211.6625895999
 21
59.9492825125
 31
0.0
  0
LINE
  5
2F2
330
219
100
AcDbEntity
  8
AD-4382
  6
HIDDEN2
 62
     7
100
AcDbLine
 10
216.2691086859
 20
58.30200576350001
 30
0.0
 11
213.9650168232
 21
61.5717398029
 31
0.0
  0
LINE
  5
2F3
330
219
100
AcDbEntity
  8
AD-4382
  6
HIDDEN2
 62
     7
100
AcDbLine
 10
220.3857416289
 20
56.3973516295
 30
0.0
 11
220.3936166578
 21
56.31033679359999
 31
0.0
  0
LINE
  5
2F4
330
219
100
AcDbEntity
  8
AD-4382
  6
HIDDEN2
 62
     7
100
AcDbLine
 10
220.3936166578
 20
56.31033679359999
 30
0.0
 11
220.6396172473
 21
53.5921625186
 31
0.0
  0
LINE
  5
2F5
330
219
100
AcDbEntity
  8
AD-4382
  6
HIDDEN2
 62
     7
100
AcDbLine
 10
224.369460302
 20
56.75788669560001
 30
0.0
 11
220.3857416289
 21
56.3973516295
 31
0.0
  0
LINE
  5
2F6
330
219
100
AcDbEntity
  8
AD-4382
  6
HIDDEN2
 62
     7
100
AcDbLine
 10
224.6233359204
 20
53.9526975847
 30
0.0
 11
224.3773353309
 21
56.6708718597
 31
0.0
  0
LINE
  5
2F7
330
219
100
AcDbEntity
  8
AD-4382
  6
HIDDEN2
 62
     7
100
AcDbLine
 10
224.3773353309
 20
56.6708718597
 30
0.0
 11
224.369460302
 21
56.75788669560001
 31
0.0
  0
LINE
  5
2F8
330
219
100
AcDbEntity
  8
AD-4382
  6
HIDDEN2
 62
     7
100
AcDbLine
 10
228.077255639
 20
59.3706683353
 30
0.0
 11
228.1565502118
 21
59.3339808924
 31
0.0
  0
LINE
  5
2F9
330
219
100
AcDbEntity
  8
AD-4382
  6
HIDDEN2
 62
     7
100
AcDbLine
 10
228.1565502118
 20
59.3339808924
 30
0.0
 11
230.6335584807
 21
58.1879365147
 31
0.0
  0
LINE
  5
2FA
330
219
100
AcDbEntity
  8
AD-4382
  6
HIDDEN2
 62
     7
100
AcDbLine
 10
229.7568824493
 20
63.0009374407
 30
0.0
 11
228.077255639
 21
59.3706683353
 31
0.0
  0
LINE
  5
2FB
330
219
100
AcDbEntity
  8
AD-4382
  6
HIDDEN2
 62
     7
100
AcDbLine
 10
232.313185291
 20
61.8182056202
 30
0.0
 11
229.8361770221
 21
62.9642499979
 31
0.0
  0
LINE
  5
2FC
330
219
100
AcDbEntity
  8
AD-4382
  6
HIDDEN2
 62
     7
100
AcDbLine
 10
229.8361770221
 20
62.9642499979
 30
0.0
 11
229.7568824493
 21
63.0009374407
 31
0.0
  0
LINE
  5
2FD
330
219
100
AcDbEntity
  8
AD-4382
  6
HIDDEN2
 62
     7
100
AcDbLine
 10
229.3480448433
 20
67.5183732145
 30
0.0
 11
229.4194643872
 21
67.5687006075
 31
0.0
  0
LINE
  5
2FE
330
219
100
AcDbEntity
  8
AD-4382
  6
HIDDEN2
 62
     7
100
AcDbLine
 10
229.4194643872
 20
67.5687006075
 30
0.0
 11
231.6504720666
 21
69.14083050489999
 31
0.0
  0
LINE
  5
2FF
330
219
100
AcDbEntity
  8
AD-4382
  6
HIDDEN2
 62
     7
100
AcDbLine
 10
227.0439529806
 20
70.78810725380002
 30
0.0
 11
229.3480448433
 21
67.5183732145
 31
0.0
  0
LINE
  5
300
330
219
100
AcDbEntity
  8
AD-4382
  6
HIDDEN2
 62
     7
100
AcDbLine
 10
229.3463802039
 20
72.4105645442
 30
0.0
 11
227.1153725245
 21
70.8384346468
 31
0.0
  0
LINE
  5
301
330
219
100
AcDbEntity
  8
AD-4382
  6
HIDDEN2
 62
     7
100
AcDbLine
 10
227.1153725245
 20
70.8384346468
 30
0.0
 11
227.0439529806
 21
70.78810725380002
 31
0.0
  0
CIRCLE
  5
302
330
219
100
AcDbEntity
  8
AD-4382
  6
Continuous
 62
     7
100
AcDbCircle
 10
221.6565308332
 20
64.5450565087
 30
0.0
 40
5.0
  0
ARC
  5
303
330
219
100
AcDbEntity
  8
AD-4382
  6
Continuous
 62
     7
100
AcDbCircle
 10
221.6565308332
 20
64.5450565087
 30
0.0
 40
8.330999999999997
100
AcDbArc
 50
316.1094922957
 51
343.8905077043
  0
ARC
  5
304
330
219
100
AcDbEntity
  8
AD-4382
  6
HIDDEN2
 62
     7
100
AcDbCircle
 10
221.6565308332
 20
64.5450565087
 30
0.0
 40
8.330999999999999
100
AcDbArc
 50
283.8905077043
 51
316.1094922957
  0
ARC
  5
305
330
219
100
AcDbEntity
  8
AD-4382
  6
Continuous
 62
     7
100
AcDbCircle
 10
221.6565308332
 20
64.5450565087
 30
0.0
 40
8.330999999999997
100
AcDbArc
 50
256.1094922957
 51
283.8905077043
  0
ARC
  5
306
330
219
100
AcDbEntity
  8
AD-4382
  6
HIDDEN2
 62
     7
100
AcDbCircle
 10
221.6565308332
 20
64.5450565087
 30
0.0
 40
8.330999999999999
100
AcDbArc
 50
223.8905077043
 51
256.1094922957
  0
ARC
  5
307
330
219
100
AcDbEntity
  8
AD-4382
  6
Continuous
 62
     7
100
AcDbCircle
 10
221.6565308332
 20
64.5450565087
 30
0.0
 40
8.331000000000001
100
AcDbArc
 50
196.1094922957
 51
223.8905077043
  0
ARC
  5
308
330
219
100
AcDbEntity
  8
AD-4382
  6
HIDDEN2
 62
     7
100
AcDbCircle
 10
221.6565308332
 20
64.5450565087
 30
0.0
 40
8.330999999999999
100
AcDbArc
 50
163.8905077043
 51
196.1094922957
  0
ARC
  5
309
330
219
100
AcDbEntity
  8
AD-4382
  6
Continuous
 62
     7
100
AcDbCircle
 10
221.6565308332
 20
64.5450565087
 30
0.0
 40
8.331000000000001
100
AcDbArc
 50
136.1094922957
 51
163.8905077043
  0
ARC
  5
30A
330
219
100
AcDbEntity
  8
AD-4382
  6
HIDDEN2
 62
     7
100
AcDbCircle
 10
221.6565308332
 20
64.5450565087
 30
0.0
 40
8.330999999999999
100
AcDbArc
 50
103.8905077043
 51
136.1094922957
  0
ARC
  5
30B
330
219
100
AcDbEntity
  8
AD-4382
  6
Continuous
 62
     7
100
AcDbCircle
 10
221.6565308332
 20
64.5450565087
 30
0.0
 40
8.330999999999999
100
AcDbArc
 50
76.1094922957
 51
103.8905077043
  0
ARC
  5
30C
330
219
100
AcDbEntity
  8
AD-4382
  6
HIDDEN2
 62
     7
100
AcDbCircle
 10
221.6565308332
 20
64.5450565087
 30
0.0
 40
8.330999999999999
100
AcDbArc
 50
43.8905077043
 51
76.1094922957
  0
ARC
  5
30D
330
219
100
AcDbEntity
  8
AD-4382
  6
Continuous
 62
     7
100
AcDbCircle
 10
221.6565308332
 20
64.5450565087
 30
0.0
 40
8.330999999999997
100
AcDbArc
 50
16.1094922957
 51
43.8905077043
  0
ARC
  5
30E
330
219
100
AcDbEntity
  8
AD-4382
  6
HIDDEN2
 62
     7
100
AcDbCircle
 10
221.6565308332
 20
64.5450565087
 30
0.0
 40
8.330999999999999
100
AcDbArc
 50
343.8905077043
 51
16.1094922957
  0
ARC
  5
30F
330
219
100
AcDbEntity
  8
AD-4382
  6
Continuous
 62
     7
100
AcDbCircle
 10
221.6565308332
 20
64.5450565087
 30
0.0
 40
11.0
100
AcDbArc
 50
100.4756816964
 51
139.5243183036
  0
ARC
  5
310
330
219
100
AcDbEntity
  8
AD-4382
  6
Continuous
 62
     7
100
AcDbCircle
 10
221.6565308332
 20
64.5450565087
 30
0.0
 40
11.00000000000001
100
AcDbArc
 50
160.4756816964
 51
199.5243183036
  0
ARC
  5
311
330
219
100
AcDbEntity
  8
AD-4382
  6
Continuous
 62
     7
100
AcDbCircle
 10
221.6565308332
 20
64.5450565087
 30
0.0
 40
11.0
100
AcDbArc
 50
220.4756816964
 51
259.5243183036
  0
ARC
  5
312
330
219
100
AcDbEntity
  8
AD-4382
  6
Continuous
 62
     7
100
AcDbCircle
 10
221.6565308332
 20
64.5450565087
 30
0.0
 40
11.0
100
AcDbArc
 50
280.4756816964
 51
319.5243183036
  0
ARC
  5
313
330
219
100
AcDbEntity
  8
AD-4382
  6
Continuous
 62
     7
100
AcDbCircle
 10
221.6565308332
 20
64.5450565087
 30
0.0
 40
11.0
100
AcDbArc
 50
340.4756816964
 51
19.5243183036
  0
ARC
  5
314
330
219
100
AcDbEntity
  8
AD-4382
  6
Continuous
 62
     7
100
AcDbCircle
 10
221.6565308332
 20
64.5450565087
 30
0.0
 40
11.0
100
AcDbArc
 50
40.47568169639999
 51
79.5243183036
  0
LINE
  5
315
330
219
100
AcDbEntity
  8
AD-4382
  6
Continuous
 62
     7
100
AcDbLine
 10
223.6565308332
 20
72.5450565087
 30
0.0
 11
223.6565308332
 21
75.3617103351
 31
0.0
  0
LINE
  5
316
330
219
100
AcDbEntity
  8
AD-4382
  6
Continuous
 62
     7
100
AcDbLine
 10
219.6565308332
 20
75.3617103351
 30
0.0
 11
219.6565308332
 21
72.5450565087
 31
0.0
  0
LINE
  5
317
330
219
100
AcDbEntity
  8
AD-4382
  6
Continuous
 62
     7
100
AcDbLine
 10
219.6565308332
 20
72.5450565087
 30
0.0
 11
223.6565308332
 21
72.5450565087
 31
0.0
  0
LINE
  5
318
330
219
100
AcDbEntity
  8
AD-4382
  6
Continuous
 62
     7
100
AcDbLine
 10
213.728327603
 20
66.8130057011
 30
0.0
 11
215.728327603
 21
70.2771073163
 31
0.0
  0
LINE
  5
319
330
219
100
AcDbEntity
  8
AD-4382
  6
Continuous
 62
     7
100
AcDbLine
 10
215.728327603
 20
70.2771073163
 30
0.0
 11
213.2890338357
 21
71.6854342294
 31
0.0
  0
LINE
  5
31A
330
219
100
AcDbEntity
  8
AD-4382
  6
Continuous
 62
     7
100
AcDbLine
 10
211.2890338357
 20
68.2213326143
 30
0.0
 11
213.728327603
 21
66.8130057011
 31
0.0
  0
LINE
  5
31B
330
219
100
AcDbEntity
  8
AD-4382
  6
Continuous
 62
     7
100
AcDbLine
 10
215.728327603
 20
58.81300570109999
 30
0.0
 11
213.728327603
 21
62.27710731630001
 31
0.0
  0
LINE
  5
31C
330
219
100
AcDbEntity
  8
AD-4382
  6
Continuous
 62
     7
100
AcDbLine
 10
213.728327603
 20
62.27710731630001
 30
0.0
 11
211.2890338357
 21
60.86878040310001
 31
0.0
  0
LINE
  5
31D
330
219
100
AcDbEntity
  8
AD-4382
  6
Continuous
 62
     7
100
AcDbLine
 10
213.2890338357
 20
57.40467878789999
 30
0.0
 11
215.728327603
 21
58.81300570109999
 31
0.0
  0
LINE
  5
31E
330
219
100
AcDbEntity
  8
AD-4382
  6
Continuous
 62
     7
100
AcDbLine
 10
223.6565308332
 20
53.7284026823
 30
0.0
 11
223.6565308332
 21
56.5450565087
 31
0.0
  0
LINE
  5
31F
330
219
100
AcDbEntity
  8
AD-4382
  6
Continuous
 62
     7
100
AcDbLine
 10
223.6565308332
 20
56.5450565087
 30
0.0
 11
219.6565308332
 21
56.5450565087
 31
0.0
  0
LINE
  5
320
330
219
100
AcDbEntity
  8
AD-4382
  6
Continuous
 62
     7
100
AcDbLine
 10
219.6565308332
 20
56.5450565087
 30
0.0
 11
219.6565308332
 21
53.7284026823
 31
0.0
  0
LINE
  5
321
330
219
100
AcDbEntity
  8
AD-4382
  6
Continuous
 62
     7
100
AcDbLine
 10
232.0240278308
 20
60.86878040310001
 30
0.0
 11
229.5847340635
 21
62.27710731630001
 31
0.0
  0
LINE
  5
322
330
219
100
AcDbEntity
  8
AD-4382
  6
Continuous
 62
     7
100
AcDbLine
 10
229.5847340635
 20
62.27710731630001
 30
0.0
 11
227.5847340635
 21
58.81300570109999
 31
0.0
  0
LINE
  5
323
330
219
100
AcDbEntity
  8
AD-4382
  6
Continuous
 62
     7
100
AcDbLine
 10
227.5847340635
 20
58.81300570109999
 30
0.0
 11
230.0240278308
 21
57.40467878789999
 31
0.0
  0
LINE
  5
324
330
219
100
AcDbEntity
  8
AD-4382
  6
Continuous
 62
     7
100
AcDbLine
 10
230.0240278308
 20
71.6854342294
 30
0.0
 11
227.5847340635
 21
70.2771073163
 31
0.0
  0
LINE
  5
325
330
219
100
AcDbEntity
  8
AD-4382
  6
Continuous
 62
     7
100
AcDbLine
 10
227.5847340635
 20
70.2771073163
 30
0.0
 11
229.5847340635
 21
66.8130057011
 31
0.0
  0
LINE
  5
326
330
219
100
AcDbEntity
  8
AD-4382
  6
Continuous
 62
     7
100
AcDbLine
 10
229.5847340635
 20
66.8130057011
 30
0.0
 11
232.0240278308
 21
68.2213326143
 31
0.0
  0
LINE
  5
327
330
219
100
AcDbEntity
  8
AD-4382
  6
Continuous
 62
     7
100
AcDbLine
 10
194.1065308332
 20
105.5450565087
 30
0.0
 11
194.1065308332
 21
106.5450565087
 31
0.0
  0
LINE
  5
328
330
219
100
AcDbEntity
  8
AD-4382
  6
Continuous
 62
     7
100
AcDbLine
 10
182.7065308332
 20
106.5450565087
 30
0.0
 11
182.7065308332
 21
105.5450565087
 31
0.0
  0
LINE
  5
329
330
219
100
AcDbEntity
  8
AD-4382
  6
Continuous
 62
     7
100
AcDbLine
 10
192.5565308332
 20
106.5450565087
 30
0.0
 11
192.5565308332
 21
108.0450565087
 31
0.0
  0
LINE
  5
32A
330
219
100
AcDbEntity
  8
AD-4382
  6
Continuous
 62
     7
100
AcDbLine
 10
184.2565308332
 20
108.0450565087
 30
0.0
 11
184.2565308332
 21
106.5450565087
 31
0.0
  0
ARC
  5
32B
330
219
100
AcDbEntity
  8
AD-4382
  6
Continuous
 62
     7
100
AcDbCircle
 10
190.0565308332
 20
108.0450565087
 30
0.0
 40
2.499999999999999
100
AcDbArc
 50
0.0
 51
50.0816164218
  0
ARC
  5
32C
330
219
100
AcDbEntity
  8
AD-4382
  6
Continuous
 62
     7
100
AcDbCircle
 10
186.7565308332
 20
108.0450565087
 30
0.0
 40
2.5
100
AcDbArc
 50
129.9217887876
 51
180.0
  0
LINE
  5
32D
330
219
100
AcDbEntity
  8
AD-4382
  6
Continuous
 62
     7
100
AcDbLine
 10
260.6065308332
 20
105.5450565087
 30
0.0
 11
260.6065308332
 21
106.5450565087
 31
0.0
  0
LINE
  5
32E
330
219
100
AcDbEntity
  8
AD-4382
  6
Continuous
 62
     7
100
AcDbLine
 10
249.2065308332
 20
106.5450565087
 30
0.0
 11
249.2065308332
 21
105.5450565087
 31
0.0
  0
LINE
  5
32F
330
219
100
AcDbEntity
  8
AD-4382
  6
Continuous
 62
     7
100
AcDbLine
 10
259.0565308332
 20
106.5450565087
 30
0.0
 11
259.0565308332
 21
108.0450565087
 31
0.0
  0
LINE
  5
330
330
219
100
AcDbEntity
  8
AD-4382
  6
Continuous
 62
     7
100
AcDbLine
 10
250.7565308332
 20
108.0450565087
 30
0.0
 11
250.7565308332
 21
106.5450565087
 31
0.0
  0
ARC
  5
331
330
219
100
AcDbEntity
  8
AD-4382
  6
Continuous
 62
     7
100
AcDbCircle
 10
256.5565308332
 20
108.0450565087
 30
0.0
 40
2.500000000000002
100
AcDbArc
 50
0.0
 51
50.0816164218
  0
ARC
  5
332
330
219
100
AcDbEntity
  8
AD-4382
  6
Continuous
 62
     7
100
AcDbCircle
 10
253.2565308332
 20
108.0450565087
 30
0.0
 40
2.499999999999999
100
AcDbArc
 50
129.9217887876
 51
180.0
  0
LINE
  5
333
330
219
100
AcDbEntity
  8
AD-4382
  6
Continuous
 62
     7
100
AcDbLine
 10
180.6565308332
 20
81.7950565087
 30
0.0
 11
157.6565308332
 21
81.7950565087
 31
0.0
  0
LINE
  5
334
330
219
100
AcDbEntity
  8
AD-4382
  6
Continuous
 62
     7
100
AcDbLine
 10
157.6565308332
 20
59.7950565087
 30
0.0
 11
180.6565308332
 21
59.7950565087
 31
0.0
  0
LINE
  5
335
330
219
100
AcDbEntity
  8
AD-4382
  6
HIDDEN2
 62
     7
100
AcDbLine
 10
148.6565308332
 20
65.7950565087
 30
0.0
 11
157.6565308332
 21
65.7950565087
 31
0.0
  0
LINE
  5
336
330
219
100
AcDbEntity
  8
AD-4382
  6
HIDDEN2
 62
     7
100
AcDbLine
 10
157.6565308332
 20
75.7950565087
 30
0.0
 11
148.6565308332
 21
75.7950565087
 31
0.0
  0
LINE
  5
337
330
219
100
AcDbEntity
  8
AD-4382
  6
Continuous
 62
     7
100
AcDbLine
 10
157.6565308332
 20
79.1260565087
 30
0.0
 11
152.6565308332
 21
79.1260565087
 31
0.0
  0
LINE
  5
338
330
219
100
AcDbEntity
  8
AD-4382
  6
Continuous
 62
     7
100
AcDbLine
 10
152.6565308332
 20
62.46405650869998
 30
0.0
 11
157.6565308332
 21
62.46405650869998
 31
0.0
  0
ARC
  5
339
330
219
100
AcDbEntity
  8
AD-4382
  6
HIDDEN2
 62
     7
100
AcDbCircle
 10
148.6565308332
 20
76.7950565087
 30
0.0
 40
1.000000000000001
100
AcDbArc
 50
180.0
 51
270.0
  0
ARC
  5
33A
330
219
100
AcDbEntity
  8
AD-4382
  6
HIDDEN2
 62
     7
100
AcDbCircle
 10
148.6565308332
 20
64.7950565087
 30
0.0
 40
1.000000000000001
100
AcDbArc
 50
90.0
 51
180.0
  0
LINE
  5
33B
330
219
100
AcDbEntity
  8
AD-4382
  6
Continuous
 62
     7
100
AcDbLine
 10
186.4065308332
 20
99.54505650870002
 30
0.0
 11
186.4065308332
 21
98.04505650870002
 31
0.0
  0
LINE
  5
33C
330
219
100
AcDbEntity
  8
AD-4382
  6
Continuous
 62
     7
100
AcDbLine
 10
190.4065308332
 20
98.04505650870002
 30
0.0
 11
190.4065308332
 21
99.54505650870002
 31
0.0
  0
LINE
  5
33D
330
219
100
AcDbEntity
  8
AD-4382
  6
Continuous
 62
     7
100
AcDbLine
 10
252.9065308332
 20
99.54505650870002
 30
0.0
 11
252.9065308332
 21
98.04505650870002
 31
0.0
  0
LINE
  5
33E
330
219
100
AcDbEntity
  8
AD-4382
  6
Continuous
 62
     7
100
AcDbLine
 10
256.9065308332
 20
98.04505650870002
 30
0.0
 11
256.9065308332
 21
99.54505650870002
 31
0.0
  0
ARC
  5
33F
330
219
100
AcDbEntity
  8
AD-4382
  6
Continuous
 62
     7
100
AcDbCircle
 10
262.1542363635
 20
41.1298723382
 30
0.0
 40
0.4970533995517349
100
AcDbArc
 50
118.1786346294
 51
179.9592293774
  0
ARC
  5
340
330
219
100
AcDbEntity
  8
AD-4382
  6
Continuous
 62
     7
100
AcDbCircle
 10
181.1704500469
 20
41.1401868414
 30
0.0
 40
0.4820510819557688
100
AcDbArc
 50
357.8530746394
 51
62.5921159162
  0
LINE
  5
341
330
219
100
AcDbEntity
  8
AD-4382
  6
Continuous
 62
     7
100
AcDbLine
 10
261.6565308332
 20
41.0450565087
 30
0.0
 11
261.6565308332
 21
41.1235567666
 31
0.0
  0
LINE
  5
342
330
219
100
AcDbEntity
  8
AD-4382
  6
Continuous
 62
     7
100
AcDbLine
 10
181.6565308332
 20
41.1237176259
 30
0.0
 11
181.6565308332
 21
41.0450565087
 31
0.0
  0
ARC
  5
343
330
219
100
AcDbEntity
  8
AD-4382
  6
Continuous
 62
     7
100
AcDbCircle
 10
182.1565308332
 20
41.0450565087
 30
0.0
 40
0.5000000000000006
100
AcDbArc
 50
180.0
 51
270.0
  0
ARC
  5
344
330
219
100
AcDbEntity
  8
AD-4382
  6
Continuous
 62
     7
100
AcDbCircle
 10
261.1565308332
 20
41.0450565087
 30
0.0
 40
0.5000000000000006
100
AcDbArc
 50
270.0
 51
0.0
  0
LINE
  5
345
330
219
100
AcDbEntity
  8
AD-4382
  6
Continuous
 62
     7
100
AcDbLine
 10
180.6565308332
 20
37.5450565087
 30
0.0
 11
180.6565308332
 21
32.5450565087
 31
0.0
  0
LINE
  5
346
330
219
100
AcDbEntity
  8
AD-4382
  6
Continuous
 62
     7
100
AcDbLine
 10
262.6565308332
 20
32.5450565087
 30
0.0
 11
262.6565308332
 21
37.5450565087
 31
0.0
  0
LINE
  5
347
330
219
100
AcDbEntity
  8
AD-4382
  6
HIDDEN2
 62
     7
100
AcDbLine
 10
260.6565308332
 20
31.5450565087
 30
0.0
 11
260.6565308332
 21
37.5450565087
 31
0.0
  0
LINE
  5
348
330
219
100
AcDbEntity
  8
AD-4382
  6
HIDDEN2
 62
     7
100
AcDbLine
 10
182.6565308332
 20
37.5450565087
 30
0.0
 11
182.6565308332
 21
31.5450565087
 31
0.0
  0
ARC
  5
349
330
219
100
AcDbEntity
  8
AD-4382
  6
Continuous
 62
     7
100
AcDbCircle
 10
183.6565308332
 20
37.5450565087
 30
0.0
 40
3.000000000000003
100
AcDbArc
 50
90.0
 51
180.0
  0
ARC
  5
34A
330
219
100
AcDbEntity
  8
AD-4382
  6
Continuous
 62
     7
100
AcDbCircle
 10
259.6565308332
 20
37.5450565087
 30
0.0
 40
3.000000000000003
100
AcDbArc
 50
0.0
 51
90.0
  0
ARC
  5
34B
330
219
100
AcDbEntity
  8
AD-4382
  6
HIDDEN2
 62
     7
100
AcDbCircle
 10
258.6565308332
 20
37.5450565087
 30
0.0
 40
1.999999999999995
100
AcDbArc
 50
0.0
 51
90.0
  0
ARC
  5
34C
330
219
100
AcDbEntity
  8
AD-4382
  6
HIDDEN2
 62
     7
100
AcDbCircle
 10
184.6565308332
 20
37.5450565087
 30
0.0
 40
1.999999999999986
100
AcDbArc
 50
90.0
 51
180.0
  0
LINE
  5
34D
330
219
100
AcDbEntity
  8
AD-4382
  6
HIDDEN2
 62
     7
100
AcDbLine
 10
272.1411618725
 20
28.5450565087
 30
0.0
 11
272.1411618725
 21
30.5450565087
 31
0.0
  0
LINE
  5
34E
330
219
100
AcDbEntity
  8
AD-4382
  6
HIDDEN2
 62
     7
100
AcDbLine
 10
265.1411618725
 20
30.5450565087
 30
0.0
 11
265.1411618725
 21
28.5450565087
 31
0.0
  0
LINE
  5
34F
330
219
100
AcDbEntity
  8
AD-4382
  6
HIDDEN2
 62
     7
100
AcDbLine
 10
178.171899794
 20
28.5450565087
 30
0.0
 11
178.171899794
 21
30.5450565087
 31
0.0
  0
LINE
  5
350
330
219
100
AcDbEntity
  8
AD-4382
  6
HIDDEN2
 62
     7
100
AcDbLine
 10
171.171899794
 20
30.5450565087
 30
0.0
 11
171.171899794
 21
28.5450565087
 31
0.0
  0
LINE
  5
351
330
219
100
AcDbEntity
  8
AD-4382
  6
Continuous
 62
     7
100
AcDbLine
 10
281.2182894736
 20
29.0450565087
 30
0.0
 11
281.2182894736
 21
30.0450565087
 31
0.0
  0
LINE
  5
352
330
219
100
AcDbEntity
  8
AD-4382
  6
Continuous
 62
     7
100
AcDbLine
 10
162.0947721929
 20
30.0450565087
 30
0.0
 11
162.0947721929
 21
29.0450565087
 31
0.0
  0
ARC
  5
353
330
219
100
AcDbEntity
  8
AD-4382
  6
Continuous
 62
     7
100
AcDbCircle
 10
178.6565308332
 20
32.5450565087
 30
0.0
 40
1.999999999999995
100
AcDbArc
 50
349.6735466587001
 51
0.0
  0
ARC
  5
354
330
219
100
AcDbEntity
  8
AD-4382
  6
Continuous
 62
     7
100
AcDbCircle
 10
264.6565308332
 20
32.5450565087
 30
0.0
 40
2.0
100
AcDbArc
 50
180.0
 51
256.0498827119
  0
ARC
  5
355
330
219
100
AcDbEntity
  8
AD-4382
  6
HIDDEN2
 62
     7
100
AcDbCircle
 10
263.6565308332
 20
31.5450565087
 30
0.0
 40
3.000000000000003
100
AcDbArc
 50
180.0
 51
270.0
  0
ARC
  5
356
330
219
100
AcDbEntity
  8
AD-4382
  6
HIDDEN2
 62
     7
100
AcDbCircle
 10
179.6565308332
 20
31.5450565087
 30
0.0
 40
2.999999999999996
100
AcDbArc
 50
297.5558833458
 51
0.0
  0
ARC
  5
357
330
219
100
AcDbEntity
  8
AD-4382
  6
Continuous
 62
     7
100
AcDbCircle
 10
189.584636177
 20
31.5529101169
 30
0.0
 40
3.002661838290393
100
AcDbArc
 50
270.3202549182
 51
359.8453919927
  0
LINE
  5
358
330
219
100
AcDbEntity
  8
AD-4382
  6
Continuous
 62
     7
100
AcDbLine
 10
192.5893113717
 20
31.5450565087
 30
0.0
 11
192.5893113717
 21
33.5450565087
 31
0.0
  0
SPLINE
  5
359
330
219
100
AcDbEntity
  8
AD-4382
  6
HIDDEN2
 62
     7
100
AcDbSpline
210
0.0
220
0.0
230
1.0
 70
     8
 71
     3
 72
    22
 73
    18
 74
     0
 42
0.0000000001
 43
0.0000000001
 40
0.0
 40
0.0
 40
0.0
 40
0.0
 40
0.2909236745547614
 40
0.3487973699715703
 40
0.3673684675140696
 40
0.374351548368705
 40
0.3800485136744609
 40
0.3848321617857452
 40
0.3870691880172235
 40
0.3893104174614938
 40
0.3941165204863376
 40
0.3998078051113409
 40
0.4148905638316193
 40
0.4346948058493813
 40
0.5253937276431625
 40
0.636762263989928
 40
1.0
 40
1.0
 40
1.0
 40
1.0
 10
192.5329501753677
 20
33.54624248800436
 30
0.0
 10
192.5552861059292
 20
33.55135462306467
 30
0.0
 10
192.5781443852398
 20
33.55913965946094
 30
0.0
 10
192.5891586718779
 20
33.57650833192348
 30
0.0
 10
192.5918793206121
 20
33.58332046757644
 30
0.0
 10
192.5930915838839
 20
33.58681491255715
 30
0.0
 10
192.593873107378
 20
33.58918133691636
 30
0.0
 10
192.5945324519482
 20
33.59122829732197
 30
0.0
 10
192.5950247643548
 20
33.59275929140624
 30
0.0
 10
192.5955068646864
 20
33.59425301485226
 30
0.0
 10
192.5961060565832
 20
33.59608592734304
 30
0.0
 10
192.5970442354195
 20
33.5988755936029
 30
0.0
 10
192.5979751275016
 20
33.60148330056838
 30
0.0
 10
192.599574613676
 20
33.60580455681992
 30
0.0
 10
192.5993671438031
 20
33.60538043663805
 30
0.0
 10
192.5801450885863
 20
33.58325555065717
 30
0.0
 10
192.5478154305716
 20
33.56863535032232
 30
0.0
 10
192.5167300589924
 20
33.55340382447316
 30
0.0
  0
ARC
  5
35A
330
219
100
AcDbEntity
  8
AD-4382
  6
HIDDEN2
 62
     7
100
AcDbCircle
 10
192.4351982227
 20
33.8937157136
 30
0.0
 40
0.3609613368778051
100
AcDbArc
 50
266.414812878
 51
282.8479331549
  0
ARC
  5
35B
330
219
100
AcDbEntity
  8
AD-4382
  6
Continuous
 62
     7
100
AcDbCircle
 10
162.5947721929
 20
29.0450565087
 30
0.0
 40
0.5000000000000006
100
AcDbArc
 50
180.0
 51
270.0
  0
SPLINE
  5
35C
330
219
100
AcDbEntity
  8
AD-4382
  6
HIDDEN2
 62
     7
100
AcDbSpline
210
0.0
220
0.0
230
1.0
 70
     8
 71
     3
 72
    21
 73
    17
 74
     0
 42
0.0000000001
 43
0.0000000001
 40
0.0
 40
0.0
 40
0.0
 40
0.0
 40
0.0146268449505587
 40
0.1186080881697097
 40
0.2942715647410236
 40
0.3640943441527602
 40
0.421760757897678
 40
0.4686316407371239
 40
0.5094693281844729
 40
0.547143074896761
 40
0.5833569642142497
 40
0.619940965458426
 40
0.6665875789505106
 40
0.8040571553325568
 40
0.8949745812503973
 40
1.0
 40
1.0
 40
1.0
 40
1.0
 10
260.9476024005529
 20
33.57862014328418
 30
0.0
 10
260.9428120128928
 20
33.57996669112826
 30
0.0
 10
260.9094305026347
 20
33.58943125151192
 30
0.0
 10
260.827738442448
 20
33.63724352679664
 30
0.0
 10
260.7479516438801
 20
33.70877769492992
 30
0.0
 10
260.6975572534446
 20
33.78026560679772
 30
0.0
 10
260.6748521578241
 20
33.82029061476068
 30
0.0
 10
260.6611027752919
 20
33.84827971836911
 30
0.0
 10
260.6531211517463
 20
33.86460311280713
 30
0.0
 10
260.6487969203299
 20
33.87023916080755
 30
0.0
 10
260.6470130709258
 20
33.86510931980215
 30
0.0
 10
260.6475502850981
 20
33.8466191668538
 30
0.0
 10
260.6494657049431
 20
33.80310666166864
 30
0.0
 10
260.6511760715886
 20
33.73531070605017
 30
0.0
 10
260.6524710216656
 20
33.63736543839858
 30
0.0
 10
260.6525109710662
 20
33.5807674123794
 30
0.0
 10
260.6525151389876
 20
33.54505650868143
 30
0.0
  0
LINE
  5
35D
330
219
100
AcDbEntity
  8
AD-4382
  6
HIDDEN2
 62
     7
100
AcDbLine
 10
261.0333023519
 20
33.5534038245
 30
0.0
 11
260.9476024006
 21
33.5786201433
 31
0.0
  0
ARC
  5
35E
330
219
100
AcDbEntity
  8
AD-4382
  6
HIDDEN2
 62
     7
100
AcDbCircle
 10
261.129728506
 20
36.05693453550001
 30
0.0
 40
2.523311035115214
100
AcDbArc
 50
264.5437204542
 51
269.6570443868
  0
LINE
  5
35F
330
219
100
AcDbEntity
  8
AD-4382
  6
HIDDEN2
 62
     7
100
AcDbLine
 10
260.6423344512
 20
33.5450565087
 30
0.0
 11
260.6423344512
 21
31.5450565087
 31
0.0
  0
LINE
  5
360
330
219
100
AcDbEntity
  8
AD-4382
  6
Continuous
 62
     7
100
AcDbLine
 10
182.6707272153
 20
31.5450565087
 30
0.0
 11
182.6707272153
 21
33.5450565087
 31
0.0
  0
SPLINE
  5
361
330
219
100
AcDbEntity
  8
AD-4382
  6
HIDDEN2
 62
     7
100
AcDbSpline
210
0.0
220
0.0
230
1.0
 70
     8
 71
     3
 72
    20
 73
    16
 74
     0
 42
0.0000000001
 43
0.0000000001
 40
0.0
 40
0.0
 40
0.0
 40
0.0
 40
0.107301543861899
 40
0.1947506465944402
 40
0.3102108199075155
 40
0.384947770152731
 40
0.4122491765449689
 40
0.4262420221209617
 40
0.4421098176314422
 40
0.4817728850584196
 40
0.5347209281512574
 40
0.6855718668904883
 40
0.7842778577620246
 40
0.8959244408039365
 40
1.0
 40
1.0
 40
1.0
 40
1.0
 10
182.6605465275098
 20
33.54505650868145
 30
0.0
 10
182.6605930292847
 20
33.58316775264412
 30
0.0
 10
182.660715734808
 20
33.64202607546908
 30
0.0
 10
182.662064330705
 20
33.73640920967142
 30
0.0
 10
182.6641825014119
 20
33.80910434002032
 30
0.0
 10
182.6654230745964
 20
33.85032280623523
 30
0.0
 10
182.6664449206565
 20
33.86967641321468
 30
0.0
 10
182.6650358187017
 20
33.87035376240834
 30
0.0
 10
182.6619734221694
 20
33.86517381068617
 30
0.0
 10
182.6541574234226
 20
33.84667153321629
 30
0.0
 10
182.6285499383482
 20
33.79257952178752
 30
0.0
 10
182.5762325841359
 20
33.71624137477147
 30
0.0
 10
182.492387627109
 20
33.6412662851018
 30
0.0
 10
182.4040678998744
 20
33.58732847281465
 30
0.0
 10
182.3415938269443
 20
33.56954161236555
 30
0.0
 10
182.3059693765211
 20
33.55989694848118
 30
0.0
  0
ARC
  5
362
330
219
100
AcDbEntity
  8
AD-4382
  6
Continuous
 62
     7
100
AcDbCircle
 10
280.7182894736
 20
29.0450565087
 30
0.0
 40
0.5000000000000006
100
AcDbArc
 50
270.0
 51
0.0
  0
ARC
  5
363
330
219
100
AcDbEntity
  8
AD-4382
  6
HIDDEN2
 62
     7
100
AcDbCircle
 10
250.8824523532
 20
33.8877535796
 30
0.0
 40
0.3558922594819741
100
AcDbArc
 50
261.0960393789
 51
276.3242632904
  0
SPLINE
  5
364
330
219
100
AcDbEntity
  8
AD-4382
  6
HIDDEN2
 62
     7
100
AcDbSpline
210
0.0
220
0.0
230
1.0
 70
     8
 71
     3
 72
    19
 73
    15
 74
     0
 42
0.0000000001
 43
0.0000000001
 40
0.6890279231273185
 40
0.6890279231273185
 40
0.6890279231273185
 40
0.6890279231273185
 40
0.7003157134290474
 40
0.7082287946443317
 40
0.7144416933334361
 40
0.7171530422523852
 40
0.7197754183965835
 40
0.7224713030193084
 40
0.7253928658877759
 40
0.7323490679073862
 40
0.741301272170977
 40
0.7662523550137303
 40
0.9106101303926196
 40
1.0
 40
1.0
 40
1.0
 40
1.0
 10
250.7137419761031
 20
33.60524714890303
 30
0.0
 10
250.713804863364
 20
33.60505185145064
 30
0.0
 10
250.7139855787582
 20
33.60458201921924
 30
0.0
 10
250.7144137256954
 20
33.60360118584175
 30
0.0
 10
250.7150826088906
 20
33.60209935950546
 30
0.0
 10
250.7157557292535
 20
33.60057156077371
 30
0.0
 10
250.7163028362463
 20
33.59932247072924
 30
0.0
 10
250.7169049453293
 20
33.5979422607622
 30
0.0
 10
250.7178245075
 20
33.59583196018031
 30
0.0
 10
250.7191175942216
 20
33.59288112322136
 30
0.0
 10
250.7215768579869
 20
33.58740215409475
 30
0.0
 10
250.7308261590168
 20
33.56885376304616
 30
0.0
 10
250.7413640504679
 20
33.55512047570251
 30
0.0
 10
250.7620358507666
 20
33.55103434407324
 30
0.0
 10
250.7711129443581
 20
33.54972571623786
 30
0.0
  0
LINE
  5
365
330
219
100
AcDbEntity
  8
AD-4382
  6
Continuous
 62
     7
100
AcDbLine
 10
250.7237502948
 20
33.5450565087
 30
0.0
 11
250.7237502948
 21
31.5450565087
 31
0.0
  0
ARC
  5
366
330
219
100
AcDbEntity
  8
AD-4382
  6
Continuous
 62
     7
100
AcDbCircle
 10
253.7295565299
 20
31.5493205823
 30
0.0
 40
3.000409869090933
100
AcDbArc
 50
180.0841351272
 51
270.15135002
  0
ARC
  5
367
330
219
100
AcDbEntity
  8
AD-4382
  6
Continuous
 62
     7
100
AcDbCircle
 10
280.7182894736
 20
30.0450565087
 30
0.0
 40
0.5000000000000006
100
AcDbArc
 50
0.0
 51
90.0
  0
ARC
  5
368
330
219
100
AcDbEntity
  8
AD-4382
  6
Continuous
 62
     7
100
AcDbCircle
 10
162.5947721929
 20
30.0450565087
 30
0.0
 40
0.5000000000000006
100
AcDbArc
 50
90.0
 51
180.0
  0
LINE
  5
369
330
219
100
AcDbEntity
  8
AD-4382
  6
Continuous
 62
     7
100
AcDbLine
 10
157.6565308332
 20
63.3200565087
 30
0.0
 11
152.6565308332
 21
63.3200565087
 31
0.0
  0
LINE
  5
36A
330
219
100
AcDbEntity
  8
AD-4382
  6
Continuous
 62
     7
100
AcDbLine
 10
157.6565308332
 20
78.27005650869998
 30
0.0
 11
152.6565308332
 21
78.27005650869998
 31
0.0
  0
LINE
  5
36B
330
219
100
AcDbEntity
  8
AD-4382
  6
Continuous
 62
     7
100
AcDbLine
 10
189.9770308332
 20
99.54505650870002
 30
0.0
 11
189.9770308332
 21
98.04505650870002
 31
0.0
  0
LINE
  5
36C
330
219
100
AcDbEntity
  8
AD-4382
  6
Continuous
 62
     7
100
AcDbLine
 10
186.8360308332
 20
99.54505650870002
 30
0.0
 11
186.8360308332
 21
98.04505650870002
 31
0.0
  0
LINE
  5
36D
330
219
100
AcDbEntity
  8
AD-4382
  6
Continuous
 62
     7
100
AcDbLine
 10
256.4770308332
 20
99.54505650870002
 30
0.0
 11
256.4770308332
 21
98.04505650870002
 31
0.0
  0
LINE
  5
36E
330
219
100
AcDbEntity
  8
AD-4382
  6
Continuous
 62
     7
100
AcDbLine
 10
253.3360308332
 20
99.54505650870002
 30
0.0
 11
253.3360308332
 21
98.04505650870002
 31
0.0
  0
CIRCLE
  5
36F
330
219
100
AcDbEntity
  8
AD-4382
  6
HIDDEN2
 62
     7
100
AcDbCircle
 10
221.6565308332
 20
64.5450565087
 30
0.0
 40
7.474999999999998
  0
ENDBLK
  5
371
330
219
100
AcDbEntity
  8
0
100
AcDbBlockEnd
  0
ENDSEC
  0
SECTION
  2
ENTITIES
  0
INSERT
  5
70
330
1F
100
AcDbEntity
  8
Default
100
AcDbBlockReference
  2
SE
 10
0.0
 20
0.0
 30
0.0
  0
INSERT
  5
21A
330
1F
100
AcDbEntity
  8
Default
100
AcDbBlockReference
  2
SE1
 10
0.0
 20
0.0
 30
0.0
  0
MTEXT
  5
3BC
330
1F
100
AcDbEntity
  8
0
100
AcDbMText
 10
95.16688403884108
 20
34.80978540125216
 30
0.0
 40
7.0
 41
21.46198391598568
 71
     1
 72
     5
  1
AD-4382
 73
     1
 44
1.0
1001
ACAD
1000
ACAD_MTEXT_COLUMN_INFO_BEGIN
1070
    75
1070
     2
1070
    79
1070
     0
1070
    76
1070
     1
1070
    78
1070
     0
1070
    48
1040
21.46198391598568
1070
    49
1040
12.5
1070
    50
1070
     1
1040
0.0
1000
ACAD_MTEXT_COLUMN_INFO_END
1000
MTEXTBEGIN
1070
    73
1070
     1
1070
    44
1040
1.0
1070
    74
1070
     0
1000
MTEXTEND
  0
ENDSEC
  0
SECTION
  2
OBJECTS
  0
DICTIONARY
  5
C
330
0
100
AcDbDictionary
281
     1
  3
ACAD_2007HEADERVARS_RT
350
3F8
  3
ACAD_CIP_PREVIOUS_PRODUCT_INFO
350
3B6
  3
ACAD_COLOR
350
3B3
  3
ACAD_DETAILVIEWSTYLE
350
3AD
  3
ACAD_GROUP
350
D
  3
ACAD_LAYOUT
350
1A
  3
ACAD_MATERIAL
350
43
  3
ACAD_MLEADERSTYLE
350
6B
  3
ACAD_MLINESTYLE
350
17
  3
ACAD_PLOTSETTINGS
350
19
  3
ACAD_PLOTSTYLENAME
350
E
  3
ACAD_SCALELIST
350
47
  3
ACAD_SECTIONVIEWSTYLE
350
3AE
  3
ACAD_TABLESTYLE
350
69
  3
ACAD_VISUALSTYLE
350
2A
  3
ACDB_RECOMPOSE_DATA
350
3F6
  3
AcDbVariableDictionary
350
372
  3
DWGPROPS
350
3F7
  0
DICTIONARY
  5
3BE
330
10
100
AcDbDictionary
280
     1
281
     1
  3
ADSK_XREC_LAYER_RECONCILED
360
3BF
  0
DICTIONARY
  5
3C0
330
6E
100
AcDbDictionary
280
     1
281
     1
  3
ADSK_XREC_LAYER_RECONCILED
360
3C1
  0
DICTIONARY
  5
3C2
330
71
100
AcDbDictionary
280
     1
281
     1
  3
ADSK_XREC_LAYER_RECONCILED
360
3C3
  0
DICTIONARY
  5
3C4
330
3B7
100
AcDbDictionary
280
     1
281
     1
  3
ADSK_XREC_LAYER_RECONCILED
360
3C5
  0
DICTIONARY
  5
3F8
102
{ACAD_REACTORS
330
C
102
}
330
C
100
AcDbDictionary
281
     1
  3
DIMJOGANG
350
3F9
  3
INTERFERECOLOR
350
3FA
  0
XRECORD
  5
3B6
102
{ACAD_REACTORS
330
C
102
}
330
C
100
AcDbXrecord
280
     1
300
ACDLT
300
2012
300
ACDLT_F_S
  0
DICTIONARY
  5
3B3
102
{ACAD_REACTORS
330
C
102
}
330
C
100
AcDbDictionary
281
     1
  0
DICTIONARY
  5
3AD
102
{ACAD_REACTORS
330
C
102
}
330
C
100
AcDbDictionary
281
     1
  0
DICTIONARY
  5
D
102
{ACAD_REACTORS
330
C
102
}
330
C
100
AcDbDictionary
281
     1
  0
DICTIONARY
  5
1A
102
{ACAD_REACTORS
330
C
102
}
330
C
100
AcDbDictionary
281
     1
  3
Layout1
350
1E
  3
Model
350
22
  0
DICTIONARY
  5
43
102
{ACAD_REACTORS
330
C
102
}
330
C
100
AcDbDictionary
281
     1
  3
ByBlock
350
45
  3
ByLayer
350
44
  3
Global
350
46
  0
DICTIONARY
  5
6B
102
{ACAD_REACTORS
330
C
102
}
330
C
100
AcDbDictionary
281
     1
  3
Standard
350
6C
  0
DICTIONARY
  5
17
102
{ACAD_REACTORS
330
C
102
}
330
C
100
AcDbDictionary
281
     1
  3
Standard
350
18
  0
DICTIONARY
  5
19
102
{ACAD_REACTORS
330
C
102
}
330
C
100
AcDbDictionary
281
     1
  0
ACDBDICTIONARYWDFLT
  5
E
102
{ACAD_REACTORS
330
C
102
}
330
C
100
AcDbDictionary
281
     1
  3
Normal
350
F
100
AcDbDictionaryWithDefault
340
F
  0
DICTIONARY
  5
47
102
{ACAD_REACTORS
330
C
102
}
330
C
100
AcDbDictionary
281
     1
  3
A0
350
48
  3
A1
350
49
  3
A2
350
4A
  3
A3
350
4B
  3
A4
350
4C
  3
A5
350
4D
  3
A6
350
4E
  3
A7
350
4F
  3
A8
350
50
  3
A9
350
51
  3
B0
350
52
  3
B1
350
53
  3
B2
350
54
  3
B3
350
55
  3
B4
350
56
  3
B5
350
57
  3
B6
350
58
  3
B7
350
59
  3
B8
350
5A
  3
B9
350
5B
  3
C0
350
5C
  3
C1
350
5D
  3
C2
350
5E
  3
C3
350
5F
  3
C4
350
60
  3
C5
350
61
  3
C6
350
62
  3
C7
350
63
  3
C8
350
64
  3
C9
350
65
  3
D0
350
66
  3
D1
350
67
  3
D2
350
68
  0
DICTIONARY
  5
3AE
102
{ACAD_REACTORS
330
C
102
}
330
C
100
AcDbDictionary
281
     1
  0
DICTIONARY
  5
69
102
{ACAD_REACTORS
330
C
102
}
330
C
100
AcDbDictionary
281
     1
  3
Standard
350
6A
  0
DICTIONARY
  5
2A
102
{ACAD_REACTORS
330
C
102
}
330
C
100
AcDbDictionary
281
     1
  3
2dWireframe
350
2F
  3
Basic
350
32
  3
Brighten
350
36
  3
ColorChange
350
3A
  3
Conceptual
350
34
  3
Dim
350
35
  3
EdgeColorOff
350
3D
  3
Facepattern
350
39
  3
Flat
350
2B
  3
FlatWithEdges
350
2C
  3
Gouraud
350
2D
  3
GouraudWithEdges
350
2E
  3
Hidden
350
31
  3
JitterOff
350
3B
  3
Linepattern
350
38
  3
OverhangOff
350
3C
  3
Realistic
350
33
  3
Shaded
350
42
  3
Shaded with edges
350
41
  3
Shades of Gray
350
3E
  3
Sketchy
350
3F
  3
Thicken
350
37
  3
Wireframe
350
30
  3
X-Ray
350
40
  0
XRECORD
  5
3F6
102
{ACAD_REACTORS
330
C
102
}
330
C
100
AcDbXrecord
280
     1
 90
        1
330
6A
330
3BC
  0
DICTIONARY
  5
372
102
{ACAD_REACTORS
330
C
102
}
330
C
100
AcDbDictionary
281
     1
  3
CANNOSCALE
350
373
  3
CENTEREXE
350
3AF
  3
CENTERLTYPEFILE
350
3B0
  3
CMLEADERSTYLE
350
3AC
  3
CTABLESTYLE
350
3AB
  3
DGNFRAME
350
3EE
  3
DIMASSOC
350
3EC
  3
HIDETEXT
350
3EB
  3
INDEXCTL
350
3EA
  3
LAYEREVAL
350
3C6
  3
LAYERNOTIFY
350
3C7
  3
LIGHTINGUNITS
350
3E8
  3
LOFTANG1
350
3F1
  3
LOFTANG2
350
3F2
  3
LONGITUDE
350
3F3
  3
MSLTSCALE
350
3E7
  3
PSOLHEIGHT
350
3F0
  3
PSOLWIDTH
350
3EF
  3
SOLIDHIST
350
3ED
  3
SORTENTS
350
3E9
  3
XCLIPFRAME
350
3F4
  0
XRECORD
  5
3F7
102
{ACAD_REACTORS
330
C
102
}
330
C
100
AcDbXrecord
280
     1
  1
DWGPROPS COOKIE
  2

  3

  4

  6

  7

  8
KANAZAWA-905
  9

300
=
301
=
302
=
303
=
304
=
305
=
306
=
307
=
308
=
309
=
 40
0.0126726851851852
 41
2460097.506497859
 42
2460097.519789143
  1

 90
        0
  0
XRECORD
  5
3BF
102
{ACAD_REACTORS
330
3BE
102
}
330
3BE
100
AcDbXrecord
280
     1
290
     1
  0
XRECORD
  5
3C1
102
{ACAD_REACTORS
330
3C0
102
}
330
3C0
100
AcDbXrecord
280
     1
290
     1
  0
XRECORD
  5
3C3
102
{ACAD_REACTORS
330
3C2
102
}
330
3C2
100
AcDbXrecord
280
     1
290
     1
  0
XRECORD
  5
3C5
102
{ACAD_REACTORS
330
3C4
102
}
330
3C4
100
AcDbXrecord
280
     1
290
     1
  0
XRECORD
  5
3F9
102
{ACAD_REACTORS
330
3F8
102
}
330
3F8
100
AcDbXrecord
280
     1
 40
0.7853981634000001
  0
XRECORD
  5
3FA
102
{ACAD_REACTORS
330
3F8
102
}
330
3F8
100
AcDbXrecord
280
     1
1004
1800000001000000000000C0000000000000000000000000
  0
LAYOUT
  5
1E
102
{ACAD_XDICTIONARY
360
3FB
102
}
102
{ACAD_REACTORS
330
1A
102
}
330
1A
100
AcDbPlotSettings
  1

  2
none_device
  4

  6

 40
0.0
 41
0.0
 42
0.0
 43
0.0
 44
0.0
 45
0.0
 46
0.0
 47
0.0
 48
0.0
 49
0.0
140
0.0
141
0.0
142
1.0
143
1.0
 70
   688
 72
     1
 73
     0
 74
     5
  7

 75
    16
147
1.0
148
0.0
149
0.0
100
AcDbLayout
  1
Layout1
 70
     1
 71
     1
 10
0.0
 20
0.0
 11
420.0
 21
297.0
 12
0.0
 22
0.0
 32
0.0
 14
0.0
 24
0.0
 34
0.0
 15
420.0
 25
297.0
 35
0.0
146
0.0
 13
0.0
 23
0.0
 33
0.0
 16
1.0
 26
0.0
 36
0.0
 17
0.0
 27
1.0
 37
0.0
 76
     0
330
1B
  0
LAYOUT
  5
22
102
{ACAD_XDICTIONARY
360
3FD
102
}
102
{ACAD_REACTORS
330
1A
102
}
330
1A
100
AcDbPlotSettings
  1

  2
none_device
  4
Letter_(8.50_x_11.00_Inches)
  6

 40
6.349999999999998
 41
6.349999999999998
 42
6.350005079999998
 43
6.350005079999998
 44
215.9
 45
279.4
 46
0.0
 47
0.0
 48
0.0
 49
0.0
140
0.0
141
0.0
142
1.0
143
1.0
 70
  1712
 72
     1
 73
     0
 74
     0
  7

 75
     0
147
1.0
148
0.0
149
0.0
100
AcDbLayout
  1
Model
 70
     1
 71
     0
 10
0.0
 20
0.0
 11
420.0
 21
297.0
 12
0.0
 22
0.0
 32
0.0
 14
0.0
 24
0.0
 34
0.0
 15
420.0
 25
297.0
 35
0.0
146
0.0
 13
0.0
 23
0.0
 33
0.0
 16
1.0
 26
0.0
 36
0.0
 17
0.0
 27
1.0
 37
0.0
 76
     0
330
1F
331
29
  0
MATERIAL
  5
45
102
{ACAD_XDICTIONARY
360
401
102
}
102
{ACAD_REACTORS
330
43
102
}
330
43
100
AcDbMaterial
  1
ByBlock
  0
MATERIAL
  5
44
102
{ACAD_XDICTIONARY
360
3FF
102
}
102
{ACAD_REACTORS
330
43
102
}
330
43
100
AcDbMaterial
  1
ByLayer
  0
MATERIAL
  5
46
102
{ACAD_XDICTIONARY
360
403
102
}
102
{ACAD_REACTORS
330
43
102
}
330
43
100
AcDbMaterial
  1
Global
  0
MLEADERSTYLE
  5
6C
102
{ACAD_REACTORS
330
6B
102
}
330
6B
100
AcDbMLeaderStyle
170
     2
171
     1
172
     0
 90
        2
 40
0.0
 41
0.0
173
     1
 91
-1056964608
340
14
 92
       -2
290
     1
 42
2.0
291
     1
 43
8.0
  3
Standard
 44
4.0
300

342
11
174
     1
178
     6
175
     1
176
     0
 93
-1056964608
 45
4.0
292
     0
297
     0
 46
4.0
 94
-1056964608
 47
1.0
 49
1.0
140
1.0
293
     1
141
0.0
294
     1
177
     0
142
1.0
295
     0
296
     0
143
3.75
1001
ACAD_MLEADERVER
1070
     2
  0
MLINESTYLE
  5
18
102
{ACAD_REACTORS
330
17
102
}
330
17
100
AcDbMlineStyle
  2
STANDARD
 70
     0
  3

 62
   256
 51
90.0
 52
90.0
 71
     2
 49
0.5
 62
   256
  6
BYLAYER
 49
-0.5
 62
   256
  6
BYLAYER
  0
ACDBPLACEHOLDER
  5
F
102
{ACAD_REACTORS
330
E
102
}
330
E
  0
SCALE
  5
48
102
{ACAD_REACTORS
330
47
102
}
330
47
100
AcDbScale
 70
     0
300
1:1
140
1.0
141
1.0
290
     1
  0
SCALE
  5
49
102
{ACAD_REACTORS
330
47
102
}
330
47
100
AcDbScale
 70
     0
300
1:2
140
1.0
141
2.0
290
     0
  0
SCALE
  5
4A
102
{ACAD_REACTORS
330
47
102
}
330
47
100
AcDbScale
 70
     0
300
1:4
140
1.0
141
4.0
290
     0
  0
SCALE
  5
4B
102
{ACAD_REACTORS
330
47
102
}
330
47
100
AcDbScale
 70
     0
300
1:5
140
1.0
141
5.0
290
     0
  0
SCALE
  5
4C
102
{ACAD_REACTORS
330
47
102
}
330
47
100
AcDbScale
 70
     0
300
1:8
140
1.0
141
8.0
290
     0
  0
SCALE
  5
4D
102
{ACAD_REACTORS
330
47
102
}
330
47
100
AcDbScale
 70
     0
300
1:10
140
1.0
141
10.0
290
     0
  0
SCALE
  5
4E
102
{ACAD_REACTORS
330
47
102
}
330
47
100
AcDbScale
 70
     0
300
1:16
140
1.0
141
16.0
290
     0
  0
SCALE
  5
4F
102
{ACAD_REACTORS
330
47
102
}
330
47
100
AcDbScale
 70
     0
300
1:20
140
1.0
141
20.0
290
     0
  0
SCALE
  5
50
102
{ACAD_REACTORS
330
47
102
}
330
47
100
AcDbScale
 70
     0
300
1:30
140
1.0
141
30.0
290
     0
  0
SCALE
  5
51
102
{ACAD_REACTORS
330
47
102
}
330
47
100
AcDbScale
 70
     0
300
1:40
140
1.0
141
40.0
290
     0
  0
SCALE
  5
52
102
{ACAD_REACTORS
330
47
102
}
330
47
100
AcDbScale
 70
     0
300
1:50
140
1.0
141
50.0
290
     0
  0
SCALE
  5
53
102
{ACAD_REACTORS
330
47
102
}
330
47
100
AcDbScale
 70
     0
300
1:100
140
1.0
141
100.0
290
     0
  0
SCALE
  5
54
102
{ACAD_REACTORS
330
47
102
}
330
47
100
AcDbScale
 70
     0
300
2:1
140
2.0
141
1.0
290
     0
  0
SCALE
  5
55
102
{ACAD_REACTORS
330
47
102
}
330
47
100
AcDbScale
 70
     0
300
4:1
140
4.0
141
1.0
290
     0
  0
SCALE
  5
56
102
{ACAD_REACTORS
330
47
102
}
330
47
100
AcDbScale
 70
     0
300
8:1
140
8.0
141
1.0
290
     0
  0
SCALE
  5
57
102
{ACAD_REACTORS
330
47
102
}
330
47
100
AcDbScale
 70
     0
300
10:1
140
10.0
141
1.0
290
     0
  0
SCALE
  5
58
102
{ACAD_REACTORS
330
47
102
}
330
47
100
AcDbScale
 70
     0
300
100:1
140
100.0
141
1.0
290
     0
  0
SCALE
  5
59
102
{ACAD_REACTORS
330
47
102
}
330
47
100
AcDbScale
 70
     0
300
1/128" = 1'-0"
140
0.0078125
141
12.0
290
     0
  0
SCALE
  5
5A
102
{ACAD_REACTORS
330
47
102
}
330
47
100
AcDbScale
 70
     0
300
1/64" = 1'-0"
140
0.015625
141
12.0
290
     0
  0
SCALE
  5
5B
102
{ACAD_REACTORS
330
47
102
}
330
47
100
AcDbScale
 70
     0
300
1/32" = 1'-0"
140
0.03125
141
12.0
290
     0
  0
SCALE
  5
5C
102
{ACAD_REACTORS
330
47
102
}
330
47
100
AcDbScale
 70
     0
300
1/16" = 1'-0"
140
0.0625
141
12.0
290
     0
  0
SCALE
  5
5D
102
{ACAD_REACTORS
330
47
102
}
330
47
100
AcDbScale
 70
     0
300
3/32" = 1'-0"
140
0.09375
141
12.0
290
     0
  0
SCALE
  5
5E
102
{ACAD_REACTORS
330
47
102
}
330
47
100
AcDbScale
 70
     0
300
1/8" = 1'-0"
140
0.125
141
12.0
290
     0
  0
SCALE
  5
5F
102
{ACAD_REACTORS
330
47
102
}
330
47
100
AcDbScale
 70
     0
300
3/16" = 1'-0"
140
0.1875
141
12.0
290
     0
  0
SCALE
  5
60
102
{ACAD_REACTORS
330
47
102
}
330
47
100
AcDbScale
 70
     0
300
1/4" = 1'-0"
140
0.25
141
12.0
290
     0
  0
SCALE
  5
61
102
{ACAD_REACTORS
330
47
102
}
330
47
100
AcDbScale
 70
     0
300
3/8" = 1'-0"
140
0.375
141
12.0
290
     0
  0
SCALE
  5
62
102
{ACAD_REACTORS
330
47
102
}
330
47
100
AcDbScale
 70
     0
300
1/2" = 1'-0"
140
0.5
141
12.0
290
     0
  0
SCALE
  5
63
102
{ACAD_REACTORS
330
47
102
}
330
47
100
AcDbScale
 70
     0
300
3/4" = 1'-0"
140
0.75
141
12.0
290
     0
  0
SCALE
  5
64
102
{ACAD_REACTORS
330
47
102
}
330
47
100
AcDbScale
 70
     0
300
1" = 1'-0"
140
1.0
141
12.0
290
     0
  0
SCALE
  5
65
102
{ACAD_REACTORS
330
47
102
}
330
47
100
AcDbScale
 70
     0
300
1-1/2" = 1'-0"
140
1.5
141
12.0
290
     0
  0
SCALE
  5
66
102
{ACAD_REACTORS
330
47
102
}
330
47
100
AcDbScale
 70
     0
300
3" = 1'-0"
140
3.0
141
12.0
290
     0
  0
SCALE
  5
67
102
{ACAD_REACTORS
330
47
102
}
330
47
100
AcDbScale
 70
     0
300
6" = 1'-0"
140
6.0
141
12.0
290
     0
  0
SCALE
  5
68
102
{ACAD_REACTORS
330
47
102
}
330
47
100
AcDbScale
 70
     0
300
1'-0" = 1'-0"
140
12.0
141
12.0
290
     0
  0
TABLESTYLE
  5
6A
102
{ACAD_XDICTIONARY
360
3A5
102
}
102
{ACAD_REACTORS
330
69
102
}
330
69
100
AcDbTableStyle
  3
Standard
 70
     0
 71
     0
 40
1.5
 41
1.5
280
     0
281
     0
  7
Standard
140
4.5
170
     2
 62
     0
 63
     7
283
     0
274
    -2
284
     1
 64
     0
275
    -2
285
     1
 65
     0
276
    -2
286
     1
 66
     0
277
    -2
287
     1
 67
     0
278
    -2
288
     1
 68
     0
279
    -2
289
     1
 69
     0
  7
Standard
140
6.0
170
     5
 62
     0
 63
     7
283
     0
274
    -2
284
     1
 64
     0
275
    -2
285
     1
 65
     0
276
    -2
286
     1
 66
     0
277
    -2
287
     1
 67
     0
278
    -2
288
     1
 68
     0
279
    -2
289
     1
 69
     0
  7
Standard
140
4.5
170
     5
 62
     0
 63
     7
283
     0
274
    -2
284
     1
 64
     0
275
    -2
285
     1
 65
     0
276
    -2
286
     1
 66
     0
277
    -2
287
     1
 67
     0
278
    -2
288
     1
 68
     0
279
    -2
289
     1
 69
     0
  0
VISUALSTYLE
  5
2F
102
{ACAD_XDICTIONARY
360
37D
102
}
102
{ACAD_REACTORS
330
2A
102
}
330
2A
100
AcDbVisualStyle
  2

 70
     4
 71
     0
 72
     2
 73
     0
 90
        0
 40
-0.6
 41
-30.0
 62
     5
 63
     7
 74
     1
 91
        4
 64
     7
 65
   257
 75
     1
175
     1
 42
1.0
 92
        0
 66
   257
 43
1.0
 76
     1
 77
     6
 78
     2
 67
     7
 79
     5
170
     0
171
     0
290
     0
174
     0
 93
        1
 44
0.0
173
     0
291
     0
 45
0.0
1001
ACAD
1000
AcDbSavedByObjectVersion
1070
     0
  0
VISUALSTYLE
  5
32
102
{ACAD_XDICTIONARY
360
383
102
}
102
{ACAD_REACTORS
330
2A
102
}
330
2A
100
AcDbVisualStyle
  2

 70
     7
 71
     1
 72
     0
 73
     1
 90
        0
 40
-0.6
 41
-30.0
 62
     5
 63
     7
 74
     0
 91
        4
 64
     7
 65
   257
 75
     1
175
     1
 42
1.0
 92
        8
 66
     7
 43
1.0
 76
     1
 77
     6
 78
     2
 67
     7
 79
     5
170
     0
171
     0
290
     0
174
     0
 93
        1
 44
0.0
173
     0
291
     1
 45
0.0
1001
ACAD
1000
AcDbSavedByObjectVersion
1070
     0
  0
VISUALSTYLE
  5
36
102
{ACAD_XDICTIONARY
360
38B
102
}
102
{ACAD_REACTORS
330
2A
102
}
330
2A
100
AcDbVisualStyle
  2

 70
    12
 71
     2
 72
     2
 73
     0
 90
        0
 40
-0.6
 41
-30.0
 62
     5
 63
     7
 74
     1
 91
        4
 64
     7
 65
   257
 75
     1
175
     1
 42
1.0
 92
        8
 66
     7
 43
1.0
 76
     1
 77
     6
 78
     2
 67
     7
 79
     5
170
     0
171
     0
290
     0
174
     0
 93
        1
 44
50.0
173
     0
291
     1
 45
0.0
1001
ACAD
1000
AcDbSavedByObjectVersion
1070
     0
  0
VISUALSTYLE
  5
3A
102
{ACAD_XDICTIONARY
360
393
102
}
102
{ACAD_REACTORS
330
2A
102
}
330
2A
100
AcDbVisualStyle
  2

 70
    16
 71
     2
 72
     2
 73
     3
 90
        0
 40
-0.6
 41
-30.0
 62
     5
 63
     8
 74
     1
 91
        4
 64
     7
 65
   257
 75
     1
175
     1
 42
1.0
 92
        8
 66
     8
 43
1.0
 76
     1
 77
     6
 78
     2
 67
     7
 79
     5
170
     0
171
     0
290
     0
174
     0
 93
        1
 44
0.0
173
     0
291
     1
 45
0.0
1001
ACAD
1000
AcDbSavedByObjectVersion
1070
     0
  0
VISUALSTYLE
  5
34
102
{ACAD_XDICTIONARY
360
387
102
}
102
{ACAD_REACTORS
330
2A
102
}
330
2A
100
AcDbVisualStyle
  2

 70
     9
 71
     3
 72
     2
 73
     0
 90
        0
 40
-0.6
 41
-30.0
 62
     5
 63
     7
 74
     2
 91
        2
 64
     7
 65
   257
 75
     1
175
     1
 42
179.0
 92
        8
 66
     7
 43
1.0
 76
     1
 77
     6
 78
     2
 67
     7
 79
     3
170
     0
171
     0
290
     0
174
     0
 93
        1
 44
0.0
173
     0
291
     0
 45
0.0
1001
ACAD
1000
AcDbSavedByObjectVersion
1070
     0
  0
VISUALSTYLE
  5
35
102
{ACAD_XDICTIONARY
360
389
102
}
102
{ACAD_REACTORS
330
2A
102
}
330
2A
100
AcDbVisualStyle
  2

 70
    11
 71
     2
 72
     2
 73
     0
 90
        0
 40
-0.6
 41
-30.0
 62
     5
 63
     7
 74
     1
 91
        4
 64
     7
 65
   257
 75
     1
175
     1
 42
1.0
 92
        8
 66
     7
 43
1.0
 76
     1
 77
     6
 78
     2
 67
     7
 79
     5
170
     0
171
     0
290
     0
174
     0
 93
        1
 44
-50.0
173
     0
291
     1
 45
0.0
1001
ACAD
1000
AcDbSavedByObjectVersion
1070
     0
  0
VISUALSTYLE
  5
3D
102
{ACAD_XDICTIONARY
360
399
102
}
102
{ACAD_REACTORS
330
2A
102
}
330
2A
100
AcDbVisualStyle
  2

 70
    22
 71
     2
 72
     2
 73
     0
 90
        0
 40
-0.6
 41
-30.0
 62
     5
 63
     7
 74
     1
 91
        4
 64
     7
 65
   257
 75
     1
175
     1
 42
1.0
 92
        8
 66
     7
 43
1.0
 76
     1
 77
     6
 78
     2
 67
     7
 79
     5
170
     0
171
     0
290
     0
174
     0
 93
        1
 44
0.0
173
     0
291
     1
 45
0.0
1001
ACAD
1000
AcDbSavedByObjectVersion
1070
     0
  0
VISUALSTYLE
  5
39
102
{ACAD_XDICTIONARY
360
391
102
}
102
{ACAD_REACTORS
330
2A
102
}
330
2A
100
AcDbVisualStyle
  2

 70
    15
 71
     2
 72
     2
 73
     0
 90
        0
 40
-0.6
 41
-30.0
 62
     5
 63
     7
 74
     1
 91
        4
 64
     7
 65
   257
 75
     1
175
     1
 42
1.0
 92
        8
 66
     7
 43
1.0
 76
     1
 77
     6
 78
     2
 67
     7
 79
     5
170
     0
171
     0
290
     0
174
     0
 93
        1
 44
0.0
173
     0
291
     1
 45
0.0
1001
ACAD
1000
AcDbSavedByObjectVersion
1070
     0
  0
VISUALSTYLE
  5
2B
102
{ACAD_XDICTIONARY
360
375
102
}
102
{ACAD_REACTORS
330
2A
102
}
330
2A
100
AcDbVisualStyle
  2

 70
     0
 71
     2
 72
     1
 73
     1
 90
        2
 40
-0.6
 41
30.0
 62
     5
 63
     7
 74
     0
 91
        0
 64
     7
 65
   257
 75
     1
175
     1
 42
1.0
 92
        8
 66
     7
 43
1.0
 76
     1
 77
     6
 78
     2
 67
     7
 79
     5
170
     0
171
     0
290
     0
174
     0
 93
       13
 44
0.0
173
     0
291
     1
 45
0.0
1001
ACAD
1000
AcDbSavedByObjectVersion
1070
     0
  0
VISUALSTYLE
  5
2C
102
{ACAD_XDICTIONARY
360
377
102
}
102
{ACAD_REACTORS
330
2A
102
}
330
2A
100
AcDbVisualStyle
  2

 70
     1
 71
     2
 72
     1
 73
     1
 90
        2
 40
-0.6
 41
30.0
 62
     5
 63
     7
 74
     1
 91
        0
 64
     7
 65
   257
 75
     1
175
     1
 42
1.0
 92
        0
 66
   257
 43
1.0
 76
     1
 77
     6
 78
     2
 67
     7
 79
     5
170
     0
171
     0
290
     0
174
     0
 93
       13
 44
0.0
173
     0
291
     1
 45
0.0
1001
ACAD
1000
AcDbSavedByObjectVersion
1070
     0
  0
VISUALSTYLE
  5
2D
102
{ACAD_XDICTIONARY
360
379
102
}
102
{ACAD_REACTORS
330
2A
102
}
330
2A
100
AcDbVisualStyle
  2

 70
     2
 71
     2
 72
     2
 73
     1
 90
        2
 40
-0.6
 41
30.0
 62
     5
 63
     7
 74
     0
 91
        0
 64
     7
 65
   257
 75
     1
175
     1
 42
1.0
 92
        0
 66
     7
 43
1.0
 76
     1
 77
     6
 78
     2
 67
     7
 79
     5
170
     0
171
     0
290
     0
174
     0
 93
       13
 44
0.0
173
     0
291
     1
 45
0.0
1001
ACAD
1000
AcDbSavedByObjectVersion
1070
     0
  0
VISUALSTYLE
  5
2E
102
{ACAD_XDICTIONARY
360
37B
102
}
102
{ACAD_REACTORS
330
2A
102
}
330
2A
100
AcDbVisualStyle
  2

 70
     3
 71
     2
 72
     2
 73
     1
 90
        2
 40
-0.6
 41
30.0
 62
     5
 63
     7
 74
     1
 91
        0
 64
     7
 65
   257
 75
     1
175
     1
 42
1.0
 92
        0
 66
   257
 43
1.0
 76
     1
 77
     6
 78
     2
 67
     7
 79
     5
170
     0
171
     0
290
     0
174
     0
 93
       13
 44
0.0
173
     0
291
     1
 45
0.0
1001
ACAD
1000
AcDbSavedByObjectVersion
1070
     0
  0
VISUALSTYLE
  5
31
102
{ACAD_XDICTIONARY
360
381
102
}
102
{ACAD_REACTORS
330
2A
102
}
330
2A
100
AcDbVisualStyle
  2

 70
     6
 71
     1
 72
     2
 73
     2
 90
        0
 40
-0.6
 41
-30.0
 62
     5
 63
     7
 74
     2
 91
        2
 64
     7
 65
   257
 75
     2
175
     1
 42
40.0
 92
        0
 66
   257
 43
1.0
 76
     1
 77
     6
 78
     2
 67
     7
 79
     3
170
     0
171
     0
290
     0
174
     0
 93
        1
 44
0.0
173
     0
291
     0
 45
0.0
1001
ACAD
1000
AcDbSavedByObjectVersion
1070
     0
  0
VISUALSTYLE
  5
3B
102
{ACAD_XDICTIONARY
360
395
102
}
102
{ACAD_REACTORS
330
2A
102
}
330
2A
100
AcDbVisualStyle
  2

 70
    20
 71
     2
 72
     2
 73
     0
 90
        0
 40
-0.6
 41
-30.0
 62
     5
 63
     7
 74
     1
 91
        4
 64
     7
 65
   257
 75
     1
175
     1
 42
1.0
 92
       10
 66
     7
 43
1.0
 76
     1
 77
     6
 78
     2
 67
     7
 79
     5
170
     0
171
     0
290
     0
174
     0
 93
        1
 44
0.0
173
     0
291
     1
 45
0.0
1001
ACAD
1000
AcDbSavedByObjectVersion
1070
     0
  0
VISUALSTYLE
  5
38
102
{ACAD_XDICTIONARY
360
38F
102
}
102
{ACAD_REACTORS
330
2A
102
}
330
2A
100
AcDbVisualStyle
  2

 70
    14
 71
     2
 72
     2
 73
     0
 90
        0
 40
-0.6
 41
-30.0
 62
     5
 63
     7
 74
     1
 91
        4
 64
     7
 65
   257
 75
     7
175
     7
 42
1.0
 92
        8
 66
     7
 43
1.0
 76
     1
 77
     6
 78
     2
 67
     7
 79
     5
170
     0
171
     0
290
     0
174
     0
 93
        1
 44
0.0
173
     0
291
     1
 45
0.0
1001
ACAD
1000
AcDbSavedByObjectVersion
1070
     0
  0
VISUALSTYLE
  5
3C
102
{ACAD_XDICTIONARY
360
397
102
}
102
{ACAD_REACTORS
330
2A
102
}
330
2A
100
AcDbVisualStyle
  2

 70
    21
 71
     2
 72
     2
 73
     0
 90
        0
 40
-0.6
 41
-30.0
 62
     5
 63
     7
 74
     1
 91
        4
 64
     7
 65
   257
 75
     1
175
     1
 42
1.0
 92
        9
 66
     7
 43
1.0
 76
     1
 77
     6
 78
     2
 67
     7
 79
     5
170
     0
171
     0
290
     0
174
     0
 93
        1
 44
0.0
173
     0
291
     1
 45
0.0
1001
ACAD
1000
AcDbSavedByObjectVersion
1070
     0
  0
VISUALSTYLE
  5
33
102
{ACAD_XDICTIONARY
360
385
102
}
102
{ACAD_REACTORS
330
2A
102
}
330
2A
100
AcDbVisualStyle
  2

 70
     8
 71
     2
 72
     3
 73
     0
 90
        2
 40
-0.6
 41
30.0
 62
     5
 63
     7
 74
     0
 91
        0
 64
     7
 65
   257
 75
     1
175
     1
 42
1.0
 92
        8
 66
   257
 43
1.0
 76
     1
 77
     6
 78
     2
 67
     7
 79
     3
170
     0
171
     0
290
     0
174
     0
 93
       13
 44
0.0
173
     0
291
     0
 45
0.0
1001
ACAD
1000
AcDbSavedByObjectVersion
1070
     0
  0
VISUALSTYLE
  5
42
102
{ACAD_XDICTIONARY
360
3A3
102
}
102
{ACAD_REACTORS
330
2A
102
}
330
2A
100
AcDbVisualStyle
  2

 70
    27
 71
     2
 72
     2
 73
     1
 90
        2
 40
-0.6
 41
30.0
 62
     5
 63
     7
 74
     0
 91
        4
 64
     7
 65
   257
 75
     1
175
     1
 42
1.0
 92
        8
 66
   257
 43
1.0
 76
     1
 77
     6
 78
     2
 67
     8
 79
     3
170
     0
171
     0
290
     0
174
     0
 93
        5
 44
0.0
173
     0
291
     0
 45
0.0
1001
ACAD
1000
AcDbSavedByObjectVersion
1070
     0
  0
VISUALSTYLE
  5
41
102
{ACAD_XDICTIONARY
360
3A1
102
}
102
{ACAD_REACTORS
330
2A
102
}
330
2A
100
AcDbVisualStyle
  2

 70
    26
 71
     2
 72
     2
 73
     1
 90
        2
 40
-0.6
 41
30.0
 62
     5
 63
     7
 74
     1
 91
       10
 64
     7
 65
   257
 75
     2
175
     1
 42
1.0
 92
        8
 66
   257
 43
1.0
 76
     1
 77
     6
 78
     2
 67
     7
 79
     3
170
     0
171
     0
290
     0
174
     0
 93
        5
 44
0.0
173
     0
291
     0
 45
0.0
1001
ACAD
1000
AcDbSavedByObjectVersion
1070
     0
  0
VISUALSTYLE
  5
3E
102
{ACAD_XDICTIONARY
360
39B
102
}
102
{ACAD_REACTORS
330
2A
102
}
330
2A
100
AcDbVisualStyle
  2

 70
    23
 71
     2
 72
     2
 73
     3
 90
        0
 40
-0.6
 41
-30.0
 62
     5
 63
     7
 74
     2
 91
        2
 64
     7
 65
     7
 75
     1
175
     1
 42
40.0
 92
        8
 66
     7
 43
1.0
 76
     1
 77
     6
 78
     2
 67
     7
 79
     3
170
     0
171
     0
290
     0
174
     0
 93
        1
 44
0.0
173
     0
291
     0
 45
0.0
1001
ACAD
1000
AcDbSavedByObjectVersion
1070
     0
  0
VISUALSTYLE
  5
3F
102
{ACAD_XDICTIONARY
360
39D
102
}
102
{ACAD_REACTORS
330
2A
102
}
330
2A
100
AcDbVisualStyle
  2

 70
    24
 71
     1
 72
     2
 73
     2
 90
        0
 40
-0.6
 41
-30.0
 62
     5
 63
     7
 74
     2
 91
        2
 64
     7
 65
     7
 75
     1
175
     1
 42
40.0
 92
       11
 66
     7
 43
1.0
 76
     1
 77
     6
 78
     2
 67
     7
 79
     6
170
     0
171
     0
290
     0
174
     0
 93
        1
 44
0.0
173
     0
291
     0
 45
0.0
1001
ACAD
1000
AcDbSavedByObjectVersion
1070
     0
  0
VISUALSTYLE
  5
37
102
{ACAD_XDICTIONARY
360
38D
102
}
102
{ACAD_REACTORS
330
2A
102
}
330
2A
100
AcDbVisualStyle
  2

 70
    13
 71
     2
 72
     2
 73
     0
 90
        0
 40
-0.6
 41
-30.0
 62
     5
 63
     7
 74
     1
 91
        4
 64
     7
 65
   257
 75
     1
175
     1
 42
1.0
 92
       12
 66
     7
 43
1.0
 76
     1
 77
     6
 78
     2
 67
     7
 79
     5
170
     0
171
     0
290
     0
174
     0
 93
        1
 44
0.0
173
     0
291
     1
 45
0.0
1001
ACAD
1000
AcDbSavedByObjectVersion
1070
     0
  0
VISUALSTYLE
  5
30
102
{ACAD_XDICTIONARY
360
37F
102
}
102
{ACAD_REACTORS
330
2A
102
}
330
2A
100
AcDbVisualStyle
  2

 70
     5
 71
     0
 72
     2
 73
     0
 90
        0
 40
-0.6
 41
-30.0
 62
     5
 63
     7
 74
     1
 91
        4
 64
     7
 65
   257
 75
     1
175
     1
 42
1.0
 92
        0
 66
   257
 43
1.0
 76
     1
 77
     6
 78
     2
 67
     7
 79
     3
170
     0
171
     0
290
     0
174
     0
 93
        1
 44
0.0
173
     0
291
     0
 45
0.0
1001
ACAD
1000
AcDbSavedByObjectVersion
1070
     0
  0
VISUALSTYLE
  5
40
102
{ACAD_XDICTIONARY
360
39F
102
}
102
{ACAD_REACTORS
330
2A
102
}
330
2A
100
AcDbVisualStyle
  2

 70
    25
 71
     2
 72
     2
 73
     1
 90
        1
 40
0.5
 41
-30.0
 62
     5
 63
     7
 74
     1
 91
        0
 64
     7
 65
   257
 75
     1
175
     1
 42
1.0
 92
        8
 66
     7
 43
1.0
 76
     1
 77
     6
 78
     2
 67
     7
 79
     3
170
     0
171
     0
290
     0
174
     0
 93
       13
 44
0.0
173
     0
291
     0
 45
0.0
1001
ACAD
1000
AcDbSavedByObjectVersion
1070
     0
  0
DICTIONARYVAR
  5
373
102
{ACAD_REACTORS
330
372
102
}
330
372
100
DictionaryVariables
280
     0
  1
1:1
  0
DICTIONARYVAR
  5
3AF
102
{ACAD_REACTORS
330
372
102
}
330
372
100
DictionaryVariables
280
     0
  1
3.500000
  0
DICTIONARYVAR
  5
3B0
102
{ACAD_REACTORS
330
372
102
}
330
372
100
DictionaryVariables
280
     0
  1
acadiso.lin
  0
DICTIONARYVAR
  5
3AC
102
{ACAD_REACTORS
330
372
102
}
330
372
100
DictionaryVariables
280
     0
  1
STANDARD
  0
DICTIONARYVAR
  5
3AB
102
{ACAD_REACTORS
330
372
102
}
330
372
100
DictionaryVariables
280
     0
  1
STANDARD
  0
DICTIONARYVAR
  5
3EE
102
{ACAD_REACTORS
330
372
102
}
330
372
100
DictionaryVariables
280
     0
  1
2
  0
DICTIONARYVAR
  5
3EC
102
{ACAD_REACTORS
330
372
102
}
330
372
100
DictionaryVariables
280
     0
  1
2
  0
DICTIONARYVAR
  5
3EB
102
{ACAD_REACTORS
330
372
102
}
330
372
100
DictionaryVariables
280
     0
  1
1
  0
DICTIONARYVAR
  5
3EA
102
{ACAD_REACTORS
330
372
102
}
330
372
100
DictionaryVariables
280
     0
  1
0
  0
DICTIONARYVAR
  5
3C6
102
{ACAD_REACTORS
330
372
102
}
330
372
100
DictionaryVariables
280
     0
  1
1
  0
DICTIONARYVAR
  5
3C7
102
{ACAD_REACTORS
330
372
102
}
330
372
100
DictionaryVariables
280
     0
  1
15
  0
DICTIONARYVAR
  5
3E8
102
{ACAD_REACTORS
330
372
102
}
330
372
100
DictionaryVariables
280
     0
  1
2
  0
DICTIONARYVAR
  5
3F1
102
{ACAD_REACTORS
330
372
102
}
330
372
100
DictionaryVariables
280
     0
  1
1.570796
  0
DICTIONARYVAR
  5
3F2
102
{ACAD_REACTORS
330
372
102
}
330
372
100
DictionaryVariables
280
     0
  1
1.570796
  0
DICTIONARYVAR
  5
3F3
102
{ACAD_REACTORS
330
372
102
}
330
372
100
DictionaryVariables
280
     0
  1
-122.394000
  0
DICTIONARYVAR
  5
3E7
102
{ACAD_REACTORS
330
372
102
}
330
372
100
DictionaryVariables
280
     0
  1
1
  0
DICTIONARYVAR
  5
3F0
102
{ACAD_REACTORS
330
372
102
}
330
372
100
DictionaryVariables
280
     0
  1
80.000000
  0
DICTIONARYVAR
  5
3EF
102
{ACAD_REACTORS
330
372
102
}
330
372
100
DictionaryVariables
280
     0
  1
5.000000
  0
DICTIONARYVAR
  5
3ED
102
{ACAD_REACTORS
330
372
102
}
330
372
100
DictionaryVariables
280
     0
  1
0
  0
DICTIONARYVAR
  5
3E9
102
{ACAD_REACTORS
330
372
102
}
330
372
100
DictionaryVariables
280
     0
  1
127
  0
DICTIONARYVAR
  5
3F4
102
{ACAD_REACTORS
330
372
102
}
330
372
100
DictionaryVariables
280
     0
  1
2
  0
DICTIONARY
  5
3FB
330
1E
100
AcDbDictionary
280
     1
281
     1
  3
ACAD_XREC_ROUNDTRIP
360
3FC
  0
DICTIONARY
  5
3FD
330
22
100
AcDbDictionary
280
     1
281
     1
  3
ACAD_XREC_ROUNDTRIP
360
3FE
  0
DICTIONARY
  5
401
330
45
100
AcDbDictionary
280
     1
281
     1
  3
ACAD_XREC_ROUNDTRIP
360
402
  0
DICTIONARY
  5
3FF
330
44
100
AcDbDictionary
280
     1
281
     1
  3
ACAD_XREC_ROUNDTRIP
360
400
  0
DICTIONARY
  5
403
330
46
100
AcDbDictionary
280
     1
281
     1
  3
ACAD_XREC_ROUNDTRIP
360
404
  0
DICTIONARY
  5
3A5
330
6A
100
AcDbDictionary
280
     1
281
     1
  3
ACAD_ROUNDTRIP_2008_TABLESTYLE_CELLSTYLEMAP
360
3F5
  3
ACAD_XREC_ROUNDTRIP
360
405
  0
DICTIONARY
  5
37D
330
2F
100
AcDbDictionary
280
     1
281
     1
  3
ACAD_XREC_ROUNDTRIP
360
37E
  0
DICTIONARY
  5
383
330
32
100
AcDbDictionary
280
     1
281
     1
  3
ACAD_XREC_ROUNDTRIP
360
384
  0
DICTIONARY
  5
38B
330
36
100
AcDbDictionary
280
     1
281
     1
  3
ACAD_XREC_ROUNDTRIP
360
38C
  0
DICTIONARY
  5
393
330
3A
100
AcDbDictionary
280
     1
281
     1
  3
ACAD_XREC_ROUNDTRIP
360
394
  0
DICTIONARY
  5
387
330
34
100
AcDbDictionary
280
     1
281
     1
  3
ACAD_XREC_ROUNDTRIP
360
388
  0
DICTIONARY
  5
389
330
35
100
AcDbDictionary
280
     1
281
     1
  3
ACAD_XREC_ROUNDTRIP
360
38A
  0
DICTIONARY
  5
399
330
3D
100
AcDbDictionary
280
     1
281
     1
  3
ACAD_XREC_ROUNDTRIP
360
39A
  0
DICTIONARY
  5
391
330
39
100
AcDbDictionary
280
     1
281
     1
  3
ACAD_XREC_ROUNDTRIP
360
392
  0
DICTIONARY
  5
375
330
2B
100
AcDbDictionary
280
     1
281
     1
  3
ACAD_XREC_ROUNDTRIP
360
376
  0
DICTIONARY
  5
377
330
2C
100
AcDbDictionary
280
     1
281
     1
  3
ACAD_XREC_ROUNDTRIP
360
378
  0
DICTIONARY
  5
379
330
2D
100
AcDbDictionary
280
     1
281
     1
  3
ACAD_XREC_ROUNDTRIP
360
37A
  0
DICTIONARY
  5
37B
330
2E
100
AcDbDictionary
280
     1
281
     1
  3
ACAD_XREC_ROUNDTRIP
360
37C
  0
DICTIONARY
  5
381
330
31
100
AcDbDictionary
280
     1
281
     1
  3
ACAD_XREC_ROUNDTRIP
360
382
  0
DICTIONARY
  5
395
330
3B
100
AcDbDictionary
280
     1
281
     1
  3
ACAD_XREC_ROUNDTRIP
360
396
  0
DICTIONARY
  5
38F
330
38
100
AcDbDictionary
280
     1
281
     1
  3
ACAD_XREC_ROUNDTRIP
360
390
  0
DICTIONARY
  5
397
330
3C
100
AcDbDictionary
280
     1
281
     1
  3
ACAD_XREC_ROUNDTRIP
360
398
  0
DICTIONARY
  5
385
330
33
100
AcDbDictionary
280
     1
281
     1
  3
ACAD_XREC_ROUNDTRIP
360
386
  0
DICTIONARY
  5
3A3
330
42
100
AcDbDictionary
280
     1
281
     1
  3
ACAD_XREC_ROUNDTRIP
360
3A4
  0
DICTIONARY
  5
3A1
330
41
100
AcDbDictionary
280
     1
281
     1
  3
ACAD_XREC_ROUNDTRIP
360
3A2
  0
DICTIONARY
  5
39B
330
3E
100
AcDbDictionary
280
     1
281
     1
  3
ACAD_XREC_ROUNDTRIP
360
39C
  0
DICTIONARY
  5
39D
330
3F
100
AcDbDictionary
280
     1
281
     1
  3
ACAD_XREC_ROUNDTRIP
360
39E
  0
DICTIONARY
  5
38D
330
37
100
AcDbDictionary
280
     1
281
     1
  3
ACAD_XREC_ROUNDTRIP
360
38E
  0
DICTIONARY
  5
37F
330
30
100
AcDbDictionary
280
     1
281
     1
  3
ACAD_XREC_ROUNDTRIP
360
380
  0
DICTIONARY
  5
39F
330
40
100
AcDbDictionary
280
     1
281
     1
  3
ACAD_XREC_ROUNDTRIP
360
3A0
  0
XRECORD
  5
3FC
102
{ACAD_REACTORS
330
3FB
102
}
330
3FB
100
AcDbXrecord
280
     1
102
SHADEPLOT
 70
     0
102
SHADEPLOTRESLEVEL
 70
     2
102
SHADEPLOTCUSTOMDPI
 70
   300
  0
XRECORD
  5
3FE
102
{ACAD_REACTORS
330
3FD
102
}
330
3FD
100
AcDbXrecord
280
     1
102
SHADEPLOT
 70
     0
102
SHADEPLOTRESLEVEL
 70
     2
102
SHADEPLOTCUSTOMDPI
 70
   300
  0
XRECORD
  5
402
102
{ACAD_REACTORS
330
401
102
}
330
401
100
AcDbXrecord
280
     1
102
MATERIAL
148
0.0
149
0.0
149
0.0
 93
        0
 94
      127
282
     0
 72
     1
 77
     1
171
     1
175
     1
179
     1
273
     0
  0
XRECORD
  5
400
102
{ACAD_REACTORS
330
3FF
102
}
330
3FF
100
AcDbXrecord
280
     1
102
MATERIAL
148
0.0
149
0.0
149
0.0
 93
        0
 94
      127
282
     0
 72
     1
 77
     1
171
     1
175
     1
179
     1
273
     0
  0
XRECORD
  5
404
102
{ACAD_REACTORS
330
403
102
}
330
403
100
AcDbXrecord
280
     1
102
MATERIAL
148
0.0
149
0.0
149
0.0
 93
        0
 94
      127
282
     0
 72
     1
 77
     1
171
     1
175
     1
179
     1
273
     0
  0
CELLSTYLEMAP
  5
3F5
102
{ACAD_REACTORS
330
3A5
102
}
330
3A5
100
AcDbCellStyleMap
 90
        3
300
CELLSTYLE
  1
TABLEFORMAT_BEGIN
 90
        5
170
     1
 91
        0
 92
    32768
 62
   257
 93
        1
300
CONTENTFORMAT
  1
CONTENTFORMAT_BEGIN
 90
        0
 91
        0
 92
        4
 93
        0
300

 40
0.0
140
1.0
 94
        5
 62
     0
340
11
144
6.0
309
CONTENTFORMAT_END
171
     1
301
MARGIN
  1
CELLMARGIN_BEGIN
 40
1.5
 40
1.5
 40
1.5
 40
1.5
 40
0.18
 40
0.18
309
CELLMARGIN_END
 94
        6
 95
        1
302
GRIDFORMAT
  1
GRIDFORMAT_BEGIN
 90
        0
 91
        1
 62
     0
 92
       -2
340
14
 93
        0
 40
0.045
309
GRIDFORMAT_END
 95
        2
302
GRIDFORMAT
  1
GRIDFORMAT_BEGIN
 90
        0
 91
        1
 62
     0
 92
       -2
340
14
 93
        0
 40
0.045
309
GRIDFORMAT_END
 95
        4
302
GRIDFORMAT
  1
GRIDFORMAT_BEGIN
 90
        0
 91
        1
 62
     0
 92
       -2
340
14
 93
        0
 40
0.045
309
GRIDFORMAT_END
 95
        8
302
GRIDFORMAT
  1
GRIDFORMAT_BEGIN
 90
        0
 91
        1
 62
     0
 92
       -2
340
14
 93
        0
 40
0.045
309
GRIDFORMAT_END
 95
       16
302
GRIDFORMAT
  1
GRIDFORMAT_BEGIN
 90
        0
 91
        1
 62
     0
 92
       -2
340
14
 93
        0
 40
0.045
309
GRIDFORMAT_END
 95
       32
302
GRIDFORMAT
  1
GRIDFORMAT_BEGIN
 90
        0
 91
        1
 62
     0
 92
       -2
340
14
 93
        0
 40
0.045
309
GRIDFORMAT_END
309
TABLEFORMAT_END
  1
CELLSTYLE_BEGIN
 90
        1
 91
        1
300
_TITLE
309
CELLSTYLE_END
300
CELLSTYLE
  1
TABLEFORMAT_BEGIN
 90
        5
170
     1
 91
        0
 92
        0
 62
   257
 93
        1
300
CONTENTFORMAT
  1
CONTENTFORMAT_BEGIN
 90
        0
 91
        0
 92
        4
 93
        0
300

 40
0.0
140
1.0
 94
        5
 62
     0
340
11
144
4.5
309
CONTENTFORMAT_END
171
     1
301
MARGIN
  1
CELLMARGIN_BEGIN
 40
1.5
 40
1.5
 40
1.5
 40
1.5
 40
0.18
 40
0.18
309
CELLMARGIN_END
 94
        6
 95
        1
302
GRIDFORMAT
  1
GRIDFORMAT_BEGIN
 90
        0
 91
        1
 62
     0
 92
       -2
340
14
 93
        0
 40
0.045
309
GRIDFORMAT_END
 95
        2
302
GRIDFORMAT
  1
GRIDFORMAT_BEGIN
 90
        0
 91
        1
 62
     0
 92
       -2
340
14
 93
        0
 40
0.045
309
GRIDFORMAT_END
 95
        4
302
GRIDFORMAT
  1
GRIDFORMAT_BEGIN
 90
        0
 91
        1
 62
     0
 92
       -2
340
14
 93
        0
 40
0.045
309
GRIDFORMAT_END
 95
        8
302
GRIDFORMAT
  1
GRIDFORMAT_BEGIN
 90
        0
 91
        1
 62
     0
 92
       -2
340
14
 93
        0
 40
0.045
309
GRIDFORMAT_END
 95
       16
302
GRIDFORMAT
  1
GRIDFORMAT_BEGIN
 90
        0
 91
        1
 62
     0
 92
       -2
340
14
 93
        0
 40
0.045
309
GRIDFORMAT_END
 95
       32
302
GRIDFORMAT
  1
GRIDFORMAT_BEGIN
 90
        0
 91
        1
 62
     0
 92
       -2
340
14
 93
        0
 40
0.045
309
GRIDFORMAT_END
309
TABLEFORMAT_END
  1
CELLSTYLE_BEGIN
 90
        2
 91
        1
300
_HEADER
309
CELLSTYLE_END
300
CELLSTYLE
  1
TABLEFORMAT_BEGIN
 90
        5
170
     1
 91
        0
 92
        0
 62
   257
 93
        1
300
CONTENTFORMAT
  1
CONTENTFORMAT_BEGIN
 90
        0
 91
        0
 92
        4
 93
        0
300

 40
0.0
140
1.0
 94
        2
 62
     0
340
11
144
4.5
309
CONTENTFORMAT_END
171
     1
301
MARGIN
  1
CELLMARGIN_BEGIN
 40
1.5
 40
1.5
 40
1.5
 40
1.5
 40
0.18
 40
0.18
309
CELLMARGIN_END
 94
        6
 95
        1
302
GRIDFORMAT
  1
GRIDFORMAT_BEGIN
 90
        0
 91
        1
 62
     0
 92
       -2
340
14
 93
        0
 40
0.045
309
GRIDFORMAT_END
 95
        2
302
GRIDFORMAT
  1
GRIDFORMAT_BEGIN
 90
        0
 91
        1
 62
     0
 92
       -2
340
14
 93
        0
 40
0.045
309
GRIDFORMAT_END
 95
        4
302
GRIDFORMAT
  1
GRIDFORMAT_BEGIN
 90
        0
 91
        1
 62
     0
 92
       -2
340
14
 93
        0
 40
0.045
309
GRIDFORMAT_END
 95
        8
302
GRIDFORMAT
  1
GRIDFORMAT_BEGIN
 90
        0
 91
        1
 62
     0
 92
       -2
340
14
 93
        0
 40
0.045
309
GRIDFORMAT_END
 95
       16
302
GRIDFORMAT
  1
GRIDFORMAT_BEGIN
 90
        0
 91
        1
 62
     0
 92
       -2
340
14
 93
        0
 40
0.045
309
GRIDFORMAT_END
 95
       32
302
GRIDFORMAT
  1
GRIDFORMAT_BEGIN
 90
        0
 91
        1
 62
     0
 92
       -2
340
14
 93
        0
 40
0.045
309
GRIDFORMAT_END
309
TABLEFORMAT_END
  1
CELLSTYLE_BEGIN
 90
        3
 91
        2
300
_DATA
309
CELLSTYLE_END
  0
XRECORD
  5
405
102
{ACAD_REACTORS
330
3A5
102
}
330
3A5
100
AcDbXrecord
280
     1
102
ACAD_ROUNDTRIP_PRE2007_TABLESTYLE
 90
        4
 91
        0
  1

 92
        4
 93
        0
  2

 94
        4
 95
        0
  3

  0
XRECORD
  5
37E
102
{ACAD_REACTORS
330
37D
102
}
330
37D
100
AcDbXrecord
280
     1
102
RTVSPropertyOp33
 70
     1
102
RTVSPropertyOp34
 70
     1
102
RTVSPropertyOp35
 70
     1
102
RTVSPropertyOp36
 70
     1
102
RTVSPropertyOp37
 70
     1
102
RTVSPropertyOp38
 70
     1
102
RTVSPropertyOp39
 70
     1
102
RTVSPropertyOp40
 70
     1
102
RTVSPropertyOp41
 70
     1
102
RTVSPropertyOp42
 70
     1
102
RTVSPropertyOp43
 70
     1
102
RTVSPropertyOp44
 70
     1
102
RTVSPropertyOp45
 70
     1
102
RTVSPropertyOp46
 70
     1
102
RTVSPropertyOp47
 70
     1
102
RTVSPropertyOp48
 70
     1
102
RTVSPropertyOp49
 70
     1
102
RTVSPropertyOp50
 70
     1
102
RTVSPropertyOp51
 70
     0
102
RTVSPropertyOp52
 70
     0
102
RTVSPropertyOp53
 70
     1
102
RTVSPropertyOp54
 70
     1
102
RTVSPropertyOp55
 70
     1
102
RTVSPropertyOp56
 70
     1
102
RTVSPropertyOp57
 70
     1
102
RTVSPost2010Prop28
280
     1
102
RTVSPost2010PropOp28
 70
     1
102
RTVSPost2010Prop29
280
     1
102
RTVSPost2010PropOp29
 70
     1
102
RTVSPost2010Prop30
280
     0
102
RTVSPost2010PropOp30
 70
     1
102
RTVSPost2010Prop31
280
     0
102
RTVSPost2010PropOp31
 70
     1
102
RTVSPost2010Prop32
280
     0
102
RTVSPost2010PropOp32
 70
     1
102
RTVSPost2010Prop33
280
     0
102
RTVSPost2010PropOp33
 70
     1
102
RTVSPost2010Prop34
280
     0
102
RTVSPost2010PropOp34
 70
     1
102
RTVSPost2010Prop35
280
     0
102
RTVSPost2010PropOp35
 70
     1
102
RTVSPost2010Prop36
280
     0
102
RTVSPost2010PropOp36
 70
     1
102
RTVSPost2010Prop37
 90
       50
102
RTVSPost2010PropOp37
 70
     1
102
RTVSPost2010Prop38
140
0.0
102
RTVSPost2010PropOp38
 70
     1
102
RTVSPost2010Prop39
140
1.0
102
RTVSPost2010PropOp39
 70
     1
102
RTVSPost2010Prop40
 90
        0
102
RTVSPost2010PropOp40
 70
     1
102
RTVSPost2010Prop41ColorIndex
 90
       18
102
RTVSPost2010Prop41ColorRGB
 90
        0
102
RTVSPost2010PropOp41
 70
     1
102
RTVSPost2010Prop42
 90
       50
102
RTVSPost2010PropOp42
 70
     1
102
RTVSPost2010Prop43
 90
        3
102
RTVSPost2010PropOp43
 70
     1
102
RTVSPost2010Prop44ColorIndex
 90
        5
102
RTVSPost2010Prop44ColorRGB
 90
      255
102
RTVSPost2010PropOp44
 70
     1
102
RTVSPost2010Prop45
280
     0
102
RTVSPost2010PropOp45
 70
     1
102
RTVSPost2010Prop46
 90
       50
102
RTVSPost2010PropOp46
 70
     1
102
RTVSPost2010Prop47
 90
       50
102
RTVSPost2010PropOp47
 70
     1
102
RTVSPost2010Prop48
 90
       50
102
RTVSPost2010PropOp48
 70
     1
102
RTVSPost2010Prop49
280
     0
102
RTVSPost2010PropOp49
 70
     1
102
RTVSPost2010Prop50
 90
       50
102
RTVSPost2010PropOp50
 70
     1
102
RTVSPost2010Prop51ColorIndex
 90
      256
102
RTVSPost2010Prop51ColorRGB
 90
-16777216
102
RTVSPost2010PropOp51
 70
     0
102
RTVSPost2010Prop52
140
1.0
102
RTVSPost2010PropOp52
 70
     0
102
RTVSPost2010Prop53
 90
        2
102
RTVSPost2010PropOp53
 70
     1
102
RTVSPost2010Prop54
  1
strokes_ogs.tif
102
RTVSPost2010PropOp54
 70
     1
102
RTVSPost2010Prop55
280
     0
102
RTVSPost2010PropOp55
 70
     1
102
RTVSPost2010Prop56
140
1.0
102
RTVSPost2010PropOp56
 70
     1
102
RTVSPost2010Prop57
140
1.0
102
RTVSPost2010PropOp57
 70
     1
102
RTVSPropertyOp0
 70
     1
102
RTVSPropertyOp1
 70
     1
102
RTVSPropertyOp2
 70
     1
102
RTVSPropertyOp3
 70
     1
102
RTVSPropertyOp4
 70
     1
102
RTVSPropertyOp5
 70
     1
102
RTVSPropertyOp6
 70
     1
102
RTVSPropertyOp7
 70
     1
102
RTVSPropertyOp8
 70
     1
102
RTVSPropertyOp9
 70
     1
102
RTVSPropertyOp10
 70
     1
102
RTVSPropertyOp11
 70
     1
102
RTVSPropertyOp12
 70
     1
102
RTVSPropertyOp13
 70
     1
102
RTVSPropertyOp14
 70
     1
102
RTVSPropertyOp15
 70
     1
102
RTVSPropertyOp16
 70
     1
102
RTVSPropertyOp17
 70
     1
102
RTVSPropertyOp18
 70
     1
102
RTVSPropertyOp19
 70
     1
102
RTVSPropertyOp20
 70
     1
102
RTVSPropertyOp21
 70
     1
102
RTVSPropertyOp22
 70
     1
102
RTVSPropertyOp23
 70
     1
102
RTVSPropertyOp24
 70
     1
102
RTVSPropertyOp25
 70
     1
102
RTVSPropertyOp26
 70
     1
102
RTVSPropertyOp27
 70
     1
102
RTVSPropertyOp28
 70
     1
102
RTVSPropertyOp29
 70
     1
102
RTVSPropertyOp30
 70
     1
102
RTVSPropertyOp31
 70
     1
102
RTVSPropertyOp32
 70
     1
  0
XRECORD
  5
384
102
{ACAD_REACTORS
330
383
102
}
330
383
100
AcDbXrecord
280
     1
102
RTVSPropertyOp33
 70
     1
102
RTVSPropertyOp34
 70
     1
102
RTVSPropertyOp35
 70
     1
102
RTVSPropertyOp36
 70
     1
102
RTVSPropertyOp37
 70
     1
102
RTVSPropertyOp38
 70
     1
102
RTVSPropertyOp39
 70
     1
102
RTVSPropertyOp40
 70
     1
102
RTVSPropertyOp41
 70
     1
102
RTVSPropertyOp42
 70
     1
102
RTVSPropertyOp43
 70
     1
102
RTVSPropertyOp44
 70
     1
102
RTVSPropertyOp45
 70
     1
102
RTVSPropertyOp46
 70
     1
102
RTVSPropertyOp47
 70
     1
102
RTVSPropertyOp48
 70
     1
102
RTVSPropertyOp49
 70
     1
102
RTVSPropertyOp50
 70
     1
102
RTVSPropertyOp51
 70
     0
102
RTVSPropertyOp52
 70
     0
102
RTVSPropertyOp53
 70
     1
102
RTVSPropertyOp54
 70
     1
102
RTVSPropertyOp55
 70
     1
102
RTVSPropertyOp56
 70
     1
102
RTVSPropertyOp57
 70
     1
102
RTVSPost2010Prop28
280
     0
102
RTVSPost2010PropOp28
 70
     1
102
RTVSPost2010Prop29
280
     1
102
RTVSPost2010PropOp29
 70
     1
102
RTVSPost2010Prop30
280
     1
102
RTVSPost2010PropOp30
 70
     1
102
RTVSPost2010Prop31
280
     0
102
RTVSPost2010PropOp31
 70
     1
102
RTVSPost2010Prop32
280
     0
102
RTVSPost2010PropOp32
 70
     1
102
RTVSPost2010Prop33
280
     0
102
RTVSPost2010PropOp33
 70
     1
102
RTVSPost2010Prop34
280
     0
102
RTVSPost2010PropOp34
 70
     1
102
RTVSPost2010Prop35
280
     0
102
RTVSPost2010PropOp35
 70
     1
102
RTVSPost2010Prop36
280
     0
102
RTVSPost2010PropOp36
 70
     1
102
RTVSPost2010Prop37
 90
       50
102
RTVSPost2010PropOp37
 70
     1
102
RTVSPost2010Prop38
140
0.0
102
RTVSPost2010PropOp38
 70
     1
102
RTVSPost2010Prop39
140
1.0
102
RTVSPost2010PropOp39
 70
     1
102
RTVSPost2010Prop40
 90
        0
102
RTVSPost2010PropOp40
 70
     1
102
RTVSPost2010Prop41ColorIndex
 90
       18
102
RTVSPost2010Prop41ColorRGB
 90
        0
102
RTVSPost2010PropOp41
 70
     1
102
RTVSPost2010Prop42
 90
       50
102
RTVSPost2010PropOp42
 70
     1
102
RTVSPost2010Prop43
 90
        3
102
RTVSPost2010PropOp43
 70
     1
102
RTVSPost2010Prop44ColorIndex
 90
        5
102
RTVSPost2010Prop44ColorRGB
 90
      255
102
RTVSPost2010PropOp44
 70
     1
102
RTVSPost2010Prop45
280
     0
102
RTVSPost2010PropOp45
 70
     1
102
RTVSPost2010Prop46
 90
       50
102
RTVSPost2010PropOp46
 70
     1
102
RTVSPost2010Prop47
 90
       50
102
RTVSPost2010PropOp47
 70
     1
102
RTVSPost2010Prop48
 90
       50
102
RTVSPost2010PropOp48
 70
     1
102
RTVSPost2010Prop49
280
     0
102
RTVSPost2010PropOp49
 70
     1
102
RTVSPost2010Prop50
 90
       50
102
RTVSPost2010PropOp50
 70
     1
102
RTVSPost2010Prop51ColorIndex
 90
      256
102
RTVSPost2010Prop51ColorRGB
 90
-16777216
102
RTVSPost2010PropOp51
 70
     0
102
RTVSPost2010Prop52
140
1.0
102
RTVSPost2010PropOp52
 70
     0
102
RTVSPost2010Prop53
 90
        2
102
RTVSPost2010PropOp53
 70
     1
102
RTVSPost2010Prop54
  1
strokes_ogs.tif
102
RTVSPost2010PropOp54
 70
     1
102
RTVSPost2010Prop55
280
     0
102
RTVSPost2010PropOp55
 70
     1
102
RTVSPost2010Prop56
140
1.0
102
RTVSPost2010PropOp56
 70
     1
102
RTVSPost2010Prop57
140
1.0
102
RTVSPost2010PropOp57
 70
     1
102
RTVSPropertyOp0
 70
     1
102
RTVSPropertyOp1
 70
     1
102
RTVSPropertyOp2
 70
     1
102
RTVSPropertyOp3
 70
     1
102
RTVSPropertyOp4
 70
     1
102
RTVSPropertyOp5
 70
     1
102
RTVSPropertyOp6
 70
     1
102
RTVSPropertyOp7
 70
     1
102
RTVSPropertyOp8
 70
     1
102
RTVSPropertyOp9
 70
     1
102
RTVSPropertyOp10
 70
     1
102
RTVSPropertyOp11
 70
     1
102
RTVSPropertyOp12
 70
     1
102
RTVSPropertyOp13
 70
     1
102
RTVSPropertyOp14
 70
     1
102
RTVSPropertyOp15
 70
     1
102
RTVSPropertyOp16
 70
     1
102
RTVSPropertyOp17
 70
     1
102
RTVSPropertyOp18
 70
     1
102
RTVSPropertyOp19
 70
     1
102
RTVSPropertyOp20
 70
     1
102
RTVSPropertyOp21
 70
     1
102
RTVSPropertyOp22
 70
     1
102
RTVSPropertyOp23
 70
     1
102
RTVSPropertyOp24
 70
     1
102
RTVSPropertyOp25
 70
     1
102
RTVSPropertyOp26
 70
     1
102
RTVSPropertyOp27
 70
     1
102
RTVSPropertyOp28
 70
     1
102
RTVSPropertyOp29
 70
     1
102
RTVSPropertyOp30
 70
     1
102
RTVSPropertyOp31
 70
     1
102
RTVSPropertyOp32
 70
     1
  0
XRECORD
  5
38C
102
{ACAD_REACTORS
330
38B
102
}
330
38B
100
AcDbXrecord
280
     1
102
RTVSPropertyOp33
 70
     1
102
RTVSPropertyOp34
 70
     1
102
RTVSPropertyOp35
 70
     1
102
RTVSPropertyOp36
 70
     1
102
RTVSPropertyOp37
 70
     1
102
RTVSPropertyOp38
 70
     1
102
RTVSPropertyOp39
 70
     1
102
RTVSPropertyOp40
 70
     1
102
RTVSPropertyOp41
 70
     1
102
RTVSPropertyOp42
 70
     1
102
RTVSPropertyOp43
 70
     1
102
RTVSPropertyOp44
 70
     1
102
RTVSPropertyOp45
 70
     1
102
RTVSPropertyOp46
 70
     1
102
RTVSPropertyOp47
 70
     1
102
RTVSPropertyOp48
 70
     1
102
RTVSPropertyOp49
 70
     1
102
RTVSPropertyOp50
 70
     1
102
RTVSPropertyOp51
 70
     0
102
RTVSPropertyOp52
 70
     0
102
RTVSPropertyOp53
 70
     1
102
RTVSPropertyOp54
 70
     1
102
RTVSPropertyOp55
 70
     1
102
RTVSPropertyOp56
 70
     1
102
RTVSPropertyOp57
 70
     1
102
RTVSPost2010Prop28
280
     0
102
RTVSPost2010PropOp28
 70
     1
102
RTVSPost2010Prop29
280
     1
102
RTVSPost2010PropOp29
 70
     1
102
RTVSPost2010Prop30
280
     1
102
RTVSPost2010PropOp30
 70
     1
102
RTVSPost2010Prop31
280
     0
102
RTVSPost2010PropOp31
 70
     1
102
RTVSPost2010Prop32
280
     0
102
RTVSPost2010PropOp32
 70
     1
102
RTVSPost2010Prop33
280
     0
102
RTVSPost2010PropOp33
 70
     1
102
RTVSPost2010Prop34
280
     0
102
RTVSPost2010PropOp34
 70
     1
102
RTVSPost2010Prop35
280
     0
102
RTVSPost2010PropOp35
 70
     1
102
RTVSPost2010Prop36
280
     0
102
RTVSPost2010PropOp36
 70
     1
102
RTVSPost2010Prop37
 90
       50
102
RTVSPost2010PropOp37
 70
     1
102
RTVSPost2010Prop38
140
0.0
102
RTVSPost2010PropOp38
 70
     1
102
RTVSPost2010Prop39
140
1.0
102
RTVSPost2010PropOp39
 70
     1
102
RTVSPost2010Prop40
 90
        0
102
RTVSPost2010PropOp40
 70
     1
102
RTVSPost2010Prop41ColorIndex
 90
       18
102
RTVSPost2010Prop41ColorRGB
 90
        0
102
RTVSPost2010PropOp41
 70
     1
102
RTVSPost2010Prop42
 90
       50
102
RTVSPost2010PropOp42
 70
     1
102
RTVSPost2010Prop43
 90
        3
102
RTVSPost2010PropOp43
 70
     1
102
RTVSPost2010Prop44ColorIndex
 90
        5
102
RTVSPost2010Prop44ColorRGB
 90
      255
102
RTVSPost2010PropOp44
 70
     1
102
RTVSPost2010Prop45
280
     0
102
RTVSPost2010PropOp45
 70
     1
102
RTVSPost2010Prop46
 90
       50
102
RTVSPost2010PropOp46
 70
     1
102
RTVSPost2010Prop47
 90
       50
102
RTVSPost2010PropOp47
 70
     1
102
RTVSPost2010Prop48
 90
       50
102
RTVSPost2010PropOp48
 70
     1
102
RTVSPost2010Prop49
280
     0
102
RTVSPost2010PropOp49
 70
     1
102
RTVSPost2010Prop50
 90
       50
102
RTVSPost2010PropOp50
 70
     1
102
RTVSPost2010Prop51ColorIndex
 90
      256
102
RTVSPost2010Prop51ColorRGB
 90
-16777216
102
RTVSPost2010PropOp51
 70
     0
102
RTVSPost2010Prop52
140
1.0
102
RTVSPost2010PropOp52
 70
     0
102
RTVSPost2010Prop53
 90
        2
102
RTVSPost2010PropOp53
 70
     1
102
RTVSPost2010Prop54
  1
strokes_ogs.tif
102
RTVSPost2010PropOp54
 70
     1
102
RTVSPost2010Prop55
280
     0
102
RTVSPost2010PropOp55
 70
     1
102
RTVSPost2010Prop56
140
1.0
102
RTVSPost2010PropOp56
 70
     1
102
RTVSPost2010Prop57
140
1.0
102
RTVSPost2010PropOp57
 70
     1
102
RTVSPropertyOp0
 70
     1
102
RTVSPropertyOp1
 70
     1
102
RTVSPropertyOp2
 70
     1
102
RTVSPropertyOp3
 70
     1
102
RTVSPropertyOp4
 70
     1
102
RTVSPropertyOp5
 70
     1
102
RTVSPropertyOp6
 70
     1
102
RTVSPropertyOp7
 70
     1
102
RTVSPropertyOp8
 70
     1
102
RTVSPropertyOp9
 70
     1
102
RTVSPropertyOp10
 70
     1
102
RTVSPropertyOp11
 70
     1
102
RTVSPropertyOp12
 70
     1
102
RTVSPropertyOp13
 70
     1
102
RTVSPropertyOp14
 70
     1
102
RTVSPropertyOp15
 70
     1
102
RTVSPropertyOp16
 70
     1
102
RTVSPropertyOp17
 70
     1
102
RTVSPropertyOp18
 70
     1
102
RTVSPropertyOp19
 70
     1
102
RTVSPropertyOp20
 70
     1
102
RTVSPropertyOp21
 70
     1
102
RTVSPropertyOp22
 70
     1
102
RTVSPropertyOp23
 70
     1
102
RTVSPropertyOp24
 70
     1
102
RTVSPropertyOp25
 70
     1
102
RTVSPropertyOp26
 70
     1
102
RTVSPropertyOp27
 70
     1
102
RTVSPropertyOp28
 70
     1
102
RTVSPropertyOp29
 70
     1
102
RTVSPropertyOp30
 70
     1
102
RTVSPropertyOp31
 70
     1
102
RTVSPropertyOp32
 70
     1
  0
XRECORD
  5
394
102
{ACAD_REACTORS
330
393
102
}
330
393
100
AcDbXrecord
280
     1
102
RTVSPropertyOp33
 70
     1
102
RTVSPropertyOp34
 70
     1
102
RTVSPropertyOp35
 70
     1
102
RTVSPropertyOp36
 70
     1
102
RTVSPropertyOp37
 70
     1
102
RTVSPropertyOp38
 70
     1
102
RTVSPropertyOp39
 70
     1
102
RTVSPropertyOp40
 70
     1
102
RTVSPropertyOp41
 70
     1
102
RTVSPropertyOp42
 70
     1
102
RTVSPropertyOp43
 70
     1
102
RTVSPropertyOp44
 70
     1
102
RTVSPropertyOp45
 70
     1
102
RTVSPropertyOp46
 70
     1
102
RTVSPropertyOp47
 70
     1
102
RTVSPropertyOp48
 70
     1
102
RTVSPropertyOp49
 70
     1
102
RTVSPropertyOp50
 70
     1
102
RTVSPropertyOp51
 70
     0
102
RTVSPropertyOp52
 70
     0
102
RTVSPropertyOp53
 70
     1
102
RTVSPropertyOp54
 70
     1
102
RTVSPropertyOp55
 70
     1
102
RTVSPropertyOp56
 70
     1
102
RTVSPropertyOp57
 70
     1
102
RTVSPost2010Prop28
280
     0
102
RTVSPost2010PropOp28
 70
     1
102
RTVSPost2010Prop29
280
     1
102
RTVSPost2010PropOp29
 70
     1
102
RTVSPost2010Prop30
280
     1
102
RTVSPost2010PropOp30
 70
     1
102
RTVSPost2010Prop31
280
     0
102
RTVSPost2010PropOp31
 70
     1
102
RTVSPost2010Prop32
280
     0
102
RTVSPost2010PropOp32
 70
     1
102
RTVSPost2010Prop33
280
     0
102
RTVSPost2010PropOp33
 70
     1
102
RTVSPost2010Prop34
280
     0
102
RTVSPost2010PropOp34
 70
     1
102
RTVSPost2010Prop35
280
     0
102
RTVSPost2010PropOp35
 70
     1
102
RTVSPost2010Prop36
280
     0
102
RTVSPost2010PropOp36
 70
     1
102
RTVSPost2010Prop37
 90
       50
102
RTVSPost2010PropOp37
 70
     1
102
RTVSPost2010Prop38
140
0.0
102
RTVSPost2010PropOp38
 70
     1
102
RTVSPost2010Prop39
140
1.0
102
RTVSPost2010PropOp39
 70
     1
102
RTVSPost2010Prop40
 90
        0
102
RTVSPost2010PropOp40
 70
     1
102
RTVSPost2010Prop41ColorIndex
 90
       18
102
RTVSPost2010Prop41ColorRGB
 90
        0
102
RTVSPost2010PropOp41
 70
     1
102
RTVSPost2010Prop42
 90
       50
102
RTVSPost2010PropOp42
 70
     1
102
RTVSPost2010Prop43
 90
        3
102
RTVSPost2010PropOp43
 70
     1
102
RTVSPost2010Prop44ColorIndex
 90
        5
102
RTVSPost2010Prop44ColorRGB
 90
      255
102
RTVSPost2010PropOp44
 70
     1
102
RTVSPost2010Prop45
280
     0
102
RTVSPost2010PropOp45
 70
     1
102
RTVSPost2010Prop46
 90
       50
102
RTVSPost2010PropOp46
 70
     1
102
RTVSPost2010Prop47
 90
       50
102
RTVSPost2010PropOp47
 70
     1
102
RTVSPost2010Prop48
 90
       50
102
RTVSPost2010PropOp48
 70
     1
102
RTVSPost2010Prop49
280
     0
102
RTVSPost2010PropOp49
 70
     1
102
RTVSPost2010Prop50
 90
       50
102
RTVSPost2010PropOp50
 70
     1
102
RTVSPost2010Prop51ColorIndex
 90
      256
102
RTVSPost2010Prop51ColorRGB
 90
-16777216
102
RTVSPost2010PropOp51
 70
     0
102
RTVSPost2010Prop52
140
1.0
102
RTVSPost2010PropOp52
 70
     0
102
RTVSPost2010Prop53
 90
        2
102
RTVSPost2010PropOp53
 70
     1
102
RTVSPost2010Prop54
  1
strokes_ogs.tif
102
RTVSPost2010PropOp54
 70
     1
102
RTVSPost2010Prop55
280
     0
102
RTVSPost2010PropOp55
 70
     1
102
RTVSPost2010Prop56
140
1.0
102
RTVSPost2010PropOp56
 70
     1
102
RTVSPost2010Prop57
140
1.0
102
RTVSPost2010PropOp57
 70
     1
102
RTVSPropertyOp0
 70
     1
102
RTVSPropertyOp1
 70
     1
102
RTVSPropertyOp2
 70
     1
102
RTVSPropertyOp3
 70
     1
102
RTVSPropertyOp4
 70
     1
102
RTVSPropertyOp5
 70
     1
102
RTVSPropertyOp6
 70
     1
102
RTVSPropertyOp7
 70
     1
102
RTVSPropertyOp8
 70
     1
102
RTVSPropertyOp9
 70
     1
102
RTVSPropertyOp10
 70
     1
102
RTVSPropertyOp11
 70
     1
102
RTVSPropertyOp12
 70
     1
102
RTVSPropertyOp13
 70
     1
102
RTVSPropertyOp14
 70
     1
102
RTVSPropertyOp15
 70
     1
102
RTVSPropertyOp16
 70
     1
102
RTVSPropertyOp17
 70
     1
102
RTVSPropertyOp18
 70
     1
102
RTVSPropertyOp19
 70
     1
102
RTVSPropertyOp20
 70
     1
102
RTVSPropertyOp21
 70
     1
102
RTVSPropertyOp22
 70
     1
102
RTVSPropertyOp23
 70
     1
102
RTVSPropertyOp24
 70
     1
102
RTVSPropertyOp25
 70
     1
102
RTVSPropertyOp26
 70
     1
102
RTVSPropertyOp27
 70
     1
102
RTVSPropertyOp28
 70
     1
102
RTVSPropertyOp29
 70
     1
102
RTVSPropertyOp30
 70
     1
102
RTVSPropertyOp31
 70
     1
102
RTVSPropertyOp32
 70
     1
  0
XRECORD
  5
388
102
{ACAD_REACTORS
330
387
102
}
330
387
100
AcDbXrecord
280
     1
102
RTVSPropertyOp33
 70
     1
102
RTVSPropertyOp34
 70
     1
102
RTVSPropertyOp35
 70
     1
102
RTVSPropertyOp36
 70
     1
102
RTVSPropertyOp37
 70
     1
102
RTVSPropertyOp38
 70
     1
102
RTVSPropertyOp39
 70
     1
102
RTVSPropertyOp40
 70
     1
102
RTVSPropertyOp41
 70
     1
102
RTVSPropertyOp42
 70
     1
102
RTVSPropertyOp43
 70
     1
102
RTVSPropertyOp44
 70
     1
102
RTVSPropertyOp45
 70
     1
102
RTVSPropertyOp46
 70
     1
102
RTVSPropertyOp47
 70
     1
102
RTVSPropertyOp48
 70
     1
102
RTVSPropertyOp49
 70
     1
102
RTVSPropertyOp50
 70
     1
102
RTVSPropertyOp51
 70
     0
102
RTVSPropertyOp52
 70
     0
102
RTVSPropertyOp53
 70
     1
102
RTVSPropertyOp54
 70
     1
102
RTVSPropertyOp55
 70
     1
102
RTVSPropertyOp56
 70
     1
102
RTVSPropertyOp57
 70
     1
102
RTVSPost2010Prop28
280
     0
102
RTVSPost2010PropOp28
 70
     1
102
RTVSPost2010Prop29
280
     1
102
RTVSPost2010PropOp29
 70
     1
102
RTVSPost2010Prop30
280
     1
102
RTVSPost2010PropOp30
 70
     1
102
RTVSPost2010Prop31
280
     0
102
RTVSPost2010PropOp31
 70
     1
102
RTVSPost2010Prop32
280
     0
102
RTVSPost2010PropOp32
 70
     1
102
RTVSPost2010Prop33
280
     0
102
RTVSPost2010PropOp33
 70
     1
102
RTVSPost2010Prop34
280
     0
102
RTVSPost2010PropOp34
 70
     1
102
RTVSPost2010Prop35
280
     0
102
RTVSPost2010PropOp35
 70
     1
102
RTVSPost2010Prop36
280
     0
102
RTVSPost2010PropOp36
 70
     1
102
RTVSPost2010Prop37
 90
       50
102
RTVSPost2010PropOp37
 70
     1
102
RTVSPost2010Prop38
140
0.0
102
RTVSPost2010PropOp38
 70
     1
102
RTVSPost2010Prop39
140
1.0
102
RTVSPost2010PropOp39
 70
     1
102
RTVSPost2010Prop40
 90
        0
102
RTVSPost2010PropOp40
 70
     1
102
RTVSPost2010Prop41ColorIndex
 90
       18
102
RTVSPost2010Prop41ColorRGB
 90
        0
102
RTVSPost2010PropOp41
 70
     1
102
RTVSPost2010Prop42
 90
       50
102
RTVSPost2010PropOp42
 70
     1
102
RTVSPost2010Prop43
 90
        3
102
RTVSPost2010PropOp43
 70
     1
102
RTVSPost2010Prop44ColorIndex
 90
        5
102
RTVSPost2010Prop44ColorRGB
 90
      255
102
RTVSPost2010PropOp44
 70
     1
102
RTVSPost2010Prop45
280
     0
102
RTVSPost2010PropOp45
 70
     1
102
RTVSPost2010Prop46
 90
       50
102
RTVSPost2010PropOp46
 70
     1
102
RTVSPost2010Prop47
 90
       50
102
RTVSPost2010PropOp47
 70
     1
102
RTVSPost2010Prop48
 90
       50
102
RTVSPost2010PropOp48
 70
     1
102
RTVSPost2010Prop49
280
     0
102
RTVSPost2010PropOp49
 70
     1
102
RTVSPost2010Prop50
 90
       50
102
RTVSPost2010PropOp50
 70
     1
102
RTVSPost2010Prop51ColorIndex
 90
      256
102
RTVSPost2010Prop51ColorRGB
 90
-16777216
102
RTVSPost2010PropOp51
 70
     0
102
RTVSPost2010Prop52
140
1.0
102
RTVSPost2010PropOp52
 70
     0
102
RTVSPost2010Prop53
 90
        2
102
RTVSPost2010PropOp53
 70
     1
102
RTVSPost2010Prop54
  1
strokes_ogs.tif
102
RTVSPost2010PropOp54
 70
     1
102
RTVSPost2010Prop55
280
     0
102
RTVSPost2010PropOp55
 70
     1
102
RTVSPost2010Prop56
140
1.0
102
RTVSPost2010PropOp56
 70
     1
102
RTVSPost2010Prop57
140
1.0
102
RTVSPost2010PropOp57
 70
     1
102
RTVSPropertyOp0
 70
     1
102
RTVSPropertyOp1
 70
     1
102
RTVSPropertyOp2
 70
     1
102
RTVSPropertyOp3
 70
     1
102
RTVSPropertyOp4
 70
     1
102
RTVSPropertyOp5
 70
     1
102
RTVSPropertyOp6
 70
     1
102
RTVSPropertyOp7
 70
     1
102
RTVSPropertyOp8
 70
     1
102
RTVSPropertyOp9
 70
     1
102
RTVSPropertyOp10
 70
     1
102
RTVSPropertyOp11
 70
     1
102
RTVSPropertyOp12
 70
     1
102
RTVSPropertyOp13
 70
     1
102
RTVSPropertyOp14
 70
     1
102
RTVSPropertyOp15
 70
     1
102
RTVSPropertyOp16
 70
     1
102
RTVSPropertyOp17
 70
     1
102
RTVSPropertyOp18
 70
     1
102
RTVSPropertyOp19
 70
     1
102
RTVSPropertyOp20
 70
     1
102
RTVSPropertyOp21
 70
     1
102
RTVSPropertyOp22
 70
     1
102
RTVSPropertyOp23
 70
     1
102
RTVSPropertyOp24
 70
     1
102
RTVSPropertyOp25
 70
     1
102
RTVSPropertyOp26
 70
     1
102
RTVSPropertyOp27
 70
     1
102
RTVSPropertyOp28
 70
     1
102
RTVSPropertyOp29
 70
     1
102
RTVSPropertyOp30
 70
     1
102
RTVSPropertyOp31
 70
     1
102
RTVSPropertyOp32
 70
     1
  0
XRECORD
  5
38A
102
{ACAD_REACTORS
330
389
102
}
330
389
100
AcDbXrecord
280
     1
102
RTVSPropertyOp33
 70
     1
102
RTVSPropertyOp34
 70
     1
102
RTVSPropertyOp35
 70
     1
102
RTVSPropertyOp36
 70
     1
102
RTVSPropertyOp37
 70
     1
102
RTVSPropertyOp38
 70
     1
102
RTVSPropertyOp39
 70
     1
102
RTVSPropertyOp40
 70
     1
102
RTVSPropertyOp41
 70
     1
102
RTVSPropertyOp42
 70
     1
102
RTVSPropertyOp43
 70
     1
102
RTVSPropertyOp44
 70
     1
102
RTVSPropertyOp45
 70
     1
102
RTVSPropertyOp46
 70
     1
102
RTVSPropertyOp47
 70
     1
102
RTVSPropertyOp48
 70
     1
102
RTVSPropertyOp49
 70
     1
102
RTVSPropertyOp50
 70
     1
102
RTVSPropertyOp51
 70
     0
102
RTVSPropertyOp52
 70
     0
102
RTVSPropertyOp53
 70
     1
102
RTVSPropertyOp54
 70
     1
102
RTVSPropertyOp55
 70
     1
102
RTVSPropertyOp56
 70
     1
102
RTVSPropertyOp57
 70
     1
102
RTVSPost2010Prop28
280
     0
102
RTVSPost2010PropOp28
 70
     1
102
RTVSPost2010Prop29
280
     1
102
RTVSPost2010PropOp29
 70
     1
102
RTVSPost2010Prop30
280
     1
102
RTVSPost2010PropOp30
 70
     1
102
RTVSPost2010Prop31
280
     0
102
RTVSPost2010PropOp31
 70
     1
102
RTVSPost2010Prop32
280
     0
102
RTVSPost2010PropOp32
 70
     1
102
RTVSPost2010Prop33
280
     0
102
RTVSPost2010PropOp33
 70
     1
102
RTVSPost2010Prop34
280
     0
102
RTVSPost2010PropOp34
 70
     1
102
RTVSPost2010Prop35
280
     0
102
RTVSPost2010PropOp35
 70
     1
102
RTVSPost2010Prop36
280
     0
102
RTVSPost2010PropOp36
 70
     1
102
RTVSPost2010Prop37
 90
       50
102
RTVSPost2010PropOp37
 70
     1
102
RTVSPost2010Prop38
140
0.0
102
RTVSPost2010PropOp38
 70
     1
102
RTVSPost2010Prop39
140
1.0
102
RTVSPost2010PropOp39
 70
     1
102
RTVSPost2010Prop40
 90
        0
102
RTVSPost2010PropOp40
 70
     1
102
RTVSPost2010Prop41ColorIndex
 90
       18
102
RTVSPost2010Prop41ColorRGB
 90
        0
102
RTVSPost2010PropOp41
 70
     1
102
RTVSPost2010Prop42
 90
       50
102
RTVSPost2010PropOp42
 70
     1
102
RTVSPost2010Prop43
 90
        3
102
RTVSPost2010PropOp43
 70
     1
102
RTVSPost2010Prop44ColorIndex
 90
        5
102
RTVSPost2010Prop44ColorRGB
 90
      255
102
RTVSPost2010PropOp44
 70
     1
102
RTVSPost2010Prop45
280
     0
102
RTVSPost2010PropOp45
 70
     1
102
RTVSPost2010Prop46
 90
       50
102
RTVSPost2010PropOp46
 70
     1
102
RTVSPost2010Prop47
 90
       50
102
RTVSPost2010PropOp47
 70
     1
102
RTVSPost2010Prop48
 90
       50
102
RTVSPost2010PropOp48
 70
     1
102
RTVSPost2010Prop49
280
     0
102
RTVSPost2010PropOp49
 70
     1
102
RTVSPost2010Prop50
 90
       50
102
RTVSPost2010PropOp50
 70
     1
102
RTVSPost2010Prop51ColorIndex
 90
      256
102
RTVSPost2010Prop51ColorRGB
 90
-16777216
102
RTVSPost2010PropOp51
 70
     0
102
RTVSPost2010Prop52
140
1.0
102
RTVSPost2010PropOp52
 70
     0
102
RTVSPost2010Prop53
 90
        2
102
RTVSPost2010PropOp53
 70
     1
102
RTVSPost2010Prop54
  1
strokes_ogs.tif
102
RTVSPost2010PropOp54
 70
     1
102
RTVSPost2010Prop55
280
     0
102
RTVSPost2010PropOp55
 70
     1
102
RTVSPost2010Prop56
140
1.0
102
RTVSPost2010PropOp56
 70
     1
102
RTVSPost2010Prop57
140
1.0
102
RTVSPost2010PropOp57
 70
     1
102
RTVSPropertyOp0
 70
     1
102
RTVSPropertyOp1
 70
     1
102
RTVSPropertyOp2
 70
     1
102
RTVSPropertyOp3
 70
     1
102
RTVSPropertyOp4
 70
     1
102
RTVSPropertyOp5
 70
     1
102
RTVSPropertyOp6
 70
     1
102
RTVSPropertyOp7
 70
     1
102
RTVSPropertyOp8
 70
     1
102
RTVSPropertyOp9
 70
     1
102
RTVSPropertyOp10
 70
     1
102
RTVSPropertyOp11
 70
     1
102
RTVSPropertyOp12
 70
     1
102
RTVSPropertyOp13
 70
     1
102
RTVSPropertyOp14
 70
     1
102
RTVSPropertyOp15
 70
     1
102
RTVSPropertyOp16
 70
     1
102
RTVSPropertyOp17
 70
     1
102
RTVSPropertyOp18
 70
     1
102
RTVSPropertyOp19
 70
     1
102
RTVSPropertyOp20
 70
     1
102
RTVSPropertyOp21
 70
     1
102
RTVSPropertyOp22
 70
     1
102
RTVSPropertyOp23
 70
     1
102
RTVSPropertyOp24
 70
     1
102
RTVSPropertyOp25
 70
     1
102
RTVSPropertyOp26
 70
     1
102
RTVSPropertyOp27
 70
     1
102
RTVSPropertyOp28
 70
     1
102
RTVSPropertyOp29
 70
     1
102
RTVSPropertyOp30
 70
     1
102
RTVSPropertyOp31
 70
     1
102
RTVSPropertyOp32
 70
     1
  0
XRECORD
  5
39A
102
{ACAD_REACTORS
330
399
102
}
330
399
100
AcDbXrecord
280
     1
102
RTVSPropertyOp33
 70
     0
102
RTVSPropertyOp34
 70
     0
102
RTVSPropertyOp35
 70
     0
102
RTVSPropertyOp36
 70
     0
102
RTVSPropertyOp37
 70
     0
102
RTVSPropertyOp38
 70
     0
102
RTVSPropertyOp39
 70
     0
102
RTVSPropertyOp40
 70
     0
102
RTVSPropertyOp41
 70
     0
102
RTVSPropertyOp42
 70
     0
102
RTVSPropertyOp43
 70
     0
102
RTVSPropertyOp44
 70
     0
102
RTVSPropertyOp45
 70
     0
102
RTVSPropertyOp46
 70
     0
102
RTVSPropertyOp47
 70
     0
102
RTVSPropertyOp48
 70
     0
102
RTVSPropertyOp49
 70
     0
102
RTVSPropertyOp50
 70
     0
102
RTVSPropertyOp51
 70
     0
102
RTVSPropertyOp52
 70
     0
102
RTVSPropertyOp53
 70
     0
102
RTVSPropertyOp54
 70
     0
102
RTVSPropertyOp55
 70
     0
102
RTVSPropertyOp56
 70
     0
102
RTVSPropertyOp57
 70
     0
102
RTVSPost2010Prop28
280
     0
102
RTVSPost2010PropOp28
 70
     0
102
RTVSPost2010Prop29
280
     1
102
RTVSPost2010PropOp29
 70
     0
102
RTVSPost2010Prop30
280
     1
102
RTVSPost2010PropOp30
 70
     0
102
RTVSPost2010Prop31
280
     0
102
RTVSPost2010PropOp31
 70
     0
102
RTVSPost2010Prop32
280
     0
102
RTVSPost2010PropOp32
 70
     0
102
RTVSPost2010Prop33
280
     0
102
RTVSPost2010PropOp33
 70
     0
102
RTVSPost2010Prop34
280
     0
102
RTVSPost2010PropOp34
 70
     0
102
RTVSPost2010Prop35
280
     0
102
RTVSPost2010PropOp35
 70
     0
102
RTVSPost2010Prop36
280
     0
102
RTVSPost2010PropOp36
 70
     0
102
RTVSPost2010Prop37
 90
       50
102
RTVSPost2010PropOp37
 70
     0
102
RTVSPost2010Prop38
140
0.0
102
RTVSPost2010PropOp38
 70
     0
102
RTVSPost2010Prop39
140
1.0
102
RTVSPost2010PropOp39
 70
     0
102
RTVSPost2010Prop40
 90
        0
102
RTVSPost2010PropOp40
 70
     0
102
RTVSPost2010Prop41ColorIndex
 90
       18
102
RTVSPost2010Prop41ColorRGB
 90
        0
102
RTVSPost2010PropOp41
 70
     0
102
RTVSPost2010Prop42
 90
       50
102
RTVSPost2010PropOp42
 70
     0
102
RTVSPost2010Prop43
 90
        3
102
RTVSPost2010PropOp43
 70
     0
102
RTVSPost2010Prop44ColorIndex
 90
        5
102
RTVSPost2010Prop44ColorRGB
 90
      255
102
RTVSPost2010PropOp44
 70
     0
102
RTVSPost2010Prop45
280
     0
102
RTVSPost2010PropOp45
 70
     0
102
RTVSPost2010Prop46
 90
       50
102
RTVSPost2010PropOp46
 70
     0
102
RTVSPost2010Prop47
 90
       50
102
RTVSPost2010PropOp47
 70
     0
102
RTVSPost2010Prop48
 90
       50
102
RTVSPost2010PropOp48
 70
     0
102
RTVSPost2010Prop49
280
     0
102
RTVSPost2010PropOp49
 70
     0
102
RTVSPost2010Prop50
 90
       50
102
RTVSPost2010PropOp50
 70
     0
102
RTVSPost2010Prop51ColorIndex
 90
      256
102
RTVSPost2010Prop51ColorRGB
 90
-16777216
102
RTVSPost2010PropOp51
 70
     0
102
RTVSPost2010Prop52
140
1.0
102
RTVSPost2010PropOp52
 70
     0
102
RTVSPost2010Prop53
 90
        2
102
RTVSPost2010PropOp53
 70
     0
102
RTVSPost2010Prop54
  1
strokes_ogs.tif
102
RTVSPost2010PropOp54
 70
     0
102
RTVSPost2010Prop55
280
     0
102
RTVSPost2010PropOp55
 70
     0
102
RTVSPost2010Prop56
140
1.0
102
RTVSPost2010PropOp56
 70
     0
102
RTVSPost2010Prop57
140
1.0
102
RTVSPost2010PropOp57
 70
     0
102
RTVSPropertyOp0
 70
     0
102
RTVSPropertyOp1
 70
     0
102
RTVSPropertyOp2
 70
     0
102
RTVSPropertyOp3
 70
     0
102
RTVSPropertyOp4
 70
     0
102
RTVSPropertyOp5
 70
     0
102
RTVSPropertyOp6
 70
     0
102
RTVSPropertyOp7
 70
     0
102
RTVSPropertyOp8
 70
     0
102
RTVSPropertyOp9
 70
     0
102
RTVSPropertyOp10
 70
     0
102
RTVSPropertyOp11
 70
     0
102
RTVSPropertyOp12
 70
     0
102
RTVSPropertyOp13
 70
     0
102
RTVSPropertyOp14
 70
     2
102
RTVSPropertyOp15
 70
     0
102
RTVSPropertyOp16
 70
     0
102
RTVSPropertyOp17
 70
     0
102
RTVSPropertyOp18
 70
     0
102
RTVSPropertyOp19
 70
     0
102
RTVSPropertyOp20
 70
     0
102
RTVSPropertyOp21
 70
     0
102
RTVSPropertyOp22
 70
     0
102
RTVSPropertyOp23
 70
     0
102
RTVSPropertyOp24
 70
     0
102
RTVSPropertyOp25
 70
     0
102
RTVSPropertyOp26
 70
     0
102
RTVSPropertyOp27
 70
     0
102
RTVSPropertyOp28
 70
     1
102
RTVSPropertyOp29
 70
     1
102
RTVSPropertyOp30
 70
     1
102
RTVSPropertyOp31
 70
     1
102
RTVSPropertyOp32
 70
     1
  0
XRECORD
  5
392
102
{ACAD_REACTORS
330
391
102
}
330
391
100
AcDbXrecord
280
     1
102
RTVSPropertyOp33
 70
     1
102
RTVSPropertyOp34
 70
     1
102
RTVSPropertyOp35
 70
     1
102
RTVSPropertyOp36
 70
     1
102
RTVSPropertyOp37
 70
     1
102
RTVSPropertyOp38
 70
     1
102
RTVSPropertyOp39
 70
     1
102
RTVSPropertyOp40
 70
     1
102
RTVSPropertyOp41
 70
     1
102
RTVSPropertyOp42
 70
     1
102
RTVSPropertyOp43
 70
     1
102
RTVSPropertyOp44
 70
     1
102
RTVSPropertyOp45
 70
     1
102
RTVSPropertyOp46
 70
     1
102
RTVSPropertyOp47
 70
     1
102
RTVSPropertyOp48
 70
     1
102
RTVSPropertyOp49
 70
     1
102
RTVSPropertyOp50
 70
     1
102
RTVSPropertyOp51
 70
     0
102
RTVSPropertyOp52
 70
     0
102
RTVSPropertyOp53
 70
     1
102
RTVSPropertyOp54
 70
     1
102
RTVSPropertyOp55
 70
     1
102
RTVSPropertyOp56
 70
     1
102
RTVSPropertyOp57
 70
     1
102
RTVSPost2010Prop28
280
     0
102
RTVSPost2010PropOp28
 70
     1
102
RTVSPost2010Prop29
280
     1
102
RTVSPost2010PropOp29
 70
     1
102
RTVSPost2010Prop30
280
     1
102
RTVSPost2010PropOp30
 70
     1
102
RTVSPost2010Prop31
280
     0
102
RTVSPost2010PropOp31
 70
     1
102
RTVSPost2010Prop32
280
     0
102
RTVSPost2010PropOp32
 70
     1
102
RTVSPost2010Prop33
280
     0
102
RTVSPost2010PropOp33
 70
     1
102
RTVSPost2010Prop34
280
     0
102
RTVSPost2010PropOp34
 70
     1
102
RTVSPost2010Prop35
280
     0
102
RTVSPost2010PropOp35
 70
     1
102
RTVSPost2010Prop36
280
     0
102
RTVSPost2010PropOp36
 70
     1
102
RTVSPost2010Prop37
 90
       50
102
RTVSPost2010PropOp37
 70
     1
102
RTVSPost2010Prop38
140
0.0
102
RTVSPost2010PropOp38
 70
     1
102
RTVSPost2010Prop39
140
1.0
102
RTVSPost2010PropOp39
 70
     1
102
RTVSPost2010Prop40
 90
        0
102
RTVSPost2010PropOp40
 70
     1
102
RTVSPost2010Prop41ColorIndex
 90
       18
102
RTVSPost2010Prop41ColorRGB
 90
        0
102
RTVSPost2010PropOp41
 70
     1
102
RTVSPost2010Prop42
 90
       50
102
RTVSPost2010PropOp42
 70
     1
102
RTVSPost2010Prop43
 90
        3
102
RTVSPost2010PropOp43
 70
     1
102
RTVSPost2010Prop44ColorIndex
 90
        5
102
RTVSPost2010Prop44ColorRGB
 90
      255
102
RTVSPost2010PropOp44
 70
     1
102
RTVSPost2010Prop45
280
     0
102
RTVSPost2010PropOp45
 70
     1
102
RTVSPost2010Prop46
 90
       50
102
RTVSPost2010PropOp46
 70
     1
102
RTVSPost2010Prop47
 90
       50
102
RTVSPost2010PropOp47
 70
     1
102
RTVSPost2010Prop48
 90
       50
102
RTVSPost2010PropOp48
 70
     1
102
RTVSPost2010Prop49
280
     0
102
RTVSPost2010PropOp49
 70
     1
102
RTVSPost2010Prop50
 90
       50
102
RTVSPost2010PropOp50
 70
     1
102
RTVSPost2010Prop51ColorIndex
 90
      256
102
RTVSPost2010Prop51ColorRGB
 90
-16777216
102
RTVSPost2010PropOp51
 70
     0
102
RTVSPost2010Prop52
140
1.0
102
RTVSPost2010PropOp52
 70
     0
102
RTVSPost2010Prop53
 90
        2
102
RTVSPost2010PropOp53
 70
     1
102
RTVSPost2010Prop54
  1
strokes_ogs.tif
102
RTVSPost2010PropOp54
 70
     1
102
RTVSPost2010Prop55
280
     0
102
RTVSPost2010PropOp55
 70
     1
102
RTVSPost2010Prop56
140
1.0
102
RTVSPost2010PropOp56
 70
     1
102
RTVSPost2010Prop57
140
1.0
102
RTVSPost2010PropOp57
 70
     1
102
RTVSPropertyOp0
 70
     1
102
RTVSPropertyOp1
 70
     1
102
RTVSPropertyOp2
 70
     1
102
RTVSPropertyOp3
 70
     1
102
RTVSPropertyOp4
 70
     1
102
RTVSPropertyOp5
 70
     1
102
RTVSPropertyOp6
 70
     1
102
RTVSPropertyOp7
 70
     1
102
RTVSPropertyOp8
 70
     1
102
RTVSPropertyOp9
 70
     1
102
RTVSPropertyOp10
 70
     1
102
RTVSPropertyOp11
 70
     1
102
RTVSPropertyOp12
 70
     1
102
RTVSPropertyOp13
 70
     1
102
RTVSPropertyOp14
 70
     1
102
RTVSPropertyOp15
 70
     1
102
RTVSPropertyOp16
 70
     1
102
RTVSPropertyOp17
 70
     1
102
RTVSPropertyOp18
 70
     1
102
RTVSPropertyOp19
 70
     1
102
RTVSPropertyOp20
 70
     1
102
RTVSPropertyOp21
 70
     1
102
RTVSPropertyOp22
 70
     1
102
RTVSPropertyOp23
 70
     1
102
RTVSPropertyOp24
 70
     1
102
RTVSPropertyOp25
 70
     1
102
RTVSPropertyOp26
 70
     1
102
RTVSPropertyOp27
 70
     1
102
RTVSPropertyOp28
 70
     1
102
RTVSPropertyOp29
 70
     1
102
RTVSPropertyOp30
 70
     1
102
RTVSPropertyOp31
 70
     1
102
RTVSPropertyOp32
 70
     1
  0
XRECORD
  5
376
102
{ACAD_REACTORS
330
375
102
}
330
375
100
AcDbXrecord
280
     1
102
RTVSPropertyOp33
 70
     1
102
RTVSPropertyOp34
 70
     1
102
RTVSPropertyOp35
 70
     1
102
RTVSPropertyOp36
 70
     1
102
RTVSPropertyOp37
 70
     1
102
RTVSPropertyOp38
 70
     1
102
RTVSPropertyOp39
 70
     1
102
RTVSPropertyOp40
 70
     1
102
RTVSPropertyOp41
 70
     1
102
RTVSPropertyOp42
 70
     1
102
RTVSPropertyOp43
 70
     1
102
RTVSPropertyOp44
 70
     1
102
RTVSPropertyOp45
 70
     1
102
RTVSPropertyOp46
 70
     1
102
RTVSPropertyOp47
 70
     1
102
RTVSPropertyOp48
 70
     1
102
RTVSPropertyOp49
 70
     1
102
RTVSPropertyOp50
 70
     1
102
RTVSPropertyOp51
 70
     0
102
RTVSPropertyOp52
 70
     0
102
RTVSPropertyOp53
 70
     1
102
RTVSPropertyOp54
 70
     1
102
RTVSPropertyOp55
 70
     1
102
RTVSPropertyOp56
 70
     1
102
RTVSPropertyOp57
 70
     1
102
RTVSPost2010Prop28
280
     0
102
RTVSPost2010PropOp28
 70
     1
102
RTVSPost2010Prop29
280
     1
102
RTVSPost2010PropOp29
 70
     1
102
RTVSPost2010Prop30
280
     1
102
RTVSPost2010PropOp30
 70
     1
102
RTVSPost2010Prop31
280
     0
102
RTVSPost2010PropOp31
 70
     1
102
RTVSPost2010Prop32
280
     0
102
RTVSPost2010PropOp32
 70
     1
102
RTVSPost2010Prop33
280
     0
102
RTVSPost2010PropOp33
 70
     1
102
RTVSPost2010Prop34
280
     0
102
RTVSPost2010PropOp34
 70
     1
102
RTVSPost2010Prop35
280
     0
102
RTVSPost2010PropOp35
 70
     1
102
RTVSPost2010Prop36
280
     0
102
RTVSPost2010PropOp36
 70
     1
102
RTVSPost2010Prop37
 90
       50
102
RTVSPost2010PropOp37
 70
     1
102
RTVSPost2010Prop38
140
0.0
102
RTVSPost2010PropOp38
 70
     1
102
RTVSPost2010Prop39
140
1.0
102
RTVSPost2010PropOp39
 70
     1
102
RTVSPost2010Prop40
 90
        0
102
RTVSPost2010PropOp40
 70
     1
102
RTVSPost2010Prop41ColorIndex
 90
       18
102
RTVSPost2010Prop41ColorRGB
 90
        0
102
RTVSPost2010PropOp41
 70
     1
102
RTVSPost2010Prop42
 90
       50
102
RTVSPost2010PropOp42
 70
     1
102
RTVSPost2010Prop43
 90
        3
102
RTVSPost2010PropOp43
 70
     1
102
RTVSPost2010Prop44ColorIndex
 90
        5
102
RTVSPost2010Prop44ColorRGB
 90
      255
102
RTVSPost2010PropOp44
 70
     1
102
RTVSPost2010Prop45
280
     0
102
RTVSPost2010PropOp45
 70
     1
102
RTVSPost2010Prop46
 90
       50
102
RTVSPost2010PropOp46
 70
     1
102
RTVSPost2010Prop47
 90
       50
102
RTVSPost2010PropOp47
 70
     1
102
RTVSPost2010Prop48
 90
       50
102
RTVSPost2010PropOp48
 70
     1
102
RTVSPost2010Prop49
280
     0
102
RTVSPost2010PropOp49
 70
     1
102
RTVSPost2010Prop50
 90
       50
102
RTVSPost2010PropOp50
 70
     1
102
RTVSPost2010Prop51ColorIndex
 90
      256
102
RTVSPost2010Prop51ColorRGB
 90
-16777216
102
RTVSPost2010PropOp51
 70
     0
102
RTVSPost2010Prop52
140
1.0
102
RTVSPost2010PropOp52
 70
     0
102
RTVSPost2010Prop53
 90
        2
102
RTVSPost2010PropOp53
 70
     1
102
RTVSPost2010Prop54
  1
strokes_ogs.tif
102
RTVSPost2010PropOp54
 70
     1
102
RTVSPost2010Prop55
280
     0
102
RTVSPost2010PropOp55
 70
     1
102
RTVSPost2010Prop56
140
1.0
102
RTVSPost2010PropOp56
 70
     1
102
RTVSPost2010Prop57
140
1.0
102
RTVSPost2010PropOp57
 70
     1
102
RTVSPropertyOp0
 70
     1
102
RTVSPropertyOp1
 70
     1
102
RTVSPropertyOp2
 70
     1
102
RTVSPropertyOp3
 70
     1
102
RTVSPropertyOp4
 70
     1
102
RTVSPropertyOp5
 70
     1
102
RTVSPropertyOp6
 70
     1
102
RTVSPropertyOp7
 70
     1
102
RTVSPropertyOp8
 70
     1
102
RTVSPropertyOp9
 70
     1
102
RTVSPropertyOp10
 70
     1
102
RTVSPropertyOp11
 70
     1
102
RTVSPropertyOp12
 70
     1
102
RTVSPropertyOp13
 70
     1
102
RTVSPropertyOp14
 70
     1
102
RTVSPropertyOp15
 70
     1
102
RTVSPropertyOp16
 70
     1
102
RTVSPropertyOp17
 70
     1
102
RTVSPropertyOp18
 70
     1
102
RTVSPropertyOp19
 70
     1
102
RTVSPropertyOp20
 70
     1
102
RTVSPropertyOp21
 70
     1
102
RTVSPropertyOp22
 70
     1
102
RTVSPropertyOp23
 70
     1
102
RTVSPropertyOp24
 70
     1
102
RTVSPropertyOp25
 70
     1
102
RTVSPropertyOp26
 70
     1
102
RTVSPropertyOp27
 70
     1
102
RTVSPropertyOp28
 70
     1
102
RTVSPropertyOp29
 70
     1
102
RTVSPropertyOp30
 70
     1
102
RTVSPropertyOp31
 70
     1
102
RTVSPropertyOp32
 70
     1
  0
XRECORD
  5
378
102
{ACAD_REACTORS
330
377
102
}
330
377
100
AcDbXrecord
280
     1
102
RTVSPropertyOp33
 70
     1
102
RTVSPropertyOp34
 70
     1
102
RTVSPropertyOp35
 70
     1
102
RTVSPropertyOp36
 70
     1
102
RTVSPropertyOp37
 70
     1
102
RTVSPropertyOp38
 70
     1
102
RTVSPropertyOp39
 70
     1
102
RTVSPropertyOp40
 70
     1
102
RTVSPropertyOp41
 70
     1
102
RTVSPropertyOp42
 70
     1
102
RTVSPropertyOp43
 70
     1
102
RTVSPropertyOp44
 70
     1
102
RTVSPropertyOp45
 70
     1
102
RTVSPropertyOp46
 70
     1
102
RTVSPropertyOp47
 70
     1
102
RTVSPropertyOp48
 70
     1
102
RTVSPropertyOp49
 70
     1
102
RTVSPropertyOp50
 70
     1
102
RTVSPropertyOp51
 70
     0
102
RTVSPropertyOp52
 70
     0
102
RTVSPropertyOp53
 70
     1
102
RTVSPropertyOp54
 70
     1
102
RTVSPropertyOp55
 70
     1
102
RTVSPropertyOp56
 70
     1
102
RTVSPropertyOp57
 70
     1
102
RTVSPost2010Prop28
280
     0
102
RTVSPost2010PropOp28
 70
     1
102
RTVSPost2010Prop29
280
     1
102
RTVSPost2010PropOp29
 70
     1
102
RTVSPost2010Prop30
280
     1
102
RTVSPost2010PropOp30
 70
     1
102
RTVSPost2010Prop31
280
     0
102
RTVSPost2010PropOp31
 70
     1
102
RTVSPost2010Prop32
280
     0
102
RTVSPost2010PropOp32
 70
     1
102
RTVSPost2010Prop33
280
     0
102
RTVSPost2010PropOp33
 70
     1
102
RTVSPost2010Prop34
280
     0
102
RTVSPost2010PropOp34
 70
     1
102
RTVSPost2010Prop35
280
     0
102
RTVSPost2010PropOp35
 70
     1
102
RTVSPost2010Prop36
280
     0
102
RTVSPost2010PropOp36
 70
     1
102
RTVSPost2010Prop37
 90
       50
102
RTVSPost2010PropOp37
 70
     1
102
RTVSPost2010Prop38
140
0.0
102
RTVSPost2010PropOp38
 70
     1
102
RTVSPost2010Prop39
140
1.0
102
RTVSPost2010PropOp39
 70
     1
102
RTVSPost2010Prop40
 90
        0
102
RTVSPost2010PropOp40
 70
     1
102
RTVSPost2010Prop41ColorIndex
 90
       18
102
RTVSPost2010Prop41ColorRGB
 90
        0
102
RTVSPost2010PropOp41
 70
     1
102
RTVSPost2010Prop42
 90
       50
102
RTVSPost2010PropOp42
 70
     1
102
RTVSPost2010Prop43
 90
        3
102
RTVSPost2010PropOp43
 70
     1
102
RTVSPost2010Prop44ColorIndex
 90
        5
102
RTVSPost2010Prop44ColorRGB
 90
      255
102
RTVSPost2010PropOp44
 70
     1
102
RTVSPost2010Prop45
280
     0
102
RTVSPost2010PropOp45
 70
     1
102
RTVSPost2010Prop46
 90
       50
102
RTVSPost2010PropOp46
 70
     1
102
RTVSPost2010Prop47
 90
       50
102
RTVSPost2010PropOp47
 70
     1
102
RTVSPost2010Prop48
 90
       50
102
RTVSPost2010PropOp48
 70
     1
102
RTVSPost2010Prop49
280
     0
102
RTVSPost2010PropOp49
 70
     1
102
RTVSPost2010Prop50
 90
       50
102
RTVSPost2010PropOp50
 70
     1
102
RTVSPost2010Prop51ColorIndex
 90
      256
102
RTVSPost2010Prop51ColorRGB
 90
-16777216
102
RTVSPost2010PropOp51
 70
     0
102
RTVSPost2010Prop52
140
1.0
102
RTVSPost2010PropOp52
 70
     0
102
RTVSPost2010Prop53
 90
        2
102
RTVSPost2010PropOp53
 70
     1
102
RTVSPost2010Prop54
  1
strokes_ogs.tif
102
RTVSPost2010PropOp54
 70
     1
102
RTVSPost2010Prop55
280
     0
102
RTVSPost2010PropOp55
 70
     1
102
RTVSPost2010Prop56
140
1.0
102
RTVSPost2010PropOp56
 70
     1
102
RTVSPost2010Prop57
140
1.0
102
RTVSPost2010PropOp57
 70
     1
102
RTVSPropertyOp0
 70
     1
102
RTVSPropertyOp1
 70
     1
102
RTVSPropertyOp2
 70
     1
102
RTVSPropertyOp3
 70
     1
102
RTVSPropertyOp4
 70
     1
102
RTVSPropertyOp5
 70
     1
102
RTVSPropertyOp6
 70
     1
102
RTVSPropertyOp7
 70
     1
102
RTVSPropertyOp8
 70
     1
102
RTVSPropertyOp9
 70
     1
102
RTVSPropertyOp10
 70
     1
102
RTVSPropertyOp11
 70
     1
102
RTVSPropertyOp12
 70
     1
102
RTVSPropertyOp13
 70
     1
102
RTVSPropertyOp14
 70
     1
102
RTVSPropertyOp15
 70
     1
102
RTVSPropertyOp16
 70
     1
102
RTVSPropertyOp17
 70
     1
102
RTVSPropertyOp18
 70
     1
102
RTVSPropertyOp19
 70
     1
102
RTVSPropertyOp20
 70
     1
102
RTVSPropertyOp21
 70
     1
102
RTVSPropertyOp22
 70
     1
102
RTVSPropertyOp23
 70
     1
102
RTVSPropertyOp24
 70
     1
102
RTVSPropertyOp25
 70
     1
102
RTVSPropertyOp26
 70
     1
102
RTVSPropertyOp27
 70
     1
102
RTVSPropertyOp28
 70
     1
102
RTVSPropertyOp29
 70
     1
102
RTVSPropertyOp30
 70
     1
102
RTVSPropertyOp31
 70
     1
102
RTVSPropertyOp32
 70
     1
  0
XRECORD
  5
37A
102
{ACAD_REACTORS
330
379
102
}
330
379
100
AcDbXrecord
280
     1
102
RTVSPropertyOp33
 70
     1
102
RTVSPropertyOp34
 70
     1
102
RTVSPropertyOp35
 70
     1
102
RTVSPropertyOp36
 70
     1
102
RTVSPropertyOp37
 70
     1
102
RTVSPropertyOp38
 70
     1
102
RTVSPropertyOp39
 70
     1
102
RTVSPropertyOp40
 70
     1
102
RTVSPropertyOp41
 70
     1
102
RTVSPropertyOp42
 70
     1
102
RTVSPropertyOp43
 70
     1
102
RTVSPropertyOp44
 70
     1
102
RTVSPropertyOp45
 70
     1
102
RTVSPropertyOp46
 70
     1
102
RTVSPropertyOp47
 70
     1
102
RTVSPropertyOp48
 70
     1
102
RTVSPropertyOp49
 70
     1
102
RTVSPropertyOp50
 70
     1
102
RTVSPropertyOp51
 70
     0
102
RTVSPropertyOp52
 70
     0
102
RTVSPropertyOp53
 70
     1
102
RTVSPropertyOp54
 70
     1
102
RTVSPropertyOp55
 70
     1
102
RTVSPropertyOp56
 70
     1
102
RTVSPropertyOp57
 70
     1
102
RTVSPost2010Prop28
280
     0
102
RTVSPost2010PropOp28
 70
     1
102
RTVSPost2010Prop29
280
     1
102
RTVSPost2010PropOp29
 70
     1
102
RTVSPost2010Prop30
280
     1
102
RTVSPost2010PropOp30
 70
     1
102
RTVSPost2010Prop31
280
     0
102
RTVSPost2010PropOp31
 70
     1
102
RTVSPost2010Prop32
280
     0
102
RTVSPost2010PropOp32
 70
     1
102
RTVSPost2010Prop33
280
     0
102
RTVSPost2010PropOp33
 70
     1
102
RTVSPost2010Prop34
280
     0
102
RTVSPost2010PropOp34
 70
     1
102
RTVSPost2010Prop35
280
     0
102
RTVSPost2010PropOp35
 70
     1
102
RTVSPost2010Prop36
280
     0
102
RTVSPost2010PropOp36
 70
     1
102
RTVSPost2010Prop37
 90
       50
102
RTVSPost2010PropOp37
 70
     1
102
RTVSPost2010Prop38
140
0.0
102
RTVSPost2010PropOp38
 70
     1
102
RTVSPost2010Prop39
140
1.0
102
RTVSPost2010PropOp39
 70
     1
102
RTVSPost2010Prop40
 90
        0
102
RTVSPost2010PropOp40
 70
     1
102
RTVSPost2010Prop41ColorIndex
 90
       18
102
RTVSPost2010Prop41ColorRGB
 90
        0
102
RTVSPost2010PropOp41
 70
     1
102
RTVSPost2010Prop42
 90
       50
102
RTVSPost2010PropOp42
 70
     1
102
RTVSPost2010Prop43
 90
        3
102
RTVSPost2010PropOp43
 70
     1
102
RTVSPost2010Prop44ColorIndex
 90
        5
102
RTVSPost2010Prop44ColorRGB
 90
      255
102
RTVSPost2010PropOp44
 70
     1
102
RTVSPost2010Prop45
280
     0
102
RTVSPost2010PropOp45
 70
     1
102
RTVSPost2010Prop46
 90
       50
102
RTVSPost2010PropOp46
 70
     1
102
RTVSPost2010Prop47
 90
       50
102
RTVSPost2010PropOp47
 70
     1
102
RTVSPost2010Prop48
 90
       50
102
RTVSPost2010PropOp48
 70
     1
102
RTVSPost2010Prop49
280
     0
102
RTVSPost2010PropOp49
 70
     1
102
RTVSPost2010Prop50
 90
       50
102
RTVSPost2010PropOp50
 70
     1
102
RTVSPost2010Prop51ColorIndex
 90
      256
102
RTVSPost2010Prop51ColorRGB
 90
-16777216
102
RTVSPost2010PropOp51
 70
     0
102
RTVSPost2010Prop52
140
1.0
102
RTVSPost2010PropOp52
 70
     0
102
RTVSPost2010Prop53
 90
        2
102
RTVSPost2010PropOp53
 70
     1
102
RTVSPost2010Prop54
  1
strokes_ogs.tif
102
RTVSPost2010PropOp54
 70
     1
102
RTVSPost2010Prop55
280
     0
102
RTVSPost2010PropOp55
 70
     1
102
RTVSPost2010Prop56
140
1.0
102
RTVSPost2010PropOp56
 70
     1
102
RTVSPost2010Prop57
140
1.0
102
RTVSPost2010PropOp57
 70
     1
102
RTVSPropertyOp0
 70
     1
102
RTVSPropertyOp1
 70
     1
102
RTVSPropertyOp2
 70
     1
102
RTVSPropertyOp3
 70
     1
102
RTVSPropertyOp4
 70
     1
102
RTVSPropertyOp5
 70
     1
102
RTVSPropertyOp6
 70
     1
102
RTVSPropertyOp7
 70
     1
102
RTVSPropertyOp8
 70
     1
102
RTVSPropertyOp9
 70
     1
102
RTVSPropertyOp10
 70
     1
102
RTVSPropertyOp11
 70
     1
102
RTVSPropertyOp12
 70
     1
102
RTVSPropertyOp13
 70
     1
102
RTVSPropertyOp14
 70
     1
102
RTVSPropertyOp15
 70
     1
102
RTVSPropertyOp16
 70
     1
102
RTVSPropertyOp17
 70
     1
102
RTVSPropertyOp18
 70
     1
102
RTVSPropertyOp19
 70
     1
102
RTVSPropertyOp20
 70
     1
102
RTVSPropertyOp21
 70
     1
102
RTVSPropertyOp22
 70
     1
102
RTVSPropertyOp23
 70
     1
102
RTVSPropertyOp24
 70
     1
102
RTVSPropertyOp25
 70
     1
102
RTVSPropertyOp26
 70
     1
102
RTVSPropertyOp27
 70
     1
102
RTVSPropertyOp28
 70
     1
102
RTVSPropertyOp29
 70
     1
102
RTVSPropertyOp30
 70
     1
102
RTVSPropertyOp31
 70
     1
102
RTVSPropertyOp32
 70
     1
  0
XRECORD
  5
37C
102
{ACAD_REACTORS
330
37B
102
}
330
37B
100
AcDbXrecord
280
     1
102
RTVSPropertyOp33
 70
     1
102
RTVSPropertyOp34
 70
     1
102
RTVSPropertyOp35
 70
     1
102
RTVSPropertyOp36
 70
     1
102
RTVSPropertyOp37
 70
     1
102
RTVSPropertyOp38
 70
     1
102
RTVSPropertyOp39
 70
     1
102
RTVSPropertyOp40
 70
     1
102
RTVSPropertyOp41
 70
     1
102
RTVSPropertyOp42
 70
     1
102
RTVSPropertyOp43
 70
     1
102
RTVSPropertyOp44
 70
     1
102
RTVSPropertyOp45
 70
     1
102
RTVSPropertyOp46
 70
     1
102
RTVSPropertyOp47
 70
     1
102
RTVSPropertyOp48
 70
     1
102
RTVSPropertyOp49
 70
     1
102
RTVSPropertyOp50
 70
     1
102
RTVSPropertyOp51
 70
     0
102
RTVSPropertyOp52
 70
     0
102
RTVSPropertyOp53
 70
     1
102
RTVSPropertyOp54
 70
     1
102
RTVSPropertyOp55
 70
     1
102
RTVSPropertyOp56
 70
     1
102
RTVSPropertyOp57
 70
     1
102
RTVSPost2010Prop28
280
     0
102
RTVSPost2010PropOp28
 70
     1
102
RTVSPost2010Prop29
280
     1
102
RTVSPost2010PropOp29
 70
     1
102
RTVSPost2010Prop30
280
     1
102
RTVSPost2010PropOp30
 70
     1
102
RTVSPost2010Prop31
280
     0
102
RTVSPost2010PropOp31
 70
     1
102
RTVSPost2010Prop32
280
     0
102
RTVSPost2010PropOp32
 70
     1
102
RTVSPost2010Prop33
280
     0
102
RTVSPost2010PropOp33
 70
     1
102
RTVSPost2010Prop34
280
     0
102
RTVSPost2010PropOp34
 70
     1
102
RTVSPost2010Prop35
280
     0
102
RTVSPost2010PropOp35
 70
     1
102
RTVSPost2010Prop36
280
     0
102
RTVSPost2010PropOp36
 70
     1
102
RTVSPost2010Prop37
 90
       50
102
RTVSPost2010PropOp37
 70
     1
102
RTVSPost2010Prop38
140
0.0
102
RTVSPost2010PropOp38
 70
     1
102
RTVSPost2010Prop39
140
1.0
102
RTVSPost2010PropOp39
 70
     1
102
RTVSPost2010Prop40
 90
        0
102
RTVSPost2010PropOp40
 70
     1
102
RTVSPost2010Prop41ColorIndex
 90
       18
102
RTVSPost2010Prop41ColorRGB
 90
        0
102
RTVSPost2010PropOp41
 70
     1
102
RTVSPost2010Prop42
 90
       50
102
RTVSPost2010PropOp42
 70
     1
102
RTVSPost2010Prop43
 90
        3
102
RTVSPost2010PropOp43
 70
     1
102
RTVSPost2010Prop44ColorIndex
 90
        5
102
RTVSPost2010Prop44ColorRGB
 90
      255
102
RTVSPost2010PropOp44
 70
     1
102
RTVSPost2010Prop45
280
     0
102
RTVSPost2010PropOp45
 70
     1
102
RTVSPost2010Prop46
 90
       50
102
RTVSPost2010PropOp46
 70
     1
102
RTVSPost2010Prop47
 90
       50
102
RTVSPost2010PropOp47
 70
     1
102
RTVSPost2010Prop48
 90
       50
102
RTVSPost2010PropOp48
 70
     1
102
RTVSPost2010Prop49
280
     0
102
RTVSPost2010PropOp49
 70
     1
102
RTVSPost2010Prop50
 90
       50
102
RTVSPost2010PropOp50
 70
     1
102
RTVSPost2010Prop51ColorIndex
 90
      256
102
RTVSPost2010Prop51ColorRGB
 90
-16777216
102
RTVSPost2010PropOp51
 70
     0
102
RTVSPost2010Prop52
140
1.0
102
RTVSPost2010PropOp52
 70
     0
102
RTVSPost2010Prop53
 90
        2
102
RTVSPost2010PropOp53
 70
     1
102
RTVSPost2010Prop54
  1
strokes_ogs.tif
102
RTVSPost2010PropOp54
 70
     1
102
RTVSPost2010Prop55
280
     0
102
RTVSPost2010PropOp55
 70
     1
102
RTVSPost2010Prop56
140
1.0
102
RTVSPost2010PropOp56
 70
     1
102
RTVSPost2010Prop57
140
1.0
102
RTVSPost2010PropOp57
 70
     1
102
RTVSPropertyOp0
 70
     1
102
RTVSPropertyOp1
 70
     1
102
RTVSPropertyOp2
 70
     1
102
RTVSPropertyOp3
 70
     1
102
RTVSPropertyOp4
 70
     1
102
RTVSPropertyOp5
 70
     1
102
RTVSPropertyOp6
 70
     1
102
RTVSPropertyOp7
 70
     1
102
RTVSPropertyOp8
 70
     1
102
RTVSPropertyOp9
 70
     1
102
RTVSPropertyOp10
 70
     1
102
RTVSPropertyOp11
 70
     1
102
RTVSPropertyOp12
 70
     1
102
RTVSPropertyOp13
 70
     1
102
RTVSPropertyOp14
 70
     1
102
RTVSPropertyOp15
 70
     1
102
RTVSPropertyOp16
 70
     1
102
RTVSPropertyOp17
 70
     1
102
RTVSPropertyOp18
 70
     1
102
RTVSPropertyOp19
 70
     1
102
RTVSPropertyOp20
 70
     1
102
RTVSPropertyOp21
 70
     1
102
RTVSPropertyOp22
 70
     1
102
RTVSPropertyOp23
 70
     1
102
RTVSPropertyOp24
 70
     1
102
RTVSPropertyOp25
 70
     1
102
RTVSPropertyOp26
 70
     1
102
RTVSPropertyOp27
 70
     1
102
RTVSPropertyOp28
 70
     1
102
RTVSPropertyOp29
 70
     1
102
RTVSPropertyOp30
 70
     1
102
RTVSPropertyOp31
 70
     1
102
RTVSPropertyOp32
 70
     1
  0
XRECORD
  5
382
102
{ACAD_REACTORS
330
381
102
}
330
381
100
AcDbXrecord
280
     1
102
RTVSPropertyOp33
 70
     1
102
RTVSPropertyOp34
 70
     1
102
RTVSPropertyOp35
 70
     1
102
RTVSPropertyOp36
 70
     1
102
RTVSPropertyOp37
 70
     1
102
RTVSPropertyOp38
 70
     1
102
RTVSPropertyOp39
 70
     1
102
RTVSPropertyOp40
 70
     1
102
RTVSPropertyOp41
 70
     1
102
RTVSPropertyOp42
 70
     1
102
RTVSPropertyOp43
 70
     1
102
RTVSPropertyOp44
 70
     1
102
RTVSPropertyOp45
 70
     1
102
RTVSPropertyOp46
 70
     1
102
RTVSPropertyOp47
 70
     1
102
RTVSPropertyOp48
 70
     1
102
RTVSPropertyOp49
 70
     1
102
RTVSPropertyOp50
 70
     1
102
RTVSPropertyOp51
 70
     0
102
RTVSPropertyOp52
 70
     0
102
RTVSPropertyOp53
 70
     1
102
RTVSPropertyOp54
 70
     1
102
RTVSPropertyOp55
 70
     1
102
RTVSPropertyOp56
 70
     1
102
RTVSPropertyOp57
 70
     1
102
RTVSPost2010Prop28
280
     0
102
RTVSPost2010PropOp28
 70
     1
102
RTVSPost2010Prop29
280
     1
102
RTVSPost2010PropOp29
 70
     1
102
RTVSPost2010Prop30
280
     1
102
RTVSPost2010PropOp30
 70
     1
102
RTVSPost2010Prop31
280
     0
102
RTVSPost2010PropOp31
 70
     1
102
RTVSPost2010Prop32
280
     0
102
RTVSPost2010PropOp32
 70
     1
102
RTVSPost2010Prop33
280
     0
102
RTVSPost2010PropOp33
 70
     1
102
RTVSPost2010Prop34
280
     0
102
RTVSPost2010PropOp34
 70
     1
102
RTVSPost2010Prop35
280
     0
102
RTVSPost2010PropOp35
 70
     1
102
RTVSPost2010Prop36
280
     0
102
RTVSPost2010PropOp36
 70
     1
102
RTVSPost2010Prop37
 90
       50
102
RTVSPost2010PropOp37
 70
     1
102
RTVSPost2010Prop38
140
0.0
102
RTVSPost2010PropOp38
 70
     1
102
RTVSPost2010Prop39
140
1.0
102
RTVSPost2010PropOp39
 70
     1
102
RTVSPost2010Prop40
 90
        0
102
RTVSPost2010PropOp40
 70
     1
102
RTVSPost2010Prop41ColorIndex
 90
       18
102
RTVSPost2010Prop41ColorRGB
 90
        0
102
RTVSPost2010PropOp41
 70
     1
102
RTVSPost2010Prop42
 90
       50
102
RTVSPost2010PropOp42
 70
     1
102
RTVSPost2010Prop43
 90
        3
102
RTVSPost2010PropOp43
 70
     1
102
RTVSPost2010Prop44ColorIndex
 90
        5
102
RTVSPost2010Prop44ColorRGB
 90
      255
102
RTVSPost2010PropOp44
 70
     1
102
RTVSPost2010Prop45
280
     0
102
RTVSPost2010PropOp45
 70
     1
102
RTVSPost2010Prop46
 90
       50
102
RTVSPost2010PropOp46
 70
     1
102
RTVSPost2010Prop47
 90
       50
102
RTVSPost2010PropOp47
 70
     1
102
RTVSPost2010Prop48
 90
       50
102
RTVSPost2010PropOp48
 70
     1
102
RTVSPost2010Prop49
280
     0
102
RTVSPost2010PropOp49
 70
     1
102
RTVSPost2010Prop50
 90
       50
102
RTVSPost2010PropOp50
 70
     1
102
RTVSPost2010Prop51ColorIndex
 90
      256
102
RTVSPost2010Prop51ColorRGB
 90
-16777216
102
RTVSPost2010PropOp51
 70
     0
102
RTVSPost2010Prop52
140
1.0
102
RTVSPost2010PropOp52
 70
     0
102
RTVSPost2010Prop53
 90
        2
102
RTVSPost2010PropOp53
 70
     1
102
RTVSPost2010Prop54
  1
strokes_ogs.tif
102
RTVSPost2010PropOp54
 70
     1
102
RTVSPost2010Prop55
280
     0
102
RTVSPost2010PropOp55
 70
     1
102
RTVSPost2010Prop56
140
1.0
102
RTVSPost2010PropOp56
 70
     1
102
RTVSPost2010Prop57
140
1.0
102
RTVSPost2010PropOp57
 70
     1
102
RTVSPropertyOp0
 70
     1
102
RTVSPropertyOp1
 70
     1
102
RTVSPropertyOp2
 70
     1
102
RTVSPropertyOp3
 70
     1
102
RTVSPropertyOp4
 70
     1
102
RTVSPropertyOp5
 70
     1
102
RTVSPropertyOp6
 70
     1
102
RTVSPropertyOp7
 70
     1
102
RTVSPropertyOp8
 70
     1
102
RTVSPropertyOp9
 70
     1
102
RTVSPropertyOp10
 70
     1
102
RTVSPropertyOp11
 70
     1
102
RTVSPropertyOp12
 70
     1
102
RTVSPropertyOp13
 70
     1
102
RTVSPropertyOp14
 70
     1
102
RTVSPropertyOp15
 70
     1
102
RTVSPropertyOp16
 70
     1
102
RTVSPropertyOp17
 70
     1
102
RTVSPropertyOp18
 70
     1
102
RTVSPropertyOp19
 70
     1
102
RTVSPropertyOp20
 70
     1
102
RTVSPropertyOp21
 70
     1
102
RTVSPropertyOp22
 70
     1
102
RTVSPropertyOp23
 70
     1
102
RTVSPropertyOp24
 70
     1
102
RTVSPropertyOp25
 70
     1
102
RTVSPropertyOp26
 70
     1
102
RTVSPropertyOp27
 70
     1
102
RTVSPropertyOp28
 70
     1
102
RTVSPropertyOp29
 70
     1
102
RTVSPropertyOp30
 70
     1
102
RTVSPropertyOp31
 70
     1
102
RTVSPropertyOp32
 70
     1
  0
XRECORD
  5
396
102
{ACAD_REACTORS
330
395
102
}
330
395
100
AcDbXrecord
280
     1
102
RTVSPropertyOp33
 70
     0
102
RTVSPropertyOp34
 70
     0
102
RTVSPropertyOp35
 70
     0
102
RTVSPropertyOp36
 70
     0
102
RTVSPropertyOp37
 70
     0
102
RTVSPropertyOp38
 70
     0
102
RTVSPropertyOp39
 70
     0
102
RTVSPropertyOp40
 70
     0
102
RTVSPropertyOp41
 70
     0
102
RTVSPropertyOp42
 70
     0
102
RTVSPropertyOp43
 70
     0
102
RTVSPropertyOp44
 70
     0
102
RTVSPropertyOp45
 70
     0
102
RTVSPropertyOp46
 70
     0
102
RTVSPropertyOp47
 70
     0
102
RTVSPropertyOp48
 70
     0
102
RTVSPropertyOp49
 70
     0
102
RTVSPropertyOp50
 70
     0
102
RTVSPropertyOp51
 70
     0
102
RTVSPropertyOp52
 70
     0
102
RTVSPropertyOp53
 70
     0
102
RTVSPropertyOp54
 70
     0
102
RTVSPropertyOp55
 70
     0
102
RTVSPropertyOp56
 70
     0
102
RTVSPropertyOp57
 70
     0
102
RTVSPost2010Prop28
280
     0
102
RTVSPost2010PropOp28
 70
     0
102
RTVSPost2010Prop29
280
     1
102
RTVSPost2010PropOp29
 70
     0
102
RTVSPost2010Prop30
280
     1
102
RTVSPost2010PropOp30
 70
     0
102
RTVSPost2010Prop31
280
     0
102
RTVSPost2010PropOp31
 70
     0
102
RTVSPost2010Prop32
280
     0
102
RTVSPost2010PropOp32
 70
     0
102
RTVSPost2010Prop33
280
     0
102
RTVSPost2010PropOp33
 70
     0
102
RTVSPost2010Prop34
280
     0
102
RTVSPost2010PropOp34
 70
     0
102
RTVSPost2010Prop35
280
     0
102
RTVSPost2010PropOp35
 70
     0
102
RTVSPost2010Prop36
280
     0
102
RTVSPost2010PropOp36
 70
     0
102
RTVSPost2010Prop37
 90
       50
102
RTVSPost2010PropOp37
 70
     0
102
RTVSPost2010Prop38
140
0.0
102
RTVSPost2010PropOp38
 70
     0
102
RTVSPost2010Prop39
140
1.0
102
RTVSPost2010PropOp39
 70
     0
102
RTVSPost2010Prop40
 90
        0
102
RTVSPost2010PropOp40
 70
     0
102
RTVSPost2010Prop41ColorIndex
 90
       18
102
RTVSPost2010Prop41ColorRGB
 90
        0
102
RTVSPost2010PropOp41
 70
     0
102
RTVSPost2010Prop42
 90
       50
102
RTVSPost2010PropOp42
 70
     0
102
RTVSPost2010Prop43
 90
        3
102
RTVSPost2010PropOp43
 70
     0
102
RTVSPost2010Prop44ColorIndex
 90
        5
102
RTVSPost2010Prop44ColorRGB
 90
      255
102
RTVSPost2010PropOp44
 70
     0
102
RTVSPost2010Prop45
280
     0
102
RTVSPost2010PropOp45
 70
     0
102
RTVSPost2010Prop46
 90
       50
102
RTVSPost2010PropOp46
 70
     0
102
RTVSPost2010Prop47
 90
       50
102
RTVSPost2010PropOp47
 70
     0
102
RTVSPost2010Prop48
 90
       50
102
RTVSPost2010PropOp48
 70
     0
102
RTVSPost2010Prop49
280
     0
102
RTVSPost2010PropOp49
 70
     0
102
RTVSPost2010Prop50
 90
       50
102
RTVSPost2010PropOp50
 70
     0
102
RTVSPost2010Prop51ColorIndex
 90
      256
102
RTVSPost2010Prop51ColorRGB
 90
-16777216
102
RTVSPost2010PropOp51
 70
     0
102
RTVSPost2010Prop52
140
1.0
102
RTVSPost2010PropOp52
 70
     0
102
RTVSPost2010Prop53
 90
        2
102
RTVSPost2010PropOp53
 70
     0
102
RTVSPost2010Prop54
  1
strokes_ogs.tif
102
RTVSPost2010PropOp54
 70
     0
102
RTVSPost2010Prop55
280
     0
102
RTVSPost2010PropOp55
 70
     0
102
RTVSPost2010Prop56
140
1.0
102
RTVSPost2010PropOp56
 70
     0
102
RTVSPost2010Prop57
140
1.0
102
RTVSPost2010PropOp57
 70
     0
102
RTVSPropertyOp0
 70
     0
102
RTVSPropertyOp1
 70
     0
102
RTVSPropertyOp2
 70
     0
102
RTVSPropertyOp3
 70
     0
102
RTVSPropertyOp4
 70
     0
102
RTVSPropertyOp5
 70
     0
102
RTVSPropertyOp6
 70
     0
102
RTVSPropertyOp7
 70
     0
102
RTVSPropertyOp8
 70
     0
102
RTVSPropertyOp9
 70
     0
102
RTVSPropertyOp10
 70
     0
102
RTVSPropertyOp11
 70
     0
102
RTVSPropertyOp12
 70
     0
102
RTVSPropertyOp13
 70
     0
102
RTVSPropertyOp14
 70
     2
102
RTVSPropertyOp15
 70
     0
102
RTVSPropertyOp16
 70
     0
102
RTVSPropertyOp17
 70
     0
102
RTVSPropertyOp18
 70
     0
102
RTVSPropertyOp19
 70
     0
102
RTVSPropertyOp20
 70
     0
102
RTVSPropertyOp21
 70
     0
102
RTVSPropertyOp22
 70
     0
102
RTVSPropertyOp23
 70
     0
102
RTVSPropertyOp24
 70
     0
102
RTVSPropertyOp25
 70
     0
102
RTVSPropertyOp26
 70
     0
102
RTVSPropertyOp27
 70
     0
102
RTVSPropertyOp28
 70
     1
102
RTVSPropertyOp29
 70
     1
102
RTVSPropertyOp30
 70
     1
102
RTVSPropertyOp31
 70
     1
102
RTVSPropertyOp32
 70
     1
  0
XRECORD
  5
390
102
{ACAD_REACTORS
330
38F
102
}
330
38F
100
AcDbXrecord
280
     1
102
RTVSPropertyOp33
 70
     1
102
RTVSPropertyOp34
 70
     1
102
RTVSPropertyOp35
 70
     1
102
RTVSPropertyOp36
 70
     1
102
RTVSPropertyOp37
 70
     1
102
RTVSPropertyOp38
 70
     1
102
RTVSPropertyOp39
 70
     1
102
RTVSPropertyOp40
 70
     1
102
RTVSPropertyOp41
 70
     1
102
RTVSPropertyOp42
 70
     1
102
RTVSPropertyOp43
 70
     1
102
RTVSPropertyOp44
 70
     1
102
RTVSPropertyOp45
 70
     1
102
RTVSPropertyOp46
 70
     1
102
RTVSPropertyOp47
 70
     1
102
RTVSPropertyOp48
 70
     1
102
RTVSPropertyOp49
 70
     1
102
RTVSPropertyOp50
 70
     1
102
RTVSPropertyOp51
 70
     0
102
RTVSPropertyOp52
 70
     0
102
RTVSPropertyOp53
 70
     1
102
RTVSPropertyOp54
 70
     1
102
RTVSPropertyOp55
 70
     1
102
RTVSPropertyOp56
 70
     1
102
RTVSPropertyOp57
 70
     1
102
RTVSPost2010Prop28
280
     0
102
RTVSPost2010PropOp28
 70
     1
102
RTVSPost2010Prop29
280
     1
102
RTVSPost2010PropOp29
 70
     1
102
RTVSPost2010Prop30
280
     1
102
RTVSPost2010PropOp30
 70
     1
102
RTVSPost2010Prop31
280
     0
102
RTVSPost2010PropOp31
 70
     1
102
RTVSPost2010Prop32
280
     0
102
RTVSPost2010PropOp32
 70
     1
102
RTVSPost2010Prop33
280
     0
102
RTVSPost2010PropOp33
 70
     1
102
RTVSPost2010Prop34
280
     0
102
RTVSPost2010PropOp34
 70
     1
102
RTVSPost2010Prop35
280
     0
102
RTVSPost2010PropOp35
 70
     1
102
RTVSPost2010Prop36
280
     0
102
RTVSPost2010PropOp36
 70
     1
102
RTVSPost2010Prop37
 90
       50
102
RTVSPost2010PropOp37
 70
     1
102
RTVSPost2010Prop38
140
0.0
102
RTVSPost2010PropOp38
 70
     1
102
RTVSPost2010Prop39
140
1.0
102
RTVSPost2010PropOp39
 70
     1
102
RTVSPost2010Prop40
 90
        0
102
RTVSPost2010PropOp40
 70
     1
102
RTVSPost2010Prop41ColorIndex
 90
       18
102
RTVSPost2010Prop41ColorRGB
 90
        0
102
RTVSPost2010PropOp41
 70
     1
102
RTVSPost2010Prop42
 90
       50
102
RTVSPost2010PropOp42
 70
     1
102
RTVSPost2010Prop43
 90
        3
102
RTVSPost2010PropOp43
 70
     1
102
RTVSPost2010Prop44ColorIndex
 90
        5
102
RTVSPost2010Prop44ColorRGB
 90
      255
102
RTVSPost2010PropOp44
 70
     1
102
RTVSPost2010Prop45
280
     0
102
RTVSPost2010PropOp45
 70
     1
102
RTVSPost2010Prop46
 90
       50
102
RTVSPost2010PropOp46
 70
     1
102
RTVSPost2010Prop47
 90
       50
102
RTVSPost2010PropOp47
 70
     1
102
RTVSPost2010Prop48
 90
       50
102
RTVSPost2010PropOp48
 70
     1
102
RTVSPost2010Prop49
280
     0
102
RTVSPost2010PropOp49
 70
     1
102
RTVSPost2010Prop50
 90
       50
102
RTVSPost2010PropOp50
 70
     1
102
RTVSPost2010Prop51ColorIndex
 90
      256
102
RTVSPost2010Prop51ColorRGB
 90
-16777216
102
RTVSPost2010PropOp51
 70
     0
102
RTVSPost2010Prop52
140
1.0
102
RTVSPost2010PropOp52
 70
     0
102
RTVSPost2010Prop53
 90
        2
102
RTVSPost2010PropOp53
 70
     1
102
RTVSPost2010Prop54
  1
strokes_ogs.tif
102
RTVSPost2010PropOp54
 70
     1
102
RTVSPost2010Prop55
280
     0
102
RTVSPost2010PropOp55
 70
     1
102
RTVSPost2010Prop56
140
1.0
102
RTVSPost2010PropOp56
 70
     1
102
RTVSPost2010Prop57
140
1.0
102
RTVSPost2010PropOp57
 70
     1
102
RTVSPropertyOp0
 70
     1
102
RTVSPropertyOp1
 70
     1
102
RTVSPropertyOp2
 70
     1
102
RTVSPropertyOp3
 70
     1
102
RTVSPropertyOp4
 70
     1
102
RTVSPropertyOp5
 70
     1
102
RTVSPropertyOp6
 70
     1
102
RTVSPropertyOp7
 70
     1
102
RTVSPropertyOp8
 70
     1
102
RTVSPropertyOp9
 70
     1
102
RTVSPropertyOp10
 70
     1
102
RTVSPropertyOp11
 70
     1
102
RTVSPropertyOp12
 70
     1
102
RTVSPropertyOp13
 70
     1
102
RTVSPropertyOp14
 70
     1
102
RTVSPropertyOp15
 70
     1
102
RTVSPropertyOp16
 70
     1
102
RTVSPropertyOp17
 70
     1
102
RTVSPropertyOp18
 70
     1
102
RTVSPropertyOp19
 70
     1
102
RTVSPropertyOp20
 70
     1
102
RTVSPropertyOp21
 70
     1
102
RTVSPropertyOp22
 70
     1
102
RTVSPropertyOp23
 70
     1
102
RTVSPropertyOp24
 70
     1
102
RTVSPropertyOp25
 70
     1
102
RTVSPropertyOp26
 70
     1
102
RTVSPropertyOp27
 70
     1
102
RTVSPropertyOp28
 70
     1
102
RTVSPropertyOp29
 70
     1
102
RTVSPropertyOp30
 70
     1
102
RTVSPropertyOp31
 70
     1
102
RTVSPropertyOp32
 70
     1
  0
XRECORD
  5
398
102
{ACAD_REACTORS
330
397
102
}
330
397
100
AcDbXrecord
280
     1
102
RTVSPropertyOp33
 70
     0
102
RTVSPropertyOp34
 70
     0
102
RTVSPropertyOp35
 70
     0
102
RTVSPropertyOp36
 70
     0
102
RTVSPropertyOp37
 70
     0
102
RTVSPropertyOp38
 70
     0
102
RTVSPropertyOp39
 70
     0
102
RTVSPropertyOp40
 70
     0
102
RTVSPropertyOp41
 70
     0
102
RTVSPropertyOp42
 70
     0
102
RTVSPropertyOp43
 70
     0
102
RTVSPropertyOp44
 70
     0
102
RTVSPropertyOp45
 70
     0
102
RTVSPropertyOp46
 70
     0
102
RTVSPropertyOp47
 70
     0
102
RTVSPropertyOp48
 70
     0
102
RTVSPropertyOp49
 70
     0
102
RTVSPropertyOp50
 70
     0
102
RTVSPropertyOp51
 70
     0
102
RTVSPropertyOp52
 70
     0
102
RTVSPropertyOp53
 70
     0
102
RTVSPropertyOp54
 70
     0
102
RTVSPropertyOp55
 70
     0
102
RTVSPropertyOp56
 70
     0
102
RTVSPropertyOp57
 70
     0
102
RTVSPost2010Prop28
280
     0
102
RTVSPost2010PropOp28
 70
     0
102
RTVSPost2010Prop29
280
     1
102
RTVSPost2010PropOp29
 70
     0
102
RTVSPost2010Prop30
280
     1
102
RTVSPost2010PropOp30
 70
     0
102
RTVSPost2010Prop31
280
     0
102
RTVSPost2010PropOp31
 70
     0
102
RTVSPost2010Prop32
280
     0
102
RTVSPost2010PropOp32
 70
     0
102
RTVSPost2010Prop33
280
     0
102
RTVSPost2010PropOp33
 70
     0
102
RTVSPost2010Prop34
280
     0
102
RTVSPost2010PropOp34
 70
     0
102
RTVSPost2010Prop35
280
     0
102
RTVSPost2010PropOp35
 70
     0
102
RTVSPost2010Prop36
280
     0
102
RTVSPost2010PropOp36
 70
     0
102
RTVSPost2010Prop37
 90
       50
102
RTVSPost2010PropOp37
 70
     0
102
RTVSPost2010Prop38
140
0.0
102
RTVSPost2010PropOp38
 70
     0
102
RTVSPost2010Prop39
140
1.0
102
RTVSPost2010PropOp39
 70
     0
102
RTVSPost2010Prop40
 90
        0
102
RTVSPost2010PropOp40
 70
     0
102
RTVSPost2010Prop41ColorIndex
 90
       18
102
RTVSPost2010Prop41ColorRGB
 90
        0
102
RTVSPost2010PropOp41
 70
     0
102
RTVSPost2010Prop42
 90
       50
102
RTVSPost2010PropOp42
 70
     0
102
RTVSPost2010Prop43
 90
        3
102
RTVSPost2010PropOp43
 70
     0
102
RTVSPost2010Prop44ColorIndex
 90
        5
102
RTVSPost2010Prop44ColorRGB
 90
      255
102
RTVSPost2010PropOp44
 70
     0
102
RTVSPost2010Prop45
280
     0
102
RTVSPost2010PropOp45
 70
     0
102
RTVSPost2010Prop46
 90
       50
102
RTVSPost2010PropOp46
 70
     0
102
RTVSPost2010Prop47
 90
       50
102
RTVSPost2010PropOp47
 70
     0
102
RTVSPost2010Prop48
 90
       50
102
RTVSPost2010PropOp48
 70
     0
102
RTVSPost2010Prop49
280
     0
102
RTVSPost2010PropOp49
 70
     0
102
RTVSPost2010Prop50
 90
       50
102
RTVSPost2010PropOp50
 70
     0
102
RTVSPost2010Prop51ColorIndex
 90
      256
102
RTVSPost2010Prop51ColorRGB
 90
-16777216
102
RTVSPost2010PropOp51
 70
     0
102
RTVSPost2010Prop52
140
1.0
102
RTVSPost2010PropOp52
 70
     0
102
RTVSPost2010Prop53
 90
        2
102
RTVSPost2010PropOp53
 70
     0
102
RTVSPost2010Prop54
  1
strokes_ogs.tif
102
RTVSPost2010PropOp54
 70
     0
102
RTVSPost2010Prop55
280
     0
102
RTVSPost2010PropOp55
 70
     0
102
RTVSPost2010Prop56
140
1.0
102
RTVSPost2010PropOp56
 70
     0
102
RTVSPost2010Prop57
140
1.0
102
RTVSPost2010PropOp57
 70
     0
102
RTVSPropertyOp0
 70
     0
102
RTVSPropertyOp1
 70
     0
102
RTVSPropertyOp2
 70
     0
102
RTVSPropertyOp3
 70
     0
102
RTVSPropertyOp4
 70
     0
102
RTVSPropertyOp5
 70
     0
102
RTVSPropertyOp6
 70
     0
102
RTVSPropertyOp7
 70
     0
102
RTVSPropertyOp8
 70
     0
102
RTVSPropertyOp9
 70
     0
102
RTVSPropertyOp10
 70
     0
102
RTVSPropertyOp11
 70
     0
102
RTVSPropertyOp12
 70
     0
102
RTVSPropertyOp13
 70
     0
102
RTVSPropertyOp14
 70
     2
102
RTVSPropertyOp15
 70
     0
102
RTVSPropertyOp16
 70
     0
102
RTVSPropertyOp17
 70
     0
102
RTVSPropertyOp18
 70
     0
102
RTVSPropertyOp19
 70
     0
102
RTVSPropertyOp20
 70
     0
102
RTVSPropertyOp21
 70
     0
102
RTVSPropertyOp22
 70
     0
102
RTVSPropertyOp23
 70
     0
102
RTVSPropertyOp24
 70
     0
102
RTVSPropertyOp25
 70
     0
102
RTVSPropertyOp26
 70
     0
102
RTVSPropertyOp27
 70
     0
102
RTVSPropertyOp28
 70
     1
102
RTVSPropertyOp29
 70
     1
102
RTVSPropertyOp30
 70
     1
102
RTVSPropertyOp31
 70
     1
102
RTVSPropertyOp32
 70
     1
  0
XRECORD
  5
386
102
{ACAD_REACTORS
330
385
102
}
330
385
100
AcDbXrecord
280
     1
102
RTVSPropertyOp33
 70
     1
102
RTVSPropertyOp34
 70
     1
102
RTVSPropertyOp35
 70
     1
102
RTVSPropertyOp36
 70
     1
102
RTVSPropertyOp37
 70
     1
102
RTVSPropertyOp38
 70
     1
102
RTVSPropertyOp39
 70
     1
102
RTVSPropertyOp40
 70
     1
102
RTVSPropertyOp41
 70
     1
102
RTVSPropertyOp42
 70
     1
102
RTVSPropertyOp43
 70
     1
102
RTVSPropertyOp44
 70
     1
102
RTVSPropertyOp45
 70
     1
102
RTVSPropertyOp46
 70
     1
102
RTVSPropertyOp47
 70
     1
102
RTVSPropertyOp48
 70
     1
102
RTVSPropertyOp49
 70
     1
102
RTVSPropertyOp50
 70
     1
102
RTVSPropertyOp51
 70
     0
102
RTVSPropertyOp52
 70
     0
102
RTVSPropertyOp53
 70
     1
102
RTVSPropertyOp54
 70
     1
102
RTVSPropertyOp55
 70
     1
102
RTVSPropertyOp56
 70
     1
102
RTVSPropertyOp57
 70
     1
102
RTVSPost2010Prop28
280
     0
102
RTVSPost2010PropOp28
 70
     1
102
RTVSPost2010Prop29
280
     1
102
RTVSPost2010PropOp29
 70
     1
102
RTVSPost2010Prop30
280
     1
102
RTVSPost2010PropOp30
 70
     1
102
RTVSPost2010Prop31
280
     0
102
RTVSPost2010PropOp31
 70
     1
102
RTVSPost2010Prop32
280
     0
102
RTVSPost2010PropOp32
 70
     1
102
RTVSPost2010Prop33
280
     0
102
RTVSPost2010PropOp33
 70
     1
102
RTVSPost2010Prop34
280
     0
102
RTVSPost2010PropOp34
 70
     1
102
RTVSPost2010Prop35
280
     0
102
RTVSPost2010PropOp35
 70
     1
102
RTVSPost2010Prop36
280
     0
102
RTVSPost2010PropOp36
 70
     1
102
RTVSPost2010Prop37
 90
       50
102
RTVSPost2010PropOp37
 70
     1
102
RTVSPost2010Prop38
140
0.0
102
RTVSPost2010PropOp38
 70
     1
102
RTVSPost2010Prop39
140
1.0
102
RTVSPost2010PropOp39
 70
     1
102
RTVSPost2010Prop40
 90
        0
102
RTVSPost2010PropOp40
 70
     1
102
RTVSPost2010Prop41ColorIndex
 90
       18
102
RTVSPost2010Prop41ColorRGB
 90
        0
102
RTVSPost2010PropOp41
 70
     1
102
RTVSPost2010Prop42
 90
       50
102
RTVSPost2010PropOp42
 70
     1
102
RTVSPost2010Prop43
 90
        3
102
RTVSPost2010PropOp43
 70
     1
102
RTVSPost2010Prop44ColorIndex
 90
        5
102
RTVSPost2010Prop44ColorRGB
 90
      255
102
RTVSPost2010PropOp44
 70
     1
102
RTVSPost2010Prop45
280
     0
102
RTVSPost2010PropOp45
 70
     1
102
RTVSPost2010Prop46
 90
       50
102
RTVSPost2010PropOp46
 70
     1
102
RTVSPost2010Prop47
 90
       50
102
RTVSPost2010PropOp47
 70
     1
102
RTVSPost2010Prop48
 90
       50
102
RTVSPost2010PropOp48
 70
     1
102
RTVSPost2010Prop49
280
     0
102
RTVSPost2010PropOp49
 70
     1
102
RTVSPost2010Prop50
 90
       50
102
RTVSPost2010PropOp50
 70
     1
102
RTVSPost2010Prop51ColorIndex
 90
      256
102
RTVSPost2010Prop51ColorRGB
 90
-16777216
102
RTVSPost2010PropOp51
 70
     0
102
RTVSPost2010Prop52
140
1.0
102
RTVSPost2010PropOp52
 70
     0
102
RTVSPost2010Prop53
 90
        2
102
RTVSPost2010PropOp53
 70
     1
102
RTVSPost2010Prop54
  1
strokes_ogs.tif
102
RTVSPost2010PropOp54
 70
     1
102
RTVSPost2010Prop55
280
     0
102
RTVSPost2010PropOp55
 70
     1
102
RTVSPost2010Prop56
140
1.0
102
RTVSPost2010PropOp56
 70
     1
102
RTVSPost2010Prop57
140
1.0
102
RTVSPost2010PropOp57
 70
     1
102
RTVSPropertyOp0
 70
     1
102
RTVSPropertyOp1
 70
     1
102
RTVSPropertyOp2
 70
     1
102
RTVSPropertyOp3
 70
     1
102
RTVSPropertyOp4
 70
     1
102
RTVSPropertyOp5
 70
     1
102
RTVSPropertyOp6
 70
     1
102
RTVSPropertyOp7
 70
     1
102
RTVSPropertyOp8
 70
     1
102
RTVSPropertyOp9
 70
     1
102
RTVSPropertyOp10
 70
     1
102
RTVSPropertyOp11
 70
     1
102
RTVSPropertyOp12
 70
     1
102
RTVSPropertyOp13
 70
     1
102
RTVSPropertyOp14
 70
     1
102
RTVSPropertyOp15
 70
     1
102
RTVSPropertyOp16
 70
     1
102
RTVSPropertyOp17
 70
     1
102
RTVSPropertyOp18
 70
     1
102
RTVSPropertyOp19
 70
     1
102
RTVSPropertyOp20
 70
     1
102
RTVSPropertyOp21
 70
     1
102
RTVSPropertyOp22
 70
     1
102
RTVSPropertyOp23
 70
     1
102
RTVSPropertyOp24
 70
     1
102
RTVSPropertyOp25
 70
     1
102
RTVSPropertyOp26
 70
     1
102
RTVSPropertyOp27
 70
     1
102
RTVSPropertyOp28
 70
     1
102
RTVSPropertyOp29
 70
     1
102
RTVSPropertyOp30
 70
     1
102
RTVSPropertyOp31
 70
     1
102
RTVSPropertyOp32
 70
     1
  0
XRECORD
  5
3A4
102
{ACAD_REACTORS
330
3A3
102
}
330
3A3
100
AcDbXrecord
280
     1
102
RTVSPropertyOp33
 70
     1
102
RTVSPropertyOp34
 70
     1
102
RTVSPropertyOp35
 70
     1
102
RTVSPropertyOp36
 70
     1
102
RTVSPropertyOp37
 70
     1
102
RTVSPropertyOp38
 70
     1
102
RTVSPropertyOp39
 70
     1
102
RTVSPropertyOp40
 70
     1
102
RTVSPropertyOp41
 70
     1
102
RTVSPropertyOp42
 70
     1
102
RTVSPropertyOp43
 70
     1
102
RTVSPropertyOp44
 70
     1
102
RTVSPropertyOp45
 70
     1
102
RTVSPropertyOp46
 70
     1
102
RTVSPropertyOp47
 70
     1
102
RTVSPropertyOp48
 70
     1
102
RTVSPropertyOp49
 70
     1
102
RTVSPropertyOp50
 70
     1
102
RTVSPropertyOp51
 70
     0
102
RTVSPropertyOp52
 70
     0
102
RTVSPropertyOp53
 70
     1
102
RTVSPropertyOp54
 70
     1
102
RTVSPropertyOp55
 70
     1
102
RTVSPropertyOp56
 70
     1
102
RTVSPropertyOp57
 70
     1
102
RTVSPost2010Prop28
280
     0
102
RTVSPost2010PropOp28
 70
     1
102
RTVSPost2010Prop29
280
     1
102
RTVSPost2010PropOp29
 70
     1
102
RTVSPost2010Prop30
280
     1
102
RTVSPost2010PropOp30
 70
     1
102
RTVSPost2010Prop31
280
     0
102
RTVSPost2010PropOp31
 70
     1
102
RTVSPost2010Prop32
280
     0
102
RTVSPost2010PropOp32
 70
     1
102
RTVSPost2010Prop33
280
     0
102
RTVSPost2010PropOp33
 70
     1
102
RTVSPost2010Prop34
280
     0
102
RTVSPost2010PropOp34
 70
     1
102
RTVSPost2010Prop35
280
     0
102
RTVSPost2010PropOp35
 70
     1
102
RTVSPost2010Prop36
280
     0
102
RTVSPost2010PropOp36
 70
     1
102
RTVSPost2010Prop37
 90
       50
102
RTVSPost2010PropOp37
 70
     1
102
RTVSPost2010Prop38
140
0.0
102
RTVSPost2010PropOp38
 70
     1
102
RTVSPost2010Prop39
140
1.0
102
RTVSPost2010PropOp39
 70
     1
102
RTVSPost2010Prop40
 90
        0
102
RTVSPost2010PropOp40
 70
     1
102
RTVSPost2010Prop41ColorIndex
 90
       18
102
RTVSPost2010Prop41ColorRGB
 90
        0
102
RTVSPost2010PropOp41
 70
     1
102
RTVSPost2010Prop42
 90
       50
102
RTVSPost2010PropOp42
 70
     1
102
RTVSPost2010Prop43
 90
        3
102
RTVSPost2010PropOp43
 70
     1
102
RTVSPost2010Prop44ColorIndex
 90
        5
102
RTVSPost2010Prop44ColorRGB
 90
      255
102
RTVSPost2010PropOp44
 70
     1
102
RTVSPost2010Prop45
280
     0
102
RTVSPost2010PropOp45
 70
     1
102
RTVSPost2010Prop46
 90
       50
102
RTVSPost2010PropOp46
 70
     1
102
RTVSPost2010Prop47
 90
       50
102
RTVSPost2010PropOp47
 70
     1
102
RTVSPost2010Prop48
 90
       50
102
RTVSPost2010PropOp48
 70
     1
102
RTVSPost2010Prop49
280
     0
102
RTVSPost2010PropOp49
 70
     1
102
RTVSPost2010Prop50
 90
       50
102
RTVSPost2010PropOp50
 70
     1
102
RTVSPost2010Prop51ColorIndex
 90
      256
102
RTVSPost2010Prop51ColorRGB
 90
-16777216
102
RTVSPost2010PropOp51
 70
     0
102
RTVSPost2010Prop52
140
1.0
102
RTVSPost2010PropOp52
 70
     0
102
RTVSPost2010Prop53
 90
        2
102
RTVSPost2010PropOp53
 70
     1
102
RTVSPost2010Prop54
  1
strokes_ogs.tif
102
RTVSPost2010PropOp54
 70
     1
102
RTVSPost2010Prop55
280
     0
102
RTVSPost2010PropOp55
 70
     1
102
RTVSPost2010Prop56
140
1.0
102
RTVSPost2010PropOp56
 70
     1
102
RTVSPost2010Prop57
140
1.0
102
RTVSPost2010PropOp57
 70
     1
102
RTVSPropertyOp0
 70
     1
102
RTVSPropertyOp1
 70
     1
102
RTVSPropertyOp2
 70
     1
102
RTVSPropertyOp3
 70
     1
102
RTVSPropertyOp4
 70
     1
102
RTVSPropertyOp5
 70
     1
102
RTVSPropertyOp6
 70
     1
102
RTVSPropertyOp7
 70
     1
102
RTVSPropertyOp8
 70
     1
102
RTVSPropertyOp9
 70
     1
102
RTVSPropertyOp10
 70
     1
102
RTVSPropertyOp11
 70
     1
102
RTVSPropertyOp12
 70
     1
102
RTVSPropertyOp13
 70
     1
102
RTVSPropertyOp14
 70
     1
102
RTVSPropertyOp15
 70
     1
102
RTVSPropertyOp16
 70
     1
102
RTVSPropertyOp17
 70
     1
102
RTVSPropertyOp18
 70
     1
102
RTVSPropertyOp19
 70
     1
102
RTVSPropertyOp20
 70
     1
102
RTVSPropertyOp21
 70
     1
102
RTVSPropertyOp22
 70
     1
102
RTVSPropertyOp23
 70
     1
102
RTVSPropertyOp24
 70
     1
102
RTVSPropertyOp25
 70
     1
102
RTVSPropertyOp26
 70
     1
102
RTVSPropertyOp27
 70
     1
102
RTVSPropertyOp28
 70
     1
102
RTVSPropertyOp29
 70
     1
102
RTVSPropertyOp30
 70
     1
102
RTVSPropertyOp31
 70
     1
102
RTVSPropertyOp32
 70
     1
  0
XRECORD
  5
3A2
102
{ACAD_REACTORS
330
3A1
102
}
330
3A1
100
AcDbXrecord
280
     1
102
RTVSPropertyOp33
 70
     1
102
RTVSPropertyOp34
 70
     1
102
RTVSPropertyOp35
 70
     1
102
RTVSPropertyOp36
 70
     1
102
RTVSPropertyOp37
 70
     1
102
RTVSPropertyOp38
 70
     1
102
RTVSPropertyOp39
 70
     1
102
RTVSPropertyOp40
 70
     1
102
RTVSPropertyOp41
 70
     1
102
RTVSPropertyOp42
 70
     1
102
RTVSPropertyOp43
 70
     1
102
RTVSPropertyOp44
 70
     1
102
RTVSPropertyOp45
 70
     1
102
RTVSPropertyOp46
 70
     1
102
RTVSPropertyOp47
 70
     1
102
RTVSPropertyOp48
 70
     1
102
RTVSPropertyOp49
 70
     1
102
RTVSPropertyOp50
 70
     1
102
RTVSPropertyOp51
 70
     0
102
RTVSPropertyOp52
 70
     0
102
RTVSPropertyOp53
 70
     1
102
RTVSPropertyOp54
 70
     1
102
RTVSPropertyOp55
 70
     1
102
RTVSPropertyOp56
 70
     1
102
RTVSPropertyOp57
 70
     1
102
RTVSPost2010Prop28
280
     0
102
RTVSPost2010PropOp28
 70
     1
102
RTVSPost2010Prop29
280
     1
102
RTVSPost2010PropOp29
 70
     1
102
RTVSPost2010Prop30
280
     1
102
RTVSPost2010PropOp30
 70
     1
102
RTVSPost2010Prop31
280
     0
102
RTVSPost2010PropOp31
 70
     1
102
RTVSPost2010Prop32
280
     0
102
RTVSPost2010PropOp32
 70
     1
102
RTVSPost2010Prop33
280
     0
102
RTVSPost2010PropOp33
 70
     1
102
RTVSPost2010Prop34
280
     0
102
RTVSPost2010PropOp34
 70
     1
102
RTVSPost2010Prop35
280
     0
102
RTVSPost2010PropOp35
 70
     1
102
RTVSPost2010Prop36
280
     0
102
RTVSPost2010PropOp36
 70
     1
102
RTVSPost2010Prop37
 90
       50
102
RTVSPost2010PropOp37
 70
     1
102
RTVSPost2010Prop38
140
0.0
102
RTVSPost2010PropOp38
 70
     1
102
RTVSPost2010Prop39
140
1.0
102
RTVSPost2010PropOp39
 70
     1
102
RTVSPost2010Prop40
 90
        0
102
RTVSPost2010PropOp40
 70
     1
102
RTVSPost2010Prop41ColorIndex
 90
       18
102
RTVSPost2010Prop41ColorRGB
 90
        0
102
RTVSPost2010PropOp41
 70
     1
102
RTVSPost2010Prop42
 90
       50
102
RTVSPost2010PropOp42
 70
     1
102
RTVSPost2010Prop43
 90
        3
102
RTVSPost2010PropOp43
 70
     1
102
RTVSPost2010Prop44ColorIndex
 90
        5
102
RTVSPost2010Prop44ColorRGB
 90
      255
102
RTVSPost2010PropOp44
 70
     1
102
RTVSPost2010Prop45
280
     0
102
RTVSPost2010PropOp45
 70
     1
102
RTVSPost2010Prop46
 90
       50
102
RTVSPost2010PropOp46
 70
     1
102
RTVSPost2010Prop47
 90
       50
102
RTVSPost2010PropOp47
 70
     1
102
RTVSPost2010Prop48
 90
       50
102
RTVSPost2010PropOp48
 70
     1
102
RTVSPost2010Prop49
280
     0
102
RTVSPost2010PropOp49
 70
     1
102
RTVSPost2010Prop50
 90
       50
102
RTVSPost2010PropOp50
 70
     1
102
RTVSPost2010Prop51ColorIndex
 90
      256
102
RTVSPost2010Prop51ColorRGB
 90
-16777216
102
RTVSPost2010PropOp51
 70
     0
102
RTVSPost2010Prop52
140
1.0
102
RTVSPost2010PropOp52
 70
     0
102
RTVSPost2010Prop53
 90
        2
102
RTVSPost2010PropOp53
 70
     1
102
RTVSPost2010Prop54
  1
strokes_ogs.tif
102
RTVSPost2010PropOp54
 70
     1
102
RTVSPost2010Prop55
280
     0
102
RTVSPost2010PropOp55
 70
     1
102
RTVSPost2010Prop56
140
1.0
102
RTVSPost2010PropOp56
 70
     1
102
RTVSPost2010Prop57
140
1.0
102
RTVSPost2010PropOp57
 70
     1
102
RTVSPropertyOp0
 70
     1
102
RTVSPropertyOp1
 70
     1
102
RTVSPropertyOp2
 70
     1
102
RTVSPropertyOp3
 70
     1
102
RTVSPropertyOp4
 70
     1
102
RTVSPropertyOp5
 70
     1
102
RTVSPropertyOp6
 70
     1
102
RTVSPropertyOp7
 70
     1
102
RTVSPropertyOp8
 70
     1
102
RTVSPropertyOp9
 70
     1
102
RTVSPropertyOp10
 70
     1
102
RTVSPropertyOp11
 70
     1
102
RTVSPropertyOp12
 70
     1
102
RTVSPropertyOp13
 70
     1
102
RTVSPropertyOp14
 70
     1
102
RTVSPropertyOp15
 70
     1
102
RTVSPropertyOp16
 70
     1
102
RTVSPropertyOp17
 70
     1
102
RTVSPropertyOp18
 70
     1
102
RTVSPropertyOp19
 70
     1
102
RTVSPropertyOp20
 70
     1
102
RTVSPropertyOp21
 70
     1
102
RTVSPropertyOp22
 70
     1
102
RTVSPropertyOp23
 70
     1
102
RTVSPropertyOp24
 70
     1
102
RTVSPropertyOp25
 70
     1
102
RTVSPropertyOp26
 70
     1
102
RTVSPropertyOp27
 70
     1
102
RTVSPropertyOp28
 70
     1
102
RTVSPropertyOp29
 70
     1
102
RTVSPropertyOp30
 70
     1
102
RTVSPropertyOp31
 70
     1
102
RTVSPropertyOp32
 70
     1
  0
XRECORD
  5
39C
102
{ACAD_REACTORS
330
39B
102
}
330
39B
100
AcDbXrecord
280
     1
102
RTVSPropertyOp33
 70
     1
102
RTVSPropertyOp34
 70
     1
102
RTVSPropertyOp35
 70
     1
102
RTVSPropertyOp36
 70
     1
102
RTVSPropertyOp37
 70
     1
102
RTVSPropertyOp38
 70
     1
102
RTVSPropertyOp39
 70
     1
102
RTVSPropertyOp40
 70
     1
102
RTVSPropertyOp41
 70
     1
102
RTVSPropertyOp42
 70
     1
102
RTVSPropertyOp43
 70
     1
102
RTVSPropertyOp44
 70
     1
102
RTVSPropertyOp45
 70
     1
102
RTVSPropertyOp46
 70
     1
102
RTVSPropertyOp47
 70
     1
102
RTVSPropertyOp48
 70
     1
102
RTVSPropertyOp49
 70
     1
102
RTVSPropertyOp50
 70
     1
102
RTVSPropertyOp51
 70
     0
102
RTVSPropertyOp52
 70
     0
102
RTVSPropertyOp53
 70
     1
102
RTVSPropertyOp54
 70
     1
102
RTVSPropertyOp55
 70
     1
102
RTVSPropertyOp56
 70
     1
102
RTVSPropertyOp57
 70
     1
102
RTVSPost2010Prop28
280
     0
102
RTVSPost2010PropOp28
 70
     1
102
RTVSPost2010Prop29
280
     1
102
RTVSPost2010PropOp29
 70
     1
102
RTVSPost2010Prop30
280
     1
102
RTVSPost2010PropOp30
 70
     1
102
RTVSPost2010Prop31
280
     0
102
RTVSPost2010PropOp31
 70
     1
102
RTVSPost2010Prop32
280
     0
102
RTVSPost2010PropOp32
 70
     1
102
RTVSPost2010Prop33
280
     0
102
RTVSPost2010PropOp33
 70
     1
102
RTVSPost2010Prop34
280
     0
102
RTVSPost2010PropOp34
 70
     1
102
RTVSPost2010Prop35
280
     0
102
RTVSPost2010PropOp35
 70
     1
102
RTVSPost2010Prop36
280
     0
102
RTVSPost2010PropOp36
 70
     1
102
RTVSPost2010Prop37
 90
       50
102
RTVSPost2010PropOp37
 70
     1
102
RTVSPost2010Prop38
140
0.0
102
RTVSPost2010PropOp38
 70
     1
102
RTVSPost2010Prop39
140
1.0
102
RTVSPost2010PropOp39
 70
     1
102
RTVSPost2010Prop40
 90
        0
102
RTVSPost2010PropOp40
 70
     1
102
RTVSPost2010Prop41ColorIndex
 90
       18
102
RTVSPost2010Prop41ColorRGB
 90
        0
102
RTVSPost2010PropOp41
 70
     1
102
RTVSPost2010Prop42
 90
       50
102
RTVSPost2010PropOp42
 70
     1
102
RTVSPost2010Prop43
 90
        3
102
RTVSPost2010PropOp43
 70
     1
102
RTVSPost2010Prop44ColorIndex
 90
        5
102
RTVSPost2010Prop44ColorRGB
 90
      255
102
RTVSPost2010PropOp44
 70
     1
102
RTVSPost2010Prop45
280
     0
102
RTVSPost2010PropOp45
 70
     1
102
RTVSPost2010Prop46
 90
       50
102
RTVSPost2010PropOp46
 70
     1
102
RTVSPost2010Prop47
 90
       50
102
RTVSPost2010PropOp47
 70
     1
102
RTVSPost2010Prop48
 90
       50
102
RTVSPost2010PropOp48
 70
     1
102
RTVSPost2010Prop49
280
     0
102
RTVSPost2010PropOp49
 70
     1
102
RTVSPost2010Prop50
 90
       50
102
RTVSPost2010PropOp50
 70
     1
102
RTVSPost2010Prop51ColorIndex
 90
      256
102
RTVSPost2010Prop51ColorRGB
 90
-16777216
102
RTVSPost2010PropOp51
 70
     0
102
RTVSPost2010Prop52
140
1.0
102
RTVSPost2010PropOp52
 70
     0
102
RTVSPost2010Prop53
 90
        2
102
RTVSPost2010PropOp53
 70
     1
102
RTVSPost2010Prop54
  1
strokes_ogs.tif
102
RTVSPost2010PropOp54
 70
     1
102
RTVSPost2010Prop55
280
     0
102
RTVSPost2010PropOp55
 70
     1
102
RTVSPost2010Prop56
140
1.0
102
RTVSPost2010PropOp56
 70
     1
102
RTVSPost2010Prop57
140
1.0
102
RTVSPost2010PropOp57
 70
     1
102
RTVSPropertyOp0
 70
     1
102
RTVSPropertyOp1
 70
     1
102
RTVSPropertyOp2
 70
     1
102
RTVSPropertyOp3
 70
     1
102
RTVSPropertyOp4
 70
     1
102
RTVSPropertyOp5
 70
     1
102
RTVSPropertyOp6
 70
     1
102
RTVSPropertyOp7
 70
     1
102
RTVSPropertyOp8
 70
     1
102
RTVSPropertyOp9
 70
     1
102
RTVSPropertyOp10
 70
     1
102
RTVSPropertyOp11
 70
     1
102
RTVSPropertyOp12
 70
     1
102
RTVSPropertyOp13
 70
     1
102
RTVSPropertyOp14
 70
     1
102
RTVSPropertyOp15
 70
     1
102
RTVSPropertyOp16
 70
     1
102
RTVSPropertyOp17
 70
     1
102
RTVSPropertyOp18
 70
     1
102
RTVSPropertyOp19
 70
     1
102
RTVSPropertyOp20
 70
     1
102
RTVSPropertyOp21
 70
     1
102
RTVSPropertyOp22
 70
     1
102
RTVSPropertyOp23
 70
     1
102
RTVSPropertyOp24
 70
     1
102
RTVSPropertyOp25
 70
     1
102
RTVSPropertyOp26
 70
     1
102
RTVSPropertyOp27
 70
     1
102
RTVSPropertyOp28
 70
     1
102
RTVSPropertyOp29
 70
     1
102
RTVSPropertyOp30
 70
     1
102
RTVSPropertyOp31
 70
     1
102
RTVSPropertyOp32
 70
     1
  0
XRECORD
  5
39E
102
{ACAD_REACTORS
330
39D
102
}
330
39D
100
AcDbXrecord
280
     1
102
RTVSPropertyOp33
 70
     1
102
RTVSPropertyOp34
 70
     1
102
RTVSPropertyOp35
 70
     1
102
RTVSPropertyOp36
 70
     1
102
RTVSPropertyOp37
 70
     1
102
RTVSPropertyOp38
 70
     1
102
RTVSPropertyOp39
 70
     1
102
RTVSPropertyOp40
 70
     1
102
RTVSPropertyOp41
 70
     1
102
RTVSPropertyOp42
 70
     1
102
RTVSPropertyOp43
 70
     1
102
RTVSPropertyOp44
 70
     1
102
RTVSPropertyOp45
 70
     1
102
RTVSPropertyOp46
 70
     1
102
RTVSPropertyOp47
 70
     1
102
RTVSPropertyOp48
 70
     1
102
RTVSPropertyOp49
 70
     1
102
RTVSPropertyOp50
 70
     1
102
RTVSPropertyOp51
 70
     0
102
RTVSPropertyOp52
 70
     0
102
RTVSPropertyOp53
 70
     1
102
RTVSPropertyOp54
 70
     1
102
RTVSPropertyOp55
 70
     1
102
RTVSPropertyOp56
 70
     1
102
RTVSPropertyOp57
 70
     1
102
RTVSPost2010Prop28
280
     0
102
RTVSPost2010PropOp28
 70
     1
102
RTVSPost2010Prop29
280
     1
102
RTVSPost2010PropOp29
 70
     1
102
RTVSPost2010Prop30
280
     1
102
RTVSPost2010PropOp30
 70
     1
102
RTVSPost2010Prop31
280
     0
102
RTVSPost2010PropOp31
 70
     1
102
RTVSPost2010Prop32
280
     0
102
RTVSPost2010PropOp32
 70
     1
102
RTVSPost2010Prop33
280
     0
102
RTVSPost2010PropOp33
 70
     1
102
RTVSPost2010Prop34
280
     0
102
RTVSPost2010PropOp34
 70
     1
102
RTVSPost2010Prop35
280
     0
102
RTVSPost2010PropOp35
 70
     1
102
RTVSPost2010Prop36
280
     0
102
RTVSPost2010PropOp36
 70
     1
102
RTVSPost2010Prop37
 90
       50
102
RTVSPost2010PropOp37
 70
     1
102
RTVSPost2010Prop38
140
0.0
102
RTVSPost2010PropOp38
 70
     1
102
RTVSPost2010Prop39
140
1.0
102
RTVSPost2010PropOp39
 70
     1
102
RTVSPost2010Prop40
 90
        0
102
RTVSPost2010PropOp40
 70
     1
102
RTVSPost2010Prop41ColorIndex
 90
       18
102
RTVSPost2010Prop41ColorRGB
 90
        0
102
RTVSPost2010PropOp41
 70
     1
102
RTVSPost2010Prop42
 90
       50
102
RTVSPost2010PropOp42
 70
     1
102
RTVSPost2010Prop43
 90
        3
102
RTVSPost2010PropOp43
 70
     1
102
RTVSPost2010Prop44ColorIndex
 90
        5
102
RTVSPost2010Prop44ColorRGB
 90
      255
102
RTVSPost2010PropOp44
 70
     1
102
RTVSPost2010Prop45
280
     0
102
RTVSPost2010PropOp45
 70
     1
102
RTVSPost2010Prop46
 90
       50
102
RTVSPost2010PropOp46
 70
     1
102
RTVSPost2010Prop47
 90
       50
102
RTVSPost2010PropOp47
 70
     1
102
RTVSPost2010Prop48
 90
       50
102
RTVSPost2010PropOp48
 70
     1
102
RTVSPost2010Prop49
280
     0
102
RTVSPost2010PropOp49
 70
     1
102
RTVSPost2010Prop50
 90
       50
102
RTVSPost2010PropOp50
 70
     1
102
RTVSPost2010Prop51ColorIndex
 90
      256
102
RTVSPost2010Prop51ColorRGB
 90
-16777216
102
RTVSPost2010PropOp51
 70
     0
102
RTVSPost2010Prop52
140
1.0
102
RTVSPost2010PropOp52
 70
     0
102
RTVSPost2010Prop53
 90
        2
102
RTVSPost2010PropOp53
 70
     1
102
RTVSPost2010Prop54
  1
strokes_ogs.tif
102
RTVSPost2010PropOp54
 70
     1
102
RTVSPost2010Prop55
280
     0
102
RTVSPost2010PropOp55
 70
     1
102
RTVSPost2010Prop56
140
1.0
102
RTVSPost2010PropOp56
 70
     1
102
RTVSPost2010Prop57
140
1.0
102
RTVSPost2010PropOp57
 70
     1
102
RTVSPropertyOp0
 70
     1
102
RTVSPropertyOp1
 70
     1
102
RTVSPropertyOp2
 70
     1
102
RTVSPropertyOp3
 70
     1
102
RTVSPropertyOp4
 70
     1
102
RTVSPropertyOp5
 70
     1
102
RTVSPropertyOp6
 70
     1
102
RTVSPropertyOp7
 70
     1
102
RTVSPropertyOp8
 70
     1
102
RTVSPropertyOp9
 70
     1
102
RTVSPropertyOp10
 70
     1
102
RTVSPropertyOp11
 70
     1
102
RTVSPropertyOp12
 70
     1
102
RTVSPropertyOp13
 70
     1
102
RTVSPropertyOp14
 70
     1
102
RTVSPropertyOp15
 70
     1
102
RTVSPropertyOp16
 70
     1
102
RTVSPropertyOp17
 70
     1
102
RTVSPropertyOp18
 70
     1
102
RTVSPropertyOp19
 70
     1
102
RTVSPropertyOp20
 70
     1
102
RTVSPropertyOp21
 70
     1
102
RTVSPropertyOp22
 70
     1
102
RTVSPropertyOp23
 70
     1
102
RTVSPropertyOp24
 70
     1
102
RTVSPropertyOp25
 70
     1
102
RTVSPropertyOp26
 70
     1
102
RTVSPropertyOp27
 70
     1
102
RTVSPropertyOp28
 70
     1
102
RTVSPropertyOp29
 70
     1
102
RTVSPropertyOp30
 70
     1
102
RTVSPropertyOp31
 70
     1
102
RTVSPropertyOp32
 70
     1
  0
XRECORD
  5
38E
102
{ACAD_REACTORS
330
38D
102
}
330
38D
100
AcDbXrecord
280
     1
102
RTVSPropertyOp33
 70
     1
102
RTVSPropertyOp34
 70
     1
102
RTVSPropertyOp35
 70
     1
102
RTVSPropertyOp36
 70
     1
102
RTVSPropertyOp37
 70
     1
102
RTVSPropertyOp38
 70
     1
102
RTVSPropertyOp39
 70
     1
102
RTVSPropertyOp40
 70
     1
102
RTVSPropertyOp41
 70
     1
102
RTVSPropertyOp42
 70
     1
102
RTVSPropertyOp43
 70
     1
102
RTVSPropertyOp44
 70
     1
102
RTVSPropertyOp45
 70
     1
102
RTVSPropertyOp46
 70
     1
102
RTVSPropertyOp47
 70
     1
102
RTVSPropertyOp48
 70
     1
102
RTVSPropertyOp49
 70
     1
102
RTVSPropertyOp50
 70
     1
102
RTVSPropertyOp51
 70
     0
102
RTVSPropertyOp52
 70
     0
102
RTVSPropertyOp53
 70
     1
102
RTVSPropertyOp54
 70
     1
102
RTVSPropertyOp55
 70
     1
102
RTVSPropertyOp56
 70
     1
102
RTVSPropertyOp57
 70
     1
102
RTVSPost2010Prop28
280
     0
102
RTVSPost2010PropOp28
 70
     1
102
RTVSPost2010Prop29
280
     1
102
RTVSPost2010PropOp29
 70
     1
102
RTVSPost2010Prop30
280
     1
102
RTVSPost2010PropOp30
 70
     1
102
RTVSPost2010Prop31
280
     0
102
RTVSPost2010PropOp31
 70
     1
102
RTVSPost2010Prop32
280
     0
102
RTVSPost2010PropOp32
 70
     1
102
RTVSPost2010Prop33
280
     0
102
RTVSPost2010PropOp33
 70
     1
102
RTVSPost2010Prop34
280
     0
102
RTVSPost2010PropOp34
 70
     1
102
RTVSPost2010Prop35
280
     0
102
RTVSPost2010PropOp35
 70
     1
102
RTVSPost2010Prop36
280
     0
102
RTVSPost2010PropOp36
 70
     1
102
RTVSPost2010Prop37
 90
       50
102
RTVSPost2010PropOp37
 70
     1
102
RTVSPost2010Prop38
140
0.0
102
RTVSPost2010PropOp38
 70
     1
102
RTVSPost2010Prop39
140
1.0
102
RTVSPost2010PropOp39
 70
     1
102
RTVSPost2010Prop40
 90
        0
102
RTVSPost2010PropOp40
 70
     1
102
RTVSPost2010Prop41ColorIndex
 90
       18
102
RTVSPost2010Prop41ColorRGB
 90
        0
102
RTVSPost2010PropOp41
 70
     1
102
RTVSPost2010Prop42
 90
       50
102
RTVSPost2010PropOp42
 70
     1
102
RTVSPost2010Prop43
 90
        3
102
RTVSPost2010PropOp43
 70
     1
102
RTVSPost2010Prop44ColorIndex
 90
        5
102
RTVSPost2010Prop44ColorRGB
 90
      255
102
RTVSPost2010PropOp44
 70
     1
102
RTVSPost2010Prop45
280
     0
102
RTVSPost2010PropOp45
 70
     1
102
RTVSPost2010Prop46
 90
       50
102
RTVSPost2010PropOp46
 70
     1
102
RTVSPost2010Prop47
 90
       50
102
RTVSPost2010PropOp47
 70
     1
102
RTVSPost2010Prop48
 90
       50
102
RTVSPost2010PropOp48
 70
     1
102
RTVSPost2010Prop49
280
     0
102
RTVSPost2010PropOp49
 70
     1
102
RTVSPost2010Prop50
 90
       50
102
RTVSPost2010PropOp50
 70
     1
102
RTVSPost2010Prop51ColorIndex
 90
      256
102
RTVSPost2010Prop51ColorRGB
 90
-16777216
102
RTVSPost2010PropOp51
 70
     0
102
RTVSPost2010Prop52
140
1.0
102
RTVSPost2010PropOp52
 70
     0
102
RTVSPost2010Prop53
 90
        2
102
RTVSPost2010PropOp53
 70
     1
102
RTVSPost2010Prop54
  1
strokes_ogs.tif
102
RTVSPost2010PropOp54
 70
     1
102
RTVSPost2010Prop55
280
     0
102
RTVSPost2010PropOp55
 70
     1
102
RTVSPost2010Prop56
140
1.0
102
RTVSPost2010PropOp56
 70
     1
102
RTVSPost2010Prop57
140
1.0
102
RTVSPost2010PropOp57
 70
     1
102
RTVSPropertyOp0
 70
     1
102
RTVSPropertyOp1
 70
     1
102
RTVSPropertyOp2
 70
     1
102
RTVSPropertyOp3
 70
     1
102
RTVSPropertyOp4
 70
     1
102
RTVSPropertyOp5
 70
     1
102
RTVSPropertyOp6
 70
     1
102
RTVSPropertyOp7
 70
     1
102
RTVSPropertyOp8
 70
     1
102
RTVSPropertyOp9
 70
     1
102
RTVSPropertyOp10
 70
     1
102
RTVSPropertyOp11
 70
     1
102
RTVSPropertyOp12
 70
     1
102
RTVSPropertyOp13
 70
     1
102
RTVSPropertyOp14
 70
     1
102
RTVSPropertyOp15
 70
     1
102
RTVSPropertyOp16
 70
     1
102
RTVSPropertyOp17
 70
     1
102
RTVSPropertyOp18
 70
     1
102
RTVSPropertyOp19
 70
     1
102
RTVSPropertyOp20
 70
     1
102
RTVSPropertyOp21
 70
     1
102
RTVSPropertyOp22
 70
     1
102
RTVSPropertyOp23
 70
     1
102
RTVSPropertyOp24
 70
     1
102
RTVSPropertyOp25
 70
     1
102
RTVSPropertyOp26
 70
     1
102
RTVSPropertyOp27
 70
     1
102
RTVSPropertyOp28
 70
     1
102
RTVSPropertyOp29
 70
     1
102
RTVSPropertyOp30
 70
     1
102
RTVSPropertyOp31
 70
     1
102
RTVSPropertyOp32
 70
     1
  0
XRECORD
  5
380
102
{ACAD_REACTORS
330
37F
102
}
330
37F
100
AcDbXrecord
280
     1
102
RTVSPropertyOp33
 70
     1
102
RTVSPropertyOp34
 70
     1
102
RTVSPropertyOp35
 70
     1
102
RTVSPropertyOp36
 70
     1
102
RTVSPropertyOp37
 70
     1
102
RTVSPropertyOp38
 70
     1
102
RTVSPropertyOp39
 70
     1
102
RTVSPropertyOp40
 70
     1
102
RTVSPropertyOp41
 70
     1
102
RTVSPropertyOp42
 70
     1
102
RTVSPropertyOp43
 70
     1
102
RTVSPropertyOp44
 70
     1
102
RTVSPropertyOp45
 70
     1
102
RTVSPropertyOp46
 70
     1
102
RTVSPropertyOp47
 70
     1
102
RTVSPropertyOp48
 70
     1
102
RTVSPropertyOp49
 70
     1
102
RTVSPropertyOp50
 70
     1
102
RTVSPropertyOp51
 70
     0
102
RTVSPropertyOp52
 70
     0
102
RTVSPropertyOp53
 70
     1
102
RTVSPropertyOp54
 70
     1
102
RTVSPropertyOp55
 70
     1
102
RTVSPropertyOp56
 70
     1
102
RTVSPropertyOp57
 70
     1
102
RTVSPost2010Prop28
280
     0
102
RTVSPost2010PropOp28
 70
     1
102
RTVSPost2010Prop29
280
     1
102
RTVSPost2010PropOp29
 70
     1
102
RTVSPost2010Prop30
280
     1
102
RTVSPost2010PropOp30
 70
     1
102
RTVSPost2010Prop31
280
     0
102
RTVSPost2010PropOp31
 70
     1
102
RTVSPost2010Prop32
280
     0
102
RTVSPost2010PropOp32
 70
     1
102
RTVSPost2010Prop33
280
     0
102
RTVSPost2010PropOp33
 70
     1
102
RTVSPost2010Prop34
280
     0
102
RTVSPost2010PropOp34
 70
     1
102
RTVSPost2010Prop35
280
     0
102
RTVSPost2010PropOp35
 70
     1
102
RTVSPost2010Prop36
280
     0
102
RTVSPost2010PropOp36
 70
     1
102
RTVSPost2010Prop37
 90
       50
102
RTVSPost2010PropOp37
 70
     1
102
RTVSPost2010Prop38
140
0.0
102
RTVSPost2010PropOp38
 70
     1
102
RTVSPost2010Prop39
140
1.0
102
RTVSPost2010PropOp39
 70
     1
102
RTVSPost2010Prop40
 90
        0
102
RTVSPost2010PropOp40
 70
     1
102
RTVSPost2010Prop41ColorIndex
 90
       18
102
RTVSPost2010Prop41ColorRGB
 90
        0
102
RTVSPost2010PropOp41
 70
     1
102
RTVSPost2010Prop42
 90
       50
102
RTVSPost2010PropOp42
 70
     1
102
RTVSPost2010Prop43
 90
        3
102
RTVSPost2010PropOp43
 70
     1
102
RTVSPost2010Prop44ColorIndex
 90
        5
102
RTVSPost2010Prop44ColorRGB
 90
      255
102
RTVSPost2010PropOp44
 70
     1
102
RTVSPost2010Prop45
280
     0
102
RTVSPost2010PropOp45
 70
     1
102
RTVSPost2010Prop46
 90
       50
102
RTVSPost2010PropOp46
 70
     1
102
RTVSPost2010Prop47
 90
       50
102
RTVSPost2010PropOp47
 70
     1
102
RTVSPost2010Prop48
 90
       50
102
RTVSPost2010PropOp48
 70
     1
102
RTVSPost2010Prop49
280
     0
102
RTVSPost2010PropOp49
 70
     1
102
RTVSPost2010Prop50
 90
       50
102
RTVSPost2010PropOp50
 70
     1
102
RTVSPost2010Prop51ColorIndex
 90
      256
102
RTVSPost2010Prop51ColorRGB
 90
-16777216
102
RTVSPost2010PropOp51
 70
     0
102
RTVSPost2010Prop52
140
1.0
102
RTVSPost2010PropOp52
 70
     0
102
RTVSPost2010Prop53
 90
        2
102
RTVSPost2010PropOp53
 70
     1
102
RTVSPost2010Prop54
  1
strokes_ogs.tif
102
RTVSPost2010PropOp54
 70
     1
102
RTVSPost2010Prop55
280
     0
102
RTVSPost2010PropOp55
 70
     1
102
RTVSPost2010Prop56
140
1.0
102
RTVSPost2010PropOp56
 70
     1
102
RTVSPost2010Prop57
140
1.0
102
RTVSPost2010PropOp57
 70
     1
102
RTVSPropertyOp0
 70
     1
102
RTVSPropertyOp1
 70
     1
102
RTVSPropertyOp2
 70
     1
102
RTVSPropertyOp3
 70
     1
102
RTVSPropertyOp4
 70
     1
102
RTVSPropertyOp5
 70
     1
102
RTVSPropertyOp6
 70
     1
102
RTVSPropertyOp7
 70
     1
102
RTVSPropertyOp8
 70
     1
102
RTVSPropertyOp9
 70
     1
102
RTVSPropertyOp10
 70
     1
102
RTVSPropertyOp11
 70
     1
102
RTVSPropertyOp12
 70
     1
102
RTVSPropertyOp13
 70
     1
102
RTVSPropertyOp14
 70
     1
102
RTVSPropertyOp15
 70
     1
102
RTVSPropertyOp16
 70
     1
102
RTVSPropertyOp17
 70
     1
102
RTVSPropertyOp18
 70
     1
102
RTVSPropertyOp19
 70
     1
102
RTVSPropertyOp20
 70
     1
102
RTVSPropertyOp21
 70
     1
102
RTVSPropertyOp22
 70
     1
102
RTVSPropertyOp23
 70
     1
102
RTVSPropertyOp24
 70
     1
102
RTVSPropertyOp25
 70
     1
102
RTVSPropertyOp26
 70
     1
102
RTVSPropertyOp27
 70
     1
102
RTVSPropertyOp28
 70
     1
102
RTVSPropertyOp29
 70
     1
102
RTVSPropertyOp30
 70
     1
102
RTVSPropertyOp31
 70
     1
102
RTVSPropertyOp32
 70
     1
  0
XRECORD
  5
3A0
102
{ACAD_REACTORS
330
39F
102
}
330
39F
100
AcDbXrecord
280
     1
102
RTVSPropertyOp33
 70
     1
102
RTVSPropertyOp34
 70
     1
102
RTVSPropertyOp35
 70
     1
102
RTVSPropertyOp36
 70
     1
102
RTVSPropertyOp37
 70
     1
102
RTVSPropertyOp38
 70
     1
102
RTVSPropertyOp39
 70
     1
102
RTVSPropertyOp40
 70
     1
102
RTVSPropertyOp41
 70
     1
102
RTVSPropertyOp42
 70
     1
102
RTVSPropertyOp43
 70
     1
102
RTVSPropertyOp44
 70
     1
102
RTVSPropertyOp45
 70
     1
102
RTVSPropertyOp46
 70
     1
102
RTVSPropertyOp47
 70
     1
102
RTVSPropertyOp48
 70
     1
102
RTVSPropertyOp49
 70
     1
102
RTVSPropertyOp50
 70
     1
102
RTVSPropertyOp51
 70
     0
102
RTVSPropertyOp52
 70
     0
102
RTVSPropertyOp53
 70
     1
102
RTVSPropertyOp54
 70
     1
102
RTVSPropertyOp55
 70
     1
102
RTVSPropertyOp56
 70
     1
102
RTVSPropertyOp57
 70
     1
102
RTVSPost2010Prop28
280
     0
102
RTVSPost2010PropOp28
 70
     1
102
RTVSPost2010Prop29
280
     1
102
RTVSPost2010PropOp29
 70
     1
102
RTVSPost2010Prop30
280
     1
102
RTVSPost2010PropOp30
 70
     1
102
RTVSPost2010Prop31
280
     0
102
RTVSPost2010PropOp31
 70
     1
102
RTVSPost2010Prop32
280
     0
102
RTVSPost2010PropOp32
 70
     1
102
RTVSPost2010Prop33
280
     0
102
RTVSPost2010PropOp33
 70
     1
102
RTVSPost2010Prop34
280
     0
102
RTVSPost2010PropOp34
 70
     1
102
RTVSPost2010Prop35
280
     0
102
RTVSPost2010PropOp35
 70
     1
102
RTVSPost2010Prop36
280
     0
102
RTVSPost2010PropOp36
 70
     1
102
RTVSPost2010Prop37
 90
       50
102
RTVSPost2010PropOp37
 70
     1
102
RTVSPost2010Prop38
140
0.0
102
RTVSPost2010PropOp38
 70
     1
102
RTVSPost2010Prop39
140
1.0
102
RTVSPost2010PropOp39
 70
     1
102
RTVSPost2010Prop40
 90
        0
102
RTVSPost2010PropOp40
 70
     1
102
RTVSPost2010Prop41ColorIndex
 90
       18
102
RTVSPost2010Prop41ColorRGB
 90
        0
102
RTVSPost2010PropOp41
 70
     1
102
RTVSPost2010Prop42
 90
       50
102
RTVSPost2010PropOp42
 70
     1
102
RTVSPost2010Prop43
 90
        3
102
RTVSPost2010PropOp43
 70
     1
102
RTVSPost2010Prop44ColorIndex
 90
        5
102
RTVSPost2010Prop44ColorRGB
 90
      255
102
RTVSPost2010PropOp44
 70
     1
102
RTVSPost2010Prop45
280
     0
102
RTVSPost2010PropOp45
 70
     1
102
RTVSPost2010Prop46
 90
       50
102
RTVSPost2010PropOp46
 70
     1
102
RTVSPost2010Prop47
 90
       50
102
RTVSPost2010PropOp47
 70
     1
102
RTVSPost2010Prop48
 90
       50
102
RTVSPost2010PropOp48
 70
     1
102
RTVSPost2010Prop49
280
     0
102
RTVSPost2010PropOp49
 70
     1
102
RTVSPost2010Prop50
 90
       50
102
RTVSPost2010PropOp50
 70
     1
102
RTVSPost2010Prop51ColorIndex
 90
      256
102
RTVSPost2010Prop51ColorRGB
 90
-16777216
102
RTVSPost2010PropOp51
 70
     0
102
RTVSPost2010Prop52
140
1.0
102
RTVSPost2010PropOp52
 70
     0
102
RTVSPost2010Prop53
 90
        2
102
RTVSPost2010PropOp53
 70
     1
102
RTVSPost2010Prop54
  1
strokes_ogs.tif
102
RTVSPost2010PropOp54
 70
     1
102
RTVSPost2010Prop55
280
     0
102
RTVSPost2010PropOp55
 70
     1
102
RTVSPost2010Prop56
140
1.0
102
RTVSPost2010PropOp56
 70
     1
102
RTVSPost2010Prop57
140
1.0
102
RTVSPost2010PropOp57
 70
     1
102
RTVSPropertyOp0
 70
     1
102
RTVSPropertyOp1
 70
     1
102
RTVSPropertyOp2
 70
     1
102
RTVSPropertyOp3
 70
     1
102
RTVSPropertyOp4
 70
     1
102
RTVSPropertyOp5
 70
     1
102
RTVSPropertyOp6
 70
     1
102
RTVSPropertyOp7
 70
     1
102
RTVSPropertyOp8
 70
     1
102
RTVSPropertyOp9
 70
     1
102
RTVSPropertyOp10
 70
     1
102
RTVSPropertyOp11
 70
     1
102
RTVSPropertyOp12
 70
     1
102
RTVSPropertyOp13
 70
     1
102
RTVSPropertyOp14
 70
     1
102
RTVSPropertyOp15
 70
     1
102
RTVSPropertyOp16
 70
     1
102
RTVSPropertyOp17
 70
     1
102
RTVSPropertyOp18
 70
     1
102
RTVSPropertyOp19
 70
     1
102
RTVSPropertyOp20
 70
     1
102
RTVSPropertyOp21
 70
     1
102
RTVSPropertyOp22
 70
     1
102
RTVSPropertyOp23
 70
     1
102
RTVSPropertyOp24
 70
     1
102
RTVSPropertyOp25
 70
     1
102
RTVSPropertyOp26
 70
     1
102
RTVSPropertyOp27
 70
     1
102
RTVSPropertyOp28
 70
     1
102
RTVSPropertyOp29
 70
     1
102
RTVSPropertyOp30
 70
     1
102
RTVSPropertyOp31
 70
     1
102
RTVSPropertyOp32
 70
     1
  0
ENDSEC
  0
EOF
