  0
SECTION
  2
HEADER
  9
$ACADVER
  1
AC1014
  9
$ACADMAINTVER
 70
     9
  9
$DWGCODEPAGE
  3
ANSI_932
  9
$INSBASE
 10
0.0
 20
0.0
 30
0.0
  9
$EXTMIN
 10
52.62024981307741
 20
37.63181962468934
 30
0.0
  9
$EXTMAX
 10
319.4511140349013
 20
294.3068088581569
 30
0.0
  9
$LIMMIN
 10
0.0
 20
0.0
  9
$LIMMAX
 10
409.8899999999999
 20
282.8899999999999
  9
$ORTHOMODE
 70
     1
  9
$REGENMODE
 70
     1
  9
$FILLMODE
 70
     1
  9
$QTEXTMODE
 70
     0
  9
$MIRRTEXT
 70
     1
  9
$DRAGMODE
 70
     2
  9
$LTSCALE
 40
10.0
  9
$OSMODE
 70
    32
  9
$ATTMODE
 70
     1
  9
$TEXTSIZE
 40
3.5
  9
$TRACEWID
 40
1.0
  9
$TEXTSTYLE
  7
AD-STANDARD
  9
$CLAYER
  8
1
  9
$CELTYPE
  6
BYLAYER
  9
$CECOLOR
 62
   256
  9
$CELTSCALE
 40
1.0
  9
$DELOBJ
 70
     1
  9
$DISPSILH
 70
     0
  9
$DIMSCALE
 40
1.0
  9
$DIMASZ
 40
0.18
  9
$DIMEXO
 40
0.0625
  9
$DIMDLI
 40
0.38
  9
$DIMRND
 40
0.0
  9
$DIMDLE
 40
0.0
  9
$DIMEXE
 40
0.18
  9
$DIMTP
 40
0.0
  9
$DIMTM
 40
0.0
  9
$DIMTXT
 40
0.18
  9
$DIMCEN
 40
0.09
  9
$DIMTSZ
 40
0.0
  9
$DIMTOL
 70
     0
  9
$DIMLIM
 70
     0
  9
$DIMTIH
 70
     1
  9
$DIMTOH
 70
     1
  9
$DIMSE1
 70
     0
  9
$DIMSE2
 70
     0
  9
$DIMTAD
 70
     0
  9
$DIMZIN
 70
     0
  9
$DIMBLK
  1

  9
$DIMASO
 70
     1
  9
$DIMSHO
 70
     1
  9
$DIMPOST
  1

  9
$DIMAPOST
  1

  9
$DIMALT
 70
     0
  9
$DIMALTD
 70
     2
  9
$DIMALTF
 40
25.4
  9
$DIMLFAC
 40
1.0
  9
$DIMTOFL
 70
     0
  9
$DIMTVP
 40
0.0
  9
$DIMTIX
 70
     0
  9
$DIMSOXD
 70
     0
  9
$DIMSAH
 70
     0
  9
$DIMBLK1
  1

  9
$DIMBLK2
  1

  9
$DIMSTYLE
  2
STANDARD
  9
$DIMCLRD
 70
     0
  9
$DIMCLRE
 70
     0
  9
$DIMCLRT
 70
     0
  9
$DIMTFAC
 40
1.0
  9
$DIMGAP
 40
0.09
  9
$DIMJUST
 70
     0
  9
$DIMSD1
 70
     0
  9
$DIMSD2
 70
     0
  9
$DIMTOLJ
 70
     1
  9
$DIMTZIN
 70
     0
  9
$DIMALTZ
 70
     0
  9
$DIMALTTZ
 70
     0
  9
$DIMFIT
 70
     3
  9
$DIMUPT
 70
     0
  9
$DIMUNIT
 70
     2
  9
$DIMDEC
 70
     4
  9
$DIMTDEC
 70
     4
  9
$DIMALTU
 70
     2
  9
$DIMALTTD
 70
     2
  9
$DIMTXSTY
  7
STANDARD
  9
$DIMAUNIT
 70
     0
  9
$LUNITS
 70
     2
  9
$LUPREC
 70
     4
  9
$SKETCHINC
 40
1.0
  9
$FILLETRAD
 40
2.0
  9
$AUNITS
 70
     0
  9
$AUPREC
 70
     0
  9
$MENU
  1
.
  9
$ELEVATION
 40
0.0
  9
$PELEVATION
 40
0.0
  9
$THICKNESS
 40
0.0
  9
$LIMCHECK
 70
     0
  9
$BLIPMODE
 70
     0
  9
$CHAMFERA
 40
2.0
  9
$CHAMFERB
 40
2.0
  9
$CHAMFERC
 40
673.4006734006733
  9
$CHAMFERD
 40
0.0
  9
$SKPOLY
 70
     0
  9
$TDCREATE
 40
2451802.650954108
  9
$TDUPDATE
 40
2453993.816980787
  9
$TDINDWG
 40
2.8069697106
  9
$TDUSRTIMER
 40
2.8069694792
  9
$USRTIMER
 70
     1
  9
$ANGBASE
 50
0.0
  9
$ANGDIR
 70
     0
  9
$PDMODE
 70
     0
  9
$PDSIZE
 40
0.0
  9
$PLINEWID
 40
0.0
  9
$COORDS
 70
     1
  9
$SPLFRAME
 70
     0
  9
$SPLINETYPE
 70
     6
  9
$SPLINESEGS
 70
     8
  9
$ATTDIA
 70
     0
  9
$ATTREQ
 70
     1
  9
$HANDLING
 70
 10241
  9
$HANDSEED
  5
876A
  9
$SURFTAB1
 70
     6
  9
$SURFTAB2
 70
     6
  9
$SURFTYPE
 70
     6
  9
$SURFU
 70
     6
  9
$SURFV
 70
     6
  9
$UCSNAME
  2

  9
$UCSORG
 10
0.0
 20
0.0
 30
0.0
  9
$UCSXDIR
 10
1.0
 20
0.0
 30
0.0
  9
$UCSYDIR
 10
0.0
 20
1.0
 30
0.0
  9
$PUCSNAME
  2

  9
$PUCSORG
 10
0.0
 20
0.0
 30
0.0
  9
$PUCSXDIR
 10
1.0
 20
0.0
 30
0.0
  9
$PUCSYDIR
 10
0.0
 20
1.0
 30
0.0
  9
$USERI1
 70
     0
  9
$USERI2
 70
     0
  9
$USERI3
 70
     0
  9
$USERI4
 70
     0
  9
$USERI5
 70
     0
  9
$USERR1
 40
0.0
  9
$USERR2
 40
0.0
  9
$USERR3
 40
0.0
  9
$USERR4
 40
0.0
  9
$USERR5
 40
0.0
  9
$WORLDVIEW
 70
     1
  9
$SHADEDGE
 70
     3
  9
$SHADEDIF
 70
    70
  9
$TILEMODE
 70
     1
  9
$MAXACTVP
 70
    16
  9
$PINSBASE
 10
0.0
 20
0.0
 30
0.0
  9
$PLIMCHECK
 70
     0
  9
$PEXTMIN
 10
20.0
 20
12.0
 30
0.0
  9
$PEXTMAX
 10
405.0
 20
276.9999999999999
 30
0.0
  9
$PLIMMIN
 10
0.0
 20
0.0
  9
$PLIMMAX
 10
409.8899999999999
 20
282.8899999999999
  9
$UNITMODE
 70
     0
  9
$VISRETAIN
 70
     0
  9
$PLINEGEN
 70
     0
  9
$PSLTSCALE
 70
     1
  9
$TREEDEPTH
 70
  3020
  9
$PICKSTYLE
 70
     1
  9
$CMLSTYLE
  2
STANDARD
  9
$CMLJUST
 70
     0
  9
$CMLSCALE
 40
1.0
  9
$PROXYGRAPHICS
 70
     1
  9
$MEASUREMENT
 70
     0
  0
ENDSEC
  0
SECTION
  2
CLASSES
  0
CLASS
  1
LWPOLYLINE
  2
AcDbPolyline
  3
AutoCAD 2000
 90
        0
280
     0
281
     1
  0
CLASS
  1
ACDBDICTIONARYWDFLT
  2
AcDbDictionaryWithDefault
  3
AutoCAD 2000
 90
        0
280
     0
281
     0
  0
CLASS
  1
ACDBPLACEHOLDER
  2
AcDbPlaceHolder
  3
AutoCAD 2000
 90
        0
280
     0
281
     0
  0
CLASS
  1
LAYOUT
  2
AcDbLayout
  3
AutoCAD 2000
 90
        0
280
     0
281
     0
  0
CLASS
  1
PLOTSETTINGS
  2
AcDbPlotSettings
  3
AutoCAD 2000
 90
        0
280
     0
281
     0
  0
CLASS
  1
LONG_TRANSACTION
  2
AcDbLongTransaction
  3
AutoCAD 2000
 90
        0
280
     0
281
     0
  0
CLASS
  1
LWPOLYLINE
  2
AcDbPolyline
  3
AutoCAD 2000
 90
        0
280
     0
281
     1
  0
CLASS
  1
HATCH
  2
AcDbHatch
  3
AutoCAD 2000
 90
        0
280
     0
281
     1
  0
CLASS
  1
XRECORD
  2
AcDbXrecord
  3
AutoCAD 2000
 90
        0
280
     0
281
     0
  0
CLASS
  1
LONG_TRANSACTION
  2
AcDbLongTransaction
  3
AutoCAD 2000
 90
        0
280
     0
281
     0
  0
CLASS
  1
LWPOLYLINE
  2
AcDbPolyline
  3
AutoCAD 2000
 90
        0
280
     0
281
     1
  0
CLASS
  1
HATCH
  2
AcDbHatch
  3
AutoCAD 2000
 90
        0
280
     0
281
     1
  0
CLASS
  1
XRECORD
  2
AcDbXrecord
  3
AutoCAD 2000
 90
        0
280
     0
281
     0
  0
CLASS
  1
LONG_TRANSACTION
  2
AcDbLongTransaction
  3
AutoCAD 2000
 90
        0
280
     0
281
     0
  0
CLASS
  1
LWPOLYLINE
  2
AcDbPolyline
  3
AutoCAD 2000
 90
        0
280
     0
281
     1
  0
CLASS
  1
HATCH
  2
AcDbHatch
  3
AutoCAD 2000
 90
        0
280
     0
281
     1
  0
CLASS
  1
XRECORD
  2
AcDbXrecord
  3
AutoCAD 2000
 90
        0
280
     0
281
     0
  0
CLASS
  1
LONG_TRANSACTION
  2
AcDbLongTransaction
  3
AutoCAD 2000
 90
        0
280
     0
281
     0
  0
CLASS
  1
LWPOLYLINE
  2
AcDbPolyline
  3
AutoCAD 2000
 90
        0
280
     0
281
     1
  0
CLASS
  1
HATCH
  2
AcDbHatch
  3
AutoCAD 2000
 90
        0
280
     0
281
     1
  0
CLASS
  1
XRECORD
  2
AcDbXrecord
  3
AutoCAD 2000
 90
        0
280
     0
281
     0
  0
CLASS
  1
LONG_TRANSACTION
  2
AcDbLongTransaction
  3
AutoCAD 2000
 90
        0
280
     0
281
     0
  0
CLASS
  1
LWPOLYLINE
  2
AcDbPolyline
  3
AutoCAD 2000
 90
        0
280
     0
281
     1
  0
CLASS
  1
HATCH
  2
AcDbHatch
  3
AutoCAD 2000
 90
        0
280
     0
281
     1
  0
CLASS
  1
XRECORD
  2
AcDbXrecord
  3
AutoCAD 2000
 90
        0
280
     0
281
     0
  0
CLASS
  1
LONG_TRANSACTION
  2
AcDbLongTransaction
  3
AutoCAD 2000
 90
        0
280
     0
281
     0
  0
CLASS
  1
LWPOLYLINE
  2
AcDbPolyline
  3
AutoCAD 2000
 90
        0
280
     0
281
     1
  0
CLASS
  1
HATCH
  2
AcDbHatch
  3
AutoCAD 2000
 90
        0
280
     0
281
     1
  0
CLASS
  1
XRECORD
  2
AcDbXrecord
  3
AutoCAD 2000
 90
        0
280
     0
281
     0
  0
CLASS
  1
LONG_TRANSACTION
  2
AcDbLongTransaction
  3
AutoCAD 2000
 90
        0
280
     0
281
     0
  0
CLASS
  1
LWPOLYLINE
  2
AcDbPolyline
  3
AutoCAD 2000
 90
        0
280
     0
281
     1
  0
CLASS
  1
HATCH
  2
AcDbHatch
  3
AutoCAD 2000
 90
        0
280
     0
281
     1
  0
CLASS
  1
XRECORD
  2
AcDbXrecord
  3
AutoCAD 2000
 90
        0
280
     0
281
     0
  0
CLASS
  1
LONG_TRANSACTION
  2
AcDbLongTransaction
  3
AutoCAD 2000
 90
        0
280
     0
281
     0
  0
CLASS
  1
LWPOLYLINE
  2
AcDbPolyline
  3
AutoCAD 2000
 90
        0
280
     0
281
     1
  0
CLASS
  1
HATCH
  2
AcDbHatch
  3
AutoCAD 2000
 90
        0
280
     0
281
     1
  0
CLASS
  1
XRECORD
  2
AcDbXrecord
  3
AutoCAD 2000
 90
        0
280
     0
281
     0
  0
CLASS
  1
LONG_TRANSACTION
  2
AcDbLongTransaction
  3
AutoCAD 2000
 90
        0
280
     0
281
     0
  0
CLASS
  1
LWPOLYLINE
  2
AcDbPolyline
  3
AutoCAD 2000
 90
        0
280
     0
281
     1
  0
CLASS
  1
HATCH
  2
AcDbHatch
  3
AutoCAD 2000
 90
        0
280
     0
281
     1
  0
CLASS
  1
XRECORD
  2
AcDbXrecord
  3
AutoCAD 2000
 90
        0
280
     0
281
     0
  0
CLASS
  1
LONG_TRANSACTION
  2
AcDbLongTransaction
  3
AutoCAD 2000
 90
        0
280
     0
281
     0
  0
CLASS
  1
LWPOLYLINE
  2
AcDbPolyline
  3
AutoCAD 2000
 90
        0
280
     0
281
     1
  0
CLASS
  1
HATCH
  2
AcDbHatch
  3
AutoCAD 2000
 90
        0
280
     0
281
     1
  0
CLASS
  1
XRECORD
  2
AcDbXrecord
  3
AutoCAD 2000
 90
        0
280
     0
281
     0
  0
CLASS
  1
LONG_TRANSACTION
  2
AcDbLongTransaction
  3
AutoCAD 2000
 90
        0
280
     0
281
     0
  0
CLASS
  1
LWPOLYLINE
  2
AcDbPolyline
  3
AutoCAD 2000
 90
        0
280
     0
281
     1
  0
CLASS
  1
HATCH
  2
AcDbHatch
  3
AutoCAD 2000
 90
        0
280
     0
281
     1
  0
CLASS
  1
XRECORD
  2
AcDbXrecord
  3
AutoCAD 2000
 90
        0
280
     0
281
     0
  0
CLASS
  1
LONG_TRANSACTION
  2
AcDbLongTransaction
  3
AutoCAD 2000
 90
        0
280
     0
281
     0
  0
CLASS
  1
LWPOLYLINE
  2
AcDbPolyline
  3
AutoCAD 2000
 90
        0
280
     0
281
     1
  0
CLASS
  1
HATCH
  2
AcDbHatch
  3
AutoCAD 2000
 90
        0
280
     0
281
     1
  0
CLASS
  1
XRECORD
  2
AcDbXrecord
  3
AutoCAD 2000
 90
        0
280
     0
281
     0
  0
CLASS
  1
LONG_TRANSACTION
  2
AcDbLongTransaction
  3
AutoCAD 2000
 90
        0
280
     0
281
     0
  0
CLASS
  1
LWPOLYLINE
  2
AcDbPolyline
  3
AutoCAD 2000
 90
        0
280
     0
281
     1
  0
CLASS
  1
HATCH
  2
AcDbHatch
  3
AutoCAD 2000
 90
        0
280
     0
281
     1
  0
CLASS
  1
XRECORD
  2
AcDbXrecord
  3
AutoCAD 2000
 90
        0
280
     0
281
     0
  0
CLASS
  1
LONG_TRANSACTION
  2
AcDbLongTransaction
  3
AutoCAD 2000
 90
        0
280
     0
281
     0
  0
CLASS
  1
LWPOLYLINE
  2
AcDbPolyline
  3
AutoCAD 2000
 90
        0
280
     0
281
     1
  0
CLASS
  1
HATCH
  2
AcDbHatch
  3
AutoCAD 2000
 90
        0
280
     0
281
     1
  0
CLASS
  1
XRECORD
  2
AcDbXrecord
  3
AutoCAD 2000
 90
        0
280
     0
281
     0
  0
CLASS
  1
LONG_TRANSACTION
  2
AcDbLongTransaction
  3
AutoCAD 2000
 90
        0
280
     0
281
     0
  0
CLASS
  1
LWPOLYLINE
  2
AcDbPolyline
  3
AutoCAD 2000
 90
        0
280
     0
281
     1
  0
CLASS
  1
HATCH
  2
AcDbHatch
  3
AutoCAD 2000
 90
        0
280
     0
281
     1
  0
CLASS
  1
XRECORD
  2
AcDbXrecord
  3
AutoCAD 2000
 90
        0
280
     0
281
     0
  0
CLASS
  1
LONG_TRANSACTION
  2
AcDbLongTransaction
  3
AutoCAD 2000
 90
        0
280
     0
281
     0
  0
CLASS
  1
LWPOLYLINE
  2
AcDbPolyline
  3
AutoCAD 2000
 90
        0
280
     0
281
     1
  0
CLASS
  1
HATCH
  2
AcDbHatch
  3
AutoCAD 2000
 90
        0
280
     0
281
     1
  0
CLASS
  1
XRECORD
  2
AcDbXrecord
  3
AutoCAD 2000
 90
        0
280
     0
281
     0
  0
CLASS
  1
LONG_TRANSACTION
  2
AcDbLongTransaction
  3
AutoCAD 2000
 90
        0
280
     0
281
     0
  0
CLASS
  1
LWPOLYLINE
  2
AcDbPolyline
  3
AutoCAD 2000
 90
        0
280
     0
281
     1
  0
CLASS
  1
HATCH
  2
AcDbHatch
  3
AutoCAD 2000
 90
        0
280
     0
281
     1
  0
CLASS
  1
XRECORD
  2
AcDbXrecord
  3
AutoCAD 2000
 90
        0
280
     0
281
     0
  0
CLASS
  1
LONG_TRANSACTION
  2
AcDbLongTransaction
  3
AutoCAD 2000
 90
        0
280
     0
281
     0
  0
CLASS
  1
LWPOLYLINE
  2
AcDbPolyline
  3
AutoCAD 2000
 90
        0
280
     0
281
     1
  0
CLASS
  1
HATCH
  2
AcDbHatch
  3
AutoCAD 2000
 90
        0
280
     0
281
     1
  0
CLASS
  1
XRECORD
  2
AcDbXrecord
  3
AutoCAD 2000
 90
        0
280
     0
281
     0
  0
CLASS
  1
LONG_TRANSACTION
  2
AcDbLongTransaction
  3
AutoCAD 2000
 90
        0
280
     0
281
     0
  0
CLASS
  1
LWPOLYLINE
  2
AcDbPolyline
  3
AutoCAD 2000
 90
        0
280
     0
281
     1
  0
CLASS
  1
HATCH
  2
AcDbHatch
  3
AutoCAD 2000
 90
        0
280
     0
281
     1
  0
CLASS
  1
XRECORD
  2
AcDbXrecord
  3
AutoCAD 2000
 90
        0
280
     0
281
     0
  0
CLASS
  1
LONG_TRANSACTION
  2
AcDbLongTransaction
  3
AutoCAD 2000
 90
        0
280
     0
281
     0
  0
CLASS
  1
LWPOLYLINE
  2
AcDbPolyline
  3
AutoCAD 2000
 90
        0
280
     0
281
     1
  0
CLASS
  1
HATCH
  2
AcDbHatch
  3
AutoCAD 2000
 90
        0
280
     0
281
     1
  0
CLASS
  1
XRECORD
  2
AcDbXrecord
  3
AutoCAD 2000
 90
        0
280
     0
281
     0
  0
CLASS
  1
LONG_TRANSACTION
  2
AcDbLongTransaction
  3
AutoCAD 2000
 90
        0
280
     0
281
     0
  0
CLASS
  1
LWPOLYLINE
  2
AcDbPolyline
  3
AutoCAD 2000
 90
        0
280
     0
281
     1
  0
CLASS
  1
HATCH
  2
AcDbHatch
  3
AutoCAD 2000
 90
        0
280
     0
281
     1
  0
CLASS
  1
XRECORD
  2
AcDbXrecord
  3
AutoCAD 2000
 90
        0
280
     0
281
     0
  0
CLASS
  1
LONG_TRANSACTION
  2
AcDbLongTransaction
  3
AutoCAD 2000
 90
        0
280
     0
281
     0
  0
CLASS
  1
LWPOLYLINE
  2
AcDbPolyline
  3
AutoCAD 2000
 90
        0
280
     0
281
     1
  0
CLASS
  1
HATCH
  2
AcDbHatch
  3
AutoCAD 2000
 90
        0
280
     0
281
     1
  0
CLASS
  1
XRECORD
  2
AcDbXrecord
  3
AutoCAD 2000
 90
        0
280
     0
281
     0
  0
CLASS
  1
LONG_TRANSACTION
  2
AcDbLongTransaction
  3
AutoCAD 2000
 90
        0
280
     0
281
     0
  0
CLASS
  1
LWPOLYLINE
  2
AcDbPolyline
  3
AutoCAD 2000
 90
        0
280
     0
281
     1
  0
CLASS
  1
HATCH
  2
AcDbHatch
  3
AutoCAD 2000
 90
        0
280
     0
281
     1
  0
CLASS
  1
XRECORD
  2
AcDbXrecord
  3
AutoCAD 2000
 90
        0
280
     0
281
     0
  0
CLASS
  1
LONG_TRANSACTION
  2
AcDbLongTransaction
  3
AutoCAD 2000
 90
        0
280
     0
281
     0
  0
CLASS
  1
LWPOLYLINE
  2
AcDbPolyline
  3
AutoCAD 2000
 90
        0
280
     0
281
     1
  0
CLASS
  1
HATCH
  2
AcDbHatch
  3
AutoCAD 2000
 90
        0
280
     0
281
     1
  0
CLASS
  1
XRECORD
  2
AcDbXrecord
  3
AutoCAD 2000
 90
        0
280
     0
281
     0
  0
CLASS
  1
LONG_TRANSACTION
  2
AcDbLongTransaction
  3
AutoCAD 2000
 90
        0
280
     0
281
     0
  0
CLASS
  1
LWPOLYLINE
  2
AcDbPolyline
  3
AutoCAD 2000
 90
        0
280
     0
281
     1
  0
CLASS
  1
HATCH
  2
AcDbHatch
  3
AutoCAD 2000
 90
        0
280
     0
281
     1
  0
CLASS
  1
XRECORD
  2
AcDbXrecord
  3
AutoCAD 2000
 90
        0
280
     0
281
     0
  0
CLASS
  1
LONG_TRANSACTION
  2
AcDbLongTransaction
  3
AutoCAD 2000
 90
        0
280
     0
281
     0
  0
CLASS
  1
LWPOLYLINE
  2
AcDbPolyline
  3
AutoCAD 2000
 90
        0
280
     0
281
     1
  0
CLASS
  1
HATCH
  2
AcDbHatch
  3
AutoCAD 2000
 90
        0
280
     0
281
     1
  0
CLASS
  1
XRECORD
  2
AcDbXrecord
  3
AutoCAD 2000
 90
        0
280
     0
281
     0
  0
CLASS
  1
LONG_TRANSACTION
  2
AcDbLongTransaction
  3
AutoCAD 2000
 90
        0
280
     0
281
     0
  0
CLASS
  1
LWPOLYLINE
  2
AcDbPolyline
  3
AutoCAD 2000
 90
        0
280
     0
281
     1
  0
CLASS
  1
HATCH
  2
AcDbHatch
  3
AutoCAD 2000
 90
        0
280
     0
281
     1
  0
CLASS
  1
XRECORD
  2
AcDbXrecord
  3
AutoCAD 2000
 90
        0
280
     0
281
     0
  0
CLASS
  1
LONG_TRANSACTION
  2
AcDbLongTransaction
  3
AutoCAD 2000
 90
        0
280
     0
281
     0
  0
CLASS
  1
LWPOLYLINE
  2
AcDbPolyline
  3
AutoCAD 2000
 90
        0
280
     0
281
     1
  0
CLASS
  1
HATCH
  2
AcDbHatch
  3
AutoCAD 2000
 90
        0
280
     0
281
     1
  0
CLASS
  1
XRECORD
  2
AcDbXrecord
  3
AutoCAD 2000
 90
        0
280
     0
281
     0
  0
CLASS
  1
LONG_TRANSACTION
  2
AcDbLongTransaction
  3
AutoCAD 2000
 90
        0
280
     0
281
     0
  0
CLASS
  1
LWPOLYLINE
  2
AcDbPolyline
  3
AutoCAD 2000
 90
        0
280
     0
281
     1
  0
CLASS
  1
HATCH
  2
AcDbHatch
  3
AutoCAD 2000
 90
        0
280
     0
281
     1
  0
CLASS
  1
XRECORD
  2
AcDbXrecord
  3
AutoCAD 2000
 90
        0
280
     0
281
     0
  0
CLASS
  1
LONG_TRANSACTION
  2
AcDbLongTransaction
  3
AutoCAD 2000
 90
        0
280
     0
281
     0
  0
CLASS
  1
LWPOLYLINE
  2
AcDbPolyline
  3
AutoCAD 2000
 90
        0
280
     0
281
     1
  0
CLASS
  1
HATCH
  2
AcDbHatch
  3
AutoCAD 2000
 90
        0
280
     0
281
     1
  0
CLASS
  1
XRECORD
  2
AcDbXrecord
  3
AutoCAD 2000
 90
        0
280
     0
281
     0
  0
CLASS
  1
LONG_TRANSACTION
  2
AcDbLongTransaction
  3
AutoCAD 2000
 90
        0
280
     0
281
     0
  0
CLASS
  1
LWPOLYLINE
  2
AcDbPolyline
  3
AutoCAD 2000
 90
        0
280
     0
281
     1
  0
CLASS
  1
HATCH
  2
AcDbHatch
  3
AutoCAD 2000
 90
        0
280
     0
281
     1
  0
CLASS
  1
XRECORD
  2
AcDbXrecord
  3
AutoCAD 2000
 90
        0
280
     0
281
     0
  0
CLASS
  1
LONG_TRANSACTION
  2
AcDbLongTransaction
  3
AutoCAD 2000
 90
        0
280
     0
281
     0
  0
CLASS
  1
LWPOLYLINE
  2
AcDbPolyline
  3
AutoCAD 2000
 90
        0
280
     0
281
     1
  0
CLASS
  1
HATCH
  2
AcDbHatch
  3
AutoCAD 2000
 90
        0
280
     0
281
     1
  0
CLASS
  1
XRECORD
  2
AcDbXrecord
  3
AutoCAD 2000
 90
        0
280
     0
281
     0
  0
CLASS
  1
LONG_TRANSACTION
  2
AcDbLongTransaction
  3
AutoCAD 2000
 90
        0
280
     0
281
     0
  0
CLASS
  1
LWPOLYLINE
  2
AcDbPolyline
  3
AutoCAD 2000
 90
        0
280
     0
281
     1
  0
CLASS
  1
HATCH
  2
AcDbHatch
  3
AutoCAD 2000
 90
        0
280
     0
281
     1
  0
CLASS
  1
XRECORD
  2
AcDbXrecord
  3
AutoCAD 2000
 90
        0
280
     0
281
     0
  0
CLASS
  1
LONG_TRANSACTION
  2
AcDbLongTransaction
  3
AutoCAD 2000
 90
        0
280
     0
281
     0
  0
CLASS
  1
LWPOLYLINE
  2
AcDbPolyline
  3
AutoCAD 2000
 90
        0
280
     0
281
     1
  0
CLASS
  1
HATCH
  2
AcDbHatch
  3
AutoCAD 2000
 90
        0
280
     0
281
     1
  0
CLASS
  1
XRECORD
  2
AcDbXrecord
  3
AutoCAD 2000
 90
        0
280
     0
281
     0
  0
CLASS
  1
LONG_TRANSACTION
  2
AcDbLongTransaction
  3
AutoCAD 2000
 90
        0
280
     0
281
     0
  0
CLASS
  1
LWPOLYLINE
  2
AcDbPolyline
  3
AutoCAD 2000
 90
        0
280
     0
281
     1
  0
CLASS
  1
HATCH
  2
AcDbHatch
  3
AutoCAD 2000
 90
        0
280
     0
281
     1
  0
CLASS
  1
XRECORD
  2
AcDbXrecord
  3
AutoCAD 2000
 90
        0
280
     0
281
     0
  0
CLASS
  1
LONG_TRANSACTION
  2
AcDbLongTransaction
  3
AutoCAD 2000
 90
        0
280
     0
281
     0
  0
CLASS
  1
LWPOLYLINE
  2
AcDbPolyline
  3
AutoCAD 2000
 90
        0
280
     0
281
     1
  0
CLASS
  1
HATCH
  2
AcDbHatch
  3
AutoCAD 2000
 90
        0
280
     0
281
     1
  0
CLASS
  1
XRECORD
  2
AcDbXrecord
  3
AutoCAD 2000
 90
        0
280
     0
281
     0
  0
CLASS
  1
DICTIONARYVAR
  2
AcDbDictionaryVar
  3
AutoCAD 2000
 90
        0
280
     0
281
     0
  0
CLASS
  1
SORTENTSTABLE
  2
AcDbSortentsTable
  3
AutoCAD 2000
 90
        0
280
     0
281
     0
  0
CLASS
  1
LONG_TRANSACTION
  2
AcDbLongTransaction
  3
AutoCAD 2000
 90
        0
280
     0
281
     0
  0
CLASS
  1
LWPOLYLINE
  2
AcDbPolyline
  3
AutoCAD 2000
 90
        0
280
     0
281
     1
  0
CLASS
  1
HATCH
  2
AcDbHatch
  3
AutoCAD 2000
 90
        0
280
     0
281
     1
  0
CLASS
  1
XRECORD
  2
AcDbXrecord
  3
AutoCAD 2000
 90
        0
280
     0
281
     0
  0
CLASS
  1
LONG_TRANSACTION
  2
AcDbLongTransaction
  3
AutoCAD 2000
 90
        0
280
     0
281
     0
  0
CLASS
  1
LWPOLYLINE
  2
AcDbPolyline
  3
AutoCAD 2000
 90
        0
280
     0
281
     1
  0
CLASS
  1
HATCH
  2
AcDbHatch
  3
AutoCAD 2000
 90
        0
280
     0
281
     1
  0
CLASS
  1
XRECORD
  2
AcDbXrecord
  3
AutoCAD 2000
 90
        0
280
     0
281
     0
  0
CLASS
  1
LONG_TRANSACTION
  2
AcDbLongTransaction
  3
AutoCAD 2000
 90
        0
280
     0
281
     0
  0
CLASS
  1
LWPOLYLINE
  2
AcDbPolyline
  3
AutoCAD 2000
 90
        0
280
     0
281
     1
  0
CLASS
  1
HATCH
  2
AcDbHatch
  3
AutoCAD 2000
 90
        0
280
     0
281
     1
  0
CLASS
  1
XRECORD
  2
AcDbXrecord
  3
AutoCAD 2000
 90
        0
280
     0
281
     0
  0
CLASS
  1
LONG_TRANSACTION
  2
AcDbLongTransaction
  3
AutoCAD 2000
 90
        0
280
     0
281
     0
  0
CLASS
  1
LWPOLYLINE
  2
AcDbPolyline
  3
AutoCAD 2000
 90
        0
280
     0
281
     1
  0
CLASS
  1
HATCH
  2
AcDbHatch
  3
AutoCAD 2000
 90
        0
280
     0
281
     1
  0
CLASS
  1
XRECORD
  2
AcDbXrecord
  3
AutoCAD 2000
 90
        0
280
     0
281
     0
  0
CLASS
  1
LONG_TRANSACTION
  2
AcDbLongTransaction
  3
AutoCAD 2000
 90
        0
280
     0
281
     0
  0
CLASS
  1
LWPOLYLINE
  2
AcDbPolyline
  3
AutoCAD 2000
 90
        0
280
     0
281
     1
  0
CLASS
  1
HATCH
  2
AcDbHatch
  3
AutoCAD 2000
 90
        0
280
     0
281
     1
  0
CLASS
  1
XRECORD
  2
AcDbXrecord
  3
AutoCAD 2000
 90
        0
280
     0
281
     0
  0
CLASS
  1
LONG_TRANSACTION
  2
AcDbLongTransaction
  3
AutoCAD 2000
 90
        0
280
     0
281
     0
  0
CLASS
  1
LWPOLYLINE
  2
AcDbPolyline
  3
AutoCAD 2000
 90
        0
280
     0
281
     1
  0
CLASS
  1
HATCH
  2
AcDbHatch
  3
AutoCAD 2000
 90
        0
280
     0
281
     1
  0
CLASS
  1
XRECORD
  2
AcDbXrecord
  3
AutoCAD 2000
 90
        0
280
     0
281
     0
  0
CLASS
  1
LONG_TRANSACTION
  2
AcDbLongTransaction
  3
AutoCAD 2000
 90
        0
280
     0
281
     0
  0
CLASS
  1
LWPOLYLINE
  2
AcDbPolyline
  3
AutoCAD 2000
 90
        0
280
     0
281
     1
  0
CLASS
  1
HATCH
  2
AcDbHatch
  3
AutoCAD 2000
 90
        0
280
     0
281
     1
  0
CLASS
  1
XRECORD
  2
AcDbXrecord
  3
AutoCAD 2000
 90
        0
280
     0
281
     0
  0
CLASS
  1
LONG_TRANSACTION
  2
AcDbLongTransaction
  3
AutoCAD 2000
 90
        0
280
     0
281
     0
  0
CLASS
  1
LWPOLYLINE
  2
AcDbPolyline
  3
AutoCAD 2000
 90
        0
280
     0
281
     1
  0
CLASS
  1
HATCH
  2
AcDbHatch
  3
AutoCAD 2000
 90
        0
280
     0
281
     1
  0
CLASS
  1
XRECORD
  2
AcDbXrecord
  3
AutoCAD 2000
 90
        0
280
     0
281
     0
  0
CLASS
  1
LONG_TRANSACTION
  2
AcDbLongTransaction
  3
AutoCAD 2000
 90
        0
280
     0
281
     0
  0
CLASS
  1
LWPOLYLINE
  2
AcDbPolyline
  3
AutoCAD 2000
 90
        0
280
     0
281
     1
  0
CLASS
  1
HATCH
  2
AcDbHatch
  3
AutoCAD 2000
 90
        0
280
     0
281
     1
  0
CLASS
  1
XRECORD
  2
AcDbXrecord
  3
AutoCAD 2000
 90
        0
280
     0
281
     0
  0
CLASS
  1
LONG_TRANSACTION
  2
AcDbLongTransaction
  3
AutoCAD 2000
 90
        0
280
     0
281
     0
  0
CLASS
  1
LWPOLYLINE
  2
AcDbPolyline
  3
AutoCAD 2000
 90
        0
280
     0
281
     1
  0
CLASS
  1
HATCH
  2
AcDbHatch
  3
AutoCAD 2000
 90
        0
280
     0
281
     1
  0
CLASS
  1
XRECORD
  2
AcDbXrecord
  3
AutoCAD 2000
 90
        0
280
     0
281
     0
  0
CLASS
  1
LONG_TRANSACTION
  2
AcDbLongTransaction
  3
AutoCAD 2000
 90
        0
280
     0
281
     0
  0
CLASS
  1
LWPOLYLINE
  2
AcDbPolyline
  3
AutoCAD 2000
 90
        0
280
     0
281
     1
  0
CLASS
  1
HATCH
  2
AcDbHatch
  3
AutoCAD 2000
 90
        0
280
     0
281
     1
  0
CLASS
  1
XRECORD
  2
AcDbXrecord
  3
AutoCAD 2000
 90
        0
280
     0
281
     0
  0
CLASS
  1
LONG_TRANSACTION
  2
AcDbLongTransaction
  3
AutoCAD 2000
 90
        0
280
     0
281
     0
  0
CLASS
  1
LWPOLYLINE
  2
AcDbPolyline
  3
AutoCAD 2000
 90
        0
280
     0
281
     1
  0
CLASS
  1
HATCH
  2
AcDbHatch
  3
AutoCAD 2000
 90
        0
280
     0
281
     1
  0
CLASS
  1
XRECORD
  2
AcDbXrecord
  3
AutoCAD 2000
 90
        0
280
     0
281
     0
  0
CLASS
  1
LONG_TRANSACTION
  2
AcDbLongTransaction
  3
AutoCAD 2000
 90
        0
280
     0
281
     0
  0
CLASS
  1
LWPOLYLINE
  2
AcDbPolyline
  3
AutoCAD 2000
 90
        0
280
     0
281
     1
  0
CLASS
  1
HATCH
  2
AcDbHatch
  3
AutoCAD 2000
 90
        0
280
     0
281
     1
  0
CLASS
  1
XRECORD
  2
AcDbXrecord
  3
AutoCAD 2000
 90
        0
280
     0
281
     0
  0
CLASS
  1
LONG_TRANSACTION
  2
AcDbLongTransaction
  3
AutoCAD 2000
 90
        0
280
     0
281
     0
  0
CLASS
  1
LWPOLYLINE
  2
AcDbPolyline
  3
AutoCAD 2000
 90
        0
280
     0
281
     1
  0
CLASS
  1
HATCH
  2
AcDbHatch
  3
AutoCAD 2000
 90
        0
280
     0
281
     1
  0
CLASS
  1
XRECORD
  2
AcDbXrecord
  3
AutoCAD 2000
 90
        0
280
     0
281
     0
  0
CLASS
  1
LONG_TRANSACTION
  2
AcDbLongTransaction
  3
AutoCAD 2000
 90
        0
280
     0
281
     0
  0
CLASS
  1
LWPOLYLINE
  2
AcDbPolyline
  3
AutoCAD 2000
 90
        0
280
     0
281
     1
  0
CLASS
  1
HATCH
  2
AcDbHatch
  3
AutoCAD 2000
 90
        0
280
     0
281
     1
  0
CLASS
  1
XRECORD
  2
AcDbXrecord
  3
AutoCAD 2000
 90
        0
280
     0
281
     0
  0
CLASS
  1
LONG_TRANSACTION
  2
AcDbLongTransaction
  3
AutoCAD 2000
 90
        0
280
     0
281
     0
  0
CLASS
  1
LWPOLYLINE
  2
AcDbPolyline
  3
AutoCAD 2000
 90
        0
280
     0
281
     1
  0
CLASS
  1
HATCH
  2
AcDbHatch
  3
AutoCAD 2000
 90
        0
280
     0
281
     1
  0
CLASS
  1
XRECORD
  2
AcDbXrecord
  3
AutoCAD 2000
 90
        0
280
     0
281
     0
  0
CLASS
  1
LONG_TRANSACTION
  2
AcDbLongTransaction
  3
AutoCAD 2000
 90
        0
280
     0
281
     0
  0
CLASS
  1
LWPOLYLINE
  2
AcDbPolyline
  3
AutoCAD 2000
 90
        0
280
     0
281
     1
  0
CLASS
  1
HATCH
  2
AcDbHatch
  3
AutoCAD 2000
 90
        0
280
     0
281
     1
  0
CLASS
  1
XRECORD
  2
AcDbXrecord
  3
AutoCAD 2000
 90
        0
280
     0
281
     0
  0
CLASS
  1
LONG_TRANSACTION
  2
AcDbLongTransaction
  3
AutoCAD 2000
 90
        0
280
     0
281
     0
  0
CLASS
  1
LWPOLYLINE
  2
AcDbPolyline
  3
AutoCAD 2000
 90
        0
280
     0
281
     1
  0
CLASS
  1
HATCH
  2
AcDbHatch
  3
AutoCAD 2000
 90
        0
280
     0
281
     1
  0
CLASS
  1
XRECORD
  2
AcDbXrecord
  3
AutoCAD 2000
 90
        0
280
     0
281
     0
  0
CLASS
  1
LONG_TRANSACTION
  2
AcDbLongTransaction
  3
AutoCAD 2000
 90
        0
280
     0
281
     0
  0
CLASS
  1
LWPOLYLINE
  2
AcDbPolyline
  3
AutoCAD 2000
 90
        0
280
     0
281
     1
  0
CLASS
  1
HATCH
  2
AcDbHatch
  3
AutoCAD 2000
 90
        0
280
     0
281
     1
  0
CLASS
  1
XRECORD
  2
AcDbXrecord
  3
AutoCAD 2000
 90
        0
280
     0
281
     0
  0
CLASS
  1
LONG_TRANSACTION
  2
AcDbLongTransaction
  3
AutoCAD 2000
 90
        0
280
     0
281
     0
  0
CLASS
  1
LWPOLYLINE
  2
AcDbPolyline
  3
AutoCAD 2000
 90
        0
280
     0
281
     1
  0
CLASS
  1
HATCH
  2
AcDbHatch
  3
AutoCAD 2000
 90
        0
280
     0
281
     1
  0
CLASS
  1
XRECORD
  2
AcDbXrecord
  3
AutoCAD 2000
 90
        0
280
     0
281
     0
  0
CLASS
  1
LONG_TRANSACTION
  2
AcDbLongTransaction
  3
AutoCAD 2000
 90
        0
280
     0
281
     0
  0
CLASS
  1
LWPOLYLINE
  2
AcDbPolyline
  3
AutoCAD 2000
 90
        0
280
     0
281
     1
  0
CLASS
  1
HATCH
  2
AcDbHatch
  3
AutoCAD 2000
 90
        0
280
     0
281
     1
  0
CLASS
  1
XRECORD
  2
AcDbXrecord
  3
AutoCAD 2000
 90
        0
280
     0
281
     0
  0
CLASS
  1
LONG_TRANSACTION
  2
AcDbLongTransaction
  3
AutoCAD 2000
 90
        0
280
     0
281
     0
  0
CLASS
  1
LWPOLYLINE
  2
AcDbPolyline
  3
AutoCAD 2000
 90
        0
280
     0
281
     1
  0
CLASS
  1
HATCH
  2
AcDbHatch
  3
AutoCAD 2000
 90
        0
280
     0
281
     1
  0
CLASS
  1
XRECORD
  2
AcDbXrecord
  3
AutoCAD 2000
 90
        0
280
     0
281
     0
  0
CLASS
  1
LONG_TRANSACTION
  2
AcDbLongTransaction
  3
AutoCAD 2000
 90
        0
280
     0
281
     0
  0
CLASS
  1
LWPOLYLINE
  2
AcDbPolyline
  3
AutoCAD 2000
 90
        0
280
     0
281
     1
  0
CLASS
  1
HATCH
  2
AcDbHatch
  3
AutoCAD 2000
 90
        0
280
     0
281
     1
  0
CLASS
  1
XRECORD
  2
AcDbXrecord
  3
AutoCAD 2000
 90
        0
280
     0
281
     0
  0
ENDSEC
  0
SECTION
  2
TABLES
  0
TABLE
  2
VPORT
  5
8
330
0
100
AcDbSymbolTable
 70
     8
  0
VPORT
  5
8747
330
8
100
AcDbSymbolTableRecord
100
AcDbViewportTableRecord
  2
*ACTIVE
 70
     0
 10
0.0
 20
0.0
 11
1.0
 21
1.0
 12
236.3598054503818
 22
187.5979127045355
 13
0.0
 23
0.0
 14
168.0
 24
168.0
 15
0.0
 25
0.0
 16
0.0
 26
0.0
 36
1.0
 17
0.0
 27
0.0
 37
0.0
 40
522.702635399101
 41
1.602080624187256
 42
50.0
 43
0.0
 44
0.0
 50
0.0
 51
0.0
 71
     0
 72
   100
 73
     1
 74
     0
 75
     0
 76
     0
 77
     0
 78
     1
  0
ENDTAB
  0
TABLE
  2
LTYPE
  5
5
330
0
100
AcDbSymbolTable
 70
     4
  0
LTYPE
  5
14
330
5
100
AcDbSymbolTableRecord
100
AcDbLinetypeTableRecord
  2
BYBLOCK
 70
     0
  3

 72
    65
 73
     0
 40
0.0
  0
LTYPE
  5
15
330
5
100
AcDbSymbolTableRecord
100
AcDbLinetypeTableRecord
  2
BYLAYER
 70
     0
  3

 72
    65
 73
     0
 40
0.0
  0
LTYPE
  5
16
330
5
100
AcDbSymbolTableRecord
100
AcDbLinetypeTableRecord
  2
CONTINUOUS
 70
     0
  3
Solid line
 72
    65
 73
     0
 40
0.0
  0
ENDTAB
  0
TABLE
  2
LAYER
  5
2
330
0
100
AcDbSymbolTable
 70
    18
  0
LAYER
  5
F
330
2
100
AcDbSymbolTableRecord
100
AcDbLayerTableRecord
  2
0
 70
     0
 62
     7
  6
CONTINUOUS
  0
LAYER
  5
71
330
2
100
AcDbSymbolTableRecord
100
AcDbLayerTableRecord
  2
MEASURE
 70
     0
 62
     9
  6
CONTINUOUS
  0
LAYER
  5
72
330
2
100
AcDbSymbolTableRecord
100
AcDbLayerTableRecord
  2
DEFPOINTS
 70
     0
 62
     7
  6
CONTINUOUS
  0
LAYER
  5
86B1
330
2
100
AcDbSymbolTableRecord
100
AcDbLayerTableRecord
  2
1
 70
     0
 62
     7
  6
CONTINUOUS
  0
ENDTAB
  0
TABLE
  2
STYLE
  5
3
330
0
100
AcDbSymbolTable
 70
     5
  0
STYLE
  5
10
330
3
100
AcDbSymbolTableRecord
100
AcDbTextStyleTableRecord
  2
STANDARD
 70
     0
 40
0.0
 41
0.8
 50
0.0
 71
     0
 42
84.17508417508416
  3
TXT
  4
bigfont.shx
  0
STYLE
  5
63
330
3
100
AcDbSymbolTableRecord
100
AcDbTextStyleTableRecord
  2
AD-STANDARD
 70
     0
 40
0.0
 41
0.8
 50
0.0
 71
     0
 42
3.5
  3
C:\Program Files\AutoCAD LT\romans.shx
  4
bigfont.shx
  0
ENDTAB
  0
TABLE
  2
VIEW
  5
6
330
0
100
AcDbSymbolTable
 70
     0
  0
ENDTAB
  0
TABLE
  2
UCS
  5
7
330
0
100
AcDbSymbolTable
 70
     0
  0
ENDTAB
  0
TABLE
  2
APPID
  5
9
330
0
100
AcDbSymbolTable
 70
     5
  0
APPID
  5
11
330
9
100
AcDbSymbolTableRecord
100
AcDbRegAppTableRecord
  2
ACAD
 70
     0
  0
APPID
  5
22A
330
9
100
AcDbSymbolTableRecord
100
AcDbRegAppTableRecord
  2
CONTENTTABDATA
 70
     0
  0
APPID
  5
22B
330
9
100
AcDbSymbolTableRecord
100
AcDbRegAppTableRecord
  2
CONTENTCURRENTTAB
 70
     0
  0
APPID
  5
232
330
9
100
AcDbSymbolTableRecord
100
AcDbRegAppTableRecord
  2
CONTENTBLOCKDESCRIPTION
 70
     0
  0
APPID
  5
233
330
9
100
AcDbSymbolTableRecord
100
AcDbRegAppTableRecord
  2
CONTENTBLOCKICON
 70
     0
  0
ENDTAB
  0
TABLE
  2
DIMSTYLE
  5
A
330
0
100
AcDbSymbolTable
 70
     4
  0
DIMSTYLE
105
1D
330
A
100
AcDbSymbolTableRecord
100
AcDbDimStyleTableRecord
  2
STANDARD
 70
     0
  3

  4

  5

  6

  7

 40
1.0
 41
0.18
 42
0.0625
 43
0.38
 44
0.18
 45
0.0
 46
0.0
 47
0.0
 48
0.0
140
0.18
141
0.09
142
0.0
143
25.4
144
1.0
145
0.0
146
1.0
147
0.09
 71
     0
 72
     0
 73
     1
 74
     1
 75
     0
 76
     0
 77
     0
 78
     0
170
     0
171
     2
172
     0
173
     0
174
     0
175
     0
176
     0
177
     0
178
     0
270
     2
271
     4
272
     4
273
     2
274
     2
340
10
275
     0
280
     0
281
     0
282
     0
283
     1
284
     0
285
     0
286
     0
287
     3
288
     0
  0
ENDTAB
  0
TABLE
  2
BLOCK_RECORD
  5
1
330
0
100
AcDbSymbolTable
 70
    21
  0
BLOCK_RECORD
  5
1A
102
{ACAD_XDICTIONARY
360
924
102
}
330
1
100
AcDbSymbolTableRecord
100
AcDbBlockTableRecord
  2
*MODEL_SPACE
  0
BLOCK_RECORD
  5
17
102
{ACAD_XDICTIONARY
360
922
102
}
330
1
100
AcDbSymbolTableRecord
100
AcDbBlockTableRecord
  2
*PAPER_SPACE
  0
ENDTAB
  0
ENDSEC
  0
SECTION
  2
BLOCKS
  0
BLOCK
  5
1B
330
1A
100
AcDbEntity
  8
0
100
AcDbBlockBegin
  2
*MODEL_SPACE
 70
     0
 10
0.0
 20
0.0
 30
0.0
  3
*MODEL_SPACE
  1

  0
ENDBLK
  5
1C
330
1A
100
AcDbEntity
  8
0
100
AcDbBlockEnd
  0
BLOCK
  5
18
330
17
100
AcDbEntity
 67
     1
  8
0
100
AcDbBlockBegin
  2
*PAPER_SPACE
 70
     0
 10
0.0
 20
0.0
 30
0.0
  3
*PAPER_SPACE
  1

  0
ENDBLK
  5
19
330
17
100
AcDbEntity
 67
     1
  8
0
100
AcDbBlockEnd
  0
ENDSEC
  0
SECTION
  2
ENTITIES
  0
LINE
  5
7603
330
1A
100
AcDbEntity
  8
1
100
AcDbLine
 10
199.6202498130792
 20
81.13181962474937
 30
0.0
 11
199.6202498130792
 21
89.63181962474937
 31
0.0
  0
LINE
  5
7604
330
1A
100
AcDbEntity
  8
1
100
AcDbLine
 10
196.4202498130803
 20
92.8318196247501
 30
0.0
 11
182.1202498130792
 21
92.83181962474827
 31
0.0
  0
LINE
  5
7605
330
1A
100
AcDbEntity
  8
1
100
AcDbLine
 10
65.62024981307832
 20
89.63181962475118
 30
0.0
 11
65.62024981308013
 21
81.13181962474937
 31
0.0
  0
LINE
  5
7607
330
1A
100
AcDbEntity
  8
1
100
AcDbLine
 10
174.0115891324476
 20
101.1318196247493
 30
0.0
 11
91.22891049371174
 21
101.1318196247493
 31
0.0
  0
LINE
  5
7608
330
1A
100
AcDbEntity
  8
1
100
AcDbLine
 10
83.12024981308013
 20
92.8318196247501
 30
0.0
 11
68.82024981307904
 21
92.8318196247501
 31
0.0
  0
ARC
  5
760A
330
1A
100
AcDbEntity
  8
1
100
AcDbCircle
 10
196.4202498130807
 20
89.63181962474937
 30
0.0
 40
3.2
100
AcDbArc
 50
0.0
 51
90.0
  0
ARC
  5
760B
330
1A
100
AcDbEntity
  8
1
100
AcDbCircle
 10
91.22891049371174
 20
97.93181962474955
 30
0.0
 40
3.2
100
AcDbArc
 50
90.0
 51
141.3176383762167
  0
ARC
  5
760C
330
1A
100
AcDbEntity
  8
1
100
AcDbCircle
 10
68.82024981307949
 20
89.63181962475028
 30
0.0
 40
3.2
100
AcDbArc
 50
90.0
 51
180.0
  0
LINE
  5
760D
330
1A
100
AcDbEntity
  8
1
100
AcDbLine
 10
65.62024981307968
 20
81.13181962475028
 30
0.0
 11
199.6202498130796
 21
81.13181962475028
 31
0.0
  0
LINE
  5
760E
330
1A
100
AcDbEntity
  8
1
100
AcDbLine
 10
83.12024981308013
 20
92.8318196247501
 30
0.0
 11
182.1202498130801
 21
92.83181962474827
 31
0.0
  0
CIRCLE
  5
7616
330
1A
100
AcDbEntity
  8
1
100
AcDbCircle
 10
132.6202498130796
 20
214.5404439215717
 30
0.0
 40
45.7
  0
ARC
  5
761A
330
1A
100
AcDbEntity
  8
1
100
AcDbCircle
 10
174.0115891324476
 20
97.93181962474955
 30
0.0
 40
3.2
100
AcDbArc
 50
38.68236162371458
 51
90.0
  0
CIRCLE
  5
761B
330
1A
100
AcDbEntity
  8
1
100
AcDbCircle
 10
132.6202498130796
 20
214.5404439215717
 30
0.0
 40
67.0
  0
ARC
  5
76DF
330
1A
100
AcDbEntity
  8
1
100
AcDbCircle
 10
62.62024981308059
 20
214.5404439215699
 30
0.0
 40
4.0
100
AcDbArc
 50
40.314909174732
 51
319.6850908252779
  0
ARC
  5
76ED
330
1A
100
AcDbEntity
  8
1
100
AcDbCircle
 10
202.6202498130805
 20
214.5404439215726
 30
0.0
 40
4.0
100
AcDbArc
 50
220.3149091746895
 51
139.6850908253146
  0
LINE
  5
76F7
330
1A
100
AcDbEntity
  8
1
100
AcDbLine
 10
85.40918963195691
 20
75.43181962474955
 30
0.0
 11
85.40918963195736
 21
46.63181962471663
 31
0.0
  0
LINE
  5
76F8
330
1A
100
AcDbEntity
  8
1
100
AcDbLine
 10
70.92026133607305
 20
80.43181962474955
 30
0.0
 11
80.40918963195736
 21
80.43181962474955
 31
0.0
  0
ARC
  5
76F9
330
1A
100
AcDbEntity
  8
1
100
AcDbCircle
 10
80.40918963195963
 20
75.43181962474682
 30
0.0
 40
5.0
100
AcDbArc
 50
0.0
 51
90.0
  0
ARC
  5
76FA
330
1A
100
AcDbEntity
  8
1
100
AcDbCircle
 10
70.92026133607532
 20
83.93181962474773
 30
0.0
 40
3.5
100
AcDbArc
 50
233.1301023541053
 51
270.0
  0
LINE
  5
76FD
330
1A
100
AcDbEntity
  8
1
100
AcDbLine
 10
194.320238290084
 20
80.43181962474955
 30
0.0
 11
184.8313099942015
 21
80.43181962474864
 31
0.0
  0
ARC
  5
76FF
330
1A
100
AcDbEntity
  8
1
100
AcDbCircle
 10
194.3202382900863
 20
83.93181962474683
 30
0.0
 40
3.5
100
AcDbArc
 50
270.0
 51
306.8698976459214
  0
ARC
  5
7700
330
1A
100
AcDbEntity
  8
1
100
AcDbCircle
 10
184.8313099942038
 20
75.43181962474682
 30
0.0
 40
5.0
100
AcDbArc
 50
90.0
 51
180.0
  0
LINE
  5
7701
330
1A
100
AcDbEntity
  8
1
100
AcDbLine
 10
179.831309994202
 20
75.43181962474955
 30
0.0
 11
179.8313099942029
 21
46.63181962471663
 31
0.0
  0
LINE
  5
7705
330
1A
100
AcDbEntity
  8
1
100
AcDbLine
 10
316.4511140349032
 20
252.7404439215715
 30
0.0
 11
316.4511140349013
 21
214.5404439215726
 31
0.0
  0
LINE
  5
7709
330
1A
100
AcDbEntity
  8
1
100
AcDbLine
 10
316.4511140349032
 20
176.3404439215773
 30
0.0
 11
316.4511140349013
 21
214.5404439215772
 31
0.0
  0
ARC
  5
770A
330
1A
100
AcDbEntity
  8
1
100
AcDbCircle
 10
273.1511140349021
 20
152.8404554445705
 30
0.0
 40
3.5
100
AcDbArc
 50
323.1301023541321
 51
0.0
  0
LINE
  5
770C
330
1A
100
AcDbEntity
  8
1
100
AcDbLine
 10
276.6511140349011
 20
152.8404554445678
 30
0.0
 11
276.651114034902
 21
276.2404323985792
 31
0.0
  0
ARC
  5
7717
330
1A
100
AcDbEntity
  8
1
100
AcDbCircle
 10
273.1511140349029
 20
276.2404323985801
 30
0.0
 40
3.5
100
AcDbArc
 50
0.0
 51
36.86989764588869
  0
LINE
  5
7718
330
1A
100
AcDbEntity
  8
1
100
AcDbLine
 10
319.4511140349013
 20
199.5404439215744
 30
0.0
 11
316.4511140349013
 21
199.5404439215708
 31
0.0
  0
LINE
  5
7719
330
1A
100
AcDbEntity
  8
1
100
AcDbLine
 10
319.4511140349013
 20
229.5404439215744
 30
0.0
 11
316.4511140349013
 21
229.5404439215726
 31
0.0
  0
ARC
  5
773E
330
1A
100
AcDbEntity
  8
1
100
AcDbCircle
 10
310.4511140349036
 20
176.3404439215783
 30
0.0
 40
6.0
100
AcDbArc
 50
270.0
 51
0.0
  0
ARC
  5
776F
330
1A
100
AcDbEntity
  8
1
100
AcDbCircle
 10
310.4511140349036
 20
252.7404439215715
 30
0.0
 40
6.0
100
AcDbArc
 50
0.0
 51
90.0
  0
LINE
  5
7790
330
1A
100
AcDbEntity
  8
1
100
AcDbLine
 10
144.6202498130778
 20
147.8704439215689
 30
0.0
 11
139.2618685916409
 21
147.8704439215698
 31
0.0
  0
LINE
  5
7791
330
1A
100
AcDbEntity
  8
1
100
AcDbLine
 10
125.9786310344884
 20
147.8704439215725
 30
0.0
 11
120.6202498130796
 21
147.8704439215725
 31
0.0
  0
LINE
  5
77F4
330
1A
100
AcDbEntity
  8
1
100
AcDbLine
 10
80.40918963195736
 20
80.43181962474955
 30
0.0
 11
184.8313099942015
 21
80.43181962474864
 31
0.0
  0
LINE
  5
77F9
330
1A
100
AcDbEntity
  8
1
 62
     8
100
AcDbLine
 10
115.980931720986
 20
80.43181962474955
 30
0.0
 11
115.9809317209865
 21
40.63181962474845
 31
0.0
  0
LINE
  5
77FA
330
1A
100
AcDbEntity
  8
1
 62
     8
100
AcDbLine
 10
149.2595679050773
 20
80.43181962478502
 30
0.0
 11
149.2595679051719
 21
40.63181962478393
 31
0.0
  0
LINE
  5
77FB
330
1A
100
AcDbEntity
  8
1
100
AcDbLine
 10
132.6202498130824
 20
40.63181962474845
 30
0.0
 11
212.6202498130796
 21
40.63181962474845
 31
0.0
  0
LINE
  5
77FC
330
1A
100
AcDbEntity
  8
1
100
AcDbLine
 10
212.6202498130796
 20
40.63181962474845
 30
0.0
 11
212.6202498130796
 21
37.63181962474845
 31
0.0
  0
LINE
  5
77FD
330
1A
100
AcDbEntity
  8
1
100
AcDbLine
 10
212.6202498130796
 20
37.63181962474845
 30
0.0
 11
132.6202498130787
 21
37.63181962474936
 31
0.0
  0
LINE
  5
77FE
330
1A
100
AcDbEntity
  8
1
100
AcDbLine
 10
211.6202498130796
 20
40.63181962474845
 30
0.0
 11
211.6202498130796
 21
37.63181962474845
 31
0.0
  0
LINE
  5
77FF
330
1A
100
AcDbEntity
  8
1
100
AcDbLine
 10
132.620249813071
 20
40.63181962474845
 30
0.0
 11
52.62024981307741
 21
40.63181962468934
 31
0.0
  0
LINE
  5
7800
330
1A
100
AcDbEntity
  8
1
100
AcDbLine
 10
52.62024981307741
 20
40.63181962468934
 30
0.0
 11
52.62024981307968
 21
37.63181962468934
 31
0.0
  0
LINE
  5
7801
330
1A
100
AcDbEntity
  8
1
100
AcDbLine
 10
52.62024981307968
 20
37.63181962468934
 30
0.0
 11
132.6202498130769
 21
37.63181962474936
 31
0.0
  0
LINE
  5
7802
330
1A
100
AcDbEntity
  8
1
100
AcDbLine
 10
53.6202498130774
 20
40.63181962469025
 30
0.0
 11
53.62024981307968
 21
37.63181962469025
 31
0.0
  0
LINE
  5
781B
330
1A
100
AcDbEntity
  8
1
100
AcDbLine
 10
167.8233654022396
 20
75.43181962474318
 30
0.0
 11
178.8233654022396
 21
75.43181962474318
 31
0.0
  0
ARC
  5
781C
330
1A
100
AcDbEntity
  8
1
100
AcDbCircle
 10
173.3233654022396
 20
79.05800253446978
 30
0.0
 40
1.0
100
AcDbArc
 50
225.0
 51
317.7818209908532
  0
ARC
  5
781D
330
1A
100
AcDbEntity
  8
1
100
AcDbCircle
 10
172.0353347495934
 20
79.63892640592985
 30
0.0
 40
0.5
100
AcDbArc
 50
180.0
 51
225.0
  0
LINE
  5
781E
330
1A
100
AcDbEntity
  8
1
100
AcDbLine
 10
171.5353347495965
 20
79.63892640592985
 30
0.0
 11
171.5353347495947
 21
80.4318196247441
 31
0.0
  0
LINE
  5
781F
330
1A
100
AcDbEntity
  8
1
100
AcDbLine
 10
171.6817813590023
 20
79.28537301533651
 30
0.0
 11
172.6162586210534
 21
78.35089575328493
 31
0.0
  0
ARC
  5
7820
330
1A
100
AcDbEntity
  8
1
100
AcDbCircle
 10
174.5128103937672
 20
79.62484470456729
 30
0.0
 40
0.5
100
AcDbArc
 50
317.7818209908532
 51
0.0
  0
LINE
  5
7821
330
1A
100
AcDbEntity
  8
1
100
AcDbLine
 10
174.0639568353394
 20
78.38604693383968
 30
0.0
 11
174.8831061103196
 21
79.28886690425134
 31
0.0
  0
LINE
  5
7822
330
1A
100
AcDbEntity
  8
1
100
AcDbLine
 10
175.0128103937704
 20
79.62484470456911
 30
0.0
 11
175.0128103937704
 21
80.43181962474227
 31
0.0
  0
LINE
  5
7823
330
1A
100
AcDbEntity
  8
1
100
AcDbLine
 10
180.573365402241
 20
80.4318196247441
 30
0.0
 11
166.0733654022392
 21
80.431819624745
 31
0.0
  0
LINE
  5
7825
330
1A
100
AcDbEntity
  8
1
100
AcDbLine
 10
167.8233654022392
 20
78.05829718130644
 30
0.0
 11
167.8233654022396
 21
75.43181962474318
 31
0.0
  0
LINE
  5
7826
330
1A
100
AcDbEntity
  8
1
100
AcDbLine
 10
178.8233654022396
 20
78.05829718130553
 30
0.0
 11
178.8233654022396
 21
75.43181962474318
 31
0.0
  0
LINE
  5
7827
330
1A
100
AcDbEntity
  8
1
100
AcDbLine
 10
171.7522975903757
 20
79.21485678396402
 30
0.0
 11
171.7522975903762
 21
75.43181962474318
 31
0.0
  0
LINE
  5
7828
330
1A
100
AcDbEntity
  8
1
100
AcDbLine
 10
174.8944332141036
 20
79.21485678396402
 30
0.0
 11
174.8944332141031
 21
75.43181962474318
 31
0.0
  0
ARC
  5
7829
330
1A
100
AcDbEntity
  8
1
100
AcDbCircle
 10
180.0733654022424
 20
79.63892640593076
 30
0.0
 40
0.5
100
AcDbArc
 50
315.0
 51
0.0
  0
LINE
  5
782A
330
1A
100
AcDbEntity
  8
1
100
AcDbLine
 10
180.5733654022392
 20
79.63892640593076
 30
0.0
 11
180.5733654022415
 21
80.431819624745
 31
0.0
  0
LINE
  5
782B
330
1A
100
AcDbEntity
  8
1
100
AcDbLine
 10
180.4269187928357
 20
79.28537301533743
 30
0.0
 11
179.4299071950863
 21
78.21713925857693
 31
0.0
  0
LINE
  5
782C
330
1A
100
AcDbEntity
  8
1
100
AcDbLine
 10
178.394433214104
 20
79.75927433676133
 30
0.0
 11
178.3944332141045
 21
80.43181962474227
 31
0.0
  0
LINE
  5
782D
330
1A
100
AcDbEntity
  8
1
100
AcDbLine
 10
178.4299343141733
 20
79.4951874722019
 30
0.0
 11
178.8233654022401
 21
78.05829718130553
 31
0.0
  0
ARC
  5
782E
330
1A
100
AcDbEntity
  8
1
100
AcDbCircle
 10
179.3944332141045
 20
79.75927433676133
 30
0.0
 40
1.0
100
AcDbArc
 50
180.0
 51
195.3127012090499
  0
LINE
  5
782F
330
1A
100
AcDbEntity
  8
1
100
AcDbLine
 10
178.8233654022396
 20
78.05829718130553
 30
0.0
 11
179.0643784386829
 21
78.05829718130553
 31
0.0
  0
ARC
  5
7830
330
1A
100
AcDbEntity
  8
1
100
AcDbCircle
 10
179.064378438682
 20
78.55829718130644
 30
0.0
 40
0.5
100
AcDbArc
 50
270.0000000001042
 51
316.975122492414
  0
ARC
  5
7831
330
1A
100
AcDbEntity
  8
1
100
AcDbCircle
 10
166.5733654022369
 20
79.63892640593076
 30
0.0
 40
0.5
100
AcDbArc
 50
180.0
 51
225.0
  0
LINE
  5
7832
330
1A
100
AcDbEntity
  8
1
100
AcDbLine
 10
166.0733654022401
 20
79.63892640593076
 30
0.0
 11
166.0733654022378
 21
80.431819624745
 31
0.0
  0
LINE
  5
7833
330
1A
100
AcDbEntity
  8
1
100
AcDbLine
 10
166.2198120116436
 20
79.28537301533743
 30
0.0
 11
167.216823609393
 21
78.21713925857693
 31
0.0
  0
LINE
  5
7834
330
1A
100
AcDbEntity
  8
1
100
AcDbLine
 10
168.2522975903752
 20
79.75927433676133
 30
0.0
 11
168.2522975903748
 21
80.43181962474227
 31
0.0
  0
LINE
  5
7835
330
1A
100
AcDbEntity
  8
1
100
AcDbLine
 10
168.216796490306
 20
79.4951874722019
 30
0.0
 11
167.8233654022392
 21
78.05829718130553
 31
0.0
  0
ARC
  5
7836
330
1A
100
AcDbEntity
  8
1
100
AcDbCircle
 10
167.2522975903748
 20
79.75927433676133
 30
0.0
 40
1.0
100
AcDbArc
 50
344.68729879095
 51
0.0
  0
LINE
  5
7837
330
1A
100
AcDbEntity
  8
1
100
AcDbLine
 10
167.8233654022396
 20
78.05829718130553
 30
0.0
 11
167.5823523657963
 21
78.05829718130553
 31
0.0
  0
ARC
  5
7838
330
1A
100
AcDbEntity
  8
1
100
AcDbCircle
 10
167.5823523657973
 20
78.55829718130644
 30
0.0
 40
0.5
100
AcDbArc
 50
223.0248775075859
 51
269.9999999998957
  0
LINE
  5
7839
330
1A
100
AcDbEntity
  8
1
100
AcDbLine
 10
97.41713422391967
 20
75.43181962474591
 30
0.0
 11
86.41713422391967
 21
75.43181962474682
 31
0.0
  0
ARC
  5
783A
330
1A
100
AcDbEntity
  8
1
100
AcDbCircle
 10
91.91713422391968
 20
79.05800253447342
 30
0.0
 40
1.0
100
AcDbArc
 50
222.2181790091467
 51
315.0
  0
ARC
  5
783B
330
1A
100
AcDbEntity
  8
1
100
AcDbCircle
 10
93.20516487656595
 20
79.63892640593257
 30
0.0
 40
0.5
100
AcDbArc
 50
315.0
 51
0.0
  0
LINE
  5
783C
330
1A
100
AcDbEntity
  8
1
100
AcDbLine
 10
93.70516487656278
 20
79.63892640593257
 30
0.0
 11
93.70516487656459
 21
80.43181962474681
 31
0.0
  0
LINE
  5
783D
330
1A
100
AcDbEntity
  8
1
100
AcDbLine
 10
93.55871826715702
 20
79.28537301533925
 30
0.0
 11
92.62424100510589
 21
78.35089575328765
 31
0.0
  0
ARC
  5
783E
330
1A
100
AcDbEntity
  8
1
100
AcDbCircle
 10
90.72768923239209
 20
79.62484470457093
 30
0.0
 40
0.5
100
AcDbArc
 50
180.0
 51
222.2181790091467
  0
LINE
  5
783F
330
1A
100
AcDbEntity
  8
1
100
AcDbLine
 10
91.17654279081989
 20
78.38604693384332
 30
0.0
 11
90.3573935158397
 21
79.28886690425497
 31
0.0
  0
LINE
  5
7840
330
1A
100
AcDbEntity
  8
1
100
AcDbLine
 10
90.2276892323889
 20
79.62484470457275
 30
0.0
 11
90.2276892323889
 21
80.43181962474591
 31
0.0
  0
LINE
  5
7841
330
1A
100
AcDbEntity
  8
1
100
AcDbLine
 10
84.66713422391832
 20
80.43181962474774
 30
0.0
 11
99.16713422392014
 21
80.43181962474774
 31
0.0
  0
LINE
  5
7843
330
1A
100
AcDbEntity
  8
1
100
AcDbLine
 10
97.41713422392013
 20
78.05829718130917
 30
0.0
 11
97.41713422391967
 21
75.43181962474591
 31
0.0
  0
LINE
  5
7844
330
1A
100
AcDbEntity
  8
1
100
AcDbLine
 10
86.41713422391967
 20
78.05829718130917
 30
0.0
 11
86.41713422391967
 21
75.43181962474682
 31
0.0
  0
LINE
  5
7845
330
1A
100
AcDbEntity
  8
1
100
AcDbLine
 10
93.48820203578361
 20
79.21485678396675
 30
0.0
 11
93.48820203578316
 21
75.43181962474591
 31
0.0
  0
LINE
  5
7846
330
1A
100
AcDbEntity
  8
1
100
AcDbLine
 10
90.34606641205574
 20
79.21485678396766
 30
0.0
 11
90.34606641205618
 21
75.43181962474682
 31
0.0
  0
ARC
  5
7847
330
1A
100
AcDbEntity
  8
1
100
AcDbCircle
 10
85.16713422391694
 20
79.6389264059344
 30
0.0
 40
0.5
100
AcDbArc
 50
180.0
 51
225.0
  0
LINE
  5
7848
330
1A
100
AcDbEntity
  8
1
100
AcDbLine
 10
84.66713422392013
 20
79.6389264059344
 30
0.0
 11
84.66713422391785
 21
80.43181962474864
 31
0.0
  0
LINE
  5
7849
330
1A
100
AcDbEntity
  8
1
100
AcDbLine
 10
84.81358083332361
 20
79.28537301534106
 30
0.0
 11
85.81059243107302
 21
78.21713925858057
 31
0.0
  0
LINE
  5
784A
330
1A
100
AcDbEntity
  8
1
100
AcDbLine
 10
86.84606641205528
 20
79.75927433676497
 30
0.0
 11
86.84606641205482
 21
80.43181962474591
 31
0.0
  0
LINE
  5
784B
330
1A
100
AcDbEntity
  8
1
100
AcDbLine
 10
86.81056531198601
 20
79.49518747220555
 30
0.0
 11
86.41713422391921
 21
78.05829718130917
 31
0.0
  0
ARC
  5
784C
330
1A
100
AcDbEntity
  8
1
100
AcDbCircle
 10
85.84606641205482
 20
79.75927433676497
 30
0.0
 40
1.0
100
AcDbArc
 50
344.68729879095
 51
0.0
  0
LINE
  5
784D
330
1A
100
AcDbEntity
  8
1
100
AcDbLine
 10
86.41713422391967
 20
78.05829718130917
 30
0.0
 11
86.17612118747638
 21
78.05829718130917
 31
0.0
  0
ARC
  5
784E
330
1A
100
AcDbEntity
  8
1
100
AcDbCircle
 10
86.17612118747729
 20
78.55829718131008
 30
0.0
 40
0.5
100
AcDbArc
 50
223.0248775075859
 51
269.9999999998957
  0
ARC
  5
784F
330
1A
100
AcDbEntity
  8
1
100
AcDbCircle
 10
98.66713422392241
 20
79.63892640593349
 30
0.0
 40
0.5
100
AcDbArc
 50
314.9999999999816
 51
0.0
  0
LINE
  5
7850
330
1A
100
AcDbEntity
  8
1
100
AcDbLine
 10
99.16713422391921
 20
79.63892640593349
 30
0.0
 11
99.16713422392149
 21
80.43181962474774
 31
0.0
  0
LINE
  5
7851
330
1A
100
AcDbEntity
  8
1
100
AcDbLine
 10
99.02068761451573
 20
79.28537301534015
 30
0.0
 11
98.02367601676634
 21
78.21713925857967
 31
0.0
  0
LINE
  5
7852
330
1A
100
AcDbEntity
  8
1
100
AcDbLine
 10
96.98820203578407
 20
79.75927433676407
 30
0.0
 11
96.98820203578453
 21
80.431819624745
 31
0.0
  0
LINE
  5
7853
330
1A
100
AcDbEntity
  8
1
100
AcDbLine
 10
97.02370313585333
 20
79.49518747220463
 30
0.0
 11
97.41713422392013
 21
78.05829718130826
 31
0.0
  0
ARC
  5
7854
330
1A
100
AcDbEntity
  8
1
100
AcDbCircle
 10
97.98820203578452
 20
79.75927433676407
 30
0.0
 40
1.0
100
AcDbArc
 50
180.0
 51
195.3127012090499
  0
LINE
  5
7855
330
1A
100
AcDbEntity
  8
1
100
AcDbLine
 10
97.41713422391967
 20
78.05829718130826
 30
0.0
 11
97.65814726036296
 21
78.05829718130826
 31
0.0
  0
ARC
  5
7856
330
1A
100
AcDbEntity
  8
1
100
AcDbCircle
 10
97.65814726036206
 20
78.55829718130917
 30
0.0
 40
0.5
100
AcDbArc
 50
270.0000000001042
 51
316.975122492414
  0
LINE
  5
7877
330
1A
100
AcDbEntity
  8
1
100
AcDbLine
 10
281.651114034907
 20
258.7404439215743
 30
0.0
 11
310.4511140349031
 21
258.7404439215724
 31
0.0
  0
LINE
  5
787D
330
1A
100
AcDbEntity
  8
1
100
AcDbLine
 10
303.4511140349022
 20
170.3404439215764
 30
0.0
 11
310.4511140349031
 21
170.3404439215764
 31
0.0
  0
MTEXT
  5
7899
330
1A
100
AcDbEntity
  8
MEASURE
 62
     2
100
AcDbMText
 10
2832.66347532803
 20
4930.266002244986
 30
0.0
 40
3.5
 41
0.0
 71
     9
 72
     1
  1

  7
AD-STANDARD
1001
ACAD
1000
MTEXTBEGIN
1070
    73
1070
     1
1070
    44
1040
1.0
1070
    74
1070
     0
1000
MTEXTEND
1000
MTEXTBEGIN
1070
    73
1070
     1
1070
    44
1040
1.0
1070
    74
1070
     0
1000
MTEXTEND
1000
MTEXTBEGIN
1070
    73
1070
     1
1070
    44
1040
1.0
1070
    74
1070
     0
1000
MTEXTEND
1000
MTEXTBEGIN
1070
    73
1070
     1
1070
    44
1040
1.0
1070
    74
1070
     0
1000
MTEXTEND
1000
MTEXTBEGIN
1070
    73
1070
     1
1070
    44
1040
1.0
1070
    74
1070
     0
1000
MTEXTEND
1000
MTEXTBEGIN
1070
    73
1070
     1
1070
    44
1040
1.0
1070
    74
1070
     0
1000
MTEXTEND
1000
MTEXTBEGIN
1070
    73
1070
     1
1070
    44
1040
1.0
1070
    74
1070
     0
1000
MTEXTEND
1000
MTEXTBEGIN
1070
    73
1070
     1
1070
    44
1040
1.0
1070
    74
1070
     0
1000
MTEXTEND
1000
MTEXTBEGIN
1070
    73
1070
     1
1070
    44
1040
1.0
1070
    74
1070
     0
1000
MTEXTEND
1000
MTEXTBEGIN
1070
    73
1070
     1
1070
    44
1040
1.0
1070
    74
1070
     0
1000
MTEXTEND
1000
MTEXTBEGIN
1070
    73
1070
     1
1070
    44
1040
1.0
1070
    74
1070
     0
1000
MTEXTEND
1000
MTEXTBEGIN
1070
    73
1070
     1
1070
    44
1040
1.0
1070
    74
1070
     0
1000
MTEXTEND
1000
MTEXTBEGIN
1070
    73
1070
     1
1070
    44
1040
1.0
1070
    74
1070
     0
1000
MTEXTEND
1000
MTEXTBEGIN
1070
    73
1070
     1
1070
    44
1040
1.0
1070
    74
1070
     0
1000
MTEXTEND
1000
MTEXTBEGIN
1070
    73
1070
     1
1070
    44
1040
1.0
1070
    74
1070
     0
1000
MTEXTEND
  0
ARC
  5
789D
330
1A
100
AcDbEntity
  8
1
100
AcDbCircle
 10
91.40918963195828
 20
46.63181962471663
 30
0.0
 40
6.0
100
AcDbArc
 50
180.0
 51
270.0000000000521
  0
ARC
  5
789E
330
1A
100
AcDbEntity
  8
1
100
AcDbCircle
 10
173.8313099942001
 20
46.63181962471663
 30
0.0
 40
6.0
100
AcDbArc
 50
269.9999999999478
 51
0.0
  0
LINE
  5
790B
330
1A
100
AcDbEntity
  8
1
100
AcDbLine
 10
275.9511140349022
 20
281.5404439215735
 30
0.0
 11
267.4511140349022
 21
281.5404439215735
 31
0.0
  0
LINE
  5
790C
330
1A
100
AcDbEntity
  8
1
100
AcDbLine
 10
264.2511140349015
 20
278.3404439215746
 30
0.0
 11
264.2511140349033
 21
264.0404439215735
 31
0.0
  0
LINE
  5
790D
330
1A
100
AcDbEntity
  8
1
100
AcDbLine
 10
267.4511140349004
 20
147.5404439215735
 30
0.0
 11
275.9511140349022
 21
147.5404439215753
 31
0.0
  0
LINE
  5
790F
330
1A
100
AcDbEntity
  8
1
100
AcDbLine
 10
255.9511140349022
 20
255.9317832409424
 30
0.0
 11
255.9511140349022
 21
173.1491046022065
 31
0.0
  0
LINE
  5
7910
330
1A
100
AcDbEntity
  8
1
100
AcDbLine
 10
264.2511140349015
 20
165.0404439215753
 30
0.0
 11
264.2511140349015
 21
150.7404439215743
 31
0.0
  0
ARC
  5
7912
330
1A
100
AcDbEntity
  8
1
100
AcDbCircle
 10
267.4511140349027
 20
278.3404439215755
 30
0.0
 40
3.2
100
AcDbArc
 50
90.0
 51
180.0
  0
ARC
  5
7913
330
1A
100
AcDbEntity
  8
1
100
AcDbCircle
 10
259.1511140349025
 20
173.1491046022065
 30
0.0
 40
3.2
100
AcDbArc
 50
180.0
 51
231.3176383762104
  0
ARC
  5
7914
330
1A
100
AcDbEntity
  8
1
100
AcDbCircle
 10
267.4511140349018
 20
150.7404439215743
 30
0.0
 40
3.2
100
AcDbArc
 50
180.0
 51
270.0
  0
LINE
  5
7915
330
1A
100
AcDbEntity
  8
1
100
AcDbLine
 10
275.9511140349013
 20
147.5404439215744
 30
0.0
 11
275.9511140349013
 21
281.5404439215744
 31
0.0
  0
LINE
  5
7916
330
1A
100
AcDbEntity
  8
1
100
AcDbLine
 10
264.2511140349015
 20
165.0404439215753
 30
0.0
 11
264.2511140349033
 21
264.0404439215753
 31
0.0
  0
LINE
  5
791D
330
1A
100
AcDbEntity
  8
1
100
AcDbLine
 10
281.651114034907
 20
249.7435595107353
 30
0.0
 11
281.651114034907
 21
260.7435595107353
 31
0.0
  0
ARC
  5
791E
330
1A
100
AcDbEntity
  8
1
100
AcDbCircle
 10
278.0249311251809
 20
255.2435595107354
 30
0.0
 40
1.0
100
AcDbArc
 50
315.0
 51
47.78182099085321
  0
ARC
  5
791F
330
1A
100
AcDbEntity
  8
1
100
AcDbCircle
 10
277.4440072537208
 20
253.9555288580895
 30
0.0
 40
0.5
100
AcDbArc
 50
270.0
 51
315.0
  0
LINE
  5
7920
330
1A
100
AcDbEntity
  8
1
100
AcDbLine
 10
277.4440072537204
 20
253.4555288580932
 30
0.0
 11
276.6511140349062
 21
253.4555288580913
 31
0.0
  0
LINE
  5
7921
330
1A
100
AcDbEntity
  8
1
100
AcDbLine
 10
277.7975606443137
 20
253.6019754674989
 30
0.0
 11
278.7320379063653
 21
254.5364527295496
 31
0.0
  0
ARC
  5
7922
330
1A
100
AcDbEntity
  8
1
100
AcDbCircle
 10
277.4580889550834
 20
256.4330045022634
 30
0.0
 40
0.5
100
AcDbArc
 50
47.78182099085321
 51
90.0
  0
LINE
  5
7923
330
1A
100
AcDbEntity
  8
1
100
AcDbLine
 10
278.6968867258106
 20
255.9841509438356
 30
0.0
 11
277.7940667553989
 21
256.8033002188158
 31
0.0
  0
LINE
  5
7924
330
1A
100
AcDbEntity
  8
1
100
AcDbLine
 10
277.4580889550811
 20
256.9330045022661
 30
0.0
 11
276.651114034908
 21
256.9330045022661
 31
0.0
  0
LINE
  5
7925
330
1A
100
AcDbEntity
  8
1
100
AcDbLine
 10
276.6511140349062
 20
262.4935595107372
 30
0.0
 11
276.6511140349052
 21
247.9935595107353
 31
0.0
  0
LINE
  5
7926
330
1A
100
AcDbEntity
  8
1
100
AcDbLine
 10
279.0246364783438
 20
249.7435595107353
 30
0.0
 11
281.651114034907
 21
249.7435595107353
 31
0.0
  0
LINE
  5
7927
330
1A
100
AcDbEntity
  8
1
100
AcDbLine
 10
279.0246364783447
 20
260.7435595107353
 30
0.0
 11
281.651114034907
 21
260.7435595107353
 31
0.0
  0
LINE
  5
7928
330
1A
100
AcDbEntity
  8
1
100
AcDbLine
 10
277.8680768756862
 20
253.6724916988723
 30
0.0
 11
281.651114034907
 21
253.6724916988723
 31
0.0
  0
LINE
  5
7929
330
1A
100
AcDbEntity
  8
1
100
AcDbLine
 10
277.8680768756862
 20
256.8146273226002
 30
0.0
 11
281.651114034907
 21
256.8146273225993
 31
0.0
  0
ARC
  5
792A
330
1A
100
AcDbEntity
  8
1
100
AcDbCircle
 10
277.4440072537199
 20
261.993559510739
 30
0.0
 40
0.5
100
AcDbArc
 50
45.0
 51
90.0
  0
LINE
  5
792B
330
1A
100
AcDbEntity
  8
1
100
AcDbLine
 10
277.4440072537195
 20
262.4935595107353
 30
0.0
 11
276.6511140349052
 21
262.4935595107372
 31
0.0
  0
LINE
  5
792C
330
1A
100
AcDbEntity
  8
1
100
AcDbLine
 10
277.7975606443128
 20
262.3471129013314
 30
0.0
 11
278.8657944010733
 21
261.3501013035829
 31
0.0
  0
LINE
  5
792D
330
1A
100
AcDbEntity
  8
1
100
AcDbLine
 10
277.3236593228889
 20
260.3146273226002
 30
0.0
 11
276.651114034908
 21
260.3146273226002
 31
0.0
  0
LINE
  5
792E
330
1A
100
AcDbEntity
  8
1
100
AcDbLine
 10
277.5877461874483
 20
260.3501284226695
 30
0.0
 11
279.0246364783447
 21
260.7435595107363
 31
0.0
  0
ARC
  5
792F
330
1A
100
AcDbEntity
  8
1
100
AcDbCircle
 10
277.3236593228893
 20
261.3146273226002
 30
0.0
 40
1.0
100
AcDbArc
 50
270.0
 51
285.3127012090499
  0
LINE
  5
7930
330
1A
100
AcDbEntity
  8
1
100
AcDbLine
 10
279.0246364783447
 20
260.7435595107353
 30
0.0
 11
279.0246364783447
 21
260.9845725471795
 31
0.0
  0
ARC
  5
7931
330
1A
100
AcDbEntity
  8
1
100
AcDbCircle
 10
278.5246364783442
 20
260.9845725471777
 30
0.0
 40
0.5
100
AcDbArc
 50
0.0000000001042366
 51
46.97512249241404
  0
ARC
  5
7932
330
1A
100
AcDbEntity
  8
1
100
AcDbCircle
 10
277.4440072537199
 20
248.4935595107335
 30
0.0
 40
0.5
100
AcDbArc
 50
270.0
 51
315.0
  0
LINE
  5
7933
330
1A
100
AcDbEntity
  8
1
100
AcDbLine
 10
277.4440072537195
 20
247.9935595107363
 30
0.0
 11
276.6511140349052
 21
247.9935595107335
 31
0.0
  0
LINE
  5
7934
330
1A
100
AcDbEntity
  8
1
100
AcDbLine
 10
277.7975606443128
 20
248.1400061201393
 30
0.0
 11
278.8657944010733
 21
249.1370177178896
 31
0.0
  0
LINE
  5
7935
330
1A
100
AcDbEntity
  8
1
100
AcDbLine
 10
277.3236593228889
 20
250.1724916988714
 30
0.0
 11
276.651114034908
 21
250.1724916988705
 31
0.0
  0
LINE
  5
7936
330
1A
100
AcDbEntity
  8
1
100
AcDbLine
 10
277.5877461874483
 20
250.1369905988021
 30
0.0
 11
279.0246364783447
 21
249.7435595107353
 31
0.0
  0
ARC
  5
7937
330
1A
100
AcDbEntity
  8
1
100
AcDbCircle
 10
277.3236593228893
 20
249.1724916988705
 30
0.0
 40
1.0
100
AcDbArc
 50
74.68729879095005
 51
90.0
  0
LINE
  5
7938
330
1A
100
AcDbEntity
  8
1
100
AcDbLine
 10
279.0246364783447
 20
249.7435595107353
 30
0.0
 11
279.0246364783447
 21
249.5025464742929
 31
0.0
  0
ARC
  5
7939
330
1A
100
AcDbEntity
  8
1
100
AcDbCircle
 10
278.5246364783442
 20
249.5025464742929
 30
0.0
 40
0.5
100
AcDbArc
 50
313.0248775075858
 51
359.9999999998958
  0
LINE
  5
793A
330
1A
100
AcDbEntity
  8
1
100
AcDbLine
 10
281.6511140349043
 20
179.3373283324153
 30
0.0
 11
281.6511140349034
 21
168.3373283324153
 31
0.0
  0
ARC
  5
793B
330
1A
100
AcDbEntity
  8
1
100
AcDbCircle
 10
278.0249311251773
 20
173.8373283324153
 30
0.0
 40
1.0
100
AcDbArc
 50
312.2181790091468
 51
45.0
  0
ARC
  5
793C
330
1A
100
AcDbEntity
  8
1
100
AcDbCircle
 10
277.4440072537181
 20
175.1253589850621
 30
0.0
 40
0.5
100
AcDbArc
 50
45.0
 51
90.0
  0
LINE
  5
793D
330
1A
100
AcDbEntity
  8
1
100
AcDbLine
 10
277.4440072537176
 20
175.6253589850594
 30
0.0
 11
276.6511140349034
 21
175.6253589850612
 31
0.0
  0
LINE
  5
793E
330
1A
100
AcDbEntity
  8
1
100
AcDbLine
 10
277.797560644311
 20
175.4789123756536
 30
0.0
 11
278.7320379063626
 21
174.544435113602
 31
0.0
  0
ARC
  5
793F
330
1A
100
AcDbEntity
  8
1
100
AcDbCircle
 10
277.4580889550798
 20
172.6478833408882
 30
0.0
 40
0.5
100
AcDbArc
 50
270.0
 51
312.2181790091468
  0
LINE
  5
7940
330
1A
100
AcDbEntity
  8
1
100
AcDbLine
 10
278.6968867258069
 20
173.096736899316
 30
0.0
 11
277.7940667553953
 21
172.2775876243358
 31
0.0
  0
LINE
  5
7941
330
1A
100
AcDbEntity
  8
1
100
AcDbLine
 10
277.4580889550775
 20
172.1478833408846
 30
0.0
 11
276.6511140349043
 21
172.1478833408846
 31
0.0
  0
LINE
  5
7942
330
1A
100
AcDbEntity
  8
1
100
AcDbLine
 10
276.6511140349025
 20
166.5873283324144
 30
0.0
 11
276.6511140349025
 21
181.0873283324163
 31
0.0
  0
LINE
  5
7944
330
1A
100
AcDbEntity
  8
1
100
AcDbLine
 10
279.0246364783411
 20
179.3373283324162
 30
0.0
 11
281.6511140349043
 21
179.3373283324153
 31
0.0
  0
LINE
  5
7945
330
1A
100
AcDbEntity
  8
1
100
AcDbLine
 10
279.0246364783411
 20
168.3373283324153
 30
0.0
 11
281.6511140349034
 21
168.3373283324153
 31
0.0
  0
LINE
  5
7946
330
1A
100
AcDbEntity
  8
1
100
AcDbLine
 10
277.8680768756835
 20
175.4083961442802
 30
0.0
 11
281.6511140349043
 21
175.4083961442793
 31
0.0
  0
LINE
  5
7947
330
1A
100
AcDbEntity
  8
1
100
AcDbLine
 10
277.8680768756826
 20
172.2662605205523
 30
0.0
 11
281.6511140349034
 21
172.2662605205523
 31
0.0
  0
ARC
  5
7948
330
1A
100
AcDbEntity
  8
1
100
AcDbCircle
 10
277.4440072537163
 20
167.0873283324135
 30
0.0
 40
0.5
100
AcDbArc
 50
270.0
 51
315.0
  0
LINE
  5
7949
330
1A
100
AcDbEntity
  8
1
100
AcDbLine
 10
277.4440072537158
 20
166.5873283324162
 30
0.0
 11
276.6511140349016
 21
166.5873283324135
 31
0.0
  0
LINE
  5
794A
330
1A
100
AcDbEntity
  8
1
100
AcDbLine
 10
277.7975606443092
 20
166.7337749418193
 30
0.0
 11
278.8657944010697
 21
167.7307865395696
 31
0.0
  0
LINE
  5
794B
330
1A
100
AcDbEntity
  8
1
100
AcDbLine
 10
277.3236593228852
 20
168.7662605205514
 30
0.0
 11
276.6511140349043
 21
168.7662605205505
 31
0.0
  0
LINE
  5
794C
330
1A
100
AcDbEntity
  8
1
100
AcDbLine
 10
277.5877461874447
 20
168.7307594204821
 30
0.0
 11
279.0246364783411
 21
168.3373283324153
 31
0.0
  0
ARC
  5
794D
330
1A
100
AcDbEntity
  8
1
100
AcDbCircle
 10
277.3236593228857
 20
167.7662605205505
 30
0.0
 40
1.0
100
AcDbArc
 50
74.68729879095005
 51
90.0
  0
LINE
  5
794E
330
1A
100
AcDbEntity
  8
1
100
AcDbLine
 10
279.0246364783411
 20
168.3373283324153
 30
0.0
 11
279.0246364783411
 21
168.0963152959729
 31
0.0
  0
ARC
  5
794F
330
1A
100
AcDbEntity
  8
1
100
AcDbCircle
 10
278.5246364783406
 20
168.0963152959729
 30
0.0
 40
0.5
100
AcDbArc
 50
313.0248775075858
 51
359.9999999998958
  0
ARC
  5
7950
330
1A
100
AcDbEntity
  8
1
100
AcDbCircle
 10
277.4440072537172
 20
180.587328332419
 30
0.0
 40
0.5
100
AcDbArc
 50
44.99999999998162
 51
90.0
  0
LINE
  5
7951
330
1A
100
AcDbEntity
  8
1
100
AcDbLine
 10
277.4440072537168
 20
181.0873283324153
 30
0.0
 11
276.6511140349025
 21
181.0873283324172
 31
0.0
  0
LINE
  5
7952
330
1A
100
AcDbEntity
  8
1
100
AcDbLine
 10
277.7975606443101
 20
180.9408817230114
 30
0.0
 11
278.8657944010706
 21
179.9438701252629
 31
0.0
  0
LINE
  5
7953
330
1A
100
AcDbEntity
  8
1
100
AcDbLine
 10
277.3236593228862
 20
178.9083961442802
 30
0.0
 11
276.6511140349052
 21
178.9083961442802
 31
0.0
  0
LINE
  5
7954
330
1A
100
AcDbEntity
  8
1
100
AcDbLine
 10
277.5877461874456
 20
178.9438972443495
 30
0.0
 11
279.024636478342
 21
179.3373283324162
 31
0.0
  0
ARC
  5
7955
330
1A
100
AcDbEntity
  8
1
100
AcDbCircle
 10
277.3236593228866
 20
179.9083961442802
 30
0.0
 40
1.0
100
AcDbArc
 50
270.0
 51
285.3127012090499
  0
LINE
  5
7956
330
1A
100
AcDbEntity
  8
1
100
AcDbLine
 10
279.024636478342
 20
179.3373283324153
 30
0.0
 11
279.024636478342
 21
179.5783413688595
 31
0.0
  0
ARC
  5
7957
330
1A
100
AcDbEntity
  8
1
100
AcDbCircle
 10
278.5246364783415
 20
179.5783413688577
 30
0.0
 40
0.5
100
AcDbArc
 50
0.0000000001042366
 51
46.97512249241404
  0
LINE
  5
796E
330
1A
100
AcDbEntity
  8
1
100
AcDbLine
 10
281.6511140349057
 20
170.3404439215764
 30
0.0
 11
310.4511140349018
 21
170.3404439215773
 31
0.0
  0
LINE
  5
7A30
330
1A
100
AcDbEntity
  8
1
100
AcDbLine
 10
125.6202498130796
 20
135.0704439215742
 30
0.0
 11
139.6202498130796
 21
135.0704439215724
 31
0.0
  0
ARC
  5
7A31
330
1A
100
AcDbEntity
  8
1
100
AcDbCircle
 10
132.6202498130787
 20
157.9986471518841
 30
0.0
 40
22.92820323031186
100
AcDbArc
 50
270.0
 51
287.5879537739636
  0
ARC
  5
7A32
330
1A
100
AcDbEntity
  8
1
100
AcDbCircle
 10
132.6202498130796
 20
117.1422406912588
 30
0.0
 40
22.92820323031186
100
AcDbArc
 50
72.41204622603634
 51
90.0
  0
LINE
  5
7A33
330
1A
100
AcDbEntity
  8
1
100
AcDbLine
 10
144.6202498130796
 20
140.0704439215715
 30
0.0
 11
120.6202498130951
 21
140.0704439215715
 31
0.0
  0
ARC
  5
7A34
330
1A
100
AcDbEntity
  8
1
100
AcDbCircle
 10
122.227944967668
 20
141.2044185177901
 30
0.0
 40
6.133974596217923
100
AcDbArc
 50
235.6157525319683
 51
304.3842474680316
  0
ARC
  5
7A35
330
1A
100
AcDbEntity
  8
1
100
AcDbCircle
 10
132.6202498130806
 20
157.9986471518841
 30
0.0
 40
22.92820323031186
100
AcDbArc
 50
252.4120462260363
 51
270.0
  0
LINE
  5
7A36
330
1A
100
AcDbEntity
  8
1
100
AcDbLine
 10
125.6920465828034
 20
136.0704439215724
 30
0.0
 11
125.6920465828043
 21
138.9986471518486
 31
0.0
  0
ARC
  5
7A37
330
1A
100
AcDbEntity
  8
1
100
AcDbCircle
 10
122.227944967668
 20
133.9364693253528
 30
0.0
 40
6.133974596217923
100
AcDbArc
 50
55.61575253196838
 51
124.3842474680316
  0
ARC
  5
7A38
330
1A
100
AcDbEntity
  8
1
100
AcDbCircle
 10
132.6202498130796
 20
117.1422406912588
 30
0.0
 40
22.92820323031186
100
AcDbArc
 50
90.0
 51
107.5879537739636
  0
LINE
  5
7A39
330
1A
100
AcDbEntity
  8
1
100
AcDbLine
 10
118.7638433525289
 20
136.1422406913061
 30
0.0
 11
120.6202498130769
 21
135.0704439215814
 31
0.0
  0
LINE
  5
7A3A
330
1A
100
AcDbEntity
  8
1
100
AcDbLine
 10
118.7638433525289
 20
138.9986471518368
 30
0.0
 11
120.6202498130769
 21
140.0704439215614
 31
0.0
  0
LINE
  5
7A3B
330
1A
100
AcDbEntity
  8
1
100
AcDbLine
 10
125.6202498130796
 20
135.0704439215742
 30
0.0
 11
120.6202498130769
 21
135.0704439215814
 31
0.0
  0
LINE
  5
7A3C
330
1A
100
AcDbEntity
  8
1
100
AcDbLine
 10
118.7638433525262
 20
138.998647151835
 30
0.0
 11
118.7638433525262
 21
136.142240691307
 31
0.0
  0
LINE
  5
7A3D
330
1A
100
AcDbEntity
  8
1
100
AcDbLine
 10
146.4766562736285
 20
136.1422406912961
 30
0.0
 11
144.6202498130796
 21
135.0704439215733
 31
0.0
  0
LINE
  5
7A3E
330
1A
100
AcDbEntity
  8
1
100
AcDbLine
 10
146.4766562736285
 20
138.9986471518486
 30
0.0
 11
144.6202498130796
 21
140.0704439215715
 31
0.0
  0
LINE
  5
7A3F
330
1A
100
AcDbEntity
  8
1
100
AcDbLine
 10
146.4766562736267
 20
136.0704439215724
 30
0.0
 11
146.4766562736285
 21
138.9986471518486
 31
0.0
  0
LINE
  5
7A40
330
1A
100
AcDbEntity
  8
1
100
AcDbLine
 10
139.5484530433559
 20
136.0704439215724
 30
0.0
 11
139.548453043355
 21
138.9986471518486
 31
0.0
  0
LINE
  5
7A41
330
1A
100
AcDbEntity
  8
1
100
AcDbLine
 10
139.6202498130796
 20
135.0704439215724
 30
0.0
 11
139.6202498130796
 21
135.0704439215724
 31
0.0
  0
ARC
  5
7A42
330
1A
100
AcDbEntity
  8
1
100
AcDbCircle
 10
143.0125546584913
 20
141.2044185177901
 30
0.0
 40
6.133974596217923
100
AcDbArc
 50
235.6157525319683
 51
304.3842474680316
  0
ARC
  5
7A43
330
1A
100
AcDbEntity
  8
1
100
AcDbCircle
 10
143.0125546584913
 20
133.9364693253528
 30
0.0
 40
6.133974596217923
100
AcDbArc
 50
55.61575253196838
 51
124.3842474680316
  0
LINE
  5
7A44
330
1A
100
AcDbEntity
  8
1
100
AcDbLine
 10
144.6202498130796
 20
135.0704439215724
 30
0.0
 11
139.6202498130796
 21
135.0704439215724
 31
0.0
  0
LINE
  5
7A45
330
1A
100
AcDbEntity
  8
1
100
AcDbLine
 10
141.6202498130778
 20
147.8704439215707
 30
0.0
 11
141.620249813076
 21
143.0704439215714
 31
0.0
  0
LINE
  5
7A46
330
1A
100
AcDbEntity
  8
1
 62
     9
100
AcDbLine
 10
140.6202498130778
 20
147.8704439215707
 30
0.0
 11
140.620249813076
 21
143.0704439215714
 31
0.0
  0
LINE
  5
7A47
330
1A
100
AcDbEntity
  8
1
100
AcDbLine
 10
140.620249813076
 20
143.0704439215714
 30
0.0
 11
140.620249813076
 21
140.0704439215724
 31
0.0
  0
LINE
  5
7A48
330
1A
100
AcDbEntity
  8
1
100
AcDbLine
 10
141.620249813076
 20
143.0704439215723
 30
0.0
 11
123.6202498130796
 21
143.0704439215733
 31
0.0
  0
LINE
  5
7A49
330
1A
100
AcDbEntity
  8
1
 62
     9
100
AcDbLine
 10
124.6202498130796
 20
147.8704439215725
 30
0.0
 11
124.6202498130815
 21
143.0704439215723
 31
0.0
  0
LINE
  5
7A4A
330
1A
100
AcDbEntity
  8
1
100
AcDbLine
 10
123.6202498130815
 20
147.8704439215725
 30
0.0
 11
123.6202498130787
 21
143.0704439215723
 31
0.0
  0
LINE
  5
7A4B
330
1A
100
AcDbEntity
  8
1
100
AcDbLine
 10
124.6202498130769
 20
143.0704439215733
 30
0.0
 11
124.6202498130769
 21
140.0704439215724
 31
0.0
  0
CIRCLE
  5
7A4C
330
1A
100
AcDbEntity
  8
1
100
AcDbCircle
 10
132.6202498130824
 20
62.63181962474845
 30
0.0
 40
7.0
  0
CIRCLE
  5
7A4D
330
1A
100
AcDbEntity
  8
1
100
AcDbCircle
 10
132.6202498130824
 20
62.63181962474845
 30
0.0
 40
6.0
  0
CIRCLE
  5
7A4F
330
1A
100
AcDbEntity
  8
1
100
AcDbCircle
 10
132.6202498130824
 20
62.63181962474845
 30
0.0
 40
12.0
  0
ARC
  5
7A56
330
1A
100
AcDbEntity
  8
1
100
AcDbCircle
 10
292.8329902987002
 20
172.7039082646879
 30
0.0
 40
38.03594997575043
100
AcDbArc
 50
254.1601720852099
 51
261.9749024987928
  0
LINE
  5
7A57
330
1A
100
AcDbEntity
  8
1
100
AcDbLine
 10
282.4511140348909
 20
136.1122406913136
 30
0.0
 11
284.3075204954388
 21
135.040443921589
 31
0.0
  0
LINE
  5
7A58
330
1A
100
AcDbEntity
  8
1
100
AcDbLine
 10
287.4511140348918
 20
135.0404439215781
 30
0.0
 11
284.3075204954525
 21
135.0404439215817
 31
0.0
  0
LINE
  5
7A59
330
1A
100
AcDbEntity
  8
1
100
AcDbLine
 10
286.451114034889
 20
143.0404439215772
 30
0.0
 11
286.451114034889
 21
140.0404439215763
 31
0.0
  0
LINE
  5
7A5A
330
1A
100
AcDbEntity
  8
1
100
AcDbLine
 10
302.4511140348881
 20
143.0404439215753
 30
0.0
 11
302.4511140348881
 21
140.0404439215763
 31
0.0
  0
ARC
  5
7A5B
330
1A
100
AcDbEntity
  8
1
100
AcDbCircle
 10
301.3793172651681
 20
117.11224069127
 30
0.0
 40
22.92820323031186
100
AcDbArc
 50
90.0
 51
107.5879537739636
  0
ARC
  5
7A5C
330
1A
100
AcDbEntity
  8
1
100
AcDbCircle
 10
287.5229108046182
 20
117.1122406912681
 30
0.0
 40
22.92820323031186
100
AcDbArc
 50
72.41204622603634
 51
90.0
  0
LINE
  5
7A5D
330
1A
100
AcDbEntity
  8
1
100
AcDbLine
 10
304.5947075743374
 20
140.0404439215735
 30
0.0
 11
284.3075204954498
 21
140.0404439215753
 31
0.0
  0
LINE
  5
7A5E
330
1A
100
AcDbEntity
  8
1
 62
     9
100
AcDbLine
 10
286.4511140348918
 20
147.8404439215764
 30
0.0
 11
286.4511140348936
 21
143.0404439215763
 31
0.0
  0
LINE
  5
7A5F
330
1A
100
AcDbEntity
  8
1
100
AcDbLine
 10
285.4511140348936
 20
147.8404439215764
 30
0.0
 11
285.4511140348908
 21
143.0404439215763
 31
0.0
  0
LINE
  5
7A60
330
1A
100
AcDbEntity
  8
1
 62
     9
100
AcDbLine
 10
302.45111403489
 20
147.8404439215746
 30
0.0
 11
302.4511140348881
 21
143.0404439215753
 31
0.0
  0
LINE
  5
7A61
330
1A
100
AcDbEntity
  8
1
100
AcDbLine
 10
303.45111403489
 20
147.8404439215746
 30
0.0
 11
303.4511140348882
 21
143.0404439215753
 31
0.0
  0
LINE
  5
7A62
330
1A
100
AcDbEntity
  8
1
100
AcDbLine
 10
303.4511140348882
 20
143.0404439215763
 30
0.0
 11
285.4511140348918
 21
143.0404439215772
 31
0.0
  0
ARC
  5
7A63
330
1A
100
AcDbEntity
  8
1
100
AcDbCircle
 10
301.3793172651689
 20
157.9686471518962
 30
0.0
 40
22.92820323031186
100
AcDbArc
 50
252.4120462260363
 51
270.0
  0
ARC
  5
7A64
330
1A
100
AcDbEntity
  8
1
100
AcDbCircle
 10
296.0692377710706
 20
172.7039082646888
 30
0.0
 40
38.03594997575043
100
AcDbArc
 50
278.0250975012588
 51
285.83982791479
  0
ARC
  5
7A65
330
1A
100
AcDbEntity
  8
1
100
AcDbCircle
 10
296.0692377710688
 20
102.3769795784792
 30
0.0
 40
38.03594997575043
100
AcDbArc
 50
74.16017208520994
 51
81.97490249874119
  0
LINE
  5
7A66
330
1A
100
AcDbEntity
  8
1
100
AcDbLine
 10
306.4511140348736
 20
138.9686471518571
 30
0.0
 11
306.45111403489
 21
136.1122406913173
 31
0.0
  0
LINE
  5
7A67
330
1A
100
AcDbEntity
  8
1
100
AcDbLine
 10
306.45111403489
 20
136.1122406913173
 30
0.0
 11
304.594707574342
 21
135.0404439215917
 31
0.0
  0
LINE
  5
7A68
330
1A
100
AcDbEntity
  8
1
100
AcDbLine
 10
306.4511140348891
 20
138.968647151848
 30
0.0
 11
304.5947075743411
 21
140.0404439215717
 31
0.0
  0
LINE
  5
7A69
330
1A
100
AcDbEntity
  8
1
100
AcDbLine
 10
287.4511140348918
 20
135.0404439215781
 30
0.0
 11
301.4511140348918
 21
135.0404439215763
 31
0.0
  0
LINE
  5
7A6A
330
1A
100
AcDbEntity
  8
1
100
AcDbLine
 10
301.4511140348918
 20
135.0404439215763
 30
0.0
 11
301.4511140348918
 21
135.0404439215763
 31
0.0
  0
LINE
  5
7A6B
330
1A
100
AcDbEntity
  8
1
100
AcDbLine
 10
304.5947075743165
 20
135.0404439215772
 30
0.0
 11
301.4511140348918
 21
135.0404439215763
 31
0.0
  0
ARC
  5
7A6C
330
1A
100
AcDbEntity
  8
1
100
AcDbCircle
 10
287.5229108046055
 20
157.9686471518944
 30
0.0
 40
22.92820323031186
100
AcDbArc
 50
270.0000000000521
 51
287.5879537740133
  0
ARC
  5
7A6D
330
1A
100
AcDbEntity
  8
1
100
AcDbCircle
 10
292.8329902987211
 20
102.3769795784783
 30
0.0
 40
38.03594997575043
100
AcDbArc
 50
98.02509750125883
 51
105.8398279148401
  0
LINE
  5
7A6E
330
1A
100
AcDbEntity
  8
1
100
AcDbLine
 10
282.4511140348881
 20
138.9686471518425
 30
0.0
 11
282.4511140348881
 21
136.1122406913145
 31
0.0
  0
LINE
  5
7A6F
330
1A
100
AcDbEntity
  8
1
100
AcDbLine
 10
282.4511140348909
 20
138.9686471518443
 30
0.0
 11
284.3075204954388
 21
140.040443921569
 31
0.0
  0
LINE
  5
7A70
330
1A
100
AcDbEntity
  8
1
100
AcDbLine
 10
294.4511140348918
 20
138.9686471518571
 30
0.0
 11
294.4511140348918
 21
136.1122406913036
 31
0.0
  0
LINE
  5
7A71
330
1A
100
AcDbEntity
  8
1
100
AcDbLine
 10
282.4511140348909
 20
138.9686471518571
 30
0.0
 11
282.4511140348917
 21
136.1122406913036
 31
0.0
  0
CIRCLE
  5
7A73
330
1A
100
AcDbEntity
  8
1
 62
     8
100
AcDbCircle
 10
93.02227006663271
 20
254.1384236680178
 30
0.0
 40
5.0
  0
LINE
  5
7A74
330
1A
100
AcDbEntity
  8
1
100
AcDbLine
 10
91.96827007717365
 20
253.0844236785587
 30
0.0
 11
92.40227007283193
 21
252.0304236890979
 31
0.0
  0
LINE
  5
7A75
330
1A
100
AcDbEntity
  8
1
100
AcDbLine
 10
89.92227009763155
 20
253.518423674217
 30
0.0
 11
90.9142700877128
 21
253.518423674217
 31
0.0
  0
LINE
  5
7A76
330
1A
100
AcDbEntity
  8
1
100
AcDbLine
 10
90.9142700877128
 20
253.518423674217
 30
0.0
 11
91.96827007717365
 21
253.0844236785587
 31
0.0
  0
LINE
  5
7A77
330
1A
100
AcDbEntity
  8
1
100
AcDbLine
 10
92.40227007283193
 20
256.2464236469377
 30
0.0
 11
91.96827007717365
 21
255.1924236574768
 31
0.0
  0
LINE
  5
7A78
330
1A
100
AcDbEntity
  8
1
100
AcDbLine
 10
91.96827007717365
 20
255.1924236574768
 30
0.0
 11
90.9142700877128
 21
254.7584236618186
 31
0.0
  0
LINE
  5
7A79
330
1A
100
AcDbEntity
  8
1
100
AcDbLine
 10
90.9142700877128
 20
254.7584236618186
 30
0.0
 11
89.92227009763338
 21
254.7584236618186
 31
0.0
  0
LINE
  5
7A7A
330
1A
100
AcDbEntity
  8
1
100
AcDbLine
 10
93.64227006043348
 20
252.030423689097
 30
0.0
 11
94.07627005609175
 21
253.0844236785587
 31
0.0
  0
LINE
  5
7A7B
330
1A
100
AcDbEntity
  8
1
100
AcDbLine
 10
94.07627005609175
 20
253.0844236785587
 30
0.0
 11
95.1302700455526
 21
253.518423674217
 31
0.0
  0
LINE
  5
7A7C
330
1A
100
AcDbEntity
  8
1
100
AcDbLine
 10
94.07627005609175
 20
255.1924236574768
 30
0.0
 11
93.64227006043348
 21
256.2464236469377
 31
0.0
  0
LINE
  5
7A7D
330
1A
100
AcDbEntity
  8
1
100
AcDbLine
 10
95.1302700455526
 20
254.7584236618186
 30
0.0
 11
94.07627005609175
 21
255.1924236574768
 31
0.0
  0
LINE
  5
7A7E
330
1A
100
AcDbEntity
  8
1
100
AcDbLine
 10
95.1302700455526
 20
253.518423674217
 30
0.0
 11
96.12227003563203
 21
253.518423674217
 31
0.0
  0
LINE
  5
7A7F
330
1A
100
AcDbEntity
  8
1
100
AcDbLine
 10
96.12227003563384
 20
254.7584236618186
 30
0.0
 11
95.1302700455526
 21
254.7584236618186
 31
0.0
  0
LINE
  5
7A80
330
1A
100
AcDbEntity
  8
1
100
AcDbLine
 10
92.40227007283193
 20
257.2384236370189
 30
0.0
 11
93.64227006043348
 21
257.2384236370171
 31
0.0
  0
LINE
  5
7A81
330
1A
100
AcDbEntity
  8
1
100
AcDbLine
 10
92.40227007283193
 20
257.2384236370189
 30
0.0
 11
92.40227007283193
 21
256.2464236469377
 31
0.0
  0
LINE
  5
7A82
330
1A
100
AcDbEntity
  8
1
100
AcDbLine
 10
93.64227006043348
 20
256.2464236469377
 30
0.0
 11
93.64227006043348
 21
257.2384236370171
 31
0.0
  0
LINE
  5
7A83
330
1A
100
AcDbEntity
  8
1
100
AcDbLine
 10
92.40227007283193
 20
251.0384236990184
 30
0.0
 11
93.64227006043348
 21
251.0384236990166
 31
0.0
  0
LINE
  5
7A84
330
1A
100
AcDbEntity
  8
1
100
AcDbLine
 10
92.40227007283193
 20
252.0304236890979
 30
0.0
 11
92.40227007283193
 21
251.0384236990184
 31
0.0
  0
LINE
  5
7A85
330
1A
100
AcDbEntity
  8
1
100
AcDbLine
 10
93.64227006043348
 20
251.0384236990166
 30
0.0
 11
93.64227006043348
 21
252.030423689097
 31
0.0
  0
LINE
  5
7A86
330
1A
100
AcDbEntity
  8
1
100
AcDbLine
 10
89.92227009763338
 20
254.7584236618186
 30
0.0
 11
89.92227009763155
 21
253.518423674217
 31
0.0
  0
LINE
  5
7A87
330
1A
100
AcDbEntity
  8
1
100
AcDbLine
 10
96.12227003563384
 20
254.7584236618186
 30
0.0
 11
96.12227003563203
 21
253.518423674217
 31
0.0
  0
CIRCLE
  5
7A88
330
1A
100
AcDbEntity
  8
1
100
AcDbCircle
 10
93.02227006663271
 20
254.1384236680178
 30
0.0
 40
6.25
  0
CIRCLE
  5
7A89
330
1A
100
AcDbEntity
  8
1
100
AcDbCircle
 10
93.02227006663271
 20
254.1384236680178
 30
0.0
 40
6.099999999999999
  0
ARC
  5
7A8C
330
1A
100
AcDbEntity
  8
1
100
AcDbCircle
 10
96.91713422392012
 20
94.70853622457799
 30
0.0
 40
5.223290993692597
100
AcDbArc
 50
90.0
 51
113.8649254160653
  0
LINE
  5
7A8D
330
1A
100
AcDbEntity
  8
1
100
AcDbLine
 10
96.91713422392012
 20
99.93182721827089
 30
0.0
 11
97.69063691581642
 21
99.485245230886
 31
0.0
  0
LINE
  5
7A8E
330
1A
100
AcDbEntity
  8
1
100
AcDbLine
 10
94.80388556986827
 20
99.485245230886
 30
0.0
 11
94.80388556986827
 21
96.10392721827066
 31
0.0
  0
LINE
  5
7A8F
330
1A
100
AcDbEntity
  8
1
100
AcDbLine
 10
97.69063691581642
 20
99.485245230886
 30
0.0
 11
97.6906369158155
 21
96.37840161213535
 31
0.0
  0
LINE
  5
7A90
330
1A
100
AcDbEntity
  8
1
100
AcDbLine
 10
86.91713422392012
 20
99.93182721827089
 30
0.0
 11
96.91713422392012
 21
99.93182721827089
 31
0.0
  0
ARC
  5
7A91
330
1A
100
AcDbEntity
  8
1
100
AcDbCircle
 10
91.91713422392012
 20
90.37840920565576
 30
0.0
 40
9.553418012614768
100
AcDbArc
 50
72.41204622598667
 51
107.5879537740133
  0
ARC
  5
7A92
330
1A
100
AcDbEntity
  8
1
100
AcDbCircle
 10
96.91713422392012
 20
101.1551106184433
 30
0.0
 40
5.223290993692597
100
AcDbArc
 50
246.1350745839346
 51
270.0
  0
LINE
  5
7A93
330
1A
100
AcDbEntity
  8
1
100
AcDbLine
 10
96.91713422392012
 20
95.93181962475046
 30
0.0
 11
97.69063691581642
 21
96.37840161213535
 31
0.0
  0
ARC
  5
7A94
330
1A
100
AcDbEntity
  8
1
100
AcDbCircle
 10
86.91713422392012
 20
94.70853622457799
 30
0.0
 40
5.223290993692597
100
AcDbArc
 50
66.13507458393463
 51
90.0
  0
LINE
  5
7A95
330
1A
100
AcDbEntity
  8
1
100
AcDbLine
 10
86.91713422392012
 20
99.93182721827089
 30
0.0
 11
86.14363153202384
 21
99.485245230886
 31
0.0
  0
LINE
  5
7A96
330
1A
100
AcDbEntity
  8
1
100
AcDbLine
 10
86.14363153202384
 20
99.485245230886
 30
0.0
 11
86.14363153202475
 21
96.37840161213535
 31
0.0
  0
LINE
  5
7A97
330
1A
100
AcDbEntity
  8
1
100
AcDbLine
 10
89.03038287797199
 20
99.485245230886
 30
0.0
 11
89.03038287797199
 21
96.10392721827066
 31
0.0
  0
LINE
  5
7A98
330
1A
100
AcDbEntity
  8
1
100
AcDbLine
 10
86.91713422392012
 20
95.93181962475046
 30
0.0
 11
86.14363153202384
 21
96.37840161213535
 31
0.0
  0
ARC
  5
7A99
330
1A
100
AcDbEntity
  8
1
100
AcDbCircle
 10
86.91713422392012
 20
101.1551106184433
 30
0.0
 40
5.223290993692597
100
AcDbArc
 50
270.0
 51
293.8649254160653
  0
ARC
  5
7A9A
330
1A
100
AcDbEntity
  8
1
100
AcDbCircle
 10
91.91713422392012
 20
105.4852376373655
 30
0.0
 40
9.553418012614768
100
AcDbArc
 50
252.4120462259866
 51
287.5879537740133
  0
LINE
  5
7A9B
330
1A
100
AcDbEntity
  8
1
100
AcDbLine
 10
86.91713422392012
 20
95.93181962475046
 30
0.0
 11
96.91713422392012
 21
95.93181962475046
 31
0.0
  0
LINE
  5
7A9C
330
1A
100
AcDbEntity
  8
1
100
AcDbLine
 10
91.71617232959716
 20
95.93181962475046
 30
0.0
 11
92.11809611824401
 21
94.43181962475046
 31
0.0
  0
LINE
  5
7A9D
330
1A
100
AcDbEntity
  8
1
100
AcDbLine
 10
85.81713422391976
 20
94.43181962475046
 30
0.0
 11
85.81713422391976
 21
95.93181962475046
 31
0.0
  0
LINE
  5
7A9E
330
1A
100
AcDbEntity
  8
1
100
AcDbLine
 10
98.01713422391959
 20
94.43181962475046
 30
0.0
 11
85.81713422391976
 21
94.43181962475046
 31
0.0
  0
LINE
  5
7A9F
330
1A
100
AcDbEntity
  8
1
100
AcDbLine
 10
98.01713422391959
 20
95.93181962475046
 30
0.0
 11
98.01713422391959
 21
94.43181962475046
 31
0.0
  0
LINE
  5
7AA0
330
1A
100
AcDbEntity
  8
1
100
AcDbLine
 10
85.81713422391976
 20
95.93181962475046
 30
0.0
 11
98.01713422391959
 21
95.93181962475046
 31
0.0
  0
LINE
  5
7AA1
330
1A
100
AcDbEntity
  8
1
100
AcDbLine
 10
98.16713422392012
 20
94.43181962475046
 30
0.0
 11
85.66713422392012
 21
94.43181962475046
 31
0.0
  0
LINE
  5
7AA2
330
1A
100
AcDbEntity
  8
1
100
AcDbLine
 10
98.16713422392012
 20
92.8318196247501
 30
0.0
 11
98.16713422392012
 21
94.43181962475046
 31
0.0
  0
LINE
  5
7AA3
330
1A
100
AcDbEntity
  8
1
100
AcDbLine
 10
85.66713422392012
 20
92.8318196247501
 30
0.0
 11
98.16713422392012
 21
92.8318196247501
 31
0.0
  0
LINE
  5
7AA4
330
1A
100
AcDbEntity
  8
1
100
AcDbLine
 10
85.66713422392012
 20
94.43181962475046
 30
0.0
 11
85.66713422392012
 21
92.8318196247501
 31
0.0
  0
LINE
  5
7AA5
330
1A
100
AcDbEntity
  8
1
100
AcDbLine
 10
88.91713422391967
 20
75.43181962474682
 30
0.0
 11
88.91713422391967
 21
75.23182293360878
 31
0.0
  0
LINE
  5
7AA6
330
1A
100
AcDbEntity
  8
1
 62
     9
100
AcDbLine
 10
89.41713422391968
 20
75.43181962474682
 30
0.0
 11
89.41713422391968
 21
74.73182293360969
 31
0.0
  0
LINE
  5
7AA7
330
1A
100
AcDbEntity
  8
1
 62
     9
100
AcDbLine
 10
94.41713422391968
 20
75.43181962474682
 30
0.0
 11
94.41713422391968
 21
74.73182293360969
 31
0.0
  0
LINE
  5
7AA8
330
1A
100
AcDbEntity
  8
1
100
AcDbLine
 10
94.91713422391967
 20
75.43181962474682
 30
0.0
 11
94.91713422391967
 21
75.23182293360969
 31
0.0
  0
LINE
  5
7AA9
330
1A
100
AcDbEntity
  8
1
100
AcDbLine
 10
94.41713422391968
 20
74.73182293360969
 30
0.0
 11
94.91713422391967
 21
75.23182293360969
 31
0.0
  0
LINE
  5
7AAA
330
1A
100
AcDbEntity
  8
1
100
AcDbLine
 10
89.41713422391968
 20
74.73182293360969
 30
0.0
 11
88.91713422391967
 21
75.23182293360878
 31
0.0
  0
LINE
  5
7AAB
330
1A
100
AcDbEntity
  8
1
100
AcDbLine
 10
88.91713422391877
 20
75.23182293360878
 30
0.0
 11
94.91713422392058
 21
75.23182293360969
 31
0.0
  0
LINE
  5
7AAC
330
1A
100
AcDbEntity
  8
1
100
AcDbLine
 10
89.41713422392059
 20
74.73182293360878
 30
0.0
 11
94.41713422391968
 21
74.73182293360969
 31
0.0
  0
CIRCLE
  5
7AB1
330
1A
100
AcDbEntity
  8
1
 62
     8
100
AcDbCircle
 10
93.02227006663406
 20
174.9424641751247
 30
0.0
 40
5.0
  0
LINE
  5
7AB2
330
1A
100
AcDbEntity
  8
1
100
AcDbLine
 10
94.07627005609265
 20
175.9964641645838
 30
0.0
 11
93.64227006043439
 21
177.0504641540446
 31
0.0
  0
LINE
  5
7AB3
330
1A
100
AcDbEntity
  8
1
100
AcDbLine
 10
96.12227003563475
 20
175.5624641689255
 30
0.0
 11
95.13027004555352
 21
175.5624641689255
 31
0.0
  0
LINE
  5
7AB4
330
1A
100
AcDbEntity
  8
1
100
AcDbLine
 10
95.13027004555352
 20
175.5624641689255
 30
0.0
 11
94.07627005609265
 21
175.9964641645838
 31
0.0
  0
LINE
  5
7AB5
330
1A
100
AcDbEntity
  8
1
100
AcDbLine
 10
93.64227006043439
 20
172.8344641962048
 30
0.0
 11
94.07627005609265
 21
173.8884641856657
 31
0.0
  0
LINE
  5
7AB6
330
1A
100
AcDbEntity
  8
1
100
AcDbLine
 10
94.07627005609265
 20
173.8884641856657
 30
0.0
 11
95.13027004555352
 21
174.3224641813239
 31
0.0
  0
LINE
  5
7AB7
330
1A
100
AcDbEntity
  8
1
100
AcDbLine
 10
95.13027004555352
 20
174.3224641813239
 30
0.0
 11
96.12227003563294
 21
174.3224641813239
 31
0.0
  0
LINE
  5
7AB8
330
1A
100
AcDbEntity
  8
1
100
AcDbLine
 10
92.40227007283284
 20
177.0504641540455
 30
0.0
 11
91.96827007717457
 21
175.9964641645838
 31
0.0
  0
LINE
  5
7AB9
330
1A
100
AcDbEntity
  8
1
100
AcDbLine
 10
91.96827007717457
 20
175.9964641645838
 30
0.0
 11
90.9142700877137
 21
175.5624641689255
 31
0.0
  0
LINE
  5
7ABA
330
1A
100
AcDbEntity
  8
1
100
AcDbLine
 10
91.96827007717457
 20
173.8884641856657
 30
0.0
 11
92.40227007283284
 21
172.8344641962048
 31
0.0
  0
LINE
  5
7ABB
330
1A
100
AcDbEntity
  8
1
100
AcDbLine
 10
90.9142700877137
 20
174.3224641813239
 30
0.0
 11
91.96827007717457
 21
173.8884641856657
 31
0.0
  0
LINE
  5
7ABC
330
1A
100
AcDbEntity
  8
1
100
AcDbLine
 10
90.9142700877137
 20
175.5624641689255
 30
0.0
 11
89.92227009763428
 21
175.5624641689255
 31
0.0
  0
LINE
  5
7ABD
330
1A
100
AcDbEntity
  8
1
100
AcDbLine
 10
89.92227009763245
 20
174.3224641813239
 30
0.0
 11
90.9142700877137
 21
174.3224641813239
 31
0.0
  0
LINE
  5
7ABE
330
1A
100
AcDbEntity
  8
1
100
AcDbLine
 10
93.64227006043439
 20
171.8424642061236
 30
0.0
 11
92.40227007283284
 21
171.8424642061254
 31
0.0
  0
LINE
  5
7ABF
330
1A
100
AcDbEntity
  8
1
100
AcDbLine
 10
93.64227006043439
 20
171.8424642061236
 30
0.0
 11
93.64227006043439
 21
172.8344641962048
 31
0.0
  0
LINE
  5
7AC0
330
1A
100
AcDbEntity
  8
1
100
AcDbLine
 10
92.40227007283284
 20
172.8344641962048
 30
0.0
 11
92.40227007283284
 21
171.8424642061254
 31
0.0
  0
LINE
  5
7AC1
330
1A
100
AcDbEntity
  8
1
100
AcDbLine
 10
93.64227006043439
 20
178.0424641441241
 30
0.0
 11
92.40227007283284
 21
178.0424641441259
 31
0.0
  0
LINE
  5
7AC2
330
1A
100
AcDbEntity
  8
1
100
AcDbLine
 10
93.64227006043439
 20
177.0504641540446
 30
0.0
 11
93.64227006043439
 21
178.0424641441241
 31
0.0
  0
LINE
  5
7AC3
330
1A
100
AcDbEntity
  8
1
100
AcDbLine
 10
92.40227007283284
 20
178.0424641441259
 30
0.0
 11
92.40227007283284
 21
177.0504641540455
 31
0.0
  0
LINE
  5
7AC4
330
1A
100
AcDbEntity
  8
1
100
AcDbLine
 10
96.12227003563294
 20
174.3224641813239
 30
0.0
 11
96.12227003563475
 21
175.5624641689255
 31
0.0
  0
LINE
  5
7AC5
330
1A
100
AcDbEntity
  8
1
100
AcDbLine
 10
89.92227009763245
 20
174.3224641813239
 30
0.0
 11
89.92227009763428
 21
175.5624641689255
 31
0.0
  0
CIRCLE
  5
7AC6
330
1A
100
AcDbEntity
  8
1
100
AcDbCircle
 10
93.02227006663406
 20
174.9424641751247
 30
0.0
 40
6.25
  0
CIRCLE
  5
7AC7
330
1A
100
AcDbEntity
  8
1
100
AcDbCircle
 10
93.02227006663406
 20
174.9424641751247
 30
0.0
 40
6.099999999999999
  0
CIRCLE
  5
7ACC
330
1A
100
AcDbEntity
  8
1
 62
     8
100
AcDbCircle
 10
172.2182295595266
 20
174.9424641751256
 30
0.0
 40
5.0
  0
LINE
  5
7ACD
330
1A
100
AcDbEntity
  8
1
100
AcDbLine
 10
173.2722295489857
 20
175.9964641645847
 30
0.0
 11
172.8382295533274
 21
177.0504641540455
 31
0.0
  0
LINE
  5
7ACE
330
1A
100
AcDbEntity
  8
1
100
AcDbLine
 10
175.3182295285277
 20
175.5624641689264
 30
0.0
 11
174.3262295384465
 21
175.5624641689264
 31
0.0
  0
LINE
  5
7ACF
330
1A
100
AcDbEntity
  8
1
100
AcDbLine
 10
174.3262295384465
 20
175.5624641689264
 30
0.0
 11
173.2722295489857
 21
175.9964641645847
 31
0.0
  0
LINE
  5
7AD0
330
1A
100
AcDbEntity
  8
1
100
AcDbLine
 10
172.8382295533274
 20
172.8344641962057
 30
0.0
 11
173.2722295489857
 21
173.8884641856666
 31
0.0
  0
LINE
  5
7AD1
330
1A
100
AcDbEntity
  8
1
100
AcDbLine
 10
173.2722295489857
 20
173.8884641856666
 30
0.0
 11
174.3262295384465
 21
174.3224641813249
 31
0.0
  0
LINE
  5
7AD2
330
1A
100
AcDbEntity
  8
1
100
AcDbLine
 10
174.3262295384465
 20
174.3224641813249
 30
0.0
 11
175.318229528526
 21
174.3224641813249
 31
0.0
  0
LINE
  5
7AD3
330
1A
100
AcDbEntity
  8
1
100
AcDbLine
 10
171.5982295657259
 20
177.0504641540465
 30
0.0
 11
171.1642295700676
 21
175.9964641645847
 31
0.0
  0
LINE
  5
7AD4
330
1A
100
AcDbEntity
  8
1
100
AcDbLine
 10
171.1642295700676
 20
175.9964641645847
 30
0.0
 11
170.1102295806067
 21
175.5624641689264
 31
0.0
  0
LINE
  5
7AD5
330
1A
100
AcDbEntity
  8
1
100
AcDbLine
 10
171.1642295700676
 20
173.8884641856666
 30
0.0
 11
171.5982295657259
 21
172.8344641962057
 31
0.0
  0
LINE
  5
7AD6
330
1A
100
AcDbEntity
  8
1
100
AcDbLine
 10
170.1102295806067
 20
174.3224641813249
 30
0.0
 11
171.1642295700676
 21
173.8884641856666
 31
0.0
  0
LINE
  5
7AD7
330
1A
100
AcDbEntity
  8
1
100
AcDbLine
 10
170.1102295806067
 20
175.5624641689264
 30
0.0
 11
169.1182295905273
 21
175.5624641689264
 31
0.0
  0
LINE
  5
7AD8
330
1A
100
AcDbEntity
  8
1
100
AcDbLine
 10
169.1182295905255
 20
174.3224641813249
 30
0.0
 11
170.1102295806067
 21
174.3224641813249
 31
0.0
  0
LINE
  5
7AD9
330
1A
100
AcDbEntity
  8
1
100
AcDbLine
 10
172.8382295533274
 20
171.8424642061245
 30
0.0
 11
171.5982295657259
 21
171.8424642061263
 31
0.0
  0
LINE
  5
7ADA
330
1A
100
AcDbEntity
  8
1
100
AcDbLine
 10
172.8382295533274
 20
171.8424642061245
 30
0.0
 11
172.8382295533274
 21
172.8344641962057
 31
0.0
  0
LINE
  5
7ADB
330
1A
100
AcDbEntity
  8
1
100
AcDbLine
 10
171.5982295657259
 20
172.8344641962057
 30
0.0
 11
171.5982295657259
 21
171.8424642061263
 31
0.0
  0
LINE
  5
7ADC
330
1A
100
AcDbEntity
  8
1
100
AcDbLine
 10
172.8382295533274
 20
178.042464144125
 30
0.0
 11
171.5982295657259
 21
178.0424641441268
 31
0.0
  0
LINE
  5
7ADD
330
1A
100
AcDbEntity
  8
1
100
AcDbLine
 10
172.8382295533274
 20
177.0504641540455
 30
0.0
 11
172.8382295533274
 21
178.042464144125
 31
0.0
  0
LINE
  5
7ADE
330
1A
100
AcDbEntity
  8
1
100
AcDbLine
 10
171.5982295657259
 20
178.0424641441268
 30
0.0
 11
171.5982295657259
 21
177.0504641540465
 31
0.0
  0
LINE
  5
7ADF
330
1A
100
AcDbEntity
  8
1
100
AcDbLine
 10
175.318229528526
 20
174.3224641813249
 30
0.0
 11
175.3182295285277
 21
175.5624641689264
 31
0.0
  0
LINE
  5
7AE0
330
1A
100
AcDbEntity
  8
1
100
AcDbLine
 10
169.1182295905255
 20
174.3224641813249
 30
0.0
 11
169.1182295905273
 21
175.5624641689264
 31
0.0
  0
CIRCLE
  5
7AE1
330
1A
100
AcDbEntity
  8
1
100
AcDbCircle
 10
172.2182295595266
 20
174.9424641751256
 30
0.0
 40
6.25
  0
CIRCLE
  5
7AE2
330
1A
100
AcDbEntity
  8
1
100
AcDbCircle
 10
172.2182295595266
 20
174.9424641751256
 30
0.0
 40
6.099999999999999
  0
CIRCLE
  5
7AE7
330
1A
100
AcDbEntity
  8
1
 62
     8
100
AcDbCircle
 10
172.2182295595253
 20
254.1384236680187
 30
0.0
 40
5.0
  0
LINE
  5
7AE8
330
1A
100
AcDbEntity
  8
1
100
AcDbLine
 10
171.1642295700667
 20
253.0844236785597
 30
0.0
 11
171.5982295657249
 21
252.0304236890988
 31
0.0
  0
LINE
  5
7AE9
330
1A
100
AcDbEntity
  8
1
100
AcDbLine
 10
169.1182295905246
 20
253.5184236742179
 30
0.0
 11
170.1102295806058
 21
253.5184236742179
 31
0.0
  0
LINE
  5
7AEA
330
1A
100
AcDbEntity
  8
1
100
AcDbLine
 10
170.1102295806058
 20
253.5184236742179
 30
0.0
 11
171.1642295700667
 21
253.0844236785597
 31
0.0
  0
LINE
  5
7AEB
330
1A
100
AcDbEntity
  8
1
100
AcDbLine
 10
171.5982295657249
 20
256.2464236469386
 30
0.0
 11
171.1642295700667
 21
255.1924236574777
 31
0.0
  0
LINE
  5
7AEC
330
1A
100
AcDbEntity
  8
1
100
AcDbLine
 10
171.1642295700667
 20
255.1924236574777
 30
0.0
 11
170.1102295806058
 21
254.7584236618195
 31
0.0
  0
LINE
  5
7AED
330
1A
100
AcDbEntity
  8
1
100
AcDbLine
 10
170.1102295806058
 20
254.7584236618195
 30
0.0
 11
169.1182295905264
 21
254.7584236618195
 31
0.0
  0
LINE
  5
7AEE
330
1A
100
AcDbEntity
  8
1
100
AcDbLine
 10
172.8382295533265
 20
252.0304236890979
 30
0.0
 11
173.2722295489848
 21
253.0844236785597
 31
0.0
  0
LINE
  5
7AEF
330
1A
100
AcDbEntity
  8
1
100
AcDbLine
 10
173.2722295489848
 20
253.0844236785597
 30
0.0
 11
174.3262295384456
 21
253.5184236742179
 31
0.0
  0
LINE
  5
7AF0
330
1A
100
AcDbEntity
  8
1
100
AcDbLine
 10
173.2722295489848
 20
255.1924236574777
 30
0.0
 11
172.8382295533265
 21
256.2464236469386
 31
0.0
  0
LINE
  5
7AF1
330
1A
100
AcDbEntity
  8
1
100
AcDbLine
 10
174.3262295384456
 20
254.7584236618195
 30
0.0
 11
173.2722295489848
 21
255.1924236574777
 31
0.0
  0
LINE
  5
7AF2
330
1A
100
AcDbEntity
  8
1
100
AcDbLine
 10
174.3262295384456
 20
253.5184236742179
 30
0.0
 11
175.318229528525
 21
253.5184236742179
 31
0.0
  0
LINE
  5
7AF3
330
1A
100
AcDbEntity
  8
1
100
AcDbLine
 10
175.3182295285268
 20
254.7584236618195
 30
0.0
 11
174.3262295384456
 21
254.7584236618195
 31
0.0
  0
LINE
  5
7AF4
330
1A
100
AcDbEntity
  8
1
100
AcDbLine
 10
171.5982295657249
 20
257.2384236370198
 30
0.0
 11
172.8382295533265
 21
257.238423637018
 31
0.0
  0
LINE
  5
7AF5
330
1A
100
AcDbEntity
  8
1
100
AcDbLine
 10
171.5982295657249
 20
257.2384236370198
 30
0.0
 11
171.5982295657249
 21
256.2464236469386
 31
0.0
  0
LINE
  5
7AF6
330
1A
100
AcDbEntity
  8
1
100
AcDbLine
 10
172.8382295533265
 20
256.2464236469386
 30
0.0
 11
172.8382295533265
 21
257.238423637018
 31
0.0
  0
LINE
  5
7AF7
330
1A
100
AcDbEntity
  8
1
100
AcDbLine
 10
171.5982295657249
 20
251.0384236990194
 30
0.0
 11
172.8382295533265
 21
251.0384236990176
 31
0.0
  0
LINE
  5
7AF8
330
1A
100
AcDbEntity
  8
1
100
AcDbLine
 10
171.5982295657249
 20
252.0304236890988
 30
0.0
 11
171.5982295657249
 21
251.0384236990194
 31
0.0
  0
LINE
  5
7AF9
330
1A
100
AcDbEntity
  8
1
100
AcDbLine
 10
172.8382295533265
 20
251.0384236990176
 30
0.0
 11
172.8382295533265
 21
252.0304236890979
 31
0.0
  0
LINE
  5
7AFA
330
1A
100
AcDbEntity
  8
1
100
AcDbLine
 10
169.1182295905264
 20
254.7584236618195
 30
0.0
 11
169.1182295905246
 21
253.5184236742179
 31
0.0
  0
LINE
  5
7AFB
330
1A
100
AcDbEntity
  8
1
100
AcDbLine
 10
175.3182295285268
 20
254.7584236618195
 30
0.0
 11
175.318229528525
 21
253.5184236742179
 31
0.0
  0
CIRCLE
  5
7AFC
330
1A
100
AcDbEntity
  8
1
100
AcDbCircle
 10
172.2182295595253
 20
254.1384236680187
 30
0.0
 40
6.25
  0
CIRCLE
  5
7AFD
330
1A
100
AcDbEntity
  8
1
100
AcDbCircle
 10
172.2182295595253
 20
254.1384236680187
 30
0.0
 40
6.099999999999999
  0
LINE
  5
7B06
330
1A
100
AcDbEntity
  8
1
100
AcDbLine
 10
120.6202498130796
 20
147.8704439215725
 30
0.0
 11
120.6202498130796
 21
148.6238299308634
 31
0.0
  0
LINE
  5
7B07
330
1A
100
AcDbEntity
  8
1
100
AcDbLine
 10
144.6202498130778
 20
147.8704439215689
 30
0.0
 11
144.6202498130778
 21
148.6238299308634
 31
0.0
  0
LINE
  5
7B09
330
1A
100
AcDbEntity
  8
1
100
AcDbLine
 10
144.6202498130787
 20
281.2104439215745
 30
0.0
 11
139.2618685916418
 21
281.2104439215736
 31
0.0
  0
LINE
  5
7B0A
330
1A
100
AcDbEntity
  8
1
100
AcDbLine
 10
125.9786310344893
 20
281.2104439215709
 30
0.0
 11
120.6202498130805
 21
281.2104439215709
 31
0.0
  0
LINE
  5
7B0B
330
1A
100
AcDbEntity
  8
1
100
AcDbLine
 10
125.6202498130805
 20
294.0104439215692
 30
0.0
 11
139.6202498130805
 21
294.0104439215711
 31
0.0
  0
ARC
  5
7B0C
330
1A
100
AcDbEntity
  8
1
100
AcDbCircle
 10
132.6202498130796
 20
271.0822406912593
 30
0.0
 40
22.92820323031186
100
AcDbArc
 50
72.41204622603574
 51
89.99999999999941
  0
ARC
  5
7B0D
330
1A
100
AcDbEntity
  8
1
100
AcDbCircle
 10
132.620249813081
 20
311.9386471518846
 30
0.0
 40
22.92820323031186
100
AcDbArc
 50
269.9999999999993
 51
287.587953773963
  0
LINE
  5
7B0E
330
1A
100
AcDbEntity
  8
1
100
AcDbLine
 10
144.6202498130805
 20
289.010443921572
 30
0.0
 11
120.620249813096
 21
289.010443921572
 31
0.0
  0
ARC
  5
7B0F
330
1A
100
AcDbEntity
  8
1
100
AcDbCircle
 10
122.2279449676689
 20
287.8764693253533
 30
0.0
 40
6.133974596217923
100
AcDbArc
 50
55.61575253196778
 51
124.384247468031
  0
ARC
  5
7B10
330
1A
100
AcDbEntity
  8
1
100
AcDbCircle
 10
132.6202498130814
 20
271.0822406912593
 30
0.0
 40
22.92820323031186
100
AcDbArc
 50
89.99999999999941
 51
107.587953773963
  0
LINE
  5
7B11
330
1A
100
AcDbEntity
  8
1
100
AcDbLine
 10
125.6920465828043
 20
293.010443921571
 30
0.0
 11
125.6920465828052
 21
290.0822406912948
 31
0.0
  0
ARC
  5
7B12
330
1A
100
AcDbEntity
  8
1
100
AcDbCircle
 10
122.2279449676689
 20
295.1444185177906
 30
0.0
 40
6.133974596217923
100
AcDbArc
 50
235.6157525319677
 51
304.3842474680309
  0
ARC
  5
7B13
330
1A
100
AcDbEntity
  8
1
100
AcDbCircle
 10
132.620249813081
 20
311.9386471518846
 30
0.0
 40
22.92820323031186
100
AcDbArc
 50
252.4120462260357
 51
269.9999999999993
  0
LINE
  5
7B14
330
1A
100
AcDbEntity
  8
1
100
AcDbLine
 10
118.7638433525298
 20
292.9386471518373
 30
0.0
 11
120.6202498130778
 21
294.010443921562
 31
0.0
  0
LINE
  5
7B15
330
1A
100
AcDbEntity
  8
1
100
AcDbLine
 10
118.7638433525298
 20
290.0822406913066
 30
0.0
 11
120.6202498130778
 21
289.010443921582
 31
0.0
  0
LINE
  5
7B16
330
1A
100
AcDbEntity
  8
1
100
AcDbLine
 10
125.6202498130805
 20
294.0104439215692
 30
0.0
 11
120.6202498130778
 21
294.010443921562
 31
0.0
  0
LINE
  5
7B17
330
1A
100
AcDbEntity
  8
1
100
AcDbLine
 10
118.7638433525271
 20
290.0822406913084
 30
0.0
 11
118.7638433525271
 21
292.9386471518364
 31
0.0
  0
LINE
  5
7B18
330
1A
100
AcDbEntity
  8
1
100
AcDbLine
 10
146.4766562736294
 20
292.9386471518473
 30
0.0
 11
144.6202498130805
 21
294.0104439215701
 31
0.0
  0
LINE
  5
7B19
330
1A
100
AcDbEntity
  8
1
100
AcDbLine
 10
146.4766562736294
 20
290.0822406912948
 30
0.0
 11
144.6202498130805
 21
289.010443921572
 31
0.0
  0
LINE
  5
7B1A
330
1A
100
AcDbEntity
  8
1
100
AcDbLine
 10
146.4766562736276
 20
293.010443921571
 30
0.0
 11
146.4766562736294
 21
290.0822406912948
 31
0.0
  0
LINE
  5
7B1B
330
1A
100
AcDbEntity
  8
1
100
AcDbLine
 10
139.5484530433568
 20
293.010443921571
 30
0.0
 11
139.5484530433559
 21
290.0822406912948
 31
0.0
  0
LINE
  5
7B1C
330
1A
100
AcDbEntity
  8
1
100
AcDbLine
 10
139.6202498130805
 20
294.0104439215711
 30
0.0
 11
139.6202498130805
 21
294.0104439215711
 31
0.0
  0
ARC
  5
7B1D
330
1A
100
AcDbEntity
  8
1
100
AcDbCircle
 10
143.0125546584922
 20
287.8764693253533
 30
0.0
 40
6.133974596217923
100
AcDbArc
 50
55.61575253196778
 51
124.384247468031
  0
ARC
  5
7B1E
330
1A
100
AcDbEntity
  8
1
100
AcDbCircle
 10
143.0125546584922
 20
295.1444185177906
 30
0.0
 40
6.133974596217923
100
AcDbArc
 50
235.6157525319677
 51
304.3842474680309
  0
LINE
  5
7B1F
330
1A
100
AcDbEntity
  8
1
100
AcDbLine
 10
144.6202498130805
 20
294.0104439215711
 30
0.0
 11
139.6202498130805
 21
294.0104439215711
 31
0.0
  0
LINE
  5
7B20
330
1A
100
AcDbEntity
  8
1
100
AcDbLine
 10
141.6202498130787
 20
281.2104439215727
 30
0.0
 11
141.6202498130769
 21
286.0104439215719
 31
0.0
  0
LINE
  5
7B21
330
1A
100
AcDbEntity
  8
1
 62
     9
100
AcDbLine
 10
140.6202498130787
 20
281.2104439215727
 30
0.0
 11
140.6202498130769
 21
286.0104439215719
 31
0.0
  0
LINE
  5
7B22
330
1A
100
AcDbEntity
  8
1
100
AcDbLine
 10
140.6202498130769
 20
286.0104439215719
 30
0.0
 11
140.6202498130769
 21
289.010443921571
 31
0.0
  0
LINE
  5
7B23
330
1A
100
AcDbEntity
  8
1
100
AcDbLine
 10
141.6202498130769
 20
286.0104439215711
 30
0.0
 11
123.6202498130805
 21
286.0104439215701
 31
0.0
  0
LINE
  5
7B24
330
1A
100
AcDbEntity
  8
1
 62
     9
100
AcDbLine
 10
124.6202498130805
 20
281.2104439215709
 30
0.0
 11
124.6202498130824
 21
286.0104439215711
 31
0.0
  0
LINE
  5
7B25
330
1A
100
AcDbEntity
  8
1
100
AcDbLine
 10
123.6202498130824
 20
281.2104439215709
 30
0.0
 11
123.6202498130796
 21
286.0104439215711
 31
0.0
  0
LINE
  5
7B26
330
1A
100
AcDbEntity
  8
1
100
AcDbLine
 10
124.6202498130778
 20
286.0104439215701
 30
0.0
 11
124.6202498130778
 21
289.010443921571
 31
0.0
  0
LINE
  5
7B27
330
1A
100
AcDbEntity
  8
1
100
AcDbLine
 10
120.6202498130805
 20
281.2104439215709
 30
0.0
 11
120.6202498130805
 21
280.4570579122801
 31
0.0
  0
LINE
  5
7B28
330
1A
100
AcDbEntity
  8
1
100
AcDbLine
 10
144.6202498130787
 20
281.2104439215745
 30
0.0
 11
144.6202498130787
 21
280.4570579122801
 31
0.0
  0
ARC
  5
7B2A
330
1A
100
AcDbEntity
  8
1
100
AcDbCircle
 10
178.3233654022401
 20
94.70853622457525
 30
0.0
 40
5.223290993692597
100
AcDbArc
 50
90.0
 51
113.8649254160653
  0
LINE
  5
7B2B
330
1A
100
AcDbEntity
  8
1
100
AcDbLine
 10
178.3233654022401
 20
99.93182721826816
 30
0.0
 11
179.0968680941364
 21
99.48524523088327
 31
0.0
  0
LINE
  5
7B2C
330
1A
100
AcDbEntity
  8
1
100
AcDbLine
 10
176.2101167481882
 20
99.48524523088327
 30
0.0
 11
176.2101167481882
 21
96.10392721826793
 31
0.0
  0
LINE
  5
7B2D
330
1A
100
AcDbEntity
  8
1
100
AcDbLine
 10
179.0968680941364
 20
99.48524523088327
 30
0.0
 11
179.0968680941355
 21
96.37840161213262
 31
0.0
  0
LINE
  5
7B2E
330
1A
100
AcDbEntity
  8
1
100
AcDbLine
 10
168.3233654022401
 20
99.93182721826816
 30
0.0
 11
178.3233654022401
 21
99.93182721826816
 31
0.0
  0
ARC
  5
7B2F
330
1A
100
AcDbEntity
  8
1
100
AcDbCircle
 10
173.3233654022401
 20
90.37840920565304
 30
0.0
 40
9.553418012614768
100
AcDbArc
 50
72.41204622598667
 51
107.5879537740133
  0
ARC
  5
7B30
330
1A
100
AcDbEntity
  8
1
100
AcDbCircle
 10
178.3233654022401
 20
101.1551106184406
 30
0.0
 40
5.223290993692597
100
AcDbArc
 50
246.1350745839346
 51
270.0
  0
LINE
  5
7B31
330
1A
100
AcDbEntity
  8
1
100
AcDbLine
 10
178.3233654022401
 20
95.93181962474773
 30
0.0
 11
179.0968680941364
 21
96.37840161213262
 31
0.0
  0
ARC
  5
7B32
330
1A
100
AcDbEntity
  8
1
100
AcDbCircle
 10
168.3233654022401
 20
94.70853622457525
 30
0.0
 40
5.223290993692597
100
AcDbArc
 50
66.13507458393463
 51
90.0
  0
LINE
  5
7B33
330
1A
100
AcDbEntity
  8
1
100
AcDbLine
 10
168.3233654022401
 20
99.93182721826816
 30
0.0
 11
167.5498627103438
 21
99.48524523088327
 31
0.0
  0
LINE
  5
7B34
330
1A
100
AcDbEntity
  8
1
100
AcDbLine
 10
167.5498627103438
 20
99.48524523088327
 30
0.0
 11
167.5498627103447
 21
96.37840161213262
 31
0.0
  0
LINE
  5
7B35
330
1A
100
AcDbEntity
  8
1
100
AcDbLine
 10
170.4366140562919
 20
99.48524523088327
 30
0.0
 11
170.4366140562919
 21
96.10392721826793
 31
0.0
  0
LINE
  5
7B36
330
1A
100
AcDbEntity
  8
1
100
AcDbLine
 10
168.3233654022401
 20
95.93181962474773
 30
0.0
 11
167.5498627103438
 21
96.37840161213262
 31
0.0
  0
ARC
  5
7B37
330
1A
100
AcDbEntity
  8
1
100
AcDbCircle
 10
168.3233654022401
 20
101.1551106184406
 30
0.0
 40
5.223290993692597
100
AcDbArc
 50
270.0
 51
293.8649254160653
  0
ARC
  5
7B38
330
1A
100
AcDbEntity
  8
1
100
AcDbCircle
 10
173.3233654022401
 20
105.4852376373628
 30
0.0
 40
9.553418012614768
100
AcDbArc
 50
252.4120462259866
 51
287.5879537740133
  0
LINE
  5
7B39
330
1A
100
AcDbEntity
  8
1
100
AcDbLine
 10
168.3233654022401
 20
95.93181962474773
 30
0.0
 11
178.3233654022401
 21
95.93181962474773
 31
0.0
  0
LINE
  5
7B3A
330
1A
100
AcDbEntity
  8
1
100
AcDbLine
 10
173.1224035079171
 20
95.93181962474773
 30
0.0
 11
173.524327296564
 21
94.43181962474772
 31
0.0
  0
LINE
  5
7B3B
330
1A
100
AcDbEntity
  8
1
100
AcDbLine
 10
167.2233654022397
 20
94.43181962474772
 30
0.0
 11
167.2233654022397
 21
95.93181962474773
 31
0.0
  0
LINE
  5
7B3C
330
1A
100
AcDbEntity
  8
1
100
AcDbLine
 10
179.4233654022395
 20
94.43181962474772
 30
0.0
 11
167.2233654022397
 21
94.43181962474772
 31
0.0
  0
LINE
  5
7B3D
330
1A
100
AcDbEntity
  8
1
100
AcDbLine
 10
179.4233654022395
 20
95.93181962474773
 30
0.0
 11
179.4233654022395
 21
94.43181962474772
 31
0.0
  0
LINE
  5
7B3E
330
1A
100
AcDbEntity
  8
1
100
AcDbLine
 10
167.2233654022397
 20
95.93181962474773
 30
0.0
 11
179.4233654022395
 21
95.93181962474773
 31
0.0
  0
LINE
  5
7B3F
330
1A
100
AcDbEntity
  8
1
100
AcDbLine
 10
179.5733654022401
 20
94.43181962474772
 30
0.0
 11
167.0733654022401
 21
94.43181962474772
 31
0.0
  0
LINE
  5
7B40
330
1A
100
AcDbEntity
  8
1
100
AcDbLine
 10
179.5733654022401
 20
92.83181962474737
 30
0.0
 11
179.5733654022401
 21
94.43181962474772
 31
0.0
  0
LINE
  5
7B41
330
1A
100
AcDbEntity
  8
1
100
AcDbLine
 10
167.0733654022401
 20
92.83181962474737
 30
0.0
 11
179.5733654022401
 21
92.83181962474737
 31
0.0
  0
LINE
  5
7B42
330
1A
100
AcDbEntity
  8
1
100
AcDbLine
 10
167.0733654022401
 20
94.43181962474772
 30
0.0
 11
167.0733654022401
 21
92.83181962474737
 31
0.0
  0
LINE
  5
7B43
330
1A
100
AcDbEntity
  8
1
100
AcDbLine
 10
170.3233654022396
 20
75.4318196247441
 30
0.0
 11
170.3233654022396
 21
75.23182293360605
 31
0.0
  0
LINE
  5
7B44
330
1A
100
AcDbEntity
  8
1
 62
     9
100
AcDbLine
 10
170.8233654022397
 20
75.4318196247441
 30
0.0
 11
170.8233654022397
 21
74.73182293360697
 31
0.0
  0
LINE
  5
7B45
330
1A
100
AcDbEntity
  8
1
 62
     9
100
AcDbLine
 10
175.8233654022396
 20
75.4318196247441
 30
0.0
 11
175.8233654022396
 21
74.73182293360697
 31
0.0
  0
LINE
  5
7B46
330
1A
100
AcDbEntity
  8
1
100
AcDbLine
 10
176.3233654022396
 20
75.4318196247441
 30
0.0
 11
176.3233654022396
 21
75.23182293360696
 31
0.0
  0
LINE
  5
7B47
330
1A
100
AcDbEntity
  8
1
100
AcDbLine
 10
175.8233654022396
 20
74.73182293360697
 30
0.0
 11
176.3233654022396
 21
75.23182293360696
 31
0.0
  0
LINE
  5
7B48
330
1A
100
AcDbEntity
  8
1
100
AcDbLine
 10
170.8233654022397
 20
74.73182293360697
 30
0.0
 11
170.3233654022396
 21
75.23182293360605
 31
0.0
  0
LINE
  5
7B49
330
1A
100
AcDbEntity
  8
1
100
AcDbLine
 10
170.3233654022387
 20
75.23182293360605
 30
0.0
 11
176.3233654022406
 21
75.23182293360696
 31
0.0
  0
LINE
  5
7B4A
330
1A
100
AcDbEntity
  8
1
100
AcDbLine
 10
170.8233654022405
 20
74.73182293360605
 30
0.0
 11
175.8233654022396
 21
74.73182293360697
 31
0.0
  0
ARC
  5
7B4D
330
1A
100
AcDbEntity
  8
1
100
AcDbCircle
 10
292.8329902987002
 20
256.376979578461
 30
0.0
 40
38.03594997575043
100
AcDbArc
 50
98.02509750120723
 51
105.83982791479
  0
LINE
  5
7B4E
330
1A
100
AcDbEntity
  8
1
100
AcDbLine
 10
282.4511140348909
 20
292.9686471518353
 30
0.0
 11
284.3075204954388
 21
294.0404439215599
 31
0.0
  0
LINE
  5
7B4F
330
1A
100
AcDbEntity
  8
1
100
AcDbLine
 10
287.4511140348918
 20
294.0404439215708
 30
0.0
 11
284.3075204954525
 21
294.0404439215672
 31
0.0
  0
LINE
  5
7B50
330
1A
100
AcDbEntity
  8
1
100
AcDbLine
 10
286.451114034889
 20
286.0404439215717
 30
0.0
 11
286.451114034889
 21
289.0404439215726
 31
0.0
  0
LINE
  5
7B51
330
1A
100
AcDbEntity
  8
1
100
AcDbLine
 10
302.4511140348881
 20
286.0404439215735
 30
0.0
 11
302.4511140348881
 21
289.0404439215726
 31
0.0
  0
ARC
  5
7B52
330
1A
100
AcDbEntity
  8
1
100
AcDbCircle
 10
301.3793172651681
 20
311.9686471518789
 30
0.0
 40
22.92820323031186
100
AcDbArc
 50
252.4120462260363
 51
270.0
  0
ARC
  5
7B53
330
1A
100
AcDbEntity
  8
1
100
AcDbCircle
 10
287.5229108046182
 20
311.9686471518807
 30
0.0
 40
22.92820323031186
100
AcDbArc
 50
270.0
 51
287.5879537739636
  0
LINE
  5
7B54
330
1A
100
AcDbEntity
  8
1
100
AcDbLine
 10
304.5947075743374
 20
289.0404439215753
 30
0.0
 11
284.3075204954498
 21
289.0404439215735
 31
0.0
  0
LINE
  5
7B55
330
1A
100
AcDbEntity
  8
1
 62
     9
100
AcDbLine
 10
286.4511140348918
 20
281.2404439215725
 30
0.0
 11
286.4511140348936
 21
286.0404439215726
 31
0.0
  0
LINE
  5
7B56
330
1A
100
AcDbEntity
  8
1
100
AcDbLine
 10
285.4511140348936
 20
281.2404439215725
 30
0.0
 11
285.4511140348908
 21
286.0404439215726
 31
0.0
  0
LINE
  5
7B57
330
1A
100
AcDbEntity
  8
1
 62
     9
100
AcDbLine
 10
302.45111403489
 20
281.2404439215743
 30
0.0
 11
302.4511140348881
 21
286.0404439215735
 31
0.0
  0
LINE
  5
7B58
330
1A
100
AcDbEntity
  8
1
100
AcDbLine
 10
303.45111403489
 20
281.2404439215743
 30
0.0
 11
303.4511140348882
 21
286.0404439215735
 31
0.0
  0
LINE
  5
7B59
330
1A
100
AcDbEntity
  8
1
100
AcDbLine
 10
303.4511140348882
 20
286.0404439215726
 30
0.0
 11
285.4511140348918
 21
286.0404439215717
 31
0.0
  0
ARC
  5
7B5A
330
1A
100
AcDbEntity
  8
1
100
AcDbCircle
 10
301.3793172651689
 20
271.1122406912527
 30
0.0
 40
22.92820323031186
100
AcDbArc
 50
90.00000000000003
 51
107.5879537739636
  0
ARC
  5
7B5B
330
1A
100
AcDbEntity
  8
1
100
AcDbCircle
 10
296.0692377710706
 20
256.3769795784601
 30
0.0
 40
38.03594997575043
100
AcDbArc
 50
74.16017208520996
 51
81.97490249874119
  0
ARC
  5
7B5C
330
1A
100
AcDbEntity
  8
1
100
AcDbCircle
 10
296.0692377710688
 20
326.7039082646697
 30
0.0
 40
38.03594997575043
100
AcDbArc
 50
278.0250975012588
 51
285.83982791479
  0
LINE
  5
7B5D
330
1A
100
AcDbEntity
  8
1
100
AcDbLine
 10
306.4511140348736
 20
290.1122406912918
 30
0.0
 11
306.45111403489
 21
292.9686471518316
 31
0.0
  0
LINE
  5
7B5E
330
1A
100
AcDbEntity
  8
1
100
AcDbLine
 10
306.45111403489
 20
292.9686471518316
 30
0.0
 11
304.594707574342
 21
294.0404439215571
 31
0.0
  0
LINE
  5
7B5F
330
1A
100
AcDbEntity
  8
1
100
AcDbLine
 10
306.4511140348891
 20
290.1122406913009
 30
0.0
 11
304.5947075743411
 21
289.0404439215771
 31
0.0
  0
LINE
  5
7B60
330
1A
100
AcDbEntity
  8
1
100
AcDbLine
 10
287.4511140348918
 20
294.0404439215708
 30
0.0
 11
301.4511140348918
 21
294.0404439215726
 31
0.0
  0
LINE
  5
7B61
330
1A
100
AcDbEntity
  8
1
100
AcDbLine
 10
301.4511140348918
 20
294.0404439215726
 30
0.0
 11
301.4511140348918
 21
294.0404439215726
 31
0.0
  0
LINE
  5
7B62
330
1A
100
AcDbEntity
  8
1
100
AcDbLine
 10
304.5947075743165
 20
294.0404439215717
 30
0.0
 11
301.4511140348918
 21
294.0404439215726
 31
0.0
  0
ARC
  5
7B63
330
1A
100
AcDbEntity
  8
1
100
AcDbCircle
 10
287.5229108046055
 20
271.1122406912545
 30
0.0
 40
22.92820323031186
100
AcDbArc
 50
72.41204622598669
 51
89.99999999994789
  0
ARC
  5
7B64
330
1A
100
AcDbEntity
  8
1
100
AcDbCircle
 10
292.8329902987211
 20
326.7039082646706
 30
0.0
 40
38.03594997575043
100
AcDbArc
 50
254.1601720851598
 51
261.9749024987411
  0
LINE
  5
7B65
330
1A
100
AcDbEntity
  8
1
100
AcDbLine
 10
282.4511140348881
 20
290.1122406913064
 30
0.0
 11
282.4511140348881
 21
292.9686471518343
 31
0.0
  0
LINE
  5
7B66
330
1A
100
AcDbEntity
  8
1
100
AcDbLine
 10
282.4511140348909
 20
290.1122406913045
 30
0.0
 11
284.3075204954388
 21
289.0404439215799
 31
0.0
  0
LINE
  5
7B67
330
1A
100
AcDbEntity
  8
1
100
AcDbLine
 10
294.4511140348918
 20
290.1122406912918
 30
0.0
 11
294.4511140348918
 21
292.9686471518452
 31
0.0
  0
LINE
  5
7B68
330
1A
100
AcDbEntity
  8
1
100
AcDbLine
 10
282.4511140348909
 20
290.1122406912918
 30
0.0
 11
282.4511140348917
 21
292.9686471518452
 31
0.0
  0
ARC
  5
7BA9
330
1A
100
AcDbEntity
  8
1
100
AcDbCircle
 10
262.3743974350741
 20
178.8373283324153
 30
0.0
 40
5.223290993692597
100
AcDbArc
 50
180.0
 51
203.8649254160653
  0
LINE
  5
7BAA
330
1A
100
AcDbEntity
  8
1
100
AcDbLine
 10
257.1511064413807
 20
178.8373283324153
 30
0.0
 11
257.5976884287656
 21
179.6108310243116
 31
0.0
  0
LINE
  5
7BAB
330
1A
100
AcDbEntity
  8
1
100
AcDbLine
 10
257.5976884287656
 20
176.7240796783635
 30
0.0
 11
260.979006441381
 21
176.7240796783635
 31
0.0
  0
LINE
  5
7BAC
330
1A
100
AcDbEntity
  8
1
100
AcDbLine
 10
257.5976884287656
 20
179.6108310243116
 30
0.0
 11
260.7045320475163
 21
179.6108310243107
 31
0.0
  0
LINE
  5
7BAD
330
1A
100
AcDbEntity
  8
1
100
AcDbLine
 10
257.1511064413807
 20
168.8373283324153
 30
0.0
 11
257.1511064413807
 21
178.8373283324153
 31
0.0
  0
ARC
  5
7BAE
330
1A
100
AcDbEntity
  8
1
100
AcDbCircle
 10
266.7045244539963
 20
173.8373283324153
 30
0.0
 40
9.553418012614768
100
AcDbArc
 50
162.4120462259866
 51
197.5879537740133
  0
ARC
  5
7BAF
330
1A
100
AcDbEntity
  8
1
100
AcDbCircle
 10
255.9278230412087
 20
178.8373283324153
 30
0.0
 40
5.223290993692597
100
AcDbArc
 50
336.1350745839346
 51
0.0
  0
LINE
  5
7BB0
330
1A
100
AcDbEntity
  8
1
100
AcDbLine
 10
261.1511140349012
 20
178.8373283324153
 30
0.0
 11
260.7045320475163
 21
179.6108310243116
 31
0.0
  0
ARC
  5
7BB1
330
1A
100
AcDbEntity
  8
1
100
AcDbCircle
 10
262.3743974350741
 20
168.8373283324153
 30
0.0
 40
5.223290993692597
100
AcDbArc
 50
156.1350745839346
 51
180.0
  0
LINE
  5
7BB2
330
1A
100
AcDbEntity
  8
1
100
AcDbLine
 10
257.1511064413807
 20
168.8373283324153
 30
0.0
 11
257.5976884287656
 21
168.063825640519
 31
0.0
  0
LINE
  5
7BB3
330
1A
100
AcDbEntity
  8
1
100
AcDbLine
 10
257.5976884287656
 20
168.063825640519
 30
0.0
 11
260.7045320475163
 21
168.06382564052
 31
0.0
  0
LINE
  5
7BB4
330
1A
100
AcDbEntity
  8
1
100
AcDbLine
 10
257.5976884287656
 20
170.9505769864672
 30
0.0
 11
260.979006441381
 21
170.9505769864672
 31
0.0
  0
LINE
  5
7BB5
330
1A
100
AcDbEntity
  8
1
100
AcDbLine
 10
261.1511140349012
 20
168.8373283324153
 30
0.0
 11
260.7045320475163
 21
168.063825640519
 31
0.0
  0
ARC
  5
7BB6
330
1A
100
AcDbEntity
  8
1
100
AcDbCircle
 10
255.9278230412087
 20
168.8373283324153
 30
0.0
 40
5.223290993692597
100
AcDbArc
 50
0.0
 51
23.86492541606536
  0
ARC
  5
7BB7
330
1A
100
AcDbEntity
  8
1
100
AcDbCircle
 10
251.5976960222865
 20
173.8373283324153
 30
0.0
 40
9.553418012614768
100
AcDbArc
 50
342.4120462259866
 51
17.58795377401331
  0
LINE
  5
7BB8
330
1A
100
AcDbEntity
  8
1
100
AcDbLine
 10
261.1511140349012
 20
168.8373283324153
 30
0.0
 11
261.1511140349012
 21
178.8373283324153
 31
0.0
  0
LINE
  5
7BB9
330
1A
100
AcDbEntity
  8
1
100
AcDbLine
 10
261.1511140349012
 20
173.6363664380924
 30
0.0
 11
262.6511140349011
 21
174.0382902267392
 31
0.0
  0
LINE
  5
7BBA
330
1A
100
AcDbEntity
  8
1
100
AcDbLine
 10
262.6511140349011
 20
167.737328332415
 30
0.0
 11
261.1511140349012
 21
167.737328332415
 31
0.0
  0
LINE
  5
7BBB
330
1A
100
AcDbEntity
  8
1
100
AcDbLine
 10
262.6511140349011
 20
179.9373283324148
 30
0.0
 11
262.6511140349011
 21
167.737328332415
 31
0.0
  0
LINE
  5
7BBC
330
1A
100
AcDbEntity
  8
1
100
AcDbLine
 10
261.1511140349012
 20
179.9373283324148
 30
0.0
 11
262.6511140349011
 21
179.9373283324148
 31
0.0
  0
LINE
  5
7BBD
330
1A
100
AcDbEntity
  8
1
100
AcDbLine
 10
261.1511140349012
 20
167.737328332415
 30
0.0
 11
261.1511140349012
 21
179.9373283324148
 31
0.0
  0
LINE
  5
7BBE
330
1A
100
AcDbEntity
  8
1
100
AcDbLine
 10
262.6511140349011
 20
180.0873283324153
 30
0.0
 11
262.6511140349011
 21
167.5873283324153
 31
0.0
  0
LINE
  5
7BBF
330
1A
100
AcDbEntity
  8
1
100
AcDbLine
 10
264.2511140349015
 20
180.0873283324153
 30
0.0
 11
262.6511140349011
 21
180.0873283324153
 31
0.0
  0
LINE
  5
7BC0
330
1A
100
AcDbEntity
  8
1
100
AcDbLine
 10
264.2511140349015
 20
167.5873283324153
 30
0.0
 11
264.2511140349015
 21
180.0873283324153
 31
0.0
  0
LINE
  5
7BC1
330
1A
100
AcDbEntity
  8
1
100
AcDbLine
 10
262.6511140349011
 20
167.5873283324153
 30
0.0
 11
264.2511140349015
 21
167.5873283324153
 31
0.0
  0
LINE
  5
7BC2
330
1A
100
AcDbEntity
  8
1
100
AcDbLine
 10
281.6511140349048
 20
170.8373283324153
 30
0.0
 11
281.8511107260428
 21
170.8373283324153
 31
0.0
  0
LINE
  5
7BC3
330
1A
100
AcDbEntity
  8
1
 62
     9
100
AcDbLine
 10
281.6511140349048
 20
171.3373283324153
 30
0.0
 11
282.3511107260419
 21
171.3373283324153
 31
0.0
  0
LINE
  5
7BC4
330
1A
100
AcDbEntity
  8
1
 62
     9
100
AcDbLine
 10
281.6511140349048
 20
176.3373283324153
 30
0.0
 11
282.3511107260419
 21
176.3373283324153
 31
0.0
  0
LINE
  5
7BC5
330
1A
100
AcDbEntity
  8
1
100
AcDbLine
 10
281.6511140349048
 20
176.8373283324153
 30
0.0
 11
281.8511107260419
 21
176.8373283324153
 31
0.0
  0
LINE
  5
7BC6
330
1A
100
AcDbEntity
  8
1
100
AcDbLine
 10
282.3511107260419
 20
176.3373283324153
 30
0.0
 11
281.8511107260419
 21
176.8373283324153
 31
0.0
  0
LINE
  5
7BC7
330
1A
100
AcDbEntity
  8
1
100
AcDbLine
 10
282.3511107260419
 20
171.3373283324153
 30
0.0
 11
281.8511107260428
 21
170.8373283324153
 31
0.0
  0
LINE
  5
7BC8
330
1A
100
AcDbEntity
  8
1
100
AcDbLine
 10
281.8511107260428
 20
170.8373283324135
 30
0.0
 11
281.8511107260419
 21
176.8373283324153
 31
0.0
  0
LINE
  5
7BC9
330
1A
100
AcDbEntity
  8
1
100
AcDbLine
 10
282.3511107260428
 20
171.3373283324153
 30
0.0
 11
282.3511107260419
 21
176.3373283324153
 31
0.0
  0
ARC
  5
7BCA
330
1A
100
AcDbEntity
  8
1
100
AcDbCircle
 10
262.3743974350768
 20
260.2435595107353
 30
0.0
 40
5.223290993692597
100
AcDbArc
 50
180.0
 51
203.8649254160653
  0
LINE
  5
7BCB
330
1A
100
AcDbEntity
  8
1
100
AcDbLine
 10
257.1511064413834
 20
260.2435595107353
 30
0.0
 11
257.5976884287683
 21
261.0170622026316
 31
0.0
  0
LINE
  5
7BCC
330
1A
100
AcDbEntity
  8
1
100
AcDbLine
 10
257.5976884287683
 20
258.1303108566835
 30
0.0
 11
260.9790064413837
 21
258.1303108566835
 31
0.0
  0
LINE
  5
7BCD
330
1A
100
AcDbEntity
  8
1
100
AcDbLine
 10
257.5976884287683
 20
261.0170622026316
 30
0.0
 11
260.704532047519
 21
261.0170622026307
 31
0.0
  0
LINE
  5
7BCE
330
1A
100
AcDbEntity
  8
1
100
AcDbLine
 10
257.1511064413834
 20
250.2435595107353
 30
0.0
 11
257.1511064413834
 21
260.2435595107353
 31
0.0
  0
ARC
  5
7BCF
330
1A
100
AcDbEntity
  8
1
100
AcDbCircle
 10
266.704524453999
 20
255.2435595107354
 30
0.0
 40
9.553418012614768
100
AcDbArc
 50
162.4120462259866
 51
197.5879537740133
  0
ARC
  5
7BD0
330
1A
100
AcDbEntity
  8
1
100
AcDbCircle
 10
255.9278230412114
 20
260.2435595107353
 30
0.0
 40
5.223290993692597
100
AcDbArc
 50
336.1350745839346
 51
0.0
  0
LINE
  5
7BD1
330
1A
100
AcDbEntity
  8
1
100
AcDbLine
 10
261.1511140349039
 20
260.2435595107353
 30
0.0
 11
260.704532047519
 21
261.0170622026316
 31
0.0
  0
ARC
  5
7BD2
330
1A
100
AcDbEntity
  8
1
100
AcDbCircle
 10
262.3743974350768
 20
250.2435595107353
 30
0.0
 40
5.223290993692597
100
AcDbArc
 50
156.1350745839346
 51
180.0
  0
LINE
  5
7BD3
330
1A
100
AcDbEntity
  8
1
100
AcDbLine
 10
257.1511064413834
 20
250.2435595107353
 30
0.0
 11
257.5976884287683
 21
249.4700568188391
 31
0.0
  0
LINE
  5
7BD4
330
1A
100
AcDbEntity
  8
1
100
AcDbLine
 10
257.5976884287683
 20
249.4700568188391
 30
0.0
 11
260.704532047519
 21
249.47005681884
 31
0.0
  0
LINE
  5
7BD5
330
1A
100
AcDbEntity
  8
1
100
AcDbLine
 10
257.5976884287683
 20
252.3568081647872
 30
0.0
 11
260.9790064413837
 21
252.3568081647872
 31
0.0
  0
LINE
  5
7BD6
330
1A
100
AcDbEntity
  8
1
100
AcDbLine
 10
261.1511140349039
 20
250.2435595107353
 30
0.0
 11
260.704532047519
 21
249.4700568188391
 31
0.0
  0
ARC
  5
7BD7
330
1A
100
AcDbEntity
  8
1
100
AcDbCircle
 10
255.9278230412114
 20
250.2435595107353
 30
0.0
 40
5.223290993692597
100
AcDbArc
 50
0.0
 51
23.86492541606536
  0
ARC
  5
7BD8
330
1A
100
AcDbEntity
  8
1
100
AcDbCircle
 10
251.5976960222892
 20
255.2435595107354
 30
0.0
 40
9.553418012614768
100
AcDbArc
 50
342.4120462259866
 51
17.58795377401331
  0
LINE
  5
7BD9
330
1A
100
AcDbEntity
  8
1
100
AcDbLine
 10
261.1511140349039
 20
250.2435595107353
 30
0.0
 11
261.1511140349039
 21
260.2435595107353
 31
0.0
  0
LINE
  5
7BDA
330
1A
100
AcDbEntity
  8
1
100
AcDbLine
 10
261.1511140349039
 20
255.0425976164124
 30
0.0
 11
262.6511140349039
 21
255.4445214050592
 31
0.0
  0
LINE
  5
7BDB
330
1A
100
AcDbEntity
  8
1
100
AcDbLine
 10
262.6511140349039
 20
249.143559510735
 30
0.0
 11
261.1511140349039
 21
249.143559510735
 31
0.0
  0
LINE
  5
7BDC
330
1A
100
AcDbEntity
  8
1
100
AcDbLine
 10
262.6511140349039
 20
261.3435595107348
 30
0.0
 11
262.6511140349039
 21
249.143559510735
 31
0.0
  0
LINE
  5
7BDD
330
1A
100
AcDbEntity
  8
1
100
AcDbLine
 10
261.1511140349039
 20
261.3435595107348
 30
0.0
 11
262.6511140349039
 21
261.3435595107348
 31
0.0
  0
LINE
  5
7BDE
330
1A
100
AcDbEntity
  8
1
100
AcDbLine
 10
261.1511140349039
 20
249.143559510735
 30
0.0
 11
261.1511140349039
 21
261.3435595107348
 31
0.0
  0
LINE
  5
7BDF
330
1A
100
AcDbEntity
  8
1
100
AcDbLine
 10
262.6511140349039
 20
261.4935595107354
 30
0.0
 11
262.6511140349039
 21
248.9935595107354
 31
0.0
  0
LINE
  5
7BE0
330
1A
100
AcDbEntity
  8
1
100
AcDbLine
 10
264.2511140349042
 20
261.4935595107354
 30
0.0
 11
262.6511140349039
 21
261.4935595107354
 31
0.0
  0
LINE
  5
7BE1
330
1A
100
AcDbEntity
  8
1
100
AcDbLine
 10
264.2511140349042
 20
248.9935595107354
 30
0.0
 11
264.2511140349042
 21
261.4935595107354
 31
0.0
  0
LINE
  5
7BE2
330
1A
100
AcDbEntity
  8
1
100
AcDbLine
 10
262.6511140349039
 20
248.9935595107354
 30
0.0
 11
264.2511140349042
 21
248.9935595107354
 31
0.0
  0
LINE
  5
7BE3
330
1A
100
AcDbEntity
  8
1
100
AcDbLine
 10
281.6511140349075
 20
252.2435595107353
 30
0.0
 11
281.8511107260455
 21
252.2435595107353
 31
0.0
  0
LINE
  5
7BE4
330
1A
100
AcDbEntity
  8
1
 62
     9
100
AcDbLine
 10
281.6511140349075
 20
252.7435595107354
 30
0.0
 11
282.3511107260447
 21
252.7435595107354
 31
0.0
  0
LINE
  5
7BE5
330
1A
100
AcDbEntity
  8
1
 62
     9
100
AcDbLine
 10
281.6511140349075
 20
257.7435595107353
 30
0.0
 11
282.3511107260447
 21
257.7435595107353
 31
0.0
  0
LINE
  5
7BE6
330
1A
100
AcDbEntity
  8
1
100
AcDbLine
 10
281.6511140349075
 20
258.2435595107353
 30
0.0
 11
281.8511107260446
 21
258.2435595107353
 31
0.0
  0
LINE
  5
7BE7
330
1A
100
AcDbEntity
  8
1
100
AcDbLine
 10
282.3511107260447
 20
257.7435595107353
 30
0.0
 11
281.8511107260446
 21
258.2435595107353
 31
0.0
  0
LINE
  5
7BE8
330
1A
100
AcDbEntity
  8
1
100
AcDbLine
 10
282.3511107260447
 20
252.7435595107354
 30
0.0
 11
281.8511107260455
 21
252.2435595107353
 31
0.0
  0
LINE
  5
7BE9
330
1A
100
AcDbEntity
  8
1
100
AcDbLine
 10
281.8511107260455
 20
252.2435595107335
 30
0.0
 11
281.8511107260446
 21
258.2435595107353
 31
0.0
  0
LINE
  5
7BEA
330
1A
100
AcDbEntity
  8
1
100
AcDbLine
 10
282.3511107260456
 20
252.7435595107354
 30
0.0
 11
282.3511107260447
 21
257.7435595107353
 31
0.0
  0
ARC
  5
7BEF
330
1A
100
AcDbEntity
  8
1
100
AcDbCircle
 10
259.1511140349025
 20
255.9317832409424
 30
0.0
 40
3.2
100
AcDbArc
 50
128.6823616237374
 51
180.0
  0
LINE
  5
86AB
330
1A
100
AcDbEntity
  8
1
100
AcDbLine
 10
169.3314782135776
 20
259.1384236680187
 30
0.0
 11
166.4447268676294
 21
254.1384236680187
 31
0.0
  0
LINE
  5
86AC
330
1A
100
AcDbEntity
  8
1
100
AcDbLine
 10
166.4447268676294
 20
254.1384236680187
 30
0.0
 11
169.3314782135776
 21
249.1384236680187
 31
0.0
  0
LINE
  5
86AD
330
1A
100
AcDbEntity
  8
1
100
AcDbLine
 10
169.3314782135776
 20
249.1384236680187
 30
0.0
 11
175.1049809054739
 21
249.1384236680187
 31
0.0
  0
LINE
  5
86AE
330
1A
100
AcDbEntity
  8
1
100
AcDbLine
 10
175.1049809054739
 20
249.1384236680187
 30
0.0
 11
177.991732251422
 21
254.1384236680187
 31
0.0
  0
LINE
  5
86AF
330
1A
100
AcDbEntity
  8
1
100
AcDbLine
 10
177.991732251422
 20
254.1384236680187
 30
0.0
 11
175.1049809054739
 21
259.1384236680187
 31
0.0
  0
LINE
  5
86B0
330
1A
100
AcDbEntity
  8
1
100
AcDbLine
 10
175.1049809054739
 20
259.1384236680187
 30
0.0
 11
169.3314782135776
 21
259.1384236680187
 31
0.0
  0
LINE
  5
86B2
330
1A
100
AcDbEntity
  8
1
100
AcDbLine
 10
175.1049809054748
 20
169.9424641751256
 30
0.0
 11
177.9917322514229
 21
174.9424641751256
 31
0.0
  0
LINE
  5
86B3
330
1A
100
AcDbEntity
  8
1
100
AcDbLine
 10
177.9917322514229
 20
174.9424641751256
 30
0.0
 11
175.1049809054748
 21
179.9424641751256
 31
0.0
  0
LINE
  5
86B4
330
1A
100
AcDbEntity
  8
1
100
AcDbLine
 10
175.1049809054748
 20
179.9424641751256
 30
0.0
 11
169.3314782135785
 21
179.9424641751256
 31
0.0
  0
LINE
  5
86B5
330
1A
100
AcDbEntity
  8
1
100
AcDbLine
 10
169.3314782135785
 20
179.9424641751256
 30
0.0
 11
166.4447268676303
 21
174.9424641751256
 31
0.0
  0
LINE
  5
86B6
330
1A
100
AcDbEntity
  8
1
100
AcDbLine
 10
166.4447268676303
 20
174.9424641751256
 30
0.0
 11
169.3314782135785
 21
169.9424641751256
 31
0.0
  0
LINE
  5
86B7
330
1A
100
AcDbEntity
  8
1
100
AcDbLine
 10
169.3314782135785
 20
169.9424641751256
 30
0.0
 11
175.1049809054748
 21
169.9424641751256
 31
0.0
  0
LINE
  5
86B8
330
1A
100
AcDbEntity
  8
1
100
AcDbLine
 10
95.90902141258174
 20
169.9424641751247
 30
0.0
 11
98.79577275852989
 21
174.9424641751247
 31
0.0
  0
LINE
  5
86B9
330
1A
100
AcDbEntity
  8
1
100
AcDbLine
 10
98.79577275852989
 20
174.9424641751247
 30
0.0
 11
95.90902141258174
 21
179.9424641751247
 31
0.0
  0
LINE
  5
86BA
330
1A
100
AcDbEntity
  8
1
100
AcDbLine
 10
95.90902141258174
 20
179.9424641751247
 30
0.0
 11
90.13551872068546
 21
179.9424641751247
 31
0.0
  0
LINE
  5
86BB
330
1A
100
AcDbEntity
  8
1
100
AcDbLine
 10
90.13551872068546
 20
179.9424641751247
 30
0.0
 11
87.24876737473733
 21
174.9424641751247
 31
0.0
  0
LINE
  5
86BC
330
1A
100
AcDbEntity
  8
1
100
AcDbLine
 10
87.24876737473733
 20
174.9424641751247
 30
0.0
 11
90.13551872068546
 21
169.9424641751247
 31
0.0
  0
LINE
  5
86BD
330
1A
100
AcDbEntity
  8
1
100
AcDbLine
 10
90.13551872068546
 20
169.9424641751247
 30
0.0
 11
95.90902141258174
 21
169.9424641751247
 31
0.0
  0
LINE
  5
86BE
330
1A
100
AcDbEntity
  8
1
100
AcDbLine
 10
90.13551872068456
 20
259.1384236680178
 30
0.0
 11
87.24876737473641
 21
254.1384236680178
 31
0.0
  0
LINE
  5
86BF
330
1A
100
AcDbEntity
  8
1
100
AcDbLine
 10
87.24876737473641
 20
254.1384236680178
 30
0.0
 11
90.13551872068456
 21
249.1384236680178
 31
0.0
  0
LINE
  5
86C0
330
1A
100
AcDbEntity
  8
1
100
AcDbLine
 10
90.13551872068456
 20
249.1384236680178
 30
0.0
 11
95.90902141258084
 21
249.1384236680178
 31
0.0
  0
LINE
  5
86C1
330
1A
100
AcDbEntity
  8
1
100
AcDbLine
 10
95.90902141258084
 20
249.1384236680178
 30
0.0
 11
98.79577275852899
 21
254.1384236680178
 31
0.0
  0
LINE
  5
86C2
330
1A
100
AcDbEntity
  8
1
100
AcDbLine
 10
98.79577275852899
 20
254.1384236680178
 30
0.0
 11
95.90902141258084
 21
259.1384236680178
 31
0.0
  0
LINE
  5
86C3
330
1A
100
AcDbEntity
  8
1
100
AcDbLine
 10
95.90902141258084
 20
259.1384236680178
 30
0.0
 11
90.13551872068456
 21
259.1384236680178
 31
0.0
  0
LINE
  5
86C4
330
1A
100
AcDbEntity
  8
1
100
AcDbLine
 10
125.692046582807
 20
74.63181962474755
 30
0.0
 11
118.7638433525316
 21
62.63181962474755
 31
0.0
  0
LINE
  5
86C5
330
1A
100
AcDbEntity
  8
1
100
AcDbLine
 10
118.7638433525316
 20
62.63181962474755
 30
0.0
 11
125.692046582807
 21
50.63181962474755
 31
0.0
  0
LINE
  5
86C6
330
1A
100
AcDbEntity
  8
1
100
AcDbLine
 10
125.692046582807
 20
50.63181962474755
 30
0.0
 11
139.5484530433577
 21
50.63181962474755
 31
0.0
  0
LINE
  5
86C7
330
1A
100
AcDbEntity
  8
1
100
AcDbLine
 10
139.5484530433577
 20
50.63181962474755
 30
0.0
 11
146.4766562736331
 21
62.63181962474755
 31
0.0
  0
LINE
  5
86C8
330
1A
100
AcDbEntity
  8
1
100
AcDbLine
 10
146.4766562736331
 20
62.63181962474755
 30
0.0
 11
139.5484530433577
 21
74.63181962474755
 31
0.0
  0
LINE
  5
86C9
330
1A
100
AcDbEntity
  8
1
100
AcDbLine
 10
139.5484530433577
 20
74.63181962474755
 30
0.0
 11
125.692046582807
 21
74.63181962474755
 31
0.0
  0
LINE
  5
86CA
330
1A
100
AcDbEntity
  8
1
100
AcDbLine
 10
294.4511140348918
 20
147.8404439215755
 30
0.0
 11
282.4511140348899
 21
147.8404439215782
 31
0.0
  0
LINE
  5
86CB
330
1A
100
AcDbEntity
  8
1
100
AcDbLine
 10
282.4511140348899
 20
147.8404439215782
 30
0.0
 11
282.4511140348927
 21
170.3404439215773
 31
0.0
  0
LINE
  5
86CC
330
1A
100
AcDbEntity
  8
1
100
AcDbLine
 10
282.4511140348927
 20
170.3404439215773
 30
0.0
 11
282.4511140348927
 21
170.3404439215773
 31
0.0
  0
LINE
  5
86CD
330
1A
100
AcDbEntity
  8
1
100
AcDbLine
 10
306.4511140348918
 20
170.3404439215755
 30
0.0
 11
306.4511140348918
 21
170.3404439215755
 31
0.0
  0
LINE
  5
86CE
330
1A
100
AcDbEntity
  8
1
100
AcDbLine
 10
306.4511140348918
 20
170.3404439215755
 30
0.0
 11
306.4511140348891
 21
147.8404439215737
 31
0.0
  0
LINE
  5
86CF
330
1A
100
AcDbEntity
  8
1
100
AcDbLine
 10
306.4511140348891
 20
147.8404439215737
 30
0.0
 11
294.4511140348918
 21
147.8404439215755
 31
0.0
  0
LINE
  5
86D0
330
1A
100
AcDbEntity
  8
1
100
AcDbLine
 10
294.451114034894
 20
281.2404439215743
 30
0.0
 11
282.4511140348922
 21
281.2404439215725
 31
0.0
  0
LINE
  5
86D1
330
1A
100
AcDbEntity
  8
1
100
AcDbLine
 10
282.4511140348922
 20
281.2404439215725
 30
0.0
 11
282.4511140348941
 21
258.7404439215733
 31
0.0
  0
LINE
  5
86D2
330
1A
100
AcDbEntity
  8
1
100
AcDbLine
 10
282.4511140348941
 20
258.7404439215733
 30
0.0
 11
282.4511140348941
 21
258.7404439215733
 31
0.0
  0
LINE
  5
86D3
330
1A
100
AcDbEntity
  8
1
100
AcDbLine
 10
306.4511140348932
 20
258.7404439215743
 30
0.0
 11
306.4511140348932
 21
258.7404439215743
 31
0.0
  0
LINE
  5
86D4
330
1A
100
AcDbEntity
  8
1
100
AcDbLine
 10
306.4511140348932
 20
258.7404439215743
 30
0.0
 11
306.4511140348913
 21
281.2404439215761
 31
0.0
  0
LINE
  5
86D5
330
1A
100
AcDbEntity
  8
1
100
AcDbLine
 10
306.4511140348913
 20
281.2404439215761
 30
0.0
 11
294.451114034894
 21
281.2404439215743
 31
0.0
  0
LINE
  5
86D6
330
1A
100
AcDbEntity
  8
1
100
AcDbLine
 10
319.4511140349013
 20
199.5404439215744
 30
0.0
 11
319.4511140349013
 21
229.5404439215744
 31
0.0
  0
LINE
  5
86D7
330
1A
100
AcDbEntity
  8
1
100
AcDbLine
 10
67.3209389438216
 20
229.5404439215708
 30
0.0
 11
53.62024981307968
 21
229.5404439215708
 31
0.0
  0
LINE
  5
86D8
330
1A
100
AcDbEntity
  8
1
100
AcDbLine
 10
53.62024981307968
 20
229.5404439215708
 30
0.0
 11
52.62024981307968
 21
228.5404439215708
 31
0.0
  0
LINE
  5
86D9
330
1A
100
AcDbEntity
  8
1
100
AcDbLine
 10
52.62024981307968
 20
228.5404439215708
 30
0.0
 11
52.62024981307968
 21
200.5404439215708
 31
0.0
  0
LINE
  5
86DA
330
1A
100
AcDbEntity
  8
1
100
AcDbLine
 10
52.62024981307968
 20
200.5404439215708
 30
0.0
 11
53.62024981307968
 21
199.5404439215708
 31
0.0
  0
LINE
  5
86DB
330
1A
100
AcDbEntity
  8
1
100
AcDbLine
 10
53.62024981307968
 20
199.5404439215708
 30
0.0
 11
67.32093894382206
 21
199.5404439215708
 31
0.0
  0
LINE
  5
86DC
330
1A
100
AcDbEntity
  8
1
100
AcDbLine
 10
197.9195606823377
 20
199.5404439215717
 30
0.0
 11
211.6202498130796
 21
199.5404439215708
 31
0.0
  0
LINE
  5
86DD
330
1A
100
AcDbEntity
  8
1
100
AcDbLine
 10
211.6202498130796
 20
199.5404439215708
 30
0.0
 11
212.6202498130796
 21
200.5404439215726
 31
0.0
  0
LINE
  5
86DE
330
1A
100
AcDbEntity
  8
1
100
AcDbLine
 10
212.6202498130796
 20
200.5404439215726
 30
0.0
 11
212.6202498130796
 21
228.5404439215708
 31
0.0
  0
LINE
  5
86DF
330
1A
100
AcDbEntity
  8
1
100
AcDbLine
 10
212.6202498130796
 20
228.5404439215708
 30
0.0
 11
211.6202498130796
 21
229.5404439215708
 31
0.0
  0
LINE
  5
86E0
330
1A
100
AcDbEntity
  8
1
100
AcDbLine
 10
211.6202498130796
 20
229.5404439215708
 30
0.0
 11
197.9195606823377
 21
229.5404439215708
 31
0.0
  0
VIEWPORT
  5
22
330
17
100
AcDbEntity
 67
     1
  8
0
100
AcDbViewport
 10
267.8390691135224
 20
128.8600691382183
 30
0.0
 40
599.3017483865868
 41
374.077146517277
 68
     1
 69
     1
1001
ACAD
1000
MVIEW
1002
{
1070
    16
1010
0.0
1020
0.0
1030
0.0
1010
0.0
1020
0.0
1030
1.0
1040
0.0
1040
374.077146517277
1040
267.8390691135224
1040
128.8600691382183
1040
50.0
1040
0.0
1040
0.0
1070
     0
1070
   100
1070
     1
1070
     0
1070
     0
1070
     0
1070
     0
1070
     0
1040
0.0
1040
0.0
1040
0.0
1040
1.0
1040
1.0
1040
10.0
1040
10.0
1070
     0
1002
{
1002
}
1002
}
  0
VIEWPORT
  5
2AA
330
17
100
AcDbEntity
 67
     1
  8
DEFPOINTS
100
AcDbViewport
 10
212.5
 20
144.4999999999999
 30
0.0
 40
385.0
 41
264.9999999999999
 68
     2
 69
     2
1001
ACAD
1000
MVIEW
1002
{
1070
    16
1010
0.0
1020
0.0
1030
0.0
1010
0.0
1020
0.0
1030
1.0
1040
0.0
1040
458.3777808826223
1040
180.3016913408609
1040
163.4537789604539
1040
50.0
1040
0.0
1040
0.0
1070
     0
1070
   100
1070
     1
1070
     0
1070
     0
1070
     0
1070
     0
1070
     1
1040
0.0
1040
0.0
1040
0.0
1040
168.0
1040
168.0
1040
0.0
1040
0.0
1070
     0
1002
{
1002
}
1002
}
  0
ENDSEC
  0
SECTION
  2
OBJECTS
  0
DICTIONARY
  5
C
330
0
100
AcDbDictionary
  3
ACAD_GROUP
350
D
  3
ACAD_LAYOUT
350
2C2
  3
ACAD_MLINESTYLE
350
E
  3
ACAD_PLOTSETTINGS
350
2C3
  3
ACAD_PLOTSTYLENAME
350
2C0
  3
ACADDIM
350
D36
  3
ACDBVARIABLEDICTIONARY
350
4F1C
  3
CONTENTDICTIONARY
350
234
  3
ACDBHEADERROUNDTRIPXREC
350
8748
  0
DICTIONARY
  5
924
330
1A
100
AcDbDictionary
280
     1
  3
ACAD_SORTENTS
360
4F1E
  3
ACAD_LAYOUTSELFREF
360
8769
  0
DICTIONARY
  5
922
330
17
100
AcDbDictionary
280
     1
  3
ACAD_LAYOUTSELFREF
360
8768
  0
DICTIONARY
  5
D
102
{ACAD_REACTORS
330
C
102
}
330
C
100
AcDbDictionary
  3
*A1
350
A02
  3
*A2
350
643E
  3
*A3
350
25DC
  3
*A4
350
5C07
  3
*A5
350
5BFE
  3
*A6
350
5051
  3
*A7
350
1EBD
  3
*A8
350
5052
  3
*A9
350
65D4
  3
*A10
350
3C69
  3
*A11
350
22FF
  3
*A12
350
82DB
  3
*A14
350
82DC
  3
*A15
350
82DE
  3
*A16
350
2600
  3
*A17
350
641F
  3
*A18
350
82E0
  3
*A20
350
3EB5
  3
*A22
350
3171
  3
*A23
350
A06
  3
*A24
350
492B
  3
*A26
350
5BFF
  3
*A27
350
547D
  3
*A29
350
5C08
  3
*A30
350
6400
  3
*A31
350
52A5
  3
*A32
350
6927
  3
*A33
350
21CA
  3
*A34
350
5C00
  3
*A35
350
5C06
  3
*A36
350
5C01
  3
*A37
350
3EB4
  3
*A38
350
5D48
  3
*A39
350
3FCB
  3
*A40
350
2602
  3
*A41
350
646C
  3
*A42
350
5C02
  3
*A43
350
667B
  3
*A44
350
5C03
  3
*A45
350
667E
  3
*A46
350
53EF
  3
*A47
350
5C04
  3
*A48
350
3C6C
  3
*A49
350
4CED
  3
*A50
350
54F7
  3
*A51
350
53F0
  3
*A52
350
5C09
  3
*A53
350
D33
  3
*A54
350
37D4
  3
*A55
350
5C0A
  3
*A56
350
3EB2
  3
*A57
350
1E3D
  3
*A58
350
52A9
  3
*A59
350
5C0B
  3
*A60
350
6928
  3
*A61
350
5C0C
  3
*A62
350
4047
  3
*A63
350
5C0E
  3
*A64
350
5C8C
  3
*A65
350
37D5
  3
*A66
350
550C
  3
*A67
350
2593
  3
*A68
350
5C13
  3
*A69
350
21C5
  3
*A70
350
5D49
  3
*A71
350
A12
  3
*A72
350
54D6
  3
*A73
350
4547
  3
*A74
350
667D
  3
*A75
350
5C0F
  3
*A76
350
4546
  3
*A77
350
3C68
  3
*A78
350
1475
  3
*A79
350
5BFA
  3
*A80
350
25DD
  3
*A81
350
5C10
  3
*A82
350
4DD9
  3
*A83
350
65CA
  3
*A84
350
62A8
  3
*A85
350
37D3
  3
*A86
350
4CB9
  3
*A87
350
5D4A
  3
*A88
350
223D
  3
*A89
350
25DB
  3
*A90
350
232E
  3
*A91
350
4549
  3
*A92
350
692A
  3
*A93
350
2592
  3
*A94
350
5C05
  3
*A95
350
5D95
  3
*A96
350
5D96
  3
*A97
350
5D97
  3
*A98
350
5D98
  3
*A99
350
37D1
  3
*A100
350
52AA
  3
*A101
350
3875
  3
*A102
350
5BFC
  3
*A103
350
3DB7
  3
*A104
350
547A
  3
*A105
350
3C6D
  3
*A106
350
4041
  3
*A107
350
223E
  3
*A108
350
4838
  3
*A109
350
7909
  3
*A110
350
52AD
  3
*A111
350
53F1
  3
*A112
350
69C8
  3
*A113
350
22CD
  3
*A114
350
A0A
  3
*A115
350
3C6E
  3
*A116
350
4DDA
  3
*A117
350
1478
  3
*A118
350
4FB2
  3
*A119
350
D2D
  3
*A120
350
251F
  3
*A121
350
3EB3
  3
*A122
350
5C11
  3
*A124
350
1EE9
  3
*A125
350
2164
  3
*A128
350
6AFC
  3
*A131
350
54D7
  3
*A132
350
69E0
  3
*A133
350
4787
  3
*A134
350
5470
  3
*A135
350
64D8
  3
*A137
350
5C12
  3
*A138
350
63DD
  3
*A142
350
1E3E
  3
*A143
350
62E6
  3
*A144
350
52A7
  3
*A145
350
3C6B
  3
*A146
350
4548
  3
*A147
350
D30
  3
*A148
350
428E
  3
*A149
350
4BD9
  3
*A151
350
D2A
  3
*A152
350
646E
  3
*A153
350
52A4
  3
*A154
350
4EB0
  3
*A155
350
40AB
  3
*A156
350
4FA8
  3
*A157
350
68A1
  3
*A158
350
52A3
  3
*A159
350
4E90
  3
*A160
350
492C
  3
*A161
350
4B43
  3
*A162
350
3EB0
  3
*A163
350
4DD8
  3
*A164
350
2318
  3
*A165
350
4ED0
  3
*A166
350
42E9
  3
*A167
350
24BA
  3
*A168
350
2601
  3
*A169
350
4961
  3
*A170
350
4988
  3
*A171
350
65CF
  3
*A173
350
3C6A
  3
*A174
350
5D47
  3
*A175
350
4034
  3
*A176
350
646F
  3
*A177
350
22E6
  3
*A178
350
4C74
  3
*A179
350
24C0
  3
*A180
350
37D2
  3
*A181
350
A11
  3
*A182
350
4120
  3
*A184
350
4027
  3
*A185
350
5FB7
  3
*A186
350
65D9
  3
*A187
350
3EAF
  3
*A188
350
63B9
  3
*A189
350
4CA2
  3
*A190
350
4858
  3
*A191
350
4CA3
  3
*A192
350
5BFB
  3
*A193
350
31DD
  3
*A194
350
5532
  3
*A195
350
2260
  3
*A196
350
1474
  3
*A197
350
53F2
  3
*A198
350
53D5
  3
*A199
350
4545
  3
*A200
350
52A8
  3
*A201
350
6480
  3
*A202
350
404D
  3
*A203
350
6289
  3
*A204
350
37D0
  3
*A206
350
3EB1
  3
*A207
350
2140
  3
*A208
350
4A5B
  3
*A209
350
52AB
  3
*A210
350
426C
  3
*A211
350
62C7
  3
*A212
350
667C
  3
*A213
350
500E
  3
*A214
350
4E61
  3
*A215
350
69B0
  3
*A216
350
6806
  3
*A217
350
5BFD
  3
*A218
350
4309
  3
*A219
350
52A6
  3
*A220
350
225B
  3
*A221
350
2204
  3
*A222
350
2591
  3
*A223
350
64E4
  3
*A224
350
21E7
  3
*A225
350
500F
  3
*A226
350
52AC
  0
DICTIONARY
  5
2C2
102
{ACAD_REACTORS
330
C
102
}
330
C
100
AcDbDictionary
  0
DICTIONARY
  5
E
102
{ACAD_REACTORS
330
C
102
}
330
C
100
AcDbDictionary
  3
STANDARD
350
13
  0
DICTIONARY
  5
2C3
102
{ACAD_REACTORS
330
C
102
}
330
C
100
AcDbDictionary
  3
A3FORMNX710
350
2FA
  0
ACDBDICTIONARYWDFLT
  5
2C0
102
{ACAD_REACTORS
330
C
102
}
330
C
100
AcDbDictionary
281
     1
  3
Normal
350
2C1
100
AcDbDictionaryWithDefault
340
2C1
  0
XRECORD
  5
D36
102
{ACAD_REACTORS
330
C
102
}
330
C
100
AcDbXrecord
 90
   990106
  3

 60
     0
 61
     0
 62
     4
 63
     4
 64
     1
 65
     0
 66
     0
 67
     3
 68
     1
 69
     0
 70
     0
 71
     0
 72
     0
 40
0.0
170
     2
340
7CF9
  0
DICTIONARY
  5
4F1C
102
{ACAD_REACTORS
330
C
102
}
330
C
100
AcDbDictionary
  3
SORTENTS
350
4F1D
  0
DICTIONARY
  5
234
102
{ACAD_REACTORS
330
C
102
}
330
C
100
AcDbDictionary
  0
DICTIONARY
  5
8748
102
{ACAD_REACTORS
330
C
102
}
330
C
100
AcDbDictionary
  3
TSTACKALIGN
350
8749
  3
TSTACKSIZE
350
874A
  3
HYPERLINKBASE
350
874B
  3
STYLESHEET
350
874C
  3
LAYOUTDICT
350
874D
  3
PLOTSETDICT
350
874E
  3
PLOTSTYLNAMDICT
350
874F
  3
LWETCUNION
350
8750
  3
INSUNITS
350
8751
  3
CEPSNTYPE
350
8752
  3
FINGERPRINTGUID
350
8753
  3
VERSIONGUID
350
8754
  3
PSVPSCALE
350
8755
  3
PUCSORTHOREF
350
8756
  3
PUCSORTHOVIEW
350
8757
  3
PUCSBASE
350
8758
  3
PUCSORGTOP
350
8759
  3
PUCSORGBOTTOM
350
875A
  3
PUCSORGLEFT
350
875B
  3
PUCSORGRIGHT
350
875C
  3
PUCSORGFRONT
350
875D
  3
PUCSORGBACK
350
875E
  3
UCSORTHOREF
350
875F
  3
UCSORTHOVIEW
350
8760
  3
UCSBASE
350
8761
  3
UCSORGTOP
350
8762
  3
UCSORGBOTTOM
350
8763
  3
UCSORGLEFT
350
8764
  3
UCSORGRIGHT
350
8765
  3
UCSORGFRONT
350
8766
  3
UCSORGBACK
350
8767
  0
SORTENTSTABLE
  5
4F1E
102
{ACAD_REACTORS
330
924
102
}
330
924
100
AcDbSortentsTable
330
1A
  0
XRECORD
  5
8769
102
{ACAD_REACTORS
330
924
102
}
330
924
100
AcDbXrecord
340
1A
  0
XRECORD
  5
8768
102
{ACAD_REACTORS
330
922
102
}
330
922
100
AcDbXrecord
340
17
  0
GROUP
  5
A02
102
{ACAD_REACTORS
330
D
102
}
330
D
100
AcDbGroup
300

 70
     1
 71
     1
  0
GROUP
  5
643E
102
{ACAD_REACTORS
330
D
102
}
330
D
100
AcDbGroup
300

 70
     1
 71
     1
  0
GROUP
  5
25DC
102
{ACAD_REACTORS
330
D
102
}
330
D
100
AcDbGroup
300

 70
     1
 71
     1
  0
GROUP
  5
5C07
102
{ACAD_REACTORS
330
D
102
}
330
D
100
AcDbGroup
300

 70
     1
 71
     1
  0
GROUP
  5
5BFE
102
{ACAD_REACTORS
330
D
102
}
330
D
100
AcDbGroup
300

 70
     1
 71
     1
  0
GROUP
  5
5051
102
{ACAD_REACTORS
330
D
102
}
330
D
100
AcDbGroup
300

 70
     1
 71
     1
  0
GROUP
  5
1EBD
102
{ACAD_REACTORS
330
D
102
}
330
D
100
AcDbGroup
300

 70
     1
 71
     1
  0
GROUP
  5
5052
102
{ACAD_REACTORS
330
D
102
}
330
D
100
AcDbGroup
300

 70
     1
 71
     1
  0
GROUP
  5
65D4
102
{ACAD_REACTORS
330
D
102
}
330
D
100
AcDbGroup
300

 70
     1
 71
     1
  0
GROUP
  5
3C69
102
{ACAD_REACTORS
330
D
102
}
330
D
100
AcDbGroup
300

 70
     1
 71
     1
  0
GROUP
  5
22FF
102
{ACAD_REACTORS
330
D
102
}
330
D
100
AcDbGroup
300

 70
     1
 71
     1
  0
GROUP
  5
82DB
102
{ACAD_REACTORS
330
D
102
}
330
D
100
AcDbGroup
300

 70
     1
 71
     1
  0
GROUP
  5
82DC
102
{ACAD_REACTORS
330
D
102
}
330
D
100
AcDbGroup
300

 70
     1
 71
     1
  0
GROUP
  5
82DE
102
{ACAD_REACTORS
330
D
102
}
330
D
100
AcDbGroup
300

 70
     1
 71
     1
  0
GROUP
  5
2600
102
{ACAD_REACTORS
330
D
102
}
330
D
100
AcDbGroup
300

 70
     1
 71
     1
  0
GROUP
  5
641F
102
{ACAD_REACTORS
330
D
102
}
330
D
100
AcDbGroup
300

 70
     1
 71
     1
  0
GROUP
  5
82E0
102
{ACAD_REACTORS
330
D
102
}
330
D
100
AcDbGroup
300

 70
     1
 71
     1
  0
GROUP
  5
3EB5
102
{ACAD_REACTORS
330
D
102
}
330
D
100
AcDbGroup
300

 70
     1
 71
     1
  0
GROUP
  5
3171
102
{ACAD_REACTORS
330
D
102
}
330
D
100
AcDbGroup
300

 70
     1
 71
     1
  0
GROUP
  5
A06
102
{ACAD_REACTORS
330
D
102
}
330
D
100
AcDbGroup
300

 70
     1
 71
     1
  0
GROUP
  5
492B
102
{ACAD_REACTORS
330
D
102
}
330
D
100
AcDbGroup
300

 70
     1
 71
     1
  0
GROUP
  5
5BFF
102
{ACAD_REACTORS
330
D
102
}
330
D
100
AcDbGroup
300

 70
     1
 71
     1
  0
GROUP
  5
547D
102
{ACAD_REACTORS
330
D
102
}
330
D
100
AcDbGroup
300

 70
     1
 71
     1
  0
GROUP
  5
5C08
102
{ACAD_REACTORS
330
D
102
}
330
D
100
AcDbGroup
300

 70
     1
 71
     1
  0
GROUP
  5
6400
102
{ACAD_REACTORS
330
D
102
}
330
D
100
AcDbGroup
300

 70
     1
 71
     1
  0
GROUP
  5
52A5
102
{ACAD_REACTORS
330
D
102
}
330
D
100
AcDbGroup
300

 70
     1
 71
     1
  0
GROUP
  5
6927
102
{ACAD_REACTORS
330
D
102
}
330
D
100
AcDbGroup
300

 70
     1
 71
     1
  0
GROUP
  5
21CA
102
{ACAD_REACTORS
330
D
102
}
330
D
100
AcDbGroup
300

 70
     1
 71
     1
  0
GROUP
  5
5C00
102
{ACAD_REACTORS
330
D
102
}
330
D
100
AcDbGroup
300

 70
     1
 71
     1
  0
GROUP
  5
5C06
102
{ACAD_REACTORS
330
D
102
}
330
D
100
AcDbGroup
300

 70
     1
 71
     1
  0
GROUP
  5
5C01
102
{ACAD_REACTORS
330
D
102
}
330
D
100
AcDbGroup
300

 70
     1
 71
     1
  0
GROUP
  5
3EB4
102
{ACAD_REACTORS
330
D
102
}
330
D
100
AcDbGroup
300

 70
     1
 71
     1
  0
GROUP
  5
5D48
102
{ACAD_REACTORS
330
D
102
}
330
D
100
AcDbGroup
300

 70
     1
 71
     1
  0
GROUP
  5
3FCB
102
{ACAD_REACTORS
330
D
102
}
330
D
100
AcDbGroup
300

 70
     1
 71
     1
  0
GROUP
  5
2602
102
{ACAD_REACTORS
330
D
102
}
330
D
100
AcDbGroup
300

 70
     1
 71
     1
  0
GROUP
  5
646C
102
{ACAD_REACTORS
330
D
102
}
330
D
100
AcDbGroup
300

 70
     1
 71
     1
  0
GROUP
  5
5C02
102
{ACAD_REACTORS
330
D
102
}
330
D
100
AcDbGroup
300

 70
     1
 71
     1
  0
GROUP
  5
667B
102
{ACAD_REACTORS
330
D
102
}
330
D
100
AcDbGroup
300

 70
     1
 71
     1
  0
GROUP
  5
5C03
102
{ACAD_REACTORS
330
D
102
}
330
D
100
AcDbGroup
300

 70
     1
 71
     1
  0
GROUP
  5
667E
102
{ACAD_REACTORS
330
D
102
}
330
D
100
AcDbGroup
300

 70
     1
 71
     1
  0
GROUP
  5
53EF
102
{ACAD_REACTORS
330
D
102
}
330
D
100
AcDbGroup
300

 70
     1
 71
     1
  0
GROUP
  5
5C04
102
{ACAD_REACTORS
330
D
102
}
330
D
100
AcDbGroup
300

 70
     1
 71
     1
  0
GROUP
  5
3C6C
102
{ACAD_REACTORS
330
D
102
}
330
D
100
AcDbGroup
300

 70
     1
 71
     1
  0
GROUP
  5
4CED
102
{ACAD_REACTORS
330
D
102
}
330
D
100
AcDbGroup
300

 70
     1
 71
     1
  0
GROUP
  5
54F7
102
{ACAD_REACTORS
330
D
102
}
330
D
100
AcDbGroup
300

 70
     1
 71
     1
  0
GROUP
  5
53F0
102
{ACAD_REACTORS
330
D
102
}
330
D
100
AcDbGroup
300

 70
     1
 71
     1
  0
GROUP
  5
5C09
102
{ACAD_REACTORS
330
D
102
}
330
D
100
AcDbGroup
300

 70
     1
 71
     1
  0
GROUP
  5
D33
102
{ACAD_REACTORS
330
D
102
}
330
D
100
AcDbGroup
300

 70
     1
 71
     1
  0
GROUP
  5
37D4
102
{ACAD_REACTORS
330
D
102
}
330
D
100
AcDbGroup
300

 70
     1
 71
     1
  0
GROUP
  5
5C0A
102
{ACAD_REACTORS
330
D
102
}
330
D
100
AcDbGroup
300

 70
     1
 71
     1
  0
GROUP
  5
3EB2
102
{ACAD_REACTORS
330
D
102
}
330
D
100
AcDbGroup
300

 70
     1
 71
     1
  0
GROUP
  5
1E3D
102
{ACAD_REACTORS
330
D
102
}
330
D
100
AcDbGroup
300

 70
     1
 71
     1
  0
GROUP
  5
52A9
102
{ACAD_REACTORS
330
D
102
}
330
D
100
AcDbGroup
300

 70
     1
 71
     1
  0
GROUP
  5
5C0B
102
{ACAD_REACTORS
330
D
102
}
330
D
100
AcDbGroup
300

 70
     1
 71
     1
  0
GROUP
  5
6928
102
{ACAD_REACTORS
330
D
102
}
330
D
100
AcDbGroup
300

 70
     1
 71
     1
  0
GROUP
  5
5C0C
102
{ACAD_REACTORS
330
D
102
}
330
D
100
AcDbGroup
300

 70
     1
 71
     1
  0
GROUP
  5
4047
102
{ACAD_REACTORS
330
D
102
}
330
D
100
AcDbGroup
300

 70
     1
 71
     1
  0
GROUP
  5
5C0E
102
{ACAD_REACTORS
330
D
102
}
330
D
100
AcDbGroup
300

 70
     1
 71
     1
  0
GROUP
  5
5C8C
102
{ACAD_REACTORS
330
D
102
}
330
D
100
AcDbGroup
300

 70
     1
 71
     1
  0
GROUP
  5
37D5
102
{ACAD_REACTORS
330
D
102
}
330
D
100
AcDbGroup
300

 70
     1
 71
     1
  0
GROUP
  5
550C
102
{ACAD_REACTORS
330
D
102
}
330
D
100
AcDbGroup
300

 70
     1
 71
     1
  0
GROUP
  5
2593
102
{ACAD_REACTORS
330
D
102
}
330
D
100
AcDbGroup
300

 70
     1
 71
     1
  0
GROUP
  5
5C13
102
{ACAD_REACTORS
330
D
102
}
330
D
100
AcDbGroup
300

 70
     1
 71
     1
  0
GROUP
  5
21C5
102
{ACAD_REACTORS
330
D
102
}
330
D
100
AcDbGroup
300

 70
     1
 71
     1
  0
GROUP
  5
5D49
102
{ACAD_REACTORS
330
D
102
}
330
D
100
AcDbGroup
300

 70
     1
 71
     1
  0
GROUP
  5
A12
102
{ACAD_REACTORS
330
D
102
}
330
D
100
AcDbGroup
300

 70
     1
 71
     1
  0
GROUP
  5
54D6
102
{ACAD_REACTORS
330
D
102
}
330
D
100
AcDbGroup
300

 70
     1
 71
     1
  0
GROUP
  5
4547
102
{ACAD_REACTORS
330
D
102
}
330
D
100
AcDbGroup
300

 70
     1
 71
     1
  0
GROUP
  5
667D
102
{ACAD_REACTORS
330
D
102
}
330
D
100
AcDbGroup
300

 70
     1
 71
     1
  0
GROUP
  5
5C0F
102
{ACAD_REACTORS
330
D
102
}
330
D
100
AcDbGroup
300

 70
     1
 71
     1
  0
GROUP
  5
4546
102
{ACAD_REACTORS
330
D
102
}
330
D
100
AcDbGroup
300

 70
     1
 71
     1
  0
GROUP
  5
3C68
102
{ACAD_REACTORS
330
D
102
}
330
D
100
AcDbGroup
300

 70
     1
 71
     1
  0
GROUP
  5
1475
102
{ACAD_REACTORS
330
D
102
}
330
D
100
AcDbGroup
300

 70
     1
 71
     1
  0
GROUP
  5
5BFA
102
{ACAD_REACTORS
330
D
102
}
330
D
100
AcDbGroup
300

 70
     1
 71
     1
  0
GROUP
  5
25DD
102
{ACAD_REACTORS
330
D
102
}
330
D
100
AcDbGroup
300

 70
     1
 71
     1
  0
GROUP
  5
5C10
102
{ACAD_REACTORS
330
D
102
}
330
D
100
AcDbGroup
300

 70
     1
 71
     1
  0
GROUP
  5
4DD9
102
{ACAD_REACTORS
330
D
102
}
330
D
100
AcDbGroup
300

 70
     1
 71
     1
  0
GROUP
  5
65CA
102
{ACAD_REACTORS
330
D
102
}
330
D
100
AcDbGroup
300

 70
     1
 71
     1
  0
GROUP
  5
62A8
102
{ACAD_REACTORS
330
D
102
}
330
D
100
AcDbGroup
300

 70
     1
 71
     1
  0
GROUP
  5
37D3
102
{ACAD_REACTORS
330
D
102
}
330
D
100
AcDbGroup
300

 70
     1
 71
     1
  0
GROUP
  5
4CB9
102
{ACAD_REACTORS
330
D
102
}
330
D
100
AcDbGroup
300

 70
     1
 71
     1
  0
GROUP
  5
5D4A
102
{ACAD_REACTORS
330
D
102
}
330
D
100
AcDbGroup
300

 70
     1
 71
     1
  0
GROUP
  5
223D
102
{ACAD_REACTORS
330
D
102
}
330
D
100
AcDbGroup
300

 70
     1
 71
     1
  0
GROUP
  5
25DB
102
{ACAD_REACTORS
330
D
102
}
330
D
100
AcDbGroup
300

 70
     1
 71
     1
  0
GROUP
  5
232E
102
{ACAD_REACTORS
330
D
102
}
330
D
100
AcDbGroup
300

 70
     1
 71
     1
  0
GROUP
  5
4549
102
{ACAD_REACTORS
330
D
102
}
330
D
100
AcDbGroup
300

 70
     1
 71
     1
  0
GROUP
  5
692A
102
{ACAD_REACTORS
330
D
102
}
330
D
100
AcDbGroup
300

 70
     1
 71
     1
  0
GROUP
  5
2592
102
{ACAD_REACTORS
330
D
102
}
330
D
100
AcDbGroup
300

 70
     1
 71
     1
  0
GROUP
  5
5C05
102
{ACAD_REACTORS
330
D
102
}
330
D
100
AcDbGroup
300

 70
     1
 71
     1
  0
GROUP
  5
5D95
102
{ACAD_REACTORS
330
D
102
}
330
D
100
AcDbGroup
300

 70
     1
 71
     1
  0
GROUP
  5
5D96
102
{ACAD_REACTORS
330
D
102
}
330
D
100
AcDbGroup
300

 70
     1
 71
     1
  0
GROUP
  5
5D97
102
{ACAD_REACTORS
330
D
102
}
330
D
100
AcDbGroup
300

 70
     1
 71
     1
  0
GROUP
  5
5D98
102
{ACAD_REACTORS
330
D
102
}
330
D
100
AcDbGroup
300

 70
     1
 71
     1
  0
GROUP
  5
37D1
102
{ACAD_REACTORS
330
D
102
}
330
D
100
AcDbGroup
300

 70
     1
 71
     1
  0
GROUP
  5
52AA
102
{ACAD_REACTORS
330
D
102
}
330
D
100
AcDbGroup
300

 70
     1
 71
     1
  0
GROUP
  5
3875
102
{ACAD_REACTORS
330
D
102
}
330
D
100
AcDbGroup
300

 70
     1
 71
     1
  0
GROUP
  5
5BFC
102
{ACAD_REACTORS
330
D
102
}
330
D
100
AcDbGroup
300

 70
     1
 71
     1
  0
GROUP
  5
3DB7
102
{ACAD_REACTORS
330
D
102
}
330
D
100
AcDbGroup
300

 70
     1
 71
     1
  0
GROUP
  5
547A
102
{ACAD_REACTORS
330
D
102
}
330
D
100
AcDbGroup
300

 70
     1
 71
     1
  0
GROUP
  5
3C6D
102
{ACAD_REACTORS
330
D
102
}
330
D
100
AcDbGroup
300

 70
     1
 71
     1
  0
GROUP
  5
4041
102
{ACAD_REACTORS
330
D
102
}
330
D
100
AcDbGroup
300

 70
     1
 71
     1
  0
GROUP
  5
223E
102
{ACAD_REACTORS
330
D
102
}
330
D
100
AcDbGroup
300

 70
     1
 71
     1
  0
GROUP
  5
4838
102
{ACAD_REACTORS
330
D
102
}
330
D
100
AcDbGroup
300

 70
     1
 71
     1
  0
GROUP
  5
7909
102
{ACAD_REACTORS
330
D
102
}
330
D
100
AcDbGroup
300

 70
     1
 71
     1
  0
GROUP
  5
52AD
102
{ACAD_REACTORS
330
D
102
}
330
D
100
AcDbGroup
300

 70
     1
 71
     1
  0
GROUP
  5
53F1
102
{ACAD_REACTORS
330
D
102
}
330
D
100
AcDbGroup
300

 70
     1
 71
     1
  0
GROUP
  5
69C8
102
{ACAD_REACTORS
330
D
102
}
330
D
100
AcDbGroup
300

 70
     1
 71
     1
  0
GROUP
  5
22CD
102
{ACAD_REACTORS
330
D
102
}
330
D
100
AcDbGroup
300

 70
     1
 71
     1
  0
GROUP
  5
A0A
102
{ACAD_REACTORS
330
D
102
}
330
D
100
AcDbGroup
300

 70
     1
 71
     1
  0
GROUP
  5
3C6E
102
{ACAD_REACTORS
330
D
102
}
330
D
100
AcDbGroup
300

 70
     1
 71
     1
  0
GROUP
  5
4DDA
102
{ACAD_REACTORS
330
D
102
}
330
D
100
AcDbGroup
300

 70
     1
 71
     1
  0
GROUP
  5
1478
102
{ACAD_REACTORS
330
D
102
}
330
D
100
AcDbGroup
300

 70
     1
 71
     1
  0
GROUP
  5
4FB2
102
{ACAD_REACTORS
330
D
102
}
330
D
100
AcDbGroup
300

 70
     1
 71
     1
  0
GROUP
  5
D2D
102
{ACAD_REACTORS
330
D
102
}
330
D
100
AcDbGroup
300

 70
     1
 71
     1
  0
GROUP
  5
251F
102
{ACAD_REACTORS
330
D
102
}
330
D
100
AcDbGroup
300

 70
     1
 71
     1
  0
GROUP
  5
3EB3
102
{ACAD_REACTORS
330
D
102
}
330
D
100
AcDbGroup
300

 70
     1
 71
     1
  0
GROUP
  5
5C11
102
{ACAD_REACTORS
330
D
102
}
330
D
100
AcDbGroup
300

 70
     1
 71
     1
  0
GROUP
  5
1EE9
102
{ACAD_REACTORS
330
D
102
}
330
D
100
AcDbGroup
300

 70
     1
 71
     1
  0
GROUP
  5
2164
102
{ACAD_REACTORS
330
D
102
}
330
D
100
AcDbGroup
300

 70
     1
 71
     1
  0
GROUP
  5
6AFC
102
{ACAD_REACTORS
330
D
102
}
330
D
100
AcDbGroup
300

 70
     1
 71
     1
  0
GROUP
  5
54D7
102
{ACAD_REACTORS
330
D
102
}
330
D
100
AcDbGroup
300

 70
     1
 71
     1
  0
GROUP
  5
69E0
102
{ACAD_REACTORS
330
D
102
}
330
D
100
AcDbGroup
300

 70
     1
 71
     1
  0
GROUP
  5
4787
102
{ACAD_REACTORS
330
D
102
}
330
D
100
AcDbGroup
300

 70
     1
 71
     1
  0
GROUP
  5
5470
102
{ACAD_REACTORS
330
D
102
}
330
D
100
AcDbGroup
300

 70
     1
 71
     1
  0
GROUP
  5
64D8
102
{ACAD_REACTORS
330
D
102
}
330
D
100
AcDbGroup
300

 70
     1
 71
     1
  0
GROUP
  5
5C12
102
{ACAD_REACTORS
330
D
102
}
330
D
100
AcDbGroup
300

 70
     1
 71
     1
  0
GROUP
  5
63DD
102
{ACAD_REACTORS
330
D
102
}
330
D
100
AcDbGroup
300

 70
     1
 71
     1
  0
GROUP
  5
1E3E
102
{ACAD_REACTORS
330
D
102
}
330
D
100
AcDbGroup
300

 70
     1
 71
     1
  0
GROUP
  5
62E6
102
{ACAD_REACTORS
330
D
102
}
330
D
100
AcDbGroup
300

 70
     1
 71
     1
  0
GROUP
  5
52A7
102
{ACAD_REACTORS
330
D
102
}
330
D
100
AcDbGroup
300

 70
     1
 71
     1
  0
GROUP
  5
3C6B
102
{ACAD_REACTORS
330
D
102
}
330
D
100
AcDbGroup
300

 70
     1
 71
     1
  0
GROUP
  5
4548
102
{ACAD_REACTORS
330
D
102
}
330
D
100
AcDbGroup
300

 70
     1
 71
     1
  0
GROUP
  5
D30
102
{ACAD_REACTORS
330
D
102
}
330
D
100
AcDbGroup
300

 70
     1
 71
     1
  0
GROUP
  5
428E
102
{ACAD_REACTORS
330
D
102
}
330
D
100
AcDbGroup
300

 70
     1
 71
     1
  0
GROUP
  5
4BD9
102
{ACAD_REACTORS
330
D
102
}
330
D
100
AcDbGroup
300

 70
     1
 71
     1
  0
GROUP
  5
D2A
102
{ACAD_REACTORS
330
D
102
}
330
D
100
AcDbGroup
300

 70
     1
 71
     1
  0
GROUP
  5
646E
102
{ACAD_REACTORS
330
D
102
}
330
D
100
AcDbGroup
300

 70
     1
 71
     1
  0
GROUP
  5
52A4
102
{ACAD_REACTORS
330
D
102
}
330
D
100
AcDbGroup
300

 70
     1
 71
     1
  0
GROUP
  5
4EB0
102
{ACAD_REACTORS
330
D
102
}
330
D
100
AcDbGroup
300

 70
     1
 71
     1
  0
GROUP
  5
40AB
102
{ACAD_REACTORS
330
D
102
}
330
D
100
AcDbGroup
300

 70
     1
 71
     1
  0
GROUP
  5
4FA8
102
{ACAD_REACTORS
330
D
102
}
330
D
100
AcDbGroup
300

 70
     1
 71
     1
  0
GROUP
  5
68A1
102
{ACAD_REACTORS
330
D
102
}
330
D
100
AcDbGroup
300

 70
     1
 71
     1
  0
GROUP
  5
52A3
102
{ACAD_REACTORS
330
D
102
}
330
D
100
AcDbGroup
300

 70
     1
 71
     1
  0
GROUP
  5
4E90
102
{ACAD_REACTORS
330
D
102
}
330
D
100
AcDbGroup
300

 70
     1
 71
     1
  0
GROUP
  5
492C
102
{ACAD_REACTORS
330
D
102
}
330
D
100
AcDbGroup
300

 70
     1
 71
     1
  0
GROUP
  5
4B43
102
{ACAD_REACTORS
330
D
102
}
330
D
100
AcDbGroup
300

 70
     1
 71
     1
  0
GROUP
  5
3EB0
102
{ACAD_REACTORS
330
D
102
}
330
D
100
AcDbGroup
300

 70
     1
 71
     1
  0
GROUP
  5
4DD8
102
{ACAD_REACTORS
330
D
102
}
330
D
100
AcDbGroup
300

 70
     1
 71
     1
  0
GROUP
  5
2318
102
{ACAD_REACTORS
330
D
102
}
330
D
100
AcDbGroup
300

 70
     1
 71
     1
  0
GROUP
  5
4ED0
102
{ACAD_REACTORS
330
D
102
}
330
D
100
AcDbGroup
300

 70
     1
 71
     1
  0
GROUP
  5
42E9
102
{ACAD_REACTORS
330
D
102
}
330
D
100
AcDbGroup
300

 70
     1
 71
     1
  0
GROUP
  5
24BA
102
{ACAD_REACTORS
330
D
102
}
330
D
100
AcDbGroup
300

 70
     1
 71
     1
  0
GROUP
  5
2601
102
{ACAD_REACTORS
330
D
102
}
330
D
100
AcDbGroup
300

 70
     1
 71
     1
  0
GROUP
  5
4961
102
{ACAD_REACTORS
330
D
102
}
330
D
100
AcDbGroup
300

 70
     1
 71
     1
  0
GROUP
  5
4988
102
{ACAD_REACTORS
330
D
102
}
330
D
100
AcDbGroup
300

 70
     1
 71
     1
  0
GROUP
  5
65CF
102
{ACAD_REACTORS
330
D
102
}
330
D
100
AcDbGroup
300

 70
     1
 71
     1
  0
GROUP
  5
3C6A
102
{ACAD_REACTORS
330
D
102
}
330
D
100
AcDbGroup
300

 70
     1
 71
     1
  0
GROUP
  5
5D47
102
{ACAD_REACTORS
330
D
102
}
330
D
100
AcDbGroup
300

 70
     1
 71
     1
  0
GROUP
  5
4034
102
{ACAD_REACTORS
330
D
102
}
330
D
100
AcDbGroup
300

 70
     1
 71
     1
  0
GROUP
  5
646F
102
{ACAD_REACTORS
330
D
102
}
330
D
100
AcDbGroup
300

 70
     1
 71
     1
  0
GROUP
  5
22E6
102
{ACAD_REACTORS
330
D
102
}
330
D
100
AcDbGroup
300

 70
     1
 71
     1
  0
GROUP
  5
4C74
102
{ACAD_REACTORS
330
D
102
}
330
D
100
AcDbGroup
300

 70
     1
 71
     1
  0
GROUP
  5
24C0
102
{ACAD_REACTORS
330
D
102
}
330
D
100
AcDbGroup
300

 70
     1
 71
     1
  0
GROUP
  5
37D2
102
{ACAD_REACTORS
330
D
102
}
330
D
100
AcDbGroup
300

 70
     1
 71
     1
  0
GROUP
  5
A11
102
{ACAD_REACTORS
330
D
102
}
330
D
100
AcDbGroup
300

 70
     1
 71
     1
  0
GROUP
  5
4120
102
{ACAD_REACTORS
330
D
102
}
330
D
100
AcDbGroup
300

 70
     1
 71
     1
  0
GROUP
  5
4027
102
{ACAD_REACTORS
330
D
102
}
330
D
100
AcDbGroup
300

 70
     1
 71
     1
  0
GROUP
  5
5FB7
102
{ACAD_REACTORS
330
D
102
}
330
D
100
AcDbGroup
300

 70
     1
 71
     1
  0
GROUP
  5
65D9
102
{ACAD_REACTORS
330
D
102
}
330
D
100
AcDbGroup
300

 70
     1
 71
     1
  0
GROUP
  5
3EAF
102
{ACAD_REACTORS
330
D
102
}
330
D
100
AcDbGroup
300

 70
     1
 71
     1
  0
GROUP
  5
63B9
102
{ACAD_REACTORS
330
D
102
}
330
D
100
AcDbGroup
300

 70
     1
 71
     1
  0
GROUP
  5
4CA2
102
{ACAD_REACTORS
330
D
102
}
330
D
100
AcDbGroup
300

 70
     1
 71
     1
  0
GROUP
  5
4858
102
{ACAD_REACTORS
330
D
102
}
330
D
100
AcDbGroup
300

 70
     1
 71
     1
  0
GROUP
  5
4CA3
102
{ACAD_REACTORS
330
D
102
}
330
D
100
AcDbGroup
300

 70
     1
 71
     1
  0
GROUP
  5
5BFB
102
{ACAD_REACTORS
330
D
102
}
330
D
100
AcDbGroup
300

 70
     1
 71
     1
  0
GROUP
  5
31DD
102
{ACAD_REACTORS
330
D
102
}
330
D
100
AcDbGroup
300

 70
     1
 71
     1
  0
GROUP
  5
5532
102
{ACAD_REACTORS
330
D
102
}
330
D
100
AcDbGroup
300

 70
     1
 71
     1
  0
GROUP
  5
2260
102
{ACAD_REACTORS
330
D
102
}
330
D
100
AcDbGroup
300

 70
     1
 71
     1
  0
GROUP
  5
1474
102
{ACAD_REACTORS
330
D
102
}
330
D
100
AcDbGroup
300

 70
     1
 71
     1
  0
GROUP
  5
53F2
102
{ACAD_REACTORS
330
D
102
}
330
D
100
AcDbGroup
300

 70
     1
 71
     1
  0
GROUP
  5
53D5
102
{ACAD_REACTORS
330
D
102
}
330
D
100
AcDbGroup
300

 70
     1
 71
     1
  0
GROUP
  5
4545
102
{ACAD_REACTORS
330
D
102
}
330
D
100
AcDbGroup
300

 70
     1
 71
     1
  0
GROUP
  5
52A8
102
{ACAD_REACTORS
330
D
102
}
330
D
100
AcDbGroup
300

 70
     1
 71
     1
  0
GROUP
  5
6480
102
{ACAD_REACTORS
330
D
102
}
330
D
100
AcDbGroup
300

 70
     1
 71
     1
  0
GROUP
  5
404D
102
{ACAD_REACTORS
330
D
102
}
330
D
100
AcDbGroup
300

 70
     1
 71
     1
  0
GROUP
  5
6289
102
{ACAD_REACTORS
330
D
102
}
330
D
100
AcDbGroup
300

 70
     1
 71
     1
  0
GROUP
  5
37D0
102
{ACAD_REACTORS
330
D
102
}
330
D
100
AcDbGroup
300

 70
     1
 71
     1
  0
GROUP
  5
3EB1
102
{ACAD_REACTORS
330
D
102
}
330
D
100
AcDbGroup
300

 70
     1
 71
     1
  0
GROUP
  5
2140
102
{ACAD_REACTORS
330
D
102
}
330
D
100
AcDbGroup
300

 70
     1
 71
     1
  0
GROUP
  5
4A5B
102
{ACAD_REACTORS
330
D
102
}
330
D
100
AcDbGroup
300

 70
     1
 71
     1
  0
GROUP
  5
52AB
102
{ACAD_REACTORS
330
D
102
}
330
D
100
AcDbGroup
300

 70
     1
 71
     1
  0
GROUP
  5
426C
102
{ACAD_REACTORS
330
D
102
}
330
D
100
AcDbGroup
300

 70
     1
 71
     1
  0
GROUP
  5
62C7
102
{ACAD_REACTORS
330
D
102
}
330
D
100
AcDbGroup
300

 70
     1
 71
     1
  0
GROUP
  5
667C
102
{ACAD_REACTORS
330
D
102
}
330
D
100
AcDbGroup
300

 70
     1
 71
     1
  0
GROUP
  5
500E
102
{ACAD_REACTORS
330
D
102
}
330
D
100
AcDbGroup
300

 70
     1
 71
     1
  0
GROUP
  5
4E61
102
{ACAD_REACTORS
330
D
102
}
330
D
100
AcDbGroup
300

 70
     1
 71
     1
  0
GROUP
  5
69B0
102
{ACAD_REACTORS
330
D
102
}
330
D
100
AcDbGroup
300

 70
     1
 71
     1
  0
GROUP
  5
6806
102
{ACAD_REACTORS
330
D
102
}
330
D
100
AcDbGroup
300

 70
     1
 71
     1
  0
GROUP
  5
5BFD
102
{ACAD_REACTORS
330
D
102
}
330
D
100
AcDbGroup
300

 70
     1
 71
     1
  0
GROUP
  5
4309
102
{ACAD_REACTORS
330
D
102
}
330
D
100
AcDbGroup
300

 70
     1
 71
     1
  0
GROUP
  5
52A6
102
{ACAD_REACTORS
330
D
102
}
330
D
100
AcDbGroup
300

 70
     1
 71
     1
  0
GROUP
  5
225B
102
{ACAD_REACTORS
330
D
102
}
330
D
100
AcDbGroup
300

 70
     1
 71
     1
  0
GROUP
  5
2204
102
{ACAD_REACTORS
330
D
102
}
330
D
100
AcDbGroup
300

 70
     1
 71
     1
  0
GROUP
  5
2591
102
{ACAD_REACTORS
330
D
102
}
330
D
100
AcDbGroup
300

 70
     1
 71
     1
  0
GROUP
  5
64E4
102
{ACAD_REACTORS
330
D
102
}
330
D
100
AcDbGroup
300

 70
     1
 71
     1
  0
GROUP
  5
21E7
102
{ACAD_REACTORS
330
D
102
}
330
D
100
AcDbGroup
300

 70
     1
 71
     1
  0
GROUP
  5
500F
102
{ACAD_REACTORS
330
D
102
}
330
D
100
AcDbGroup
300

 70
     1
 71
     1
  0
GROUP
  5
52AC
102
{ACAD_REACTORS
330
D
102
}
330
D
100
AcDbGroup
300

 70
     1
 71
     1
  0
MLINESTYLE
  5
13
102
{ACAD_REACTORS
330
E
102
}
330
E
100
AcDbMlineStyle
  2
STANDARD
 70
     0
  3

 62
     0
 51
90.0
 52
90.0
 71
     2
 49
0.5
 62
   256
  6
BYLAYER
 49
-0.5
 62
   256
  6
BYLAYER
  0
PLOTSETTINGS
  5
2FA
102
{ACAD_REACTORS
330
2C3
102
}
330
2C3
100
AcDbPlotSettings
  1
A3formNX710
  2
RICOH IPSiO NX710
  4
A3
  6

 40
5.831416606903076
 41
4.307413101196289
 42
8.244415283203125
 43
5.789093017578125
 44
296.9683227539062
 45
419.9889831542968
 46
0.0
 47
0.0
 48
0.0
 49
0.0
140
0.0
141
0.0
142
1.0
143
0.999993956865126
 70
   688
 72
     1
 73
     1
 74
     2
  7
monochrome.ctb
 75
     0
147
1.000006043171393
148
0.0
149
0.0
  0
ACDBPLACEHOLDER
  5
2C1
102
{ACAD_REACTORS
330
2C0
102
}
330
2C0
100
AcDbPlaceHolder
280
     0
  0
DICTIONARYVAR
  5
4F1D
102
{ACAD_REACTORS
330
4F1C
102
}
330
4F1C
100
DictionaryVariables
280
     0
  1
127
  0
XRECORD
  5
8749
102
{ACAD_REACTORS
330
8748
102
}
330
8748
100
AcDbXrecord
 90
        1
  0
XRECORD
  5
874A
102
{ACAD_REACTORS
330
8748
102
}
330
8748
100
AcDbXrecord
 90
       70
  0
XRECORD
  5
874B
102
{ACAD_REACTORS
330
8748
102
}
330
8748
100
AcDbXrecord
  1

  0
XRECORD
  5
874C
102
{ACAD_REACTORS
330
8748
102
}
330
8748
100
AcDbXrecord
  1

  0
XRECORD
  5
874D
102
{ACAD_REACTORS
330
8748
102
}
330
8748
100
AcDbXrecord
340
2C2
  0
XRECORD
  5
874E
102
{ACAD_REACTORS
330
8748
102
}
330
8748
100
AcDbXrecord
340
2C3
  0
XRECORD
  5
874F
102
{ACAD_REACTORS
330
8748
102
}
330
8748
100
AcDbXrecord
340
2C0
  0
XRECORD
  5
8750
102
{ACAD_REACTORS
330
8748
102
}
330
8748
100
AcDbXrecord
 90
    10781
  0
XRECORD
  5
8751
102
{ACAD_REACTORS
330
8748
102
}
330
8748
100
AcDbXrecord
 90
        0
  0
XRECORD
  5
8752
102
{ACAD_REACTORS
330
8748
102
}
330
8748
100
AcDbXrecord
 90
        0
  0
XRECORD
  5
8753
102
{ACAD_REACTORS
330
8748
102
}
330
8748
100
AcDbXrecord
  1
{8ACAE060-96A8-11D3-AA4A-00A0247712C1}
  0
XRECORD
  5
8754
102
{ACAD_REACTORS
330
8748
102
}
330
8748
100
AcDbXrecord
  1
{BB11FDB4-42D7-435D-925E-0873D3655857}
  0
XRECORD
  5
8755
102
{ACAD_REACTORS
330
8748
102
}
330
8748
100
AcDbXrecord
 40
0.0
  0
XRECORD
  5
8756
102
{ACAD_REACTORS
330
8748
102
}
330
8748
100
AcDbXrecord
340
0
  0
XRECORD
  5
8757
102
{ACAD_REACTORS
330
8748
102
}
330
8748
100
AcDbXrecord
 70
     0
  0
XRECORD
  5
8758
102
{ACAD_REACTORS
330
8748
102
}
330
8748
100
AcDbXrecord
340
0
  0
XRECORD
  5
8759
102
{ACAD_REACTORS
330
8748
102
}
330
8748
100
AcDbXrecord
 10
0.0
 20
0.0
 30
0.0
  0
XRECORD
  5
875A
102
{ACAD_REACTORS
330
8748
102
}
330
8748
100
AcDbXrecord
 10
0.0
 20
0.0
 30
0.0
  0
XRECORD
  5
875B
102
{ACAD_REACTORS
330
8748
102
}
330
8748
100
AcDbXrecord
 10
0.0
 20
0.0
 30
0.0
  0
XRECORD
  5
875C
102
{ACAD_REACTORS
330
8748
102
}
330
8748
100
AcDbXrecord
 10
0.0
 20
0.0
 30
0.0
  0
XRECORD
  5
875D
102
{ACAD_REACTORS
330
8748
102
}
330
8748
100
AcDbXrecord
 10
0.0
 20
0.0
 30
0.0
  0
XRECORD
  5
875E
102
{ACAD_REACTORS
330
8748
102
}
330
8748
100
AcDbXrecord
 10
0.0
 20
0.0
 30
0.0
  0
XRECORD
  5
875F
102
{ACAD_REACTORS
330
8748
102
}
330
8748
100
AcDbXrecord
340
0
  0
XRECORD
  5
8760
102
{ACAD_REACTORS
330
8748
102
}
330
8748
100
AcDbXrecord
 70
     0
  0
XRECORD
  5
8761
102
{ACAD_REACTORS
330
8748
102
}
330
8748
100
AcDbXrecord
340
0
  0
XRECORD
  5
8762
102
{ACAD_REACTORS
330
8748
102
}
330
8748
100
AcDbXrecord
 10
0.0
 20
0.0
 30
0.0
  0
XRECORD
  5
8763
102
{ACAD_REACTORS
330
8748
102
}
330
8748
100
AcDbXrecord
 10
0.0
 20
0.0
 30
0.0
  0
XRECORD
  5
8764
102
{ACAD_REACTORS
330
8748
102
}
330
8748
100
AcDbXrecord
 10
0.0
 20
0.0
 30
0.0
  0
XRECORD
  5
8765
102
{ACAD_REACTORS
330
8748
102
}
330
8748
100
AcDbXrecord
 10
0.0
 20
0.0
 30
0.0
  0
XRECORD
  5
8766
102
{ACAD_REACTORS
330
8748
102
}
330
8748
100
AcDbXrecord
 10
0.0
 20
0.0
 30
0.0
  0
XRECORD
  5
8767
102
{ACAD_REACTORS
330
8748
102
}
330
8748
100
AcDbXrecord
 10
0.0
 20
0.0
 30
0.0
  0
ENDSEC
  0
EOF
