  0
SECTION
  2
HEADER
  9
$EXTMIN
 10
0.0
 20
0.0
 30
0.0
  9
$EXTMAX
 10
420.0
 20
297.0
 30
0.0
  9
$LIMMIN
 10
0.0
 20
0.0
  9
$LIMMAX
 10
420.0
 20
297.0
  9
$LTSCALE
 40
1.0
  9
$PDMODE
 70
     0
  0
ENDSEC
  0
SECTION
  2
TABLES
  0
TABLE
  2
LTYPE
 70
     5
  0
LTYPE
  2
CONTINUOUS
 70
    64
  3
Solid line
 72
    65
 73
     0
 40
0.0
  0
LTYPE
  2
LTYPE1
 70
    64
  3
HIDDEN
 72
    65
 73
     2
 40
2.0
 49
1.2
 49
-0.8
  0
LTYPE
  2
LTYPE2
 70
    64
  3
PHANTOM
 72
    65
 73
     6
 40
10.0
 49
7.5
 49
-0.5
 49
0.5
 49
-0.5
 49
0.5
 49
-0.5
  0
LTYPE
  2
LTYPE3
 70
    64
  3
CENTER
 72
    65
 73
     4
 40
10.0
 49
7.0
 49
-1.0
 49
1.0
 49
-1.0
  0
LTYPE
  2
LTYPE4
 70
    64
  3
CENTER
 72
    65
 73
     4
 40
8.0
 49
5.6
 49
-0.8
 49
0.8
 49
-0.8
  0
ENDTAB
  0
TABLE
  2
LAYER
 70
   128
  0
LAYER
  2
0
 70
     0
 62
     7
  6
CONTINUOUS
  0
LAYER
  2
2
 70
     0
 62
     7
  6
CONTINUOUS
  0
LAYER
  2
3
 70
     0
 62
     7
  6
CONTINUOUS
  0
LAYER
  2
4
 70
     0
 62
     7
  6
CONTINUOUS
  0
LAYER
  2
5
 70
     0
 62
     7
  6
CONTINUOUS
  0
LAYER
  2
6
 70
     0
 62
     7
  6
CONTINUOUS
  0
LAYER
  2
7
 70
     0
 62
     7
  6
CONTINUOUS
  0
LAYER
  2
8
 70
     0
 62
     7
  6
CONTINUOUS
  0
LAYER
  2
9
 70
     0
 62
     7
  6
CONTINUOUS
  0
LAYER
  2
10
 70
     0
 62
     7
  6
CONTINUOUS
  0
LAYER
  2
11
 70
     0
 62
     7
  6
CONTINUOUS
  0
LAYER
  2
12
 70
     0
 62
     7
  6
CONTINUOUS
  0
LAYER
  2
13
 70
     0
 62
     7
  6
CONTINUOUS
  0
LAYER
  2
14
 70
     0
 62
     7
  6
CONTINUOUS
  0
LAYER
  2
15
 70
     0
 62
     7
  6
CONTINUOUS
  0
LAYER
  2
16
 70
     0
 62
     7
  6
CONTINUOUS
  0
LAYER
  2
17
 70
     0
 62
     7
  6
CONTINUOUS
  0
LAYER
  2
18
 70
     0
 62
     7
  6
CONTINUOUS
  0
LAYER
  2
19
 70
     0
 62
     7
  6
CONTINUOUS
  0
LAYER
  2
20
 70
     0
 62
     7
  6
CONTINUOUS
  0
LAYER
  2
21
 70
     0
 62
     7
  6
CONTINUOUS
  0
LAYER
  2
22
 70
     0
 62
     7
  6
CONTINUOUS
  0
LAYER
  2
23
 70
     0
 62
     7
  6
CONTINUOUS
  0
LAYER
  2
24
 70
     0
 62
     7
  6
CONTINUOUS
  0
LAYER
  2
25
 70
     0
 62
     7
  6
CONTINUOUS
  0
LAYER
  2
26
 70
     0
 62
     7
  6
CONTINUOUS
  0
LAYER
  2
27
 70
     0
 62
     7
  6
CONTINUOUS
  0
LAYER
  2
28
 70
     0
 62
     7
  6
CONTINUOUS
  0
LAYER
  2
29
 70
     0
 62
     7
  6
CONTINUOUS
  0
LAYER
  2
30
 70
     0
 62
     7
  6
CONTINUOUS
  0
LAYER
  2
31
 70
     0
 62
     7
  6
CONTINUOUS
  0
LAYER
  2
32
 70
     0
 62
     7
  6
CONTINUOUS
  0
LAYER
  2
33
 70
     0
 62
     7
  6
CONTINUOUS
  0
LAYER
  2
34
 70
     0
 62
     7
  6
CONTINUOUS
  0
LAYER
  2
35
 70
     0
 62
     7
  6
CONTINUOUS
  0
LAYER
  2
36
 70
     0
 62
     7
  6
CONTINUOUS
  0
LAYER
  2
37
 70
     0
 62
     7
  6
CONTINUOUS
  0
LAYER
  2
38
 70
     0
 62
     7
  6
CONTINUOUS
  0
LAYER
  2
39
 70
     0
 62
     7
  6
CONTINUOUS
  0
LAYER
  2
40
 70
     0
 62
     7
  6
CONTINUOUS
  0
LAYER
  2
41
 70
     0
 62
     7
  6
CONTINUOUS
  0
LAYER
  2
42
 70
     0
 62
     7
  6
CONTINUOUS
  0
LAYER
  2
43
 70
     0
 62
     7
  6
CONTINUOUS
  0
LAYER
  2
44
 70
     0
 62
     7
  6
CONTINUOUS
  0
LAYER
  2
45
 70
     0
 62
     7
  6
CONTINUOUS
  0
LAYER
  2
46
 70
     0
 62
     7
  6
CONTINUOUS
  0
LAYER
  2
47
 70
     0
 62
     7
  6
CONTINUOUS
  0
LAYER
  2
48
 70
     0
 62
     7
  6
CONTINUOUS
  0
LAYER
  2
49
 70
     0
 62
     7
  6
CONTINUOUS
  0
LAYER
  2
50
 70
     0
 62
     7
  6
CONTINUOUS
  0
LAYER
  2
51
 70
     0
 62
     7
  6
CONTINUOUS
  0
LAYER
  2
52
 70
     0
 62
     7
  6
CONTINUOUS
  0
LAYER
  2
53
 70
     0
 62
     7
  6
CONTINUOUS
  0
LAYER
  2
54
 70
     0
 62
     7
  6
CONTINUOUS
  0
LAYER
  2
55
 70
     0
 62
     7
  6
CONTINUOUS
  0
LAYER
  2
56
 70
     0
 62
     7
  6
CONTINUOUS
  0
LAYER
  2
57
 70
     0
 62
     7
  6
CONTINUOUS
  0
LAYER
  2
58
 70
     0
 62
     7
  6
CONTINUOUS
  0
LAYER
  2
59
 70
     0
 62
     7
  6
CONTINUOUS
  0
LAYER
  2
60
 70
     0
 62
     7
  6
CONTINUOUS
  0
LAYER
  2
61
 70
     0
 62
     7
  6
CONTINUOUS
  0
LAYER
  2
62
 70
     0
 62
     7
  6
CONTINUOUS
  0
LAYER
  2
63
 70
     0
 62
     7
  6
CONTINUOUS
  0
LAYER
  2
64
 70
     0
 62
     7
  6
CONTINUOUS
  0
LAYER
  2
65
 70
     0
 62
     7
  6
CONTINUOUS
  0
LAYER
  2
66
 70
     0
 62
     7
  6
CONTINUOUS
  0
LAYER
  2
67
 70
     0
 62
     7
  6
CONTINUOUS
  0
LAYER
  2
68
 70
     0
 62
     7
  6
CONTINUOUS
  0
LAYER
  2
69
 70
     0
 62
     7
  6
CONTINUOUS
  0
LAYER
  2
70
 70
     0
 62
     7
  6
CONTINUOUS
  0
LAYER
  2
71
 70
     0
 62
     7
  6
CONTINUOUS
  0
LAYER
  2
72
 70
     0
 62
     7
  6
CONTINUOUS
  0
LAYER
  2
73
 70
     0
 62
     7
  6
CONTINUOUS
  0
LAYER
  2
74
 70
     0
 62
     7
  6
CONTINUOUS
  0
LAYER
  2
75
 70
     0
 62
     7
  6
CONTINUOUS
  0
LAYER
  2
76
 70
     0
 62
     7
  6
CONTINUOUS
  0
LAYER
  2
77
 70
     0
 62
     7
  6
CONTINUOUS
  0
LAYER
  2
78
 70
     0
 62
     7
  6
CONTINUOUS
  0
LAYER
  2
79
 70
     0
 62
     7
  6
CONTINUOUS
  0
LAYER
  2
80
 70
     0
 62
     7
  6
CONTINUOUS
  0
LAYER
  2
81
 70
     0
 62
     7
  6
CONTINUOUS
  0
LAYER
  2
82
 70
     0
 62
     7
  6
CONTINUOUS
  0
LAYER
  2
83
 70
     0
 62
     7
  6
CONTINUOUS
  0
LAYER
  2
84
 70
     0
 62
     7
  6
CONTINUOUS
  0
LAYER
  2
85
 70
     0
 62
     7
  6
CONTINUOUS
  0
LAYER
  2
86
 70
     0
 62
     7
  6
CONTINUOUS
  0
LAYER
  2
87
 70
     0
 62
     7
  6
CONTINUOUS
  0
LAYER
  2
88
 70
     0
 62
     7
  6
CONTINUOUS
  0
LAYER
  2
89
 70
     0
 62
     7
  6
CONTINUOUS
  0
LAYER
  2
90
 70
     0
 62
     7
  6
CONTINUOUS
  0
LAYER
  2
91
 70
     0
 62
     7
  6
CONTINUOUS
  0
LAYER
  2
92
 70
     0
 62
     7
  6
CONTINUOUS
  0
LAYER
  2
93
 70
     0
 62
     7
  6
CONTINUOUS
  0
LAYER
  2
94
 70
     0
 62
     7
  6
CONTINUOUS
  0
LAYER
  2
95
 70
     0
 62
     7
  6
CONTINUOUS
  0
LAYER
  2
96
 70
     0
 62
     7
  6
CONTINUOUS
  0
LAYER
  2
97
 70
     0
 62
     7
  6
CONTINUOUS
  0
LAYER
  2
98
 70
     0
 62
     7
  6
CONTINUOUS
  0
LAYER
  2
99
 70
     0
 62
     7
  6
CONTINUOUS
  0
LAYER
  2
100
 70
     0
 62
     7
  6
CONTINUOUS
  0
LAYER
  2
101
 70
     0
 62
     7
  6
CONTINUOUS
  0
LAYER
  2
102
 70
     0
 62
     7
  6
CONTINUOUS
  0
LAYER
  2
103
 70
     0
 62
     7
  6
CONTINUOUS
  0
LAYER
  2
104
 70
     0
 62
     7
  6
CONTINUOUS
  0
LAYER
  2
105
 70
     0
 62
     7
  6
CONTINUOUS
  0
LAYER
  2
106
 70
     0
 62
     7
  6
CONTINUOUS
  0
LAYER
  2
107
 70
     0
 62
     7
  6
CONTINUOUS
  0
LAYER
  2
108
 70
     0
 62
     7
  6
CONTINUOUS
  0
LAYER
  2
109
 70
     0
 62
     7
  6
CONTINUOUS
  0
LAYER
  2
110
 70
     0
 62
     7
  6
CONTINUOUS
  0
LAYER
  2
111
 70
     0
 62
     7
  6
CONTINUOUS
  0
LAYER
  2
112
 70
     0
 62
     7
  6
CONTINUOUS
  0
LAYER
  2
113
 70
     0
 62
     7
  6
CONTINUOUS
  0
LAYER
  2
114
 70
     0
 62
     7
  6
CONTINUOUS
  0
LAYER
  2
115
 70
     0
 62
     7
  6
CONTINUOUS
  0
LAYER
  2
116
 70
     0
 62
     7
  6
CONTINUOUS
  0
LAYER
  2
117
 70
     0
 62
     7
  6
CONTINUOUS
  0
LAYER
  2
118
 70
     0
 62
     7
  6
CONTINUOUS
  0
LAYER
  2
119
 70
     0
 62
     7
  6
CONTINUOUS
  0
LAYER
  2
120
 70
     0
 62
     7
  6
CONTINUOUS
  0
LAYER
  2
121
 70
     0
 62
     7
  6
CONTINUOUS
  0
LAYER
  2
122
 70
     0
 62
     7
  6
CONTINUOUS
  0
LAYER
  2
123
 70
     0
 62
     7
  6
CONTINUOUS
  0
LAYER
  2
124
 70
     0
 62
     7
  6
CONTINUOUS
  0
LAYER
  2
125
 70
     0
 62
     7
  6
CONTINUOUS
  0
LAYER
  2
126
 70
     0
 62
     7
  6
CONTINUOUS
  0
LAYER
  2
127
 70
     0
 62
     7
  6
CONTINUOUS
  0
LAYER
  2
128
 70
     0
 62
     7
  6
CONTINUOUS
  0
ENDTAB
  0
TABLE
  2
STYLE
 70
    14
  0
STYLE
  2
STANDARD
 70
     0
 40
0.0
 41
1.0
 50
0.0
 71
     0
 42
0.2
  3
txt
  4

  0
STYLE
  2
KANJI0
 70
     0
 40
5.0
 41
1.0
 50
0.0
 71
     0
 42
5.0
  3

  4
bigfont
  0
STYLE
  2
KANJI1
 70
     0
 40
5.0
 41
1.2
 50
0.0
 71
     0
 42
5.0
  3

  4
bigfont
  0
STYLE
  2
KANJI2
 70
     0
 40
3.0
 41
0.666666667
 50
0.0
 71
     0
 42
3.0
  3

  4
bigfont
  0
STYLE
  2
KANJI3
 70
     0
 40
3.0
 41
1.0
 50
0.0
 71
     0
 42
3.0
  3

  4
bigfont
  0
STYLE
  2
KANJI4
 70
     0
 40
4.0
 41
0.875
 50
0.0
 71
     0
 42
4.0
  3

  4
bigfont
  0
STYLE
  2
KANJI5
 70
     0
 40
2.5
 41
1.0
 50
0.0
 71
     0
 42
2.5
  3

  4
bigfont
  0
STYLE
  2
KANJI6
 70
     0
 40
2.5
 41
1.0
 50
0.0
 71
     0
 42
2.5
  3

  4
bigfont
  0
STYLE
  2
KANJI7
 70
     0
 40
2.5
 41
1.0
 50
0.0
 71
     0
 42
2.5
  3

  4
bigfont
  0
STYLE
  2
KANJI8
 70
     0
 40
4.0
 41
1.125
 50
0.0
 71
     0
 42
4.0
  3

  4
bigfont
  0
STYLE
  2
KANJI9
 70
     0
 40
7.0
 41
0.857142857
 50
0.0
 71
     0
 42
7.0
  3

  4
bigfont
  0
STYLE
  2
KANJI10
 70
     0
 40
3.0
 41
0.833333333
 50
0.0
 71
     0
 42
3.0
  3

  4
bigfont
  0
STYLE
  2
KANJI11
 70
     0
 40
4.0
 41
0.875
 50
0.0
 71
     0
 42
4.0
  3

  4
bigfont
  0
STYLE
  2
KANJI12
 70
     0
 40
4.0
 41
0.875
 50
0.0
 71
     0
 42
4.0
  3

  4
bigfont
  0
ENDTAB
  0
TABLE
  2
VIEW
 70
     0
  0
ENDTAB
  0
ENDSEC
  0
SECTION
  2
BLOCKS
  0
ENDSEC
  0
SECTION
  2
ENTITIES
  0
LINE
  8
7
  6
CONTINUOUS
 62
     2
 10
410.0
 20
198.5
 11
415.0
 21
198.5
  0
LINE
  8
7
  6
CONTINUOUS
 62
     2
 10
410.0
 20
248.5
 11
415.0
 21
248.5
  0
LINE
  8
7
  6
CONTINUOUS
 62
     2
 10
410.0
 20
98.5
 11
415.0
 21
98.5
  0
LINE
  8
7
  6
CONTINUOUS
 62
     2
 10
410.0
 20
48.5
 11
415.0
 21
48.5
  0
LINE
  8
7
  6
CONTINUOUS
 62
     2
 10
410.0
 20
75.0
 11
407.5
 21
75.0
  0
LINE
  8
7
  6
CONTINUOUS
 62
     2
 10
410.0
 20
83.0
 11
407.5
 21
83.0
  0
LINE
  8
7
  6
CONTINUOUS
 62
     2
 10
410.0
 20
91.0
 11
407.5
 21
91.0
  0
TEXT
  8
7
  6
CONTINUOUS
 62
     6
 10
411.5
 20
271.0
 30
0.0
 40
5.0
  1
Ａ
 50
0.0
 41
1.0
 51
0.0
  7
KANJI0
  0
TEXT
  8
7
  6
CONTINUOUS
 62
     6
 10
411.5
 20
221.0
 30
0.0
 40
5.0
  1
Ｂ
 50
0.0
 41
1.0
 51
0.0
  7
KANJI0
  0
TEXT
  8
7
  6
CONTINUOUS
 62
     6
 10
411.5
 20
171.0
 30
0.0
 40
5.0
  1
Ｃ
 50
0.0
 41
1.0
 51
0.0
  7
KANJI0
  0
TEXT
  8
7
  6
CONTINUOUS
 62
     6
 10
411.5
 20
121.0
 30
0.0
 40
5.0
  1
Ｄ
 50
0.0
 41
1.0
 51
0.0
  7
KANJI0
  0
TEXT
  8
7
  6
CONTINUOUS
 62
     6
 10
411.5
 20
71.0
 30
0.0
 40
5.0
  1
Ｅ
 50
0.0
 41
1.0
 51
0.0
  7
KANJI0
  0
TEXT
  8
7
  6
CONTINUOUS
 62
     6
 10
411.5
 20
21.0
 30
0.0
 40
5.0
  1
Ｆ
 50
0.0
 41
1.0
 51
0.0
  7
KANJI0
  0
LINE
  8
7
  6
CONTINUOUS
 62
     2
 10
25.0
 20
198.5
 11
20.0
 21
198.5
  0
LINE
  8
7
  6
CONTINUOUS
 62
     2
 10
25.0
 20
248.5
 11
20.0
 21
248.5
  0
LINE
  8
7
  6
CONTINUOUS
 62
     2
 10
25.0
 20
98.5
 11
20.0
 21
98.5
  0
LINE
  8
7
  6
CONTINUOUS
 62
     2
 10
25.0
 20
48.5
 11
20.0
 21
48.5
  0
TEXT
  8
7
  6
CONTINUOUS
 62
     6
 10
18.5
 20
271.0
 30
0.0
 40
5.0
  1
Ａ
 50
0.0
 41
1.0
 51
0.0
  7
KANJI0
  0
TEXT
  8
7
  6
CONTINUOUS
 62
     6
 10
18.5
 20
221.0
 30
0.0
 40
5.0
  1
Ｂ
 50
0.0
 41
1.0
 51
0.0
  7
KANJI0
  0
TEXT
  8
7
  6
CONTINUOUS
 62
     6
 10
18.5
 20
171.0
 30
0.0
 40
5.0
  1
Ｃ
 50
0.0
 41
1.0
 51
0.0
  7
KANJI0
  0
TEXT
  8
7
  6
CONTINUOUS
 62
     6
 10
18.5
 20
121.0
 30
0.0
 40
5.0
  1
Ｄ
 50
0.0
 41
1.0
 51
0.0
  7
KANJI0
  0
TEXT
  8
7
  6
CONTINUOUS
 62
     6
 10
18.5
 20
71.0
 30
0.0
 40
5.0
  1
Ｅ
 50
0.0
 41
1.0
 51
0.0
  7
KANJI0
  0
TEXT
  8
7
  6
CONTINUOUS
 62
     6
 10
18.5
 20
21.0
 30
0.0
 40
5.0
  1
Ｆ
 50
0.0
 41
1.0
 51
0.0
  7
KANJI0
  0
LINE
  8
7
  6
CONTINUOUS
 62
     2
 10
160.0
 20
287.0
 11
160.0
 21
292.0
  0
LINE
  8
7
  6
CONTINUOUS
 62
     2
 10
110.0
 20
292.0
 11
110.0
 21
287.0
  0
LINE
  8
7
  6
CONTINUOUS
 62
     2
 10
60.0
 20
292.0
 11
60.0
 21
287.0
  0
LINE
  8
7
  6
CONTINUOUS
 62
     2
 10
260.0
 20
292.0
 11
260.0
 21
287.0
  0
LINE
  8
7
  6
CONTINUOUS
 62
     2
 10
310.0
 20
292.0
 11
310.0
 21
287.0
  0
TEXT
  8
7
  6
CONTINUOUS
 62
     6
 10
32.0
 20
288.5
 30
0.0
 40
5.0
  1
１
 50
0.0
 41
1.2
 51
0.0
  7
KANJI1
  0
TEXT
  8
7
  6
CONTINUOUS
 62
     6
 10
82.0
 20
288.5
 30
0.0
 40
5.0
  1
２
 50
0.0
 41
1.2
 51
0.0
  7
KANJI1
  0
TEXT
  8
7
  6
CONTINUOUS
 62
     6
 10
132.0
 20
288.5
 30
0.0
 40
5.0
  1
３
 50
0.0
 41
1.2
 51
0.0
  7
KANJI1
  0
TEXT
  8
7
  6
CONTINUOUS
 62
     6
 10
182.0
 20
288.5
 30
0.0
 40
5.0
  1
４
 50
0.0
 41
1.2
 51
0.0
  7
KANJI1
  0
TEXT
  8
7
  6
CONTINUOUS
 62
     6
 10
232.0
 20
288.5
 30
0.0
 40
5.0
  1
５
 50
0.0
 41
1.2
 51
0.0
  7
KANJI1
  0
TEXT
  8
7
  6
CONTINUOUS
 62
     6
 10
282.0
 20
288.5
 30
0.0
 40
5.0
  1
６
 50
0.0
 41
1.2
 51
0.0
  7
KANJI1
  0
TEXT
  8
7
  6
CONTINUOUS
 62
     6
 10
332.0
 20
288.5
 30
0.0
 40
5.0
  1
７
 50
0.0
 41
1.2
 51
0.0
  7
KANJI1
  0
TEXT
  8
7
  6
CONTINUOUS
 62
     6
 10
382.0
 20
288.5
 30
0.0
 40
5.0
  1
８
 50
0.0
 41
1.2
 51
0.0
  7
KANJI1
  0
LINE
  8
7
  6
CONTINUOUS
 62
     2
 10
110.0
 20
5.0
 11
110.0
 21
10.0
  0
LINE
  8
7
  6
CONTINUOUS
 62
     2
 10
60.0
 20
5.0
 11
60.0
 21
10.0
  0
TEXT
  8
7
  6
CONTINUOUS
 62
     6
 10
32.0
 20
3.5
 30
0.0
 40
5.0
  1
１
 50
0.0
 41
1.2
 51
0.0
  7
KANJI1
  0
TEXT
  8
7
  6
CONTINUOUS
 62
     6
 10
82.0
 20
3.5
 30
0.0
 40
5.0
  1
２
 50
0.0
 41
1.2
 51
0.0
  7
KANJI1
  0
TEXT
  8
7
  6
CONTINUOUS
 62
     6
 10
132.0
 20
3.5
 30
0.0
 40
5.0
  1
３
 50
0.0
 41
1.2
 51
0.0
  7
KANJI1
  0
TEXT
  8
7
  6
CONTINUOUS
 62
     6
 10
282.0
 20
3.5
 30
0.0
 40
5.0
  1
６
 50
0.0
 41
1.2
 51
0.0
  7
KANJI1
  0
TEXT
  8
7
  6
CONTINUOUS
 62
     6
 10
332.0
 20
3.5
 30
0.0
 40
5.0
  1
７
 50
0.0
 41
1.2
 51
0.0
  7
KANJI1
  0
TEXT
  8
7
  6
CONTINUOUS
 62
     6
 10
382.0
 20
3.5
 30
0.0
 40
5.0
  1
８
 50
0.0
 41
1.2
 51
0.0
  7
KANJI1
  0
LINE
  8
7
  6
CONTINUOUS
 62
     2
 10
360.0
 20
287.0
 11
360.0
 21
292.0
  0
LINE
  8
7
  6
CONTINUOUS
 62
     6
 10
25.0
 20
287.0
 11
25.0
 21
10.0
  0
LINE
  8
7
  6
CONTINUOUS
 62
     6
 10
210.0
 20
10.0
 11
210.0
 21
0.0
  0
LINE
  8
7
  6
CONTINUOUS
 62
     6
 10
160.0
 20
10.0
 11
160.0
 21
5.0
  0
LINE
  8
7
  6
CONTINUOUS
 62
     6
 10
170.0
 20
10.0
 11
170.0
 21
5.0
  0
LINE
  8
7
  6
CONTINUOUS
 62
     6
 10
180.0
 20
10.0
 11
180.0
 21
5.0
  0
LINE
  8
7
  6
CONTINUOUS
 62
     6
 10
190.0
 20
10.0
 11
190.0
 21
5.0
  0
LINE
  8
7
  6
CONTINUOUS
 62
     6
 10
200.0
 20
10.0
 11
200.0
 21
5.0
  0
LINE
  8
7
  6
CONTINUOUS
 62
     6
 10
25.0
 20
10.0
 11
410.0
 21
10.0
  0
LINE
  8
7
  6
CONTINUOUS
 62
     6
 10
260.0
 20
5.0
 11
260.0
 21
10.0
  0
LINE
  8
7
  6
CONTINUOUS
 62
     6
 10
250.0
 20
5.0
 11
250.0
 21
10.0
  0
LINE
  8
7
  6
CONTINUOUS
 62
     6
 10
240.0
 20
5.0
 11
240.0
 21
10.0
  0
LINE
  8
7
  6
CONTINUOUS
 62
     6
 10
230.0
 20
5.0
 11
230.0
 21
10.0
  0
LINE
  8
7
  6
CONTINUOUS
 62
     6
 10
220.0
 20
5.0
 11
220.0
 21
10.0
  0
LINE
  8
7
  6
CONTINUOUS
 62
     6
 10
160.0
 20
5.0
 11
260.0
 21
5.0
  0
LINE
  8
7
  6
LTYPE1
 62
     2
 10
399.5
 20
21.0
 11
399.5
 21
10.0
  0
LINE
  8
7
  6
CONTINUOUS
 62
     2
 10
239.0
 20
67.0
 11
239.0
 21
10.0
  0
LINE
  8
7
  6
CONTINUOUS
 62
     2
 10
246.0
 20
67.0
 11
246.0
 21
10.0
  0
LINE
  8
7
  6
CONTINUOUS
 62
     2
 10
253.0
 20
67.0
 11
253.0
 21
10.0
  0
LINE
  8
7
  6
CONTINUOUS
 62
     2
 10
260.0
 20
67.0
 11
260.0
 21
10.0
  0
LINE
  8
7
  6
CONTINUOUS
 62
     2
 10
273.0
 20
21.0
 11
410.0
 21
21.0
  0
LINE
  8
7
  6
CONTINUOUS
 62
     2
 10
273.0
 20
32.0
 11
410.0
 21
32.0
  0
LINE
  8
7
  6
CONTINUOUS
 62
     2
 10
273.0
 20
43.0
 11
410.0
 21
43.0
  0
LINE
  8
7
  6
CONTINUOUS
 62
     2
 10
321.0
 20
43.0
 11
321.0
 21
21.0
  0
LINE
  8
7
  6
CONTINUOUS
 62
     2
 10
337.0
 20
43.0
 11
337.0
 21
21.0
  0
LINE
  8
7
  6
CONTINUOUS
 62
     2
 10
297.0
 20
43.0
 11
297.0
 21
32.0
  0
LINE
  8
7
  6
CONTINUOUS
 62
     2
 10
267.0
 20
67.0
 11
267.0
 21
10.0
  0
LINE
  8
7
  6
CONTINUOUS
 62
     2
 10
289.0
 20
32.0
 11
289.0
 21
10.0
  0
LINE
  8
7
  6
CONTINUOUS
 62
     2
 10
305.0
 20
32.0
 11
305.0
 21
10.0
  0
LINE
  8
7
  6
CONTINUOUS
 62
     2
 10
353.0
 20
43.0
 11
353.0
 21
10.0
  0
POLYLINE
  8
7
  6
LTYPE2
 62
     2
 66
     1
 70
     1
  0
VERTEX
  8
7
  6
LTYPE2
 62
     2
 10
311.0
 20
13.5
  0
VERTEX
  8
7
  6
LTYPE2
 62
     2
 10
315.0
 20
13.5
  0
VERTEX
  8
7
  6
LTYPE2
 62
     2
 10
315.0
 20
17.5
  0
VERTEX
  8
7
  6
LTYPE2
 62
     2
 10
311.0
 20
17.5
  0
SEQEND
  0
TEXT
  8
7
  6
CONTINUOUS
 62
     4
 10
354.0
 20
47.0
 30
-0.5
 40
3.0
  1
１セット分
 50
0.0
 41
0.666666667
 51
0.0
  7
KANJI2
  0
TEXT
  8
7
  6
CONTINUOUS
 62
     4
 10
343.0
 20
47.0
 30
0.0
 40
3.0
  1
１台分
 50
0.0
 41
1.0
 51
0.0
  7
KANJI3
  0
TEXT
  8
7
  6
CONTINUOUS
 62
     4
 10
345.0
 20
44.0
 30
0.0
 40
3.0
  1
個数
 50
0.0
 41
1.0
 51
0.0
  7
KANJI3
  0
TEXT
  8
7
  6
CONTINUOUS
 62
     4
 10
355.0
 20
44.0
 30
0.0
 40
3.0
  1
個数
 50
0.0
 41
1.0
 51
0.0
  7
KANJI3
  0
TEXT
  8
7
  6
CONTINUOUS
 62
     4
 10
364.5
 20
45.0
 30
0.0
 40
4.0
  1
総数
 50
0.0
 41
0.875
 51
0.0
  7
KANJI4
  0
TEXT
  8
7
  6
CONTINUOUS
 62
     4
 10
271.15
 20
52.5
 30
0.3
 40
2.5
  1
氏名
 50
90.0
 41
1.0
 51
0.0
  7
KANJI5
  0
TEXT
  8
7
  6
CONTINUOUS
 62
     4
 10
271.15
 20
40.425
 30
1.0
 40
2.5
  1
年月日
 50
90.0
 41
1.0
 51
0.0
  7
KANJI6
  0
TEXT
  8
7
  6
CONTINUOUS
 62
     4
 10
271.15
 20
60.375
 30
0.3
 40
2.5
  1
承認
 50
90.0
 41
1.0
 51
0.0
  7
KANJI5
  0
TEXT
  8
7
  6
CONTINUOUS
 62
     4
 10
274.0
 20
39.5
 30
0.0
 40
2.5
  1
熱処理
 50
0.0
 41
1.0
 51
0.0
  7
KANJI7
  0
TEXT
  8
7
  6
CONTINUOUS
 62
     4
 10
298.0
 20
39.5
 30
0.0
 40
2.5
  1
表面処理
 50
0.0
 41
1.0
 51
0.0
  7
KANJI7
  0
TEXT
  8
7
  6
CONTINUOUS
 62
     4
 10
322.0
 20
39.5
 30
0.0
 40
2.5
  1
台数
 50
0.0
 41
1.0
 51
0.0
  7
KANJI7
  0
TEXT
  8
7
  6
CONTINUOUS
 62
     4
 10
338.0
 20
39.5
 30
0.0
 40
2.5
  1
作成日付
 50
0.0
 41
1.0
 51
0.0
  7
KANJI7
  0
TEXT
  8
7
  6
CONTINUOUS
 62
     4
 10
354.0
 20
39.5
 30
0.0
 40
2.5
  1
名称
 50
0.0
 41
1.0
 51
0.0
  7
KANJI7
  0
TEXT
  8
7
  6
CONTINUOUS
 62
     4
 10
274.0
 20
28.5
 30
0.0
 40
2.5
  1
尺度
 50
0.0
 41
1.0
 51
0.0
  7
KANJI7
  0
TEXT
  8
7
  6
CONTINUOUS
 62
     4
 10
290.0
 20
28.5
 30
0.0
 40
2.5
  1
承認
 50
0.0
 41
1.0
 51
0.0
  7
KANJI7
  0
TEXT
  8
7
  6
CONTINUOUS
 62
     4
 10
306.0
 20
28.5
 30
0.0
 40
2.5
  1
検図
 50
0.0
 41
1.0
 51
0.0
  7
KANJI7
  0
TEXT
  8
7
  6
CONTINUOUS
 62
     4
 10
322.0
 20
28.5
 30
0.0
 40
2.5
  1
設計
 50
0.0
 41
1.0
 51
0.0
  7
KANJI7
  0
TEXT
  8
7
  6
CONTINUOUS
 62
     4
 10
338.0
 20
28.5
 30
0.0
 40
2.5
  1
製図
 50
0.0
 41
1.0
 51
0.0
  7
KANJI7
  0
TEXT
  8
7
  6
CONTINUOUS
 62
     4
 10
354.0
 20
28.5
 30
0.0
 40
2.5
  1
機名
 50
0.0
 41
1.0
 51
0.0
  7
KANJI7
  0
TEXT
  8
7
  6
CONTINUOUS
 62
     4
 10
271.15
 20
10.875
 30
0.3
 40
2.5
  1
記号
 50
90.0
 41
1.0
 51
0.0
  7
KANJI5
  0
TEXT
  8
7
  6
CONTINUOUS
 62
     4
 10
354.0
 20
17.5
 30
0.0
 40
2.5
  1
図面番号
 50
0.0
 41
1.0
 51
0.0
  7
KANJI7
  0
TEXT
  8
7
  6
CONTINUOUS
 62
     4
 10
317.0
 20
14.25
 30
0.0
 40
2.5
  1
株式会社
 50
0.0
 41
1.0
 51
0.0
  7
KANJI7
  0
TEXT
  8
7
  6
CONTINUOUS
 62
     4
 10
329.0
 20
13.5
 30
0.0
 40
4.0
  1
昭和測器
 50
0.0
 41
1.125
 51
0.0
  7
KANJI8
  0
TEXT
  8
7
  6
CONTINUOUS
 62
     4
 10
271.15
 20
18.375
 30
0.3
 40
2.5
  1
来歴・改訂記事
 50
90.0
 41
1.0
 51
0.0
  7
KANJI5
  0
TEXT
  8
7
  6
CONTINUOUS
 62
     1
 10
276.0
 20
15.5
 30
0.0
 40
5.0
  1
第３
 50
0.0
 41
1.0
 51
0.0
  7
KANJI0
  0
TEXT
  8
7
  6
CONTINUOUS
 62
     1
 10
276.0
 20
10.5
 30
0.0
 40
5.0
  1
角法
 50
0.0
 41
1.0
 51
0.0
  7
KANJI0
  0
LINE
  8
7
  6
CONTINUOUS
 62
     2
 10
307.0
 20
5.0
 11
307.0
 21
10.0
  0
LINE
  8
7
  6
CONTINUOUS
 62
     2
 10
357.0
 20
5.0
 11
357.0
 21
10.0
  0
LINE
  8
7
  6
CONTINUOUS
 62
     2
 10
232.0
 20
67.0
 11
232.0
 21
10.0
  0
LINE
  8
7
  6
CONTINUOUS
 62
     2
 10
231.0
 20
51.0
 11
410.0
 21
51.0
  0
LINE
  8
7
  6
CONTINUOUS
 62
     2
 10
231.0
 20
17.0
 11
273.0
 21
17.0
  0
TEXT
  8
7
  6
CONTINUOUS
 62
     4
 10
324.0
 20
45.0
 30
0.0
 40
4.0
  1
材　　質
 50
0.0
 41
0.875
 51
0.0
  7
KANJI4
  0
TEXT
  8
7
  6
CONTINUOUS
 62
     4
 10
381.25
 20
45.0
 30
0.0
 40
4.0
  1
摘　　　要
 50
0.0
 41
0.875
 51
0.0
  7
KANJI4
  0
TEXT
  8
7
  6
CONTINUOUS
 62
     4
 10
274.5
 20
45.0
 30
0.0
 40
4.0
  1
番号
 50
0.0
 41
0.875
 51
0.0
  7
KANJI4
  0
TEXT
  8
7
  6
CONTINUOUS
 62
     4
 10
292.25
 20
45.0
 30
0.0
 40
4.0
  1
部　品　名
 50
0.0
 41
0.875
 51
0.0
  7
KANJI4
  0
CIRCLE
  8
7
  6
CONTINUOUS
 62
     6
 10
281.0
 20
26.0
 40
0.2
  0
CIRCLE
  8
7
  6
CONTINUOUS
 62
     6
 10
281.0
 20
23.5
 40
0.2
  0
LINE
  8
7
  6
CONTINUOUS
 62
     6
 10
25.0
 20
148.5
 11
0.0
 21
148.5
  0
LINE
  8
7
  6
CONTINUOUS
 62
     6
 10
210.0
 20
287.0
 11
210.0
 21
297.0
  0
LINE
  8
7
  6
CONTINUOUS
 62
     6
 10
410.0
 20
287.0
 11
25.0
 21
287.0
  0
LINE
  8
7
  6
CONTINUOUS
 62
     6
 10
410.0
 20
148.5
 11
420.0
 21
148.5
  0
LINE
  8
7
  6
CONTINUOUS
 62
     6
 10
410.0
 20
10.0
 11
410.0
 21
287.0
  0
TEXT
  8
6
  6
CONTINUOUS
 62
     5
 10
374.0
 20
34.0
 30
0.0
 40
4.0
  1
外観図
 50
0.0
 41
0.875
 51
0.0
  7
KANJI4
  0
TEXT
  8
6
  6
CONTINUOUS
 62
     5
 10
341.0
 20
23.0
 30
0.0
 40
4.0
  1
益子
 50
0.0
 41
0.875
 51
0.0
  7
KANJI4
  0
TEXT
  8
7
  6
CONTINUOUS
 62
     6
 10
291.725
 20
12.025
 30
-1.0
 40
7.0
  1
Ａ３
 50
0.0
 41
0.857142857
 51
0.0
  7
KANJI9
  0
LINE
  8
7
  6
CONTINUOUS
 62
     2
 10
273.0
 20
67.0
 11
410.0
 21
67.0
  0
LINE
  8
7
  6
CONTINUOUS
 62
     2
 10
231.0
 20
67.0
 11
273.0
 21
67.0
  0
LINE
  8
7
  6
CONTINUOUS
 62
     2
 10
273.0
 20
59.0
 11
410.0
 21
59.0
  0
LINE
  8
7
  6
CONTINUOUS
 62
     2
 10
231.0
 20
59.0
 11
273.0
 21
59.0
  0
LINE
  8
7
  6
CONTINUOUS
 62
     2
 10
283.0
 20
51.0
 11
283.0
 21
43.0
  0
LINE
  8
7
  6
CONTINUOUS
 62
     2
 10
283.0
 20
67.0
 11
283.0
 21
51.0
  0
LINE
  8
7
  6
CONTINUOUS
 62
     2
 10
319.0
 20
51.0
 11
319.0
 21
43.0
  0
LINE
  8
7
  6
CONTINUOUS
 62
     2
 10
319.0
 20
67.0
 11
319.0
 21
51.0
  0
LINE
  8
7
  6
CONTINUOUS
 62
     2
 10
343.0
 20
51.0
 11
343.0
 21
43.0
  0
LINE
  8
7
  6
CONTINUOUS
 62
     2
 10
343.0
 20
67.0
 11
343.0
 21
51.0
  0
LINE
  8
7
  6
CONTINUOUS
 62
     2
 10
353.0
 20
51.0
 11
353.0
 21
43.0
  0
LINE
  8
7
  6
CONTINUOUS
 62
     2
 10
353.0
 20
67.0
 11
353.0
 21
51.0
  0
LINE
  8
7
  6
CONTINUOUS
 62
     2
 10
363.0
 20
51.0
 11
363.0
 21
43.0
  0
LINE
  8
7
  6
CONTINUOUS
 62
     2
 10
363.0
 20
67.0
 11
363.0
 21
51.0
  0
LINE
  8
7
  6
CONTINUOUS
 62
     2
 10
373.0
 20
51.0
 11
373.0
 21
43.0
  0
LINE
  8
7
  6
CONTINUOUS
 62
     2
 10
373.0
 20
67.0
 11
373.0
 21
51.0
  0
LINE
  8
7
  6
CONTINUOUS
 62
     2
 10
273.0
 20
51.0
 11
273.0
 21
10.0
  0
LINE
  8
7
  6
CONTINUOUS
 62
     2
 10
273.0
 20
67.0
 11
273.0
 21
51.0
  0
LINE
  8
7
  6
CONTINUOUS
 62
     2
 10
231.0
 20
39.0
 11
273.0
 21
39.0
  0
TEXT
  8
6
  6
CONTINUOUS
 62
     5
 10
338.5
 20
36.0
 30
-0.5
 40
3.0
  1
２０１０．
 50
0.0
 41
0.833333333
 51
0.0
  7
KANJI10
  0
TEXT
  8
6
  6
CONTINUOUS
 62
     5
 10
276.0
 20
23.0
 30
0.0
 40
4.0
  1
１
 50
0.0
 41
0.875
 51
0.0
  7
KANJI4
  0
TEXT
  8
6
  6
CONTINUOUS
 62
     5
 10
282.5
 20
23.0
 30
0.0
 40
4.0
  1
１
 50
0.0
 41
0.875
 51
0.0
  7
KANJI4
  0
TEXT
  8
6
  6
CONTINUOUS
 62
     5
 10
341.0
 20
33.0
 30
-0.5
 40
3.0
  1
１１．１７
 50
0.0
 41
0.833333333
 51
0.0
  7
KANJI10
  0
TEXT
  8
6
  6
CONTINUOUS
 62
     5
 10
371.5
 20
23.0
 30
0.0
 40
4.0
  1
ＲＣＢ－□Ｎ
 50
0.0
 41
0.875
 51
0.0
  7
KANJI4
  0
TEXT
  8
6
  6
CONTINUOUS
 62
     5
 10
357.75
 20
12.0
 30
0.1
 40
4.0
  1
Ｅ－００１８－Ａ００１
 50
0.0
 41
0.875
 51
0.0
  7
KANJI11
  0
TEXT
  8
5
  6
CONTINUOUS
 62
     5
 10
294.0
 20
72.0
 30
0.1
 40
4.0
  1
１０，２０，５０，１００，２００，５００　Ｎ，１，２，５　ｋＮ
 50
0.0
 41
0.875
 51
0.0
  7
KANJI11
  0
CIRCLE
  8
0
  6
CONTINUOUS
 62
     1
 10
325.0
 20
170.0
 40
45.0
  0
CIRCLE
  8
0
  6
LTYPE3
 62
     2
 10
325.0
 20
170.0
 40
30.0
  0
CIRCLE
  8
0
  6
CONTINUOUS
 62
     2
 10
325.0
 20
170.0
 40
25.0
  0
CIRCLE
  8
0
  6
CONTINUOUS
 62
     1
 10
325.0
 20
170.0
 40
24.5
  0
CIRCLE
  8
0
  6
CONTINUOUS
 62
     2
 10
325.0
 20
170.0
 40
6.0
  0
CIRCLE
  8
0
  6
CONTINUOUS
 62
     1
 10
325.0
 20
170.0
 40
5.25
  0
LINE
  8
0
  6
LTYPE3
 62
     2
 10
375.0
 20
170.0
 11
275.0
 21
170.0
  0
LINE
  8
0
  6
LTYPE3
 62
     2
 10
325.0
 20
120.0
 11
325.0
 21
220.0
  0
CIRCLE
  8
0
  6
CONTINUOUS
 62
     2
 10
295.0
 20
170.0
 40
3.0
  0
CIRCLE
  8
0
  6
CONTINUOUS
 62
     1
 10
295.0
 20
170.0
 40
2.5
  0
CIRCLE
  8
0
  6
CONTINUOUS
 62
     2
 10
303.786796564
 20
148.786796564
 40
3.0
  0
LINE
  8
0
  6
LTYPE4
 62
     2
 10
300.604816049
 20
145.604816049
 11
306.96877708
 21
151.96877708
  0
CIRCLE
  8
0
  6
CONTINUOUS
 62
     1
 10
303.786796564
 20
148.786796564
 40
2.5
  0
CIRCLE
  8
0
  6
CONTINUOUS
 62
     2
 10
346.213203436
 20
148.786796564
 40
3.0
  0
LINE
  8
0
  6
LTYPE4
 62
     2
 10
349.395183951
 20
145.604816049
 11
343.03122292
 21
151.96877708
  0
CIRCLE
  8
0
  6
CONTINUOUS
 62
     1
 10
346.213203436
 20
148.786796564
 40
2.5
  0
CIRCLE
  8
0
  6
CONTINUOUS
 62
     2
 10
355.0
 20
170.0
 40
3.0
  0
CIRCLE
  8
0
  6
CONTINUOUS
 62
     1
 10
355.0
 20
170.0
 40
2.5
  0
CIRCLE
  8
0
  6
CONTINUOUS
 62
     2
 10
346.213203436
 20
191.213203436
 40
3.0
  0
LINE
  8
0
  6
LTYPE4
 62
     2
 10
349.395183951
 20
194.395183951
 11
343.03122292
 21
188.03122292
  0
CIRCLE
  8
0
  6
CONTINUOUS
 62
     1
 10
346.213203436
 20
191.213203436
 40
2.5
  0
CIRCLE
  8
0
  6
CONTINUOUS
 62
     2
 10
303.786796564
 20
191.213203436
 40
3.0
  0
LINE
  8
0
  6
LTYPE4
 62
     2
 10
300.604816049
 20
194.395183951
 11
306.96877708
 21
188.03122292
  0
CIRCLE
  8
0
  6
CONTINUOUS
 62
     1
 10
303.786796564
 20
191.213203436
 40
2.5
  0
LINE
  8
0
  6
CONTINUOUS
 62
     1
 10
340.0
 20
242.4
 11
310.0
 21
242.4
  0
LINE
  8
0
  6
CONTINUOUS
 62
     2
 10
325.0
 20
207.4
 11
325.0
 21
247.4
  0
LINE
  8
0
  6
CONTINUOUS
 62
     1
 10
310.0
 20
242.4
 11
310.0
 21
212.426406871
  0
LINE
  8
0
  6
CONTINUOUS
 62
     1
 10
340.0
 20
212.426406871
 11
340.0
 21
242.4
  0
LINE
  8
4
  6
CONTINUOUS
 62
     1
 10
297.5
 20
221.9
 11
297.5
 21
237.9
  0
LINE
  8
4
  6
CONTINUOUS
 62
     1
 10
308.5
 20
219.4
 11
308.5
 21
240.4
  0
LINE
  8
4
  6
CONTINUOUS
 62
     1
 10
310.0
 20
219.4
 11
310.0
 21
240.4
  0
LINE
  8
4
  6
CONTINUOUS
 62
     1
 10
308.5
 20
240.4
 11
310.0
 21
240.4
  0
LINE
  8
4
  6
CONTINUOUS
 62
     1
 10
308.5
 20
219.4
 11
310.0
 21
219.4
  0
ARC
  8
4
  6
CONTINUOUS
 62
     1
 10
308.6025
 20
221.9
 40
2.1025
 50
92.794362055
 51
267.205637945
  0
ARC
  8
4
  6
CONTINUOUS
 62
     1
 10
308.6025
 20
237.9
 40
2.1025
 50
92.794362055
 51
267.205637945
  0
LINE
  8
4
  6
CONTINUOUS
 62
     1
 10
297.5
 20
221.9
 11
306.5
 21
221.9
  0
LINE
  8
4
  6
CONTINUOUS
 62
     1
 10
297.5
 20
237.9
 11
306.5
 21
237.9
  0
LINE
  8
4
  6
LTYPE3
 62
     2
 10
306.5
 20
221.9
 11
311.5
 21
221.9
  0
LINE
  8
4
  6
LTYPE3
 62
     2
 10
306.5
 20
237.9
 11
311.5
 21
237.9
  0
LINE
  8
4
  6
LTYPE3
 62
     2
 10
315.0
 20
229.9
 11
292.5
 21
229.9
  0
LINE
  8
0
  6
CONTINUOUS
 62
     1
 10
67.679491924
 20
160.0
 11
75.0
 21
160.0
  0
LINE
  8
0
  6
CONTINUOUS
 62
     1
 10
75.0
 20
160.0
 11
75.0
 21
180.0
  0
LINE
  8
0
  6
CONTINUOUS
 62
     1
 10
75.0
 20
180.0
 11
67.679491924
 21
180.0
  0
ARC
  8
0
  6
CONTINUOUS
 62
     1
 10
85.0
 20
170.0
 40
20.0
 50
150.0
 51
210.0
  0
LINE
  8
0
  6
CONTINUOUS
 62
     1
 10
76.5
 20
164.0
 11
89.25
 21
164.0
  0
LINE
  8
0
  6
CONTINUOUS
 62
     1
 10
89.25
 20
164.0
 11
89.25
 21
176.0
  0
LINE
  8
0
  6
CONTINUOUS
 62
     1
 10
90.0
 20
164.75
 11
90.0
 21
175.25
  0
LINE
  8
0
  6
CONTINUOUS
 62
     1
 10
89.25
 20
176.0
 11
90.0
 21
175.25
  0
LINE
  8
0
  6
CONTINUOUS
 62
     1
 10
90.0
 20
164.75
 11
89.25
 21
164.0
  0
LINE
  8
0
  6
CONTINUOUS
 62
     2
 10
76.5
 20
164.75
 11
90.0
 21
164.75
  0
LINE
  8
0
  6
CONTINUOUS
 62
     2
 10
76.5
 20
175.25
 11
90.0
 21
175.25
  0
LINE
  8
0
  6
CONTINUOUS
 62
     1
 10
76.5
 20
176.0
 11
89.25
 21
176.0
  0
LINE
  8
0
  6
CONTINUOUS
 62
     1
 10
76.5
 20
164.0
 11
76.5
 21
176.0
  0
LINE
  8
0
  6
CONTINUOUS
 62
     1
 10
75.0
 20
164.75
 11
76.5
 21
164.75
  0
LINE
  8
0
  6
CONTINUOUS
 62
     1
 10
75.0
 20
175.25
 11
76.5
 21
175.25
  0
LINE
  8
0
  6
LTYPE3
 62
     2
 10
60.0
 20
170.0
 11
95.0
 21
170.0
  0
LINE
  8
0
  6
CONTINUOUS
 62
     1
 10
67.679491924
 20
175.267826876
 11
75.0
 21
175.267826876
  0
LINE
  8
0
  6
CONTINUOUS
 62
     1
 10
75.0
 20
164.732173124
 11
67.679491924
 21
164.732173124
  0
LINE
  8
0
  6
CONTINUOUS
 62
     2
 10
75.0
 20
164.732173124
 11
67.679491924
 21
175.267826876
  0
LINE
  8
0
  6
CONTINUOUS
 62
     2
 10
75.0
 20
175.267826876
 11
67.679491924
 21
164.732173124
  0
ARC
  8
0
  6
CONTINUOUS
 62
     1
 10
78.442559215
 20
170.0
 40
11.983055433
 50
153.921234626
 51
206.078765374
  0
LINE
  8
0
  6
CONTINUOUS
 62
     1
 10
67.679491924
 20
164.732173124
 11
67.679491924
 21
160.0
  0
LINE
  8
0
  6
CONTINUOUS
 62
     1
 10
67.679491924
 20
180.0
 11
67.679491924
 21
175.267826876
  0
LINE
  8
5
  6
CONTINUOUS
 62
     2
 10
286.109127035
 20
208.890872965
 11
283.944063525
 21
207.640872965
  0
LINE
  8
5
  6
CONTINUOUS
 62
     2
 10
286.109127035
 20
208.890872965
 11
284.859127035
 21
206.725809456
  0
ARC
  8
5
  6
CONTINUOUS
 62
     2
 10
325.0
 20
170.0
 40
55.0
 50
135.0
 51
180.0
  0
LINE
  8
5
  6
CONTINUOUS
 62
     2
 10
270.0
 20
170.0
 11
270.647047613
 21
172.414814566
  0
LINE
  8
5
  6
CONTINUOUS
 62
     2
 10
270.0
 20
170.0
 11
269.352952387
 21
172.414814566
  0
TEXT
  8
5
  6
CONTINUOUS
 62
     5
 10
271.215389816
 20
186.487516714
 30
0.1
 40
4.0
  1
４５゜
 50
67.5
 41
0.875
 51
0.0
  7
KANJI11
  0
LINE
  8
5
  6
CONTINUOUS
 62
     2
 10
325.0
 20
170.0
 11
285.402020254
 21
209.597979746
  0
LINE
  8
5
  6
CONTINUOUS
 62
     2
 10
275.0
 20
170.0
 11
269.0
 21
170.0
  0
LINE
  8
5
  6
CONTINUOUS
 62
     2
 10
286.109127035
 20
131.109127035
 11
283.944063525
 21
132.359127035
  0
LINE
  8
5
  6
CONTINUOUS
 62
     2
 10
286.109127035
 20
131.109127035
 11
284.859127035
 21
133.274190544
  0
ARC
  8
5
  6
CONTINUOUS
 62
     2
 10
325.0
 20
170.0
 40
55.0
 50
180.0
 51
225.0
  0
LINE
  8
5
  6
CONTINUOUS
 62
     2
 10
325.0
 20
170.0
 11
285.402020254
 21
130.402020254
  0
LINE
  8
5
  6
CONTINUOUS
 62
     2
 10
270.0
 20
170.0
 11
270.647047613
 21
167.585185434
  0
LINE
  8
5
  6
CONTINUOUS
 62
     2
 10
270.0
 20
170.0
 11
269.352952387
 21
167.585185434
  0
TEXT
  8
5
  6
CONTINUOUS
 62
     5
 10
275.310102543
 20
143.626972289
 30
0.1
 40
4.0
  1
４５゜
 50
112.5
 41
0.875
 51
0.0
  7
KANJI11
  0
TEXT
  8
5
  6
CONTINUOUS
 62
     5
 10
371.903397958
 20
150.415024637
 30
0.1
 40
4.0
  1
Ｐ．Ｃ．Ｄ．６０
 50
336.209226134
 41
0.875
 51
0.0
  7
KANJI11
  0
LINE
  8
5
  6
CONTINUOUS
 62
     2
 10
297.549260877
 20
182.101938753
 11
392.790763621
 21
140.113749372
  0
LINE
  8
5
  6
CONTINUOUS
 62
     2
 10
297.549260877
 20
182.101938753
 11
299.497858013
 21
180.53574298
  0
LINE
  8
5
  6
CONTINUOUS
 62
     2
 10
297.549260877
 20
182.101938753
 11
300.019893385
 21
181.719871995
  0
LINE
  8
5
  6
CONTINUOUS
 62
     2
 10
352.450739123
 20
157.898061247
 11
350.502141987
 21
159.46425702
  0
LINE
  8
5
  6
CONTINUOUS
 62
     2
 10
352.450739123
 20
157.898061247
 11
349.980106615
 21
158.280128005
  0
LINE
  8
5
  6
CONTINUOUS
 62
     2
 10
347.327375465
 20
146.001366492
 11
347.623446453
 21
143.518960004
  0
LINE
  8
5
  6
CONTINUOUS
 62
     2
 10
347.327375465
 20
146.001366492
 11
348.824983706
 21
143.999574905
  0
LINE
  8
5
  6
CONTINUOUS
 62
     2
 10
347.327375465
 20
146.001366492
 11
356.213203436
 21
123.786796564
  0
LINE
  8
5
  6
CONTINUOUS
 62
     2
 10
356.213203436
 20
123.786796564
 11
384.913203436
 21
123.786796564
  0
TEXT
  8
5
  6
CONTINUOUS
 62
     5
 10
356.213203436
 20
124.786796564
 30
0.1
 40
4.0
  1
６－Ｍ６深さ１２
 50
0.0
 41
0.875
 51
0.0
  7
KANJI11
  0
LINE
  8
5
  6
CONTINUOUS
 62
     2
 10
328.086974533
 20
175.144957554
 11
329.884225127
 21
176.882740711
  0
LINE
  8
5
  6
CONTINUOUS
 62
     2
 10
328.086974533
 20
175.144957554
 11
328.774547626
 21
177.548547212
  0
LINE
  8
5
  6
CONTINUOUS
 62
     2
 10
328.086974533
 20
175.144957554
 11
355.0
 21
220.0
  0
POLYLINE
  8
0
  6
CONTINUOUS
 62
     1
 66
     1
  0
VERTEX
  8
0
  6
CONTINUOUS
 62
     1
 10
186.0
 20
125.0
  0
VERTEX
  8
0
  6
CONTINUOUS
 62
     1
 10
240.0
 20
125.0
  0
VERTEX
  8
0
  6
CONTINUOUS
 62
     1
 10
240.0
 20
215.0
  0
SEQEND
  0
LINE
  8
0
  6
CONTINUOUS
 62
     1
 10
186.0
 20
215.0
 11
186.0
 21
125.0
  0
LINE
  8
0
  6
CONTINUOUS
 62
     1
 10
238.5
 20
242.4
 11
208.5
 21
242.4
  0
LINE
  8
0
  6
CONTINUOUS
 62
     1
 10
208.5
 20
212.4
 11
238.5
 21
212.4
  0
LINE
  8
0
  6
CONTINUOUS
 62
     1
 10
208.5
 20
242.4
 11
208.5
 21
212.4
  0
LINE
  8
0
  6
CONTINUOUS
 62
     1
 10
238.5
 20
212.4
 11
238.5
 21
242.4
  0
LINE
  8
0
  6
CONTINUOUS
 62
     1
 10
208.5
 20
215.0
 11
186.0
 21
215.0
  0
LINE
  8
0
  6
CONTINUOUS
 62
     1
 10
240.0
 20
215.0
 11
238.5
 21
215.0
  0
CIRCLE
  8
4
  6
CONTINUOUS
 62
     1
 10
223.5
 20
229.9
 40
8.0
  0
CIRCLE
  8
4
  6
CONTINUOUS
 62
     1
 10
223.5
 20
229.9
 40
6.4
  0
CIRCLE
  8
4
  6
CONTINUOUS
 62
     1
 10
223.5
 20
229.9
 40
5.0
  0
ARC
  8
4
  6
CONTINUOUS
 62
     1
 10
215.0
 20
221.4
 40
2.0
 50
180.0
 51
270.0
  0
LINE
  8
4
  6
CONTINUOUS
 62
     1
 10
232.0
 20
219.4
 11
215.0
 21
219.4
  0
ARC
  8
4
  6
CONTINUOUS
 62
     1
 10
232.0
 20
221.4
 40
2.0
 50
270.0
 51
0.0
  0
LINE
  8
4
  6
CONTINUOUS
 62
     1
 10
213.0
 20
238.4
 11
213.0
 21
221.4
  0
ARC
  8
4
  6
CONTINUOUS
 62
     1
 10
215.0
 20
238.4
 40
2.0
 50
90.0
 51
180.0
  0
LINE
  8
4
  6
CONTINUOUS
 62
     1
 10
234.0
 20
238.4
 11
234.0
 21
221.4
  0
LINE
  8
4
  6
CONTINUOUS
 62
     1
 10
232.0
 20
240.4
 11
215.0
 21
240.4
  0
ARC
  8
4
  6
CONTINUOUS
 62
     1
 10
232.0
 20
238.4
 40
2.0
 50
0.0
 51
90.0
  0
CIRCLE
  8
4
  6
CONTINUOUS
 62
     1
 10
215.5
 20
221.9
 40
2.1
  0
LINE
  8
4
  6
CONTINUOUS
 62
     1
 10
216.76
 20
222.11
 11
216.76
 21
221.69
  0
LINE
  8
4
  6
CONTINUOUS
 62
     1
 10
215.71
 20
220.64
 11
215.29
 21
220.64
  0
LINE
  8
4
  6
CONTINUOUS
 62
     1
 10
214.24
 20
222.11
 11
214.24
 21
221.69
  0
LINE
  8
4
  6
CONTINUOUS
 62
     1
 10
215.71
 20
223.16
 11
215.29
 21
223.16
  0
LINE
  8
4
  6
CONTINUOUS
 62
     1
 10
214.24
 20
222.11
 11
214.66
 21
222.11
  0
LINE
  8
4
  6
CONTINUOUS
 62
     1
 10
215.29
 20
223.16
 11
215.29
 21
222.74
  0
LINE
  8
4
  6
CONTINUOUS
 62
     1
 10
215.71
 20
223.16
 11
215.71
 21
222.74
  0
LINE
  8
4
  6
CONTINUOUS
 62
     1
 10
216.76
 20
221.69
 11
216.34
 21
221.69
  0
LINE
  8
4
  6
CONTINUOUS
 62
     1
 10
215.29
 20
220.64
 11
215.29
 21
221.06
  0
LINE
  8
4
  6
CONTINUOUS
 62
     1
 10
214.24
 20
222.11
 11
214.66
 21
222.11
  0
LINE
  8
4
  6
CONTINUOUS
 62
     1
 10
214.24
 20
221.69
 11
214.66
 21
221.69
  0
LINE
  8
4
  6
CONTINUOUS
 62
     1
 10
215.71
 20
220.64
 11
215.71
 21
221.06
  0
LINE
  8
4
  6
CONTINUOUS
 62
     1
 10
216.76
 20
222.11
 11
216.34
 21
222.11
  0
ARC
  8
4
  6
CONTINUOUS
 62
     1
 10
214.73
 20
221.13
 40
0.56
 50
352.3
 51
97.7
  0
ARC
  8
4
  6
CONTINUOUS
 62
     1
 10
216.27
 20
221.13
 40
0.56
 50
82.3
 51
187.7
  0
ARC
  8
4
  6
CONTINUOUS
 62
     1
 10
216.27
 20
222.67
 40
0.56
 50
172.3
 51
277.7
  0
ARC
  8
4
  6
CONTINUOUS
 62
     1
 10
214.73
 20
222.67
 40
0.56
 50
262.3
 51
7.7
  0
LINE
  8
4
  6
LTYPE4
 62
     2
 10
215.5
 20
224.55
 11
215.5
 21
219.4
  0
CIRCLE
  8
4
  6
CONTINUOUS
 62
     1
 10
215.5
 20
237.9
 40
2.1
  0
LINE
  8
4
  6
CONTINUOUS
 62
     1
 10
216.76
 20
238.11
 11
216.76
 21
237.69
  0
LINE
  8
4
  6
CONTINUOUS
 62
     1
 10
215.71
 20
236.64
 11
215.29
 21
236.64
  0
LINE
  8
4
  6
CONTINUOUS
 62
     1
 10
214.24
 20
238.11
 11
214.24
 21
237.69
  0
LINE
  8
4
  6
CONTINUOUS
 62
     1
 10
215.71
 20
239.16
 11
215.29
 21
239.16
  0
LINE
  8
4
  6
CONTINUOUS
 62
     1
 10
214.24
 20
238.11
 11
214.66
 21
238.11
  0
LINE
  8
4
  6
CONTINUOUS
 62
     1
 10
215.29
 20
239.16
 11
215.29
 21
238.74
  0
LINE
  8
4
  6
CONTINUOUS
 62
     1
 10
215.71
 20
239.16
 11
215.71
 21
238.74
  0
LINE
  8
4
  6
CONTINUOUS
 62
     1
 10
216.76
 20
237.69
 11
216.34
 21
237.69
  0
LINE
  8
4
  6
CONTINUOUS
 62
     1
 10
215.29
 20
236.64
 11
215.29
 21
237.06
  0
LINE
  8
4
  6
CONTINUOUS
 62
     1
 10
214.24
 20
238.11
 11
214.66
 21
238.11
  0
LINE
  8
4
  6
CONTINUOUS
 62
     1
 10
214.24
 20
237.69
 11
214.66
 21
237.69
  0
LINE
  8
4
  6
CONTINUOUS
 62
     1
 10
215.71
 20
236.64
 11
215.71
 21
237.06
  0
LINE
  8
4
  6
CONTINUOUS
 62
     1
 10
216.76
 20
238.11
 11
216.34
 21
238.11
  0
ARC
  8
4
  6
CONTINUOUS
 62
     1
 10
214.73
 20
237.13
 40
0.56
 50
352.3
 51
97.7
  0
ARC
  8
4
  6
CONTINUOUS
 62
     1
 10
216.27
 20
237.13
 40
0.56
 50
82.3
 51
187.7
  0
ARC
  8
4
  6
CONTINUOUS
 62
     1
 10
216.27
 20
238.67
 40
0.56
 50
172.3
 51
277.7
  0
ARC
  8
4
  6
CONTINUOUS
 62
     1
 10
214.73
 20
238.67
 40
0.56
 50
262.3
 51
7.7
  0
LINE
  8
4
  6
LTYPE4
 62
     2
 10
215.5
 20
240.4
 11
215.5
 21
235.4
  0
CIRCLE
  8
4
  6
CONTINUOUS
 62
     1
 10
231.5
 20
237.9
 40
2.1
  0
LINE
  8
4
  6
CONTINUOUS
 62
     1
 10
232.76
 20
238.11
 11
232.76
 21
237.69
  0
LINE
  8
4
  6
CONTINUOUS
 62
     1
 10
231.71
 20
236.64
 11
231.29
 21
236.64
  0
LINE
  8
4
  6
CONTINUOUS
 62
     1
 10
230.24
 20
238.11
 11
230.24
 21
237.69
  0
LINE
  8
4
  6
CONTINUOUS
 62
     1
 10
231.71
 20
239.16
 11
231.29
 21
239.16
  0
LINE
  8
4
  6
CONTINUOUS
 62
     1
 10
230.24
 20
238.11
 11
230.66
 21
238.11
  0
LINE
  8
4
  6
CONTINUOUS
 62
     1
 10
231.29
 20
239.16
 11
231.29
 21
238.74
  0
LINE
  8
4
  6
CONTINUOUS
 62
     1
 10
231.71
 20
239.16
 11
231.71
 21
238.74
  0
LINE
  8
4
  6
CONTINUOUS
 62
     1
 10
232.76
 20
237.69
 11
232.34
 21
237.69
  0
LINE
  8
4
  6
CONTINUOUS
 62
     1
 10
231.29
 20
236.64
 11
231.29
 21
237.06
  0
LINE
  8
4
  6
CONTINUOUS
 62
     1
 10
230.24
 20
238.11
 11
230.66
 21
238.11
  0
LINE
  8
4
  6
CONTINUOUS
 62
     1
 10
230.24
 20
237.69
 11
230.66
 21
237.69
  0
LINE
  8
4
  6
CONTINUOUS
 62
     1
 10
231.71
 20
236.64
 11
231.71
 21
237.06
  0
LINE
  8
4
  6
CONTINUOUS
 62
     1
 10
232.76
 20
238.11
 11
232.34
 21
238.11
  0
ARC
  8
4
  6
CONTINUOUS
 62
     1
 10
230.73
 20
237.13
 40
0.56
 50
352.3
 51
97.7
  0
ARC
  8
4
  6
CONTINUOUS
 62
     1
 10
232.27
 20
237.13
 40
0.56
 50
82.3
 51
187.7
  0
ARC
  8
4
  6
CONTINUOUS
 62
     1
 10
232.27
 20
238.67
 40
0.56
 50
172.3
 51
277.7
  0
ARC
  8
4
  6
CONTINUOUS
 62
     1
 10
230.73
 20
238.67
 40
0.56
 50
262.3
 51
7.7
  0
CIRCLE
  8
4
  6
CONTINUOUS
 62
     1
 10
231.5
 20
221.9
 40
2.1
  0
LINE
  8
4
  6
CONTINUOUS
 62
     1
 10
232.76
 20
222.11
 11
232.76
 21
221.69
  0
LINE
  8
4
  6
CONTINUOUS
 62
     1
 10
231.71
 20
220.64
 11
231.29
 21
220.64
  0
LINE
  8
4
  6
CONTINUOUS
 62
     1
 10
230.24
 20
222.11
 11
230.24
 21
221.69
  0
LINE
  8
4
  6
CONTINUOUS
 62
     1
 10
231.71
 20
223.16
 11
231.29
 21
223.16
  0
LINE
  8
4
  6
CONTINUOUS
 62
     1
 10
230.24
 20
222.11
 11
230.66
 21
222.11
  0
LINE
  8
4
  6
CONTINUOUS
 62
     1
 10
231.29
 20
223.16
 11
231.29
 21
222.74
  0
LINE
  8
4
  6
CONTINUOUS
 62
     1
 10
231.71
 20
223.16
 11
231.71
 21
222.74
  0
LINE
  8
4
  6
CONTINUOUS
 62
     1
 10
232.76
 20
221.69
 11
232.34
 21
221.69
  0
LINE
  8
4
  6
CONTINUOUS
 62
     1
 10
231.29
 20
220.64
 11
231.29
 21
221.06
  0
LINE
  8
4
  6
CONTINUOUS
 62
     1
 10
230.24
 20
222.11
 11
230.66
 21
222.11
  0
LINE
  8
4
  6
CONTINUOUS
 62
     1
 10
230.24
 20
221.69
 11
230.66
 21
221.69
  0
LINE
  8
4
  6
CONTINUOUS
 62
     1
 10
231.71
 20
220.64
 11
231.71
 21
221.06
  0
LINE
  8
4
  6
CONTINUOUS
 62
     1
 10
232.76
 20
222.11
 11
232.34
 21
222.11
  0
ARC
  8
4
  6
CONTINUOUS
 62
     1
 10
230.73
 20
221.13
 40
0.56
 50
352.3
 51
97.7
  0
ARC
  8
4
  6
CONTINUOUS
 62
     1
 10
232.27
 20
221.13
 40
0.56
 50
82.3
 51
187.7
  0
ARC
  8
4
  6
CONTINUOUS
 62
     1
 10
232.27
 20
222.67
 40
0.56
 50
172.3
 51
277.7
  0
ARC
  8
4
  6
CONTINUOUS
 62
     1
 10
230.73
 20
222.67
 40
0.56
 50
262.3
 51
7.7
  0
LINE
  8
4
  6
LTYPE3
 62
     2
 10
218.0
 20
221.9
 11
213.0
 21
221.9
  0
LINE
  8
4
  6
LTYPE3
 62
     2
 10
218.0
 20
237.9
 11
213.0
 21
237.9
  0
LINE
  8
4
  6
LTYPE3
 62
     2
 10
234.0
 20
237.9
 11
229.0
 21
237.9
  0
LINE
  8
4
  6
LTYPE3
 62
     2
 10
231.5
 20
240.55
 11
231.5
 21
235.25
  0
LINE
  8
4
  6
LTYPE3
 62
     2
 10
234.0
 20
221.9
 11
229.0
 21
221.9
  0
LINE
  8
4
  6
LTYPE3
 62
     2
 10
231.5
 20
224.4
 11
231.5
 21
219.45
  0
LINE
  8
4
  6
LTYPE3
 62
     2
 10
236.5
 20
229.9
 11
210.5
 21
229.9
  0
LINE
  8
4
  6
LTYPE3
 62
     2
 10
223.5
 20
247.4
 11
223.5
 21
207.4
  0
LINE
  8
0
  6
CONTINUOUS
 62
     1
 10
186.0
 20
215.0
 11
181.0
 21
215.0
  0
LINE
  8
0
  6
CONTINUOUS
 62
     1
 10
180.0
 20
154.5
 11
181.0
 21
125.0
  0
LINE
  8
0
  6
CONTINUOUS
 62
     1
 10
181.0
 20
125.0
 11
186.0
 21
125.0
  0
LINE
  8
0
  6
CONTINUOUS
 62
     1
 10
181.0
 20
215.0
 11
181.0
 21
125.0
  0
LINE
  8
0
  6
CONTINUOUS
 62
     1
 10
185.75
 20
214.75
 11
181.25
 21
214.75
  0
LINE
  8
0
  6
CONTINUOUS
 62
     1
 10
181.75
 20
214.25
 11
185.25
 21
214.25
  0
LINE
  8
0
  6
CONTINUOUS
 62
     1
 10
184.75
 20
213.75
 11
182.25
 21
213.75
  0
LINE
  8
0
  6
CONTINUOUS
 62
     1
 10
182.75
 20
213.25
 11
184.25
 21
213.25
  0
LINE
  8
0
  6
CONTINUOUS
 62
     1
 10
183.75
 20
212.75
 11
183.25
 21
212.75
  0
LINE
  8
0
  6
LTYPE3
 62
     2
 10
245.0
 20
170.0
 11
165.0
 21
170.0
  0
LINE
  8
0
  6
CONTINUOUS
 62
     1
 10
181.0
 20
215.0
 11
180.0
 21
190.0
  0
LINE
  8
0
  6
CONTINUOUS
 62
     1
 10
180.0
 20
190.0
 11
180.0
 21
154.5
  0
LINE
  8
0
  6
CONTINUOUS
 62
     1
 10
180.0
 20
182.5
 11
175.0
 21
182.5
  0
LINE
  8
0
  6
CONTINUOUS
 62
     1
 10
175.0
 20
157.5
 11
180.0
 21
157.5
  0
LINE
  8
0
  6
CONTINUOUS
 62
     1
 10
175.0
 20
182.5
 11
175.0
 21
157.5
  0
LINE
  8
0
  6
CONTINUOUS
 62
     1
 10
175.0
 20
178.0
 11
170.0
 21
178.0
  0
LINE
  8
0
  6
CONTINUOUS
 62
     1
 10
170.0
 20
178.0
 11
170.0
 21
162.0
  0
LINE
  8
0
  6
CONTINUOUS
 62
     1
 10
170.0
 20
162.0
 11
175.0
 21
162.0
  0
POLYLINE
  8
0
  6
CONTINUOUS
 62
     2
 66
     1
  0
VERTEX
  8
0
  6
CONTINUOUS
 62
     2
 10
174.0
 20
178.0
  0
VERTEX
  8
0
  6
CONTINUOUS
 62
     2
 10
174.016
 20
177.832
  0
VERTEX
  8
0
  6
CONTINUOUS
 62
     2
 10
174.028
 20
177.656
  0
VERTEX
  8
0
  6
CONTINUOUS
 62
     2
 10
174.032
 20
177.464
  0
VERTEX
  8
0
  6
CONTINUOUS
 62
     2
 10
174.024
 20
177.248
  0
VERTEX
  8
0
  6
CONTINUOUS
 62
     2
 10
174.0
 20
177.0
  0
VERTEX
  8
0
  6
CONTINUOUS
 62
     2
 10
173.924
 20
176.648
  0
VERTEX
  8
0
  6
CONTINUOUS
 62
     2
 10
173.832
 20
176.264
  0
VERTEX
  8
0
  6
CONTINUOUS
 62
     2
 10
173.728
 20
175.856
  0
VERTEX
  8
0
  6
CONTINUOUS
 62
     2
 10
173.616
 20
175.432
  0
VERTEX
  8
0
  6
CONTINUOUS
 62
     2
 10
173.5
 20
175.0
  0
VERTEX
  8
0
  6
CONTINUOUS
 62
     2
 10
173.4
 20
174.584
  0
VERTEX
  8
0
  6
CONTINUOUS
 62
     2
 10
173.3
 20
174.172
  0
VERTEX
  8
0
  6
CONTINUOUS
 62
     2
 10
173.2
 20
173.768
  0
VERTEX
  8
0
  6
CONTINUOUS
 62
     2
 10
173.1
 20
173.376
  0
VERTEX
  8
0
  6
CONTINUOUS
 62
     2
 10
173.0
 20
173.0
  0
VERTEX
  8
0
  6
CONTINUOUS
 62
     2
 10
172.9
 20
172.74
  0
VERTEX
  8
0
  6
CONTINUOUS
 62
     2
 10
172.8
 20
172.48
  0
VERTEX
  8
0
  6
CONTINUOUS
 62
     2
 10
172.7
 20
172.2
  0
VERTEX
  8
0
  6
CONTINUOUS
 62
     2
 10
172.6
 20
171.88
  0
VERTEX
  8
0
  6
CONTINUOUS
 62
     2
 10
172.5
 20
171.5
  0
VERTEX
  8
0
  6
CONTINUOUS
 62
     2
 10
172.416
 20
170.848
  0
VERTEX
  8
0
  6
CONTINUOUS
 62
     2
 10
172.328
 20
170.144
  0
VERTEX
  8
0
  6
CONTINUOUS
 62
     2
 10
172.232
 20
169.416
  0
VERTEX
  8
0
  6
CONTINUOUS
 62
     2
 10
172.124
 20
168.692
  0
VERTEX
  8
0
  6
CONTINUOUS
 62
     2
 10
172.0
 20
168.0
  0
VERTEX
  8
0
  6
CONTINUOUS
 62
     2
 10
171.824
 20
167.512
  0
VERTEX
  8
0
  6
CONTINUOUS
 62
     2
 10
171.632
 20
167.076
  0
VERTEX
  8
0
  6
CONTINUOUS
 62
     2
 10
171.428
 20
166.684
  0
VERTEX
  8
0
  6
CONTINUOUS
 62
     2
 10
171.216
 20
166.328
  0
VERTEX
  8
0
  6
CONTINUOUS
 62
     2
 10
171.0
 20
166.0
  0
VERTEX
  8
0
  6
CONTINUOUS
 62
     2
 10
170.8
 20
165.676
  0
VERTEX
  8
0
  6
CONTINUOUS
 62
     2
 10
170.6
 20
165.368
  0
VERTEX
  8
0
  6
CONTINUOUS
 62
     2
 10
170.4
 20
165.072
  0
VERTEX
  8
0
  6
CONTINUOUS
 62
     2
 10
170.2
 20
164.784
  0
VERTEX
  8
0
  6
CONTINUOUS
 62
     2
 10
170.0
 20
164.5
  0
SEQEND
  0
LINE
  8
0
  6
CONTINUOUS
 62
     2
 10
170.0
 20
176.0
 11
173.764705882
 21
176.0
  0
LINE
  8
0
  6
CONTINUOUS
 62
     1
 10
170.0
 20
175.25
 11
173.56712963
 21
175.25
  0
LINE
  8
5
  6
CONTINUOUS
 62
     2
 10
169.0
 20
178.0
 11
159.0
 21
178.0
  0
LINE
  8
5
  6
CONTINUOUS
 62
     2
 10
160.0
 20
178.0
 11
159.352952387
 21
175.585185434
  0
LINE
  8
5
  6
CONTINUOUS
 62
     2
 10
160.0
 20
178.0
 11
160.647047613
 21
175.585185434
  0
LINE
  8
5
  6
CONTINUOUS
 62
     2
 10
160.0
 20
178.0
 11
160.0
 21
162.0
  0
LINE
  8
5
  6
CONTINUOUS
 62
     2
 10
160.0
 20
162.0
 11
160.647047613
 21
164.414814566
  0
LINE
  8
5
  6
CONTINUOUS
 62
     2
 10
160.0
 20
162.0
 11
159.352952387
 21
164.414814566
  0
LINE
  8
5
  6
CONTINUOUS
 62
     2
 10
169.0
 20
162.0
 11
159.0
 21
162.0
  0
TEXT
  8
5
  6
CONTINUOUS
 62
     5
 10
159.0
 20
164.65
 30
0.1
 40
4.0
  1
φ１６
 50
90.0
 41
0.875
 51
0.0
  7
KANJI11
  0
LINE
  8
5
  6
CONTINUOUS
 62
     2
 10
174.0
 20
157.5
 11
149.0
 21
157.5
  0
LINE
  8
5
  6
CONTINUOUS
 62
     2
 10
150.0
 20
157.5
 11
150.647047613
 21
159.914814566
  0
LINE
  8
5
  6
CONTINUOUS
 62
     2
 10
150.0
 20
157.5
 11
149.352952387
 21
159.914814566
  0
LINE
  8
5
  6
CONTINUOUS
 62
     2
 10
150.0
 20
157.5
 11
150.0
 21
182.5
  0
LINE
  8
5
  6
CONTINUOUS
 62
     2
 10
150.0
 20
182.5
 11
149.352952387
 21
180.085185434
  0
LINE
  8
5
  6
CONTINUOUS
 62
     2
 10
150.0
 20
182.5
 11
150.647047613
 21
180.085185434
  0
LINE
  8
5
  6
CONTINUOUS
 62
     2
 10
174.0
 20
182.5
 11
149.0
 21
182.5
  0
TEXT
  8
5
  6
CONTINUOUS
 62
     5
 10
149.0
 20
164.65
 30
0.1
 40
4.0
  1
φ２５
 50
90.0
 41
0.875
 51
0.0
  7
KANJI11
  0
LINE
  8
5
  6
CONTINUOUS
 62
     2
 10
180.0
 20
215.0
 11
139.0
 21
215.0
  0
LINE
  8
5
  6
CONTINUOUS
 62
     2
 10
140.0
 20
215.0
 11
139.352952387
 21
212.585185434
  0
LINE
  8
5
  6
CONTINUOUS
 62
     2
 10
140.0
 20
215.0
 11
140.647047613
 21
212.585185434
  0
LINE
  8
5
  6
CONTINUOUS
 62
     2
 10
140.0
 20
215.0
 11
140.0
 21
125.0
  0
LINE
  8
5
  6
CONTINUOUS
 62
     2
 10
140.0
 20
125.0
 11
140.647047613
 21
127.414814566
  0
LINE
  8
5
  6
CONTINUOUS
 62
     2
 10
140.0
 20
125.0
 11
139.352952387
 21
127.414814566
  0
LINE
  8
5
  6
CONTINUOUS
 62
     2
 10
180.0
 20
125.0
 11
139.0
 21
125.0
  0
TEXT
  8
5
  6
CONTINUOUS
 62
     5
 10
139.0
 20
164.65
 30
0.1
 40
4.0
  1
φ９０
 50
90.0
 41
0.875
 51
0.0
  7
KANJI11
  0
LINE
  8
5
  6
CONTINUOUS
 62
     2
 10
223.5
 20
247.4
 11
223.5
 21
253.4
  0
LINE
  8
5
  6
CONTINUOUS
 62
     2
 10
223.5
 20
252.4
 11
225.914814566
 21
251.752952387
  0
LINE
  8
5
  6
CONTINUOUS
 62
     2
 10
223.5
 20
252.4
 11
225.914814566
 21
253.047047613
  0
LINE
  8
5
  6
CONTINUOUS
 62
     2
 10
223.5
 20
252.4
 11
240.0
 21
252.4
  0
LINE
  8
5
  6
CONTINUOUS
 62
     2
 10
240.0
 20
252.4
 11
237.585185434
 21
253.047047613
  0
LINE
  8
5
  6
CONTINUOUS
 62
     2
 10
240.0
 20
252.4
 11
237.585185434
 21
251.752952387
  0
LINE
  8
5
  6
CONTINUOUS
 62
     2
 10
240.0
 20
216.0
 11
240.0
 21
253.4
  0
LINE
  8
5
  6
CONTINUOUS
 62
     2
 10
208.5
 20
243.4
 11
208.5
 21
263.4
  0
LINE
  8
5
  6
CONTINUOUS
 62
     2
 10
208.5
 20
262.4
 11
210.914814566
 21
261.752952387
  0
LINE
  8
5
  6
CONTINUOUS
 62
     2
 10
208.5
 20
262.4
 11
210.914814566
 21
263.047047613
  0
LINE
  8
5
  6
CONTINUOUS
 62
     2
 10
208.5
 20
262.4
 11
238.5
 21
262.4
  0
LINE
  8
5
  6
CONTINUOUS
 62
     2
 10
238.5
 20
262.4
 11
236.085185434
 21
263.047047613
  0
LINE
  8
5
  6
CONTINUOUS
 62
     2
 10
238.5
 20
262.4
 11
236.085185434
 21
261.752952387
  0
LINE
  8
5
  6
CONTINUOUS
 62
     2
 10
238.5
 20
243.4
 11
238.5
 21
263.4
  0
TEXT
  8
5
  6
CONTINUOUS
 62
     5
 10
218.15
 20
263.4
 30
0.1
 40
4.0
  1
□３０
 50
0.0
 41
0.875
 51
0.0
  7
KANJI11
  0
TEXT
  8
5
  6
CONTINUOUS
 62
     5
 10
224.6
 20
253.4
 30
0.1
 40
4.0
  1
１６．５
 50
0.0
 41
0.875
 51
0.0
  7
KANJI11
  0
LINE
  8
5
  6
CONTINUOUS
 62
     2
 10
240.0
 20
124.0
 11
240.0
 21
109.0
  0
LINE
  8
5
  6
CONTINUOUS
 62
     2
 10
240.0
 20
110.0
 11
237.585185434
 21
110.647047613
  0
LINE
  8
5
  6
CONTINUOUS
 62
     2
 10
240.0
 20
110.0
 11
237.585185434
 21
109.352952387
  0
LINE
  8
5
  6
CONTINUOUS
 62
     2
 10
180.0
 20
153.5
 11
180.0
 21
109.0
  0
TEXT
  8
5
  6
CONTINUOUS
 62
     5
 10
206.45
 20
111.0
 30
0.1
 40
4.0
  1
６０
 50
0.0
 41
0.875
 51
0.0
  7
KANJI11
  0
LINE
  8
5
  6
CONTINUOUS
 62
     2
 10
175.0
 20
156.5
 11
175.0
 21
109.0
  0
LINE
  8
5
  6
CONTINUOUS
 62
     2
 10
175.0
 20
110.0
 11
177.414814566
 21
109.352952387
  0
LINE
  8
5
  6
CONTINUOUS
 62
     2
 10
175.0
 20
110.0
 11
177.414814566
 21
110.647047613
  0
LINE
  8
5
  6
CONTINUOUS
 62
     2
 10
175.0
 20
110.0
 11
180.0
 21
110.0
  0
LINE
  8
5
  6
CONTINUOUS
 62
     2
 10
180.0
 20
110.0
 11
177.585185434
 21
110.647047613
  0
LINE
  8
5
  6
CONTINUOUS
 62
     2
 10
180.0
 20
110.0
 11
177.585185434
 21
109.352952387
  0
TEXT
  8
5
  6
CONTINUOUS
 62
     5
 10
175.75
 20
111.0
 30
0.1
 40
4.0
  1
５
 50
0.0
 41
0.875
 51
0.0
  7
KANJI11
  0
LINE
  8
5
  6
CONTINUOUS
 62
     2
 10
180.0
 20
110.0
 11
182.414814566
 21
109.352952387
  0
LINE
  8
5
  6
CONTINUOUS
 62
     2
 10
180.0
 20
110.0
 11
182.414814566
 21
110.647047613
  0
LINE
  8
5
  6
CONTINUOUS
 62
     2
 10
180.0
 20
110.0
 11
240.0
 21
110.0
  0
LINE
  8
5
  6
CONTINUOUS
 62
     2
 10
170.0
 20
161.0
 11
170.0
 21
109.0
  0
LINE
  8
5
  6
CONTINUOUS
 62
     2
 10
170.0
 20
110.0
 11
172.414814566
 21
109.352952387
  0
LINE
  8
5
  6
CONTINUOUS
 62
     2
 10
170.0
 20
110.0
 11
172.414814566
 21
110.647047613
  0
LINE
  8
5
  6
CONTINUOUS
 62
     2
 10
170.0
 20
110.0
 11
175.0
 21
110.0
  0
LINE
  8
5
  6
CONTINUOUS
 62
     2
 10
175.0
 20
110.0
 11
172.585185434
 21
110.647047613
  0
LINE
  8
5
  6
CONTINUOUS
 62
     2
 10
175.0
 20
110.0
 11
172.585185434
 21
109.352952387
  0
TEXT
  8
5
  6
CONTINUOUS
 62
     5
 10
170.75
 20
111.0
 30
0.1
 40
4.0
  1
５
 50
0.0
 41
0.875
 51
0.0
  7
KANJI11
  0
LINE
  8
5
  6
CONTINUOUS
 62
     2
 10
170.0
 20
109.0
 11
170.0
 21
99.0
  0
LINE
  8
5
  6
CONTINUOUS
 62
     2
 10
170.0
 20
100.0
 11
172.414814566
 21
99.352952387
  0
LINE
  8
5
  6
CONTINUOUS
 62
     2
 10
170.0
 20
100.0
 11
172.414814566
 21
100.647047613
  0
LINE
  8
5
  6
CONTINUOUS
 62
     2
 10
170.0
 20
100.0
 11
240.0
 21
100.0
  0
LINE
  8
5
  6
CONTINUOUS
 62
     2
 10
240.0
 20
100.0
 11
237.585185434
 21
100.647047613
  0
LINE
  8
5
  6
CONTINUOUS
 62
     2
 10
240.0
 20
100.0
 11
237.585185434
 21
99.352952387
  0
LINE
  8
5
  6
CONTINUOUS
 62
     2
 10
240.0
 20
109.0
 11
240.0
 21
99.0
  0
TEXT
  8
5
  6
CONTINUOUS
 62
     5
 10
201.45
 20
101.0
 30
0.1
 40
4.0
  1
７０
 50
0.0
 41
0.875
 51
0.0
  7
KANJI11
  0
LINE
  8
5
  6
CONTINUOUS
 62
     2
 10
172.5
 20
176.0
 11
171.998799074
 21
178.449244298
  0
LINE
  8
5
  6
CONTINUOUS
 62
     2
 10
172.5
 20
176.0
 11
170.841325117
 21
177.870507319
  0
LINE
  8
5
  6
CONTINUOUS
 62
     2
 10
172.5
 20
176.0
 11
147.5
 21
226.0
  0
LINE
  8
5
  6
CONTINUOUS
 62
     2
 10
66.679491924
 20
180.0
 11
54.0
 21
180.0
  0
LINE
  8
5
  6
CONTINUOUS
 62
     2
 10
55.0
 20
180.0
 11
54.352952387
 21
177.585185434
  0
LINE
  8
5
  6
CONTINUOUS
 62
     2
 10
55.0
 20
180.0
 11
55.647047613
 21
177.585185434
  0
LINE
  8
5
  6
CONTINUOUS
 62
     2
 10
55.0
 20
180.0
 11
55.0
 21
160.0
  0
LINE
  8
5
  6
CONTINUOUS
 62
     2
 10
55.0
 20
160.0
 11
55.647047613
 21
162.414814566
  0
LINE
  8
5
  6
CONTINUOUS
 62
     2
 10
55.0
 20
160.0
 11
54.352952387
 21
162.414814566
  0
LINE
  8
5
  6
CONTINUOUS
 62
     2
 10
66.679491924
 20
160.0
 11
54.0
 21
160.0
  0
TEXT
  8
5
  6
CONTINUOUS
 62
     5
 10
54.0
 20
164.65
 30
0.1
 40
4.0
  1
φ２０
 50
90.0
 41
0.875
 51
0.0
  7
KANJI11
  0
LINE
  8
5
  6
CONTINUOUS
 62
     2
 10
65.0
 20
169.0
 11
65.0
 21
149.0
  0
LINE
  8
5
  6
CONTINUOUS
 62
     2
 10
65.0
 20
150.0
 11
67.414814566
 21
149.352952387
  0
LINE
  8
5
  6
CONTINUOUS
 62
     2
 10
65.0
 20
150.0
 11
67.414814566
 21
150.647047613
  0
LINE
  8
5
  6
CONTINUOUS
 62
     2
 10
65.0
 20
150.0
 11
75.0
 21
150.0
  0
LINE
  8
5
  6
CONTINUOUS
 62
     2
 10
75.0
 20
150.0
 11
72.585185434
 21
150.647047613
  0
LINE
  8
5
  6
CONTINUOUS
 62
     2
 10
75.0
 20
150.0
 11
72.585185434
 21
149.352952387
  0
LINE
  8
5
  6
CONTINUOUS
 62
     2
 10
75.0
 20
159.0
 11
75.0
 21
149.0
  0
TEXT
  8
5
  6
CONTINUOUS
 62
     5
 10
66.45
 20
151.0
 30
0.1
 40
4.0
  1
１０
 50
0.0
 41
0.875
 51
0.0
  7
KANJI11
  0
LINE
  8
5
  6
CONTINUOUS
 62
     2
 10
65.0
 20
149.0
 11
65.0
 21
139.0
  0
LINE
  8
5
  6
CONTINUOUS
 62
     2
 10
65.0
 20
140.0
 11
67.414814566
 21
139.352952387
  0
LINE
  8
5
  6
CONTINUOUS
 62
     2
 10
65.0
 20
140.0
 11
67.414814566
 21
140.647047613
  0
LINE
  8
5
  6
CONTINUOUS
 62
     2
 10
65.0
 20
140.0
 11
90.0
 21
140.0
  0
LINE
  8
5
  6
CONTINUOUS
 62
     2
 10
90.0
 20
140.0
 11
87.585185434
 21
140.647047613
  0
LINE
  8
5
  6
CONTINUOUS
 62
     2
 10
90.0
 20
140.0
 11
87.585185434
 21
139.352952387
  0
LINE
  8
5
  6
CONTINUOUS
 62
     2
 10
90.0
 20
163.75
 11
90.0
 21
139.0
  0
TEXT
  8
5
  6
CONTINUOUS
 62
     5
 10
73.95
 20
141.0
 30
0.1
 40
4.0
  1
２５
 50
0.0
 41
0.875
 51
0.0
  7
KANJI11
  0
LINE
  8
5
  6
CONTINUOUS
 62
     2
 10
65.409301627
 20
174.025485967
 11
63.174140492
 21
175.145331805
  0
LINE
  8
5
  6
CONTINUOUS
 62
     2
 10
65.409301627
 20
174.025485967
 11
62.913672384
 21
173.877720344
  0
LINE
  8
5
  6
CONTINUOUS
 62
     2
 10
85.0
 20
170.0
 11
34.492650664
 21
180.378222466
  0
TEXT
  8
5
  6
CONTINUOUS
 62
     5
 10
34.693924962
 20
181.357757385
 30
0.1
 40
4.0
  1
球Ｒ２０
 50
348.388513576
 41
0.875
 51
0.0
  7
KANJI11
  0
LINE
  8
5
  6
CONTINUOUS
 62
     2
 10
60.0
 20
125.0
 11
97.7
 21
125.0
  0
TEXT
  8
5
  6
CONTINUOUS
 62
     5
 10
60.0
 20
126.0
 30
0.3
 40
4.0
  1
圧縮アダプタ（付属）
 50
0.0
 41
0.875
 51
0.0
  7
KANJI12
  0
TEXT
  8
5
  6
CONTINUOUS
 62
     5
 10
115.0
 20
172.0
 30
0.0
 40
4.0
  1
負荷方向
 50
0.0
 41
0.875
 51
0.0
  7
KANJI4
  0
LINE
  8
5
  6
CONTINUOUS
 62
     2
 10
130.0
 20
170.0
 11
127.102222521
 21
169.223542865
  0
LINE
  8
5
  6
CONTINUOUS
 62
     2
 10
130.0
 20
170.0
 11
127.102222521
 21
170.776457135
  0
LINE
  8
5
  6
CONTINUOUS
 62
     2
 10
130.0
 20
170.0
 11
115.0
 21
170.0
  0
TEXT
  8
5
  6
CONTINUOUS
 62
     5
 10
120.0
 20
164.0
 30
0.0
 40
4.0
  1
（＋）
 50
0.0
 41
0.875
 51
0.0
  7
KANJI4
  0
TEXT
  8
5
  6
CONTINUOUS
 62
     5
 10
355.0
 20
221.0
 30
0.1
 40
4.0
  1
Ｍ１２×１．５深さ２０
 50
0.0
 41
0.875
 51
0.0
  7
KANJI11
  0
LINE
  8
5
  6
CONTINUOUS
 62
     2
 10
355.0
 20
220.0
 11
393.1
 21
220.0
  0
LINE
  8
5
  6
CONTINUOUS
 62
     2
 10
109.4
 20
226.0
 11
147.5
 21
226.0
  0
TEXT
  8
5
  6
CONTINUOUS
 62
     5
 10
109.4
 20
227.0
 30
0.1
 40
4.0
  1
Ｍ１２×１．５深さ２０
 50
0.0
 41
0.875
 51
0.0
  7
KANJI11
  0
LINE
  8
5
  6
CONTINUOUS
 62
     2
 10
84.0
 20
176.0
 11
69.0
 21
191.0
  0
LINE
  8
5
  6
CONTINUOUS
 62
     2
 10
69.0
 20
191.0
 11
92.7
 21
191.0
  0
TEXT
  8
5
  6
CONTINUOUS
 62
     5
 10
69.0
 20
192.0
 30
0.1
 40
4.0
  1
Ｍ１２×１．５
 50
0.0
 41
0.875
 51
0.0
  7
KANJI11
  0
LINE
  8
5
  6
CONTINUOUS
 62
     2
 10
84.0
 20
176.0
 11
82.75
 21
178.165063509
  0
LINE
  8
5
  6
CONTINUOUS
 62
     2
 10
84.0
 20
176.0
 11
81.834936491
 21
177.25
  0
LINE
  8
5
  6
CONTINUOUS
 62
     2
 10
245.0
 20
170.0
 11
256.0
 21
170.0
  0
LINE
  8
5
  6
CONTINUOUS
 62
     2
 10
255.0
 20
170.0
 11
255.647047613
 21
172.414814566
  0
LINE
  8
5
  6
CONTINUOUS
 62
     2
 10
255.0
 20
170.0
 11
254.352952387
 21
172.414814566
  0
LINE
  8
5
  6
CONTINUOUS
 62
     2
 10
255.0
 20
170.0
 11
255.0
 21
242.4
  0
LINE
  8
5
  6
CONTINUOUS
 62
     2
 10
255.0
 20
242.4
 11
254.352952387
 21
239.985185434
  0
LINE
  8
5
  6
CONTINUOUS
 62
     2
 10
255.0
 20
242.4
 11
255.647047613
 21
239.985185434
  0
LINE
  8
5
  6
CONTINUOUS
 62
     2
 10
239.5
 20
242.4
 11
256.0
 21
242.4
  0
TEXT
  8
5
  6
CONTINUOUS
 62
     5
 10
254.0
 20
199.05
 30
0.1
 40
4.0
  1
７２．４
 50
90.0
 41
0.875
 51
0.0
  7
KANJI11
  0
ENDSEC
  0
EOF
