  0
SECTION
  2
HEADER
  9
$EXTMIN
 10
0.0
 20
0.0
 30
0.0
  9
$EXTMAX
 10
420.0
 20
297.0
 30
0.0
  9
$LIMMIN
 10
0.0
 20
0.0
  9
$LIMMAX
 10
420.0
 20
297.0
  9
$LTSCALE
 40
1.0
  9
$PDMODE
 70
     0
  0
ENDSEC
  0
SECTION
  2
TABLES
  0
TABLE
  2
LTYPE
 70
     4
  0
LTYPE
  2
CONTINUOUS
 70
    64
  3
Solid line
 72
    65
 73
     0
 40
0.0
  0
LTYPE
  2
LTYPE1
 70
    64
  3
CENTER
 72
    65
 73
     4
 40
10.0
 49
7.0
 49
-1.0
 49
1.0
 49
-1.0
  0
LTYPE
  2
LTYPE2
 70
    64
  3
CENTER
 72
    65
 73
     4
 40
8.0
 49
5.6
 49
-0.8
 49
0.8
 49
-0.8
  0
LTYPE
  2
LTYPE3
 70
    64
  3
HIDDEN
 72
    65
 73
     2
 40
1.5
 49
0.9
 49
-0.6
  0
ENDTAB
  0
TABLE
  2
LAYER
 70
   128
  0
LAYER
  2
0
 70
     0
 62
     7
  6
CONTINUOUS
  0
LAYER
  2
2
 70
     0
 62
     7
  6
CONTINUOUS
  0
LAYER
  2
3
 70
     0
 62
     7
  6
CONTINUOUS
  0
LAYER
  2
4
 70
     0
 62
     7
  6
CONTINUOUS
  0
LAYER
  2
5
 70
     0
 62
     7
  6
CONTINUOUS
  0
LAYER
  2
6
 70
     0
 62
     7
  6
CONTINUOUS
  0
LAYER
  2
7
 70
     0
 62
     7
  6
CONTINUOUS
  0
LAYER
  2
8
 70
     0
 62
     7
  6
CONTINUOUS
  0
LAYER
  2
9
 70
     0
 62
     7
  6
CONTINUOUS
  0
LAYER
  2
10
 70
     0
 62
     7
  6
CONTINUOUS
  0
LAYER
  2
11
 70
     0
 62
     7
  6
CONTINUOUS
  0
LAYER
  2
12
 70
     0
 62
     7
  6
CONTINUOUS
  0
LAYER
  2
13
 70
     0
 62
     7
  6
CONTINUOUS
  0
LAYER
  2
14
 70
     0
 62
     7
  6
CONTINUOUS
  0
LAYER
  2
15
 70
     0
 62
     7
  6
CONTINUOUS
  0
LAYER
  2
16
 70
     0
 62
     7
  6
CONTINUOUS
  0
LAYER
  2
17
 70
     0
 62
     7
  6
CONTINUOUS
  0
LAYER
  2
18
 70
     0
 62
     7
  6
CONTINUOUS
  0
LAYER
  2
19
 70
     0
 62
     7
  6
CONTINUOUS
  0
LAYER
  2
20
 70
     0
 62
     7
  6
CONTINUOUS
  0
LAYER
  2
21
 70
     0
 62
     7
  6
CONTINUOUS
  0
LAYER
  2
22
 70
     0
 62
     7
  6
CONTINUOUS
  0
LAYER
  2
23
 70
     0
 62
     7
  6
CONTINUOUS
  0
LAYER
  2
24
 70
     0
 62
     7
  6
CONTINUOUS
  0
LAYER
  2
25
 70
     0
 62
     7
  6
CONTINUOUS
  0
LAYER
  2
26
 70
     0
 62
     7
  6
CONTINUOUS
  0
LAYER
  2
27
 70
     0
 62
     7
  6
CONTINUOUS
  0
LAYER
  2
28
 70
     0
 62
     7
  6
CONTINUOUS
  0
LAYER
  2
29
 70
     0
 62
     7
  6
CONTINUOUS
  0
LAYER
  2
30
 70
     0
 62
     7
  6
CONTINUOUS
  0
LAYER
  2
31
 70
     0
 62
     7
  6
CONTINUOUS
  0
LAYER
  2
32
 70
     0
 62
     7
  6
CONTINUOUS
  0
LAYER
  2
33
 70
     0
 62
     7
  6
CONTINUOUS
  0
LAYER
  2
34
 70
     0
 62
     7
  6
CONTINUOUS
  0
LAYER
  2
35
 70
     0
 62
     7
  6
CONTINUOUS
  0
LAYER
  2
36
 70
     0
 62
     7
  6
CONTINUOUS
  0
LAYER
  2
37
 70
     0
 62
     7
  6
CONTINUOUS
  0
LAYER
  2
38
 70
     0
 62
     7
  6
CONTINUOUS
  0
LAYER
  2
39
 70
     0
 62
     7
  6
CONTINUOUS
  0
LAYER
  2
40
 70
     0
 62
     7
  6
CONTINUOUS
  0
LAYER
  2
41
 70
     0
 62
     7
  6
CONTINUOUS
  0
LAYER
  2
42
 70
     0
 62
     7
  6
CONTINUOUS
  0
LAYER
  2
43
 70
     0
 62
     7
  6
CONTINUOUS
  0
LAYER
  2
44
 70
     0
 62
     7
  6
CONTINUOUS
  0
LAYER
  2
45
 70
     0
 62
     7
  6
CONTINUOUS
  0
LAYER
  2
46
 70
     0
 62
     7
  6
CONTINUOUS
  0
LAYER
  2
47
 70
     0
 62
     7
  6
CONTINUOUS
  0
LAYER
  2
48
 70
     0
 62
     7
  6
CONTINUOUS
  0
LAYER
  2
49
 70
     0
 62
     7
  6
CONTINUOUS
  0
LAYER
  2
50
 70
     0
 62
     7
  6
CONTINUOUS
  0
LAYER
  2
51
 70
     0
 62
     7
  6
CONTINUOUS
  0
LAYER
  2
52
 70
     0
 62
     7
  6
CONTINUOUS
  0
LAYER
  2
53
 70
     0
 62
     7
  6
CONTINUOUS
  0
LAYER
  2
54
 70
     0
 62
     7
  6
CONTINUOUS
  0
LAYER
  2
55
 70
     0
 62
     7
  6
CONTINUOUS
  0
LAYER
  2
56
 70
     0
 62
     7
  6
CONTINUOUS
  0
LAYER
  2
57
 70
     0
 62
     7
  6
CONTINUOUS
  0
LAYER
  2
58
 70
     0
 62
     7
  6
CONTINUOUS
  0
LAYER
  2
59
 70
     0
 62
     7
  6
CONTINUOUS
  0
LAYER
  2
60
 70
     0
 62
     7
  6
CONTINUOUS
  0
LAYER
  2
61
 70
     0
 62
     7
  6
CONTINUOUS
  0
LAYER
  2
62
 70
     0
 62
     7
  6
CONTINUOUS
  0
LAYER
  2
63
 70
     0
 62
     7
  6
CONTINUOUS
  0
LAYER
  2
64
 70
     0
 62
     7
  6
CONTINUOUS
  0
LAYER
  2
65
 70
     0
 62
     7
  6
CONTINUOUS
  0
LAYER
  2
66
 70
     0
 62
     7
  6
CONTINUOUS
  0
LAYER
  2
67
 70
     0
 62
     7
  6
CONTINUOUS
  0
LAYER
  2
68
 70
     0
 62
     7
  6
CONTINUOUS
  0
LAYER
  2
69
 70
     0
 62
     7
  6
CONTINUOUS
  0
LAYER
  2
70
 70
     0
 62
     7
  6
CONTINUOUS
  0
LAYER
  2
71
 70
     0
 62
     7
  6
CONTINUOUS
  0
LAYER
  2
72
 70
     0
 62
     7
  6
CONTINUOUS
  0
LAYER
  2
73
 70
     0
 62
     7
  6
CONTINUOUS
  0
LAYER
  2
74
 70
     0
 62
     7
  6
CONTINUOUS
  0
LAYER
  2
75
 70
     0
 62
     7
  6
CONTINUOUS
  0
LAYER
  2
76
 70
     0
 62
     7
  6
CONTINUOUS
  0
LAYER
  2
77
 70
     0
 62
     7
  6
CONTINUOUS
  0
LAYER
  2
78
 70
     0
 62
     7
  6
CONTINUOUS
  0
LAYER
  2
79
 70
     0
 62
     7
  6
CONTINUOUS
  0
LAYER
  2
80
 70
     0
 62
     7
  6
CONTINUOUS
  0
LAYER
  2
81
 70
     0
 62
     7
  6
CONTINUOUS
  0
LAYER
  2
82
 70
     0
 62
     7
  6
CONTINUOUS
  0
LAYER
  2
83
 70
     0
 62
     7
  6
CONTINUOUS
  0
LAYER
  2
84
 70
     0
 62
     7
  6
CONTINUOUS
  0
LAYER
  2
85
 70
     0
 62
     7
  6
CONTINUOUS
  0
LAYER
  2
86
 70
     0
 62
     7
  6
CONTINUOUS
  0
LAYER
  2
87
 70
     0
 62
     7
  6
CONTINUOUS
  0
LAYER
  2
88
 70
     0
 62
     7
  6
CONTINUOUS
  0
LAYER
  2
89
 70
     0
 62
     7
  6
CONTINUOUS
  0
LAYER
  2
90
 70
     0
 62
     7
  6
CONTINUOUS
  0
LAYER
  2
91
 70
     0
 62
     7
  6
CONTINUOUS
  0
LAYER
  2
92
 70
     0
 62
     7
  6
CONTINUOUS
  0
LAYER
  2
93
 70
     0
 62
     7
  6
CONTINUOUS
  0
LAYER
  2
94
 70
     0
 62
     7
  6
CONTINUOUS
  0
LAYER
  2
95
 70
     0
 62
     7
  6
CONTINUOUS
  0
LAYER
  2
96
 70
     0
 62
     7
  6
CONTINUOUS
  0
LAYER
  2
97
 70
     0
 62
     7
  6
CONTINUOUS
  0
LAYER
  2
98
 70
     0
 62
     7
  6
CONTINUOUS
  0
LAYER
  2
99
 70
     0
 62
     7
  6
CONTINUOUS
  0
LAYER
  2
100
 70
     0
 62
     7
  6
CONTINUOUS
  0
LAYER
  2
101
 70
     0
 62
     7
  6
CONTINUOUS
  0
LAYER
  2
102
 70
     0
 62
     7
  6
CONTINUOUS
  0
LAYER
  2
103
 70
     0
 62
     7
  6
CONTINUOUS
  0
LAYER
  2
104
 70
     0
 62
     7
  6
CONTINUOUS
  0
LAYER
  2
105
 70
     0
 62
     7
  6
CONTINUOUS
  0
LAYER
  2
106
 70
     0
 62
     7
  6
CONTINUOUS
  0
LAYER
  2
107
 70
     0
 62
     7
  6
CONTINUOUS
  0
LAYER
  2
108
 70
     0
 62
     7
  6
CONTINUOUS
  0
LAYER
  2
109
 70
     0
 62
     7
  6
CONTINUOUS
  0
LAYER
  2
110
 70
     0
 62
     7
  6
CONTINUOUS
  0
LAYER
  2
111
 70
     0
 62
     7
  6
CONTINUOUS
  0
LAYER
  2
112
 70
     0
 62
     7
  6
CONTINUOUS
  0
LAYER
  2
113
 70
     0
 62
     7
  6
CONTINUOUS
  0
LAYER
  2
114
 70
     0
 62
     7
  6
CONTINUOUS
  0
LAYER
  2
115
 70
     0
 62
     7
  6
CONTINUOUS
  0
LAYER
  2
116
 70
     0
 62
     7
  6
CONTINUOUS
  0
LAYER
  2
117
 70
     0
 62
     7
  6
CONTINUOUS
  0
LAYER
  2
118
 70
     0
 62
     7
  6
CONTINUOUS
  0
LAYER
  2
119
 70
     0
 62
     7
  6
CONTINUOUS
  0
LAYER
  2
120
 70
     0
 62
     7
  6
CONTINUOUS
  0
LAYER
  2
121
 70
     0
 62
     7
  6
CONTINUOUS
  0
LAYER
  2
122
 70
     0
 62
     7
  6
CONTINUOUS
  0
LAYER
  2
123
 70
     0
 62
     7
  6
CONTINUOUS
  0
LAYER
  2
124
 70
     0
 62
     7
  6
CONTINUOUS
  0
LAYER
  2
125
 70
     0
 62
     7
  6
CONTINUOUS
  0
LAYER
  2
126
 70
     0
 62
     7
  6
CONTINUOUS
  0
LAYER
  2
127
 70
     0
 62
     7
  6
CONTINUOUS
  0
LAYER
  2
128
 70
     0
 62
     7
  6
CONTINUOUS
  0
ENDTAB
  0
TABLE
  2
STYLE
 70
     5
  0
STYLE
  2
STANDARD
 70
     0
 40
0.0
 41
1.0
 50
0.0
 71
     0
 42
0.2
  3
txt
  4

  0
STYLE
  2
KANJI0
 70
     0
 40
4.0
 41
0.875
 50
0.0
 71
     0
 42
4.0
  3

  4
bigfont
  0
STYLE
  2
KANJI1
 70
     0
 40
2.5
 41
1.0
 50
0.0
 71
     0
 42
2.5
  3

  4
bigfont
  0
STYLE
  2
KANJI2
 70
     0
 40
3.5
 41
1.0
 50
0.0
 71
     0
 42
3.5
  3

  4
bigfont
  0
STYLE
  2
KANJI3
 70
     0
 40
4.0
 41
0.875
 50
0.0
 71
     0
 42
4.0
  3

  4
bigfont
  0
ENDTAB
  0
TABLE
  2
VIEW
 70
     0
  0
ENDTAB
  0
ENDSEC
  0
SECTION
  2
BLOCKS
  0
ENDSEC
  0
SECTION
  2
ENTITIES
  0
TEXT
  8
5
  6
CONTINUOUS
 62
     5
 10
328.75
 20
43.5
 30
0.0
 40
4.0
  1
１
 50
0.0
 41
0.875
 51
0.0
  7
KANJI0
  0
POLYLINE
  8
6
  6
CONTINUOUS
 62
     6
 66
     1
  0
VERTEX
  8
6
  6
CONTINUOUS
 62
     6
 10
26.5
 20
281.5
  0
VERTEX
  8
6
  6
CONTINUOUS
 62
     6
 10
26.5
 20
12.5
  0
VERTEX
  8
6
  6
CONTINUOUS
 62
     6
 10
405.5
 20
12.5
  0
SEQEND
  0
LINE
  8
6
  6
CONTINUOUS
 62
     6
 10
405.5
 20
281.5
 11
26.5
 21
281.5
  0
LINE
  8
6
  6
CONTINUOUS
 62
     6
 10
405.5
 20
12.5
 11
405.5
 21
281.5
  0
LINE
  8
6
  6
CONTINUOUS
 62
     2
 10
395.5
 20
281.5
 11
395.5
 21
269.5
  0
LINE
  8
6
  6
CONTINUOUS
 62
     2
 10
385.5
 20
281.5
 11
385.5
 21
269.5
  0
LINE
  8
6
  6
CONTINUOUS
 62
     2
 10
375.5
 20
281.5
 11
375.5
 21
269.5
  0
LINE
  8
6
  6
CONTINUOUS
 62
     2
 10
336.0
 20
281.5
 11
336.0
 21
269.5
  0
LINE
  8
6
  6
CONTINUOUS
 62
     2
 10
328.0
 20
281.5
 11
328.0
 21
269.5
  0
LINE
  8
6
  6
CONTINUOUS
 62
     2
 10
328.0
 20
275.5
 11
405.5
 21
275.5
  0
LINE
  8
6
  6
CONTINUOUS
 62
     2
 10
328.0
 20
269.5
 11
405.5
 21
269.5
  0
LINE
  8
6
  6
CONTINUOUS
 62
     2
 10
405.5
 20
55.5
 11
322.0
 21
55.5
  0
LINE
  8
6
  6
CONTINUOUS
 62
     2
 10
322.0
 20
55.5
 11
322.0
 21
12.5
  0
LINE
  8
6
  6
CONTINUOUS
 62
     2
 10
322.0
 20
49.5
 11
405.5
 21
49.5
  0
LINE
  8
6
  6
CONTINUOUS
 62
     2
 10
322.0
 20
33.5
 11
405.5
 21
33.5
  0
LINE
  8
6
  6
CONTINUOUS
 62
     2
 10
322.0
 20
23.0
 11
405.5
 21
23.0
  0
LINE
  8
6
  6
CONTINUOUS
 62
     2
 10
387.5
 20
23.0
 11
387.5
 21
12.5
  0
LINE
  8
6
  6
CONTINUOUS
 62
     2
 10
386.0
 20
55.5
 11
386.0
 21
33.5
  0
LINE
  8
6
  6
CONTINUOUS
 62
     2
 10
366.5
 20
55.5
 11
366.5
 21
33.5
  0
LINE
  8
6
  6
CONTINUOUS
 62
     2
 10
347.0
 20
55.5
 11
347.0
 21
33.5
  0
LINE
  8
6
  6
CONTINUOUS
 62
     2
 10
347.0
 20
41.5
 11
322.0
 21
41.5
  0
TEXT
  8
6
  6
CONTINUOUS
 62
     4
 10
353.0
 20
50.5
 30
0.3
 40
2.5
  1
承認
 50
0.0
 41
1.0
 51
0.0
  7
KANJI1
  0
TEXT
  8
6
  6
CONTINUOUS
 62
     4
 10
373.5
 20
50.5
 30
0.3
 40
2.5
  1
査閲
 50
0.0
 41
1.0
 51
0.0
  7
KANJI1
  0
TEXT
  8
6
  6
CONTINUOUS
 62
     4
 10
393.0
 20
50.5
 30
0.3
 40
2.5
  1
作成
 50
0.0
 41
1.0
 51
0.0
  7
KANJI1
  0
TEXT
  8
6
  6
CONTINUOUS
 62
     4
 10
332.0
 20
50.5
 30
0.3
 40
2.5
  1
尺度
 50
0.0
 41
1.0
 51
0.0
  7
KANJI1
  0
TEXT
  8
6
  6
CONTINUOUS
 62
     4
 10
323.0
 20
19.0
 30
0.3
 40
2.5
  1
図番
 50
0.0
 41
1.0
 51
0.0
  7
KANJI1
  0
TEXT
  8
6
  6
CONTINUOUS
 62
     4
 10
323.0
 20
29.5
 30
0.3
 40
2.5
  1
名称
 50
0.0
 41
1.0
 51
0.0
  7
KANJI1
  0
TEXT
  8
6
  6
CONTINUOUS
 62
     4
 10
328.0
 20
35.5
 30
0.0
 40
3.5
  1
第三角法
 50
0.0
 41
1.0
 51
0.0
  7
KANJI2
  0
CIRCLE
  8
6
  6
CONTINUOUS
 62
     6
 10
334.5
 20
46.5
 40
0.2
  0
CIRCLE
  8
6
  6
CONTINUOUS
 62
     6
 10
334.5
 20
44.0
 40
0.2
  0
LINE
  8
6
  6
CONTINUOUS
 62
     6
 10
26.5
 20
148.5
 11
0.0
 21
148.5
  0
LINE
  8
6
  6
CONTINUOUS
 62
     6
 10
405.5
 20
148.5
 11
420.0
 21
148.5
  0
LINE
  8
6
  6
CONTINUOUS
 62
     6
 10
210.0
 20
12.5
 11
210.0
 21
0.0
  0
LINE
  8
6
  6
CONTINUOUS
 62
     6
 10
210.0
 20
281.5
 11
210.0
 21
297.0
  0
LINE
  8
0
  6
LTYPE1
 62
     2
 10
362.0
 20
180.0
 11
140.0
 21
180.0
  0
LINE
  8
0
  6
CONTINUOUS
 62
     1
 10
177.573333335
 20
182.0
 11
182.426666665
 21
182.0
  0
LINE
  8
0
  6
CONTINUOUS
 62
     1
 10
177.573333335
 20
182.0
 11
177.660000002
 21
182.866666666
  0
LINE
  8
0
  6
CONTINUOUS
 62
     1
 10
182.426666665
 20
182.0
 11
182.339999998
 21
182.866666666
  0
ARC
  8
0
  6
CONTINUOUS
 62
     1
 10
181.559999999
 20
182.693333333
 40
0.779999999
 50
12.6
 51
63.4
  0
ARC
  8
0
  6
CONTINUOUS
 62
     1
 10
178.440000001
 20
182.693333333
 40
0.779999999
 50
116.6
 51
167.4
  0
ARC
  8
0
  6
CONTINUOUS
 62
     1
 10
180.0
 20
178.273333336
 40
5.459999996
 50
69.4
 51
110.6
  0
LINE
  8
0
  6
LTYPE2
 62
     2
 10
180.0
 20
185.033333331
 11
180.0
 21
175.0
  0
LINE
  8
0
  6
CONTINUOUS
 62
     1
 10
178.7
 20
180.5
 11
178.7
 21
180.0
  0
LINE
  8
0
  6
CONTINUOUS
 62
     1
 10
181.3
 20
180.5
 11
181.3
 21
180.0
  0
LINE
  8
0
  6
CONTINUOUS
 62
     2
 10
181.075
 20
180.5
 11
181.075
 21
180.0
  0
LINE
  8
0
  6
CONTINUOUS
 62
     2
 10
178.925
 20
180.5
 11
178.925
 21
180.0
  0
LINE
  8
0
  6
CONTINUOUS
 62
     1
 10
187.573333335
 20
182.0
 11
192.426666665
 21
182.0
  0
LINE
  8
0
  6
CONTINUOUS
 62
     1
 10
187.573333335
 20
182.0
 11
187.660000002
 21
182.866666666
  0
LINE
  8
0
  6
CONTINUOUS
 62
     1
 10
192.426666665
 20
182.0
 11
192.339999998
 21
182.866666666
  0
ARC
  8
0
  6
CONTINUOUS
 62
     1
 10
191.559999999
 20
182.693333333
 40
0.779999999
 50
12.6
 51
63.4
  0
ARC
  8
0
  6
CONTINUOUS
 62
     1
 10
188.440000001
 20
182.693333333
 40
0.779999999
 50
116.6
 51
167.4
  0
ARC
  8
0
  6
CONTINUOUS
 62
     1
 10
190.0
 20
178.273333336
 40
5.459999996
 50
69.4
 51
110.6
  0
LINE
  8
0
  6
CONTINUOUS
 62
     1
 10
188.7
 20
180.5
 11
188.7
 21
180.0
  0
LINE
  8
0
  6
CONTINUOUS
 62
     1
 10
191.3
 20
180.5
 11
191.3
 21
180.0
  0
LINE
  8
0
  6
CONTINUOUS
 62
     2
 10
191.075
 20
180.5
 11
191.075
 21
180.0
  0
LINE
  8
0
  6
CONTINUOUS
 62
     2
 10
188.925
 20
180.5
 11
188.925
 21
180.0
  0
LINE
  8
0
  6
LTYPE2
 62
     2
 10
190.0
 20
185.033333331
 11
190.0
 21
175.0
  0
POLYLINE
  8
0
  6
CONTINUOUS
 62
     1
 66
     1
  0
VERTEX
  8
0
  6
CONTINUOUS
 62
     1
 10
175.0
 20
194.5
  0
VERTEX
  8
0
  6
CONTINUOUS
 62
     1
 10
175.0
 20
180.5
  0
VERTEX
  8
0
  6
CONTINUOUS
 62
     1
 10
195.0
 20
180.5
  0
SEQEND
  0
LINE
  8
0
  6
CONTINUOUS
 62
     1
 10
175.0
 20
182.0
 11
195.0
 21
182.0
  0
LINE
  8
0
  6
CONTINUOUS
 62
     1
 10
195.0
 20
194.5
 11
195.0
 21
180.5
  0
LINE
  8
0
  6
CONTINUOUS
 62
     1
 10
175.0
 20
194.5
 11
195.0
 21
194.5
  0
LINE
  8
0
  6
CONTINUOUS
 62
     1
 10
175.0
 20
160.0
 11
175.0
 21
180.0
  0
LINE
  8
0
  6
CONTINUOUS
 62
     1
 10
195.0
 20
180.0
 11
195.0
 21
160.0
  0
LINE
  8
0
  6
CONTINUOUS
 62
     1
 10
175.0
 20
180.0
 11
195.0
 21
180.0
  0
LINE
  8
0
  6
CONTINUOUS
 62
     1
 10
175.0
 20
160.0
 11
195.0
 21
160.0
  0
LINE
  8
0
  6
CONTINUOUS
 62
     1
 10
175.0
 20
164.0
 11
195.0
 21
164.0
  0
LINE
  8
0
  6
LTYPE3
 62
     2
 10
181.75
 20
164.0
 11
181.75
 21
160.0
  0
LINE
  8
0
  6
LTYPE3
 62
     2
 10
178.25
 20
164.0
 11
178.25
 21
160.0
  0
LINE
  8
0
  6
LTYPE3
 62
     2
 10
191.75
 20
164.0
 11
191.75
 21
160.0
  0
LINE
  8
0
  6
LTYPE3
 62
     2
 10
188.25
 20
164.0
 11
188.25
 21
160.0
  0
LINE
  8
0
  6
LTYPE1
 62
     2
 10
180.0
 20
166.5
 11
180.0
 21
157.5
  0
LINE
  8
0
  6
LTYPE1
 62
     2
 10
190.0
 20
166.5
 11
190.0
 21
157.5
  0
LINE
  8
0
  6
CONTINUOUS
 62
     1
 10
158.5
 20
193.0
 11
158.5
 21
213.0
  0
LINE
  8
0
  6
CONTINUOUS
 62
     1
 10
161.5
 20
213.0
 11
161.5
 21
193.0
  0
ARC
  8
0
  6
CONTINUOUS
 62
     1
 10
159.25
 20
212.4375
 40
0.9375
 50
36.869897646
 51
143.130102354
  0
ARC
  8
0
  6
CONTINUOUS
 62
     1
 10
160.75
 20
212.4375
 40
0.9375
 50
36.869897646
 51
143.130102354
  0
ARC
  8
0
  6
CONTINUOUS
 62
     1
 10
160.75
 20
213.5625
 40
0.9375
 50
216.869897646
 51
323.130102354
  0
LINE
  8
0
  6
LTYPE1
 62
     2
 10
160.0
 20
188.0
 11
160.0
 21
218.0
  0
LINE
  8
0
  6
CONTINUOUS
 62
     1
 10
269.573333335
 20
182.0
 11
274.426666665
 21
182.0
  0
LINE
  8
0
  6
CONTINUOUS
 62
     1
 10
269.573333335
 20
182.0
 11
269.660000002
 21
182.866666666
  0
LINE
  8
0
  6
CONTINUOUS
 62
     1
 10
274.426666665
 20
182.0
 11
274.339999998
 21
182.866666666
  0
ARC
  8
0
  6
CONTINUOUS
 62
     1
 10
273.559999999
 20
182.693333333
 40
0.779999999
 50
12.6
 51
63.4
  0
ARC
  8
0
  6
CONTINUOUS
 62
     1
 10
270.440000001
 20
182.693333333
 40
0.779999999
 50
116.6
 51
167.4
  0
ARC
  8
0
  6
CONTINUOUS
 62
     1
 10
272.0
 20
178.273333336
 40
5.459999996
 50
69.4
 51
110.6
  0
LINE
  8
0
  6
LTYPE2
 62
     2
 10
272.0
 20
185.033333331
 11
272.0
 21
175.0
  0
LINE
  8
0
  6
CONTINUOUS
 62
     1
 10
270.7
 20
180.5
 11
270.7
 21
180.0
  0
LINE
  8
0
  6
CONTINUOUS
 62
     1
 10
273.3
 20
180.5
 11
273.3
 21
180.0
  0
LINE
  8
0
  6
CONTINUOUS
 62
     2
 10
273.075
 20
180.5
 11
273.075
 21
180.0
  0
LINE
  8
0
  6
CONTINUOUS
 62
     2
 10
270.925
 20
180.5
 11
270.925
 21
180.0
  0
LINE
  8
0
  6
CONTINUOUS
 62
     1
 10
279.573333335
 20
182.0
 11
284.426666665
 21
182.0
  0
LINE
  8
0
  6
CONTINUOUS
 62
     1
 10
279.573333335
 20
182.0
 11
279.660000002
 21
182.866666666
  0
LINE
  8
0
  6
CONTINUOUS
 62
     1
 10
284.426666665
 20
182.0
 11
284.339999998
 21
182.866666666
  0
ARC
  8
0
  6
CONTINUOUS
 62
     1
 10
283.559999999
 20
182.693333333
 40
0.779999999
 50
12.6
 51
63.4
  0
ARC
  8
0
  6
CONTINUOUS
 62
     1
 10
280.440000001
 20
182.693333333
 40
0.779999999
 50
116.6
 51
167.4
  0
ARC
  8
0
  6
CONTINUOUS
 62
     1
 10
282.0
 20
178.273333336
 40
5.459999996
 50
69.4
 51
110.6
  0
LINE
  8
0
  6
CONTINUOUS
 62
     1
 10
280.7
 20
180.5
 11
280.7
 21
180.0
  0
LINE
  8
0
  6
CONTINUOUS
 62
     1
 10
283.3
 20
180.5
 11
283.3
 21
180.0
  0
LINE
  8
0
  6
CONTINUOUS
 62
     2
 10
283.075
 20
180.5
 11
283.075
 21
180.0
  0
LINE
  8
0
  6
CONTINUOUS
 62
     2
 10
280.925
 20
180.5
 11
280.925
 21
180.0
  0
LINE
  8
0
  6
LTYPE2
 62
     2
 10
282.0
 20
185.033333331
 11
282.0
 21
175.0
  0
POLYLINE
  8
0
  6
CONTINUOUS
 62
     1
 66
     1
  0
VERTEX
  8
0
  6
CONTINUOUS
 62
     1
 10
267.0
 20
194.5
  0
VERTEX
  8
0
  6
CONTINUOUS
 62
     1
 10
267.0
 20
180.5
  0
VERTEX
  8
0
  6
CONTINUOUS
 62
     1
 10
287.0
 20
180.5
  0
SEQEND
  0
LINE
  8
0
  6
CONTINUOUS
 62
     1
 10
267.0
 20
182.0
 11
287.0
 21
182.0
  0
LINE
  8
0
  6
CONTINUOUS
 62
     1
 10
287.0
 20
194.5
 11
287.0
 21
180.5
  0
LINE
  8
0
  6
CONTINUOUS
 62
     1
 10
267.0
 20
194.5
 11
287.0
 21
194.5
  0
LINE
  8
0
  6
CONTINUOUS
 62
     1
 10
267.0
 20
160.0
 11
267.0
 21
180.0
  0
LINE
  8
0
  6
CONTINUOUS
 62
     1
 10
287.0
 20
180.0
 11
287.0
 21
160.0
  0
LINE
  8
0
  6
CONTINUOUS
 62
     1
 10
267.0
 20
180.0
 11
287.0
 21
180.0
  0
LINE
  8
0
  6
CONTINUOUS
 62
     1
 10
267.0
 20
160.0
 11
287.0
 21
160.0
  0
LINE
  8
0
  6
CONTINUOUS
 62
     1
 10
267.0
 20
164.0
 11
287.0
 21
164.0
  0
LINE
  8
0
  6
LTYPE3
 62
     2
 10
273.75
 20
164.0
 11
273.75
 21
160.0
  0
LINE
  8
0
  6
LTYPE3
 62
     2
 10
270.25
 20
164.0
 11
270.25
 21
160.0
  0
LINE
  8
0
  6
LTYPE3
 62
     2
 10
283.75
 20
164.0
 11
283.75
 21
160.0
  0
LINE
  8
0
  6
LTYPE3
 62
     2
 10
280.25
 20
164.0
 11
280.25
 21
160.0
  0
LINE
  8
0
  6
LTYPE1
 62
     2
 10
272.0
 20
166.5
 11
272.0
 21
157.5
  0
LINE
  8
0
  6
LTYPE1
 62
     2
 10
282.0
 20
166.5
 11
282.0
 21
157.5
  0
LINE
  8
0
  6
CONTINUOUS
 62
     1
 10
147.0
 20
193.0
 11
147.0
 21
167.0
  0
LINE
  8
0
  6
CONTINUOUS
 62
     1
 10
145.0
 20
191.0
 11
145.0
 21
169.0
  0
ARC
  8
0
  6
CONTINUOUS
 62
     1
 10
147.0
 20
191.0
 40
2.0
 50
90.0
 51
180.0
  0
LINE
  8
0
  6
CONTINUOUS
 62
     1
 10
155.0
 20
193.0
 11
155.0
 21
167.0
  0
LINE
  8
0
  6
CONTINUOUS
 62
     1
 10
175.0
 20
193.0
 11
147.0
 21
193.0
  0
LINE
  8
0
  6
CONTINUOUS
 62
     1
 10
165.0
 20
193.0
 11
165.0
 21
167.0
  0
ARC
  8
0
  6
CONTINUOUS
 62
     1
 10
147.0
 20
169.0
 40
2.0
 50
180.0
 51
270.0
  0
LINE
  8
0
  6
CONTINUOUS
 62
     1
 10
147.0
 20
167.0
 11
175.0
 21
167.0
  0
LINE
  8
0
  6
CONTINUOUS
 62
     1
 10
267.0
 20
193.0
 11
195.0
 21
193.0
  0
LINE
  8
0
  6
CONTINUOUS
 62
     1
 10
195.0
 20
167.0
 11
267.0
 21
167.0
  0
LINE
  8
0
  6
CONTINUOUS
 62
     1
 10
297.0
 20
169.0
 11
297.0
 21
191.0
  0
ARC
  8
0
  6
CONTINUOUS
 62
     1
 10
295.0
 20
169.0
 40
2.0
 50
270.0
 51
0.0
  0
LINE
  8
0
  6
CONTINUOUS
 62
     1
 10
287.0
 20
167.0
 11
295.0
 21
167.0
  0
ARC
  8
0
  6
CONTINUOUS
 62
     1
 10
295.0
 20
191.0
 40
2.0
 50
0.0
 51
90.0
  0
LINE
  8
0
  6
CONTINUOUS
 62
     1
 10
295.0
 20
193.0
 11
287.0
 21
193.0
  0
POLYLINE
  8
0
  6
CONTINUOUS
 62
     1
 66
     1
  0
VERTEX
  8
0
  6
CONTINUOUS
 62
     1
 10
297.0
 20
183.0
  0
VERTEX
  8
0
  6
CONTINUOUS
 62
     1
 10
337.0
 20
183.0
  0
VERTEX
  8
0
  6
CONTINUOUS
 62
     1
 10
337.0
 20
177.0
  0
VERTEX
  8
0
  6
CONTINUOUS
 62
     1
 10
297.0
 20
177.0
  0
SEQEND
  0
LINE
  8
0
  6
CONTINUOUS
 62
     1
 10
356.6
 20
182.5
 11
356.6
 21
177.5
  0
LINE
  8
0
  6
CONTINUOUS
 62
     2
 10
337.0
 20
182.1
 11
357.0
 21
182.1
  0
LINE
  8
0
  6
CONTINUOUS
 62
     2
 10
357.0
 20
177.9
 11
337.0
 21
177.9
  0
POLYLINE
  8
0
  6
CONTINUOUS
 62
     1
 66
     1
  0
VERTEX
  8
0
  6
CONTINUOUS
 62
     1
 10
337.0
 20
182.5
  0
VERTEX
  8
0
  6
CONTINUOUS
 62
     1
 10
356.6
 20
182.5
  0
VERTEX
  8
0
  6
CONTINUOUS
 62
     1
 10
357.0
 20
182.1
  0
SEQEND
  0
LINE
  8
0
  6
CONTINUOUS
 62
     1
 10
356.6
 20
177.5
 11
337.0
 21
177.5
  0
LINE
  8
0
  6
CONTINUOUS
 62
     1
 10
357.0
 20
182.1
 11
357.0
 21
177.9
  0
LINE
  8
0
  6
CONTINUOUS
 62
     1
 10
356.6
 20
177.5
 11
357.0
 21
177.9
  0
LINE
  8
4
  6
CONTINUOUS
 62
     2
 10
180.0
 20
157.5
 11
180.0
 21
144.0
  0
LINE
  8
4
  6
CONTINUOUS
 62
     2
 10
180.0
 20
145.0
 11
182.414814566
 21
144.352952387
  0
LINE
  8
4
  6
CONTINUOUS
 62
     2
 10
180.0
 20
145.0
 11
182.414814566
 21
145.647047613
  0
LINE
  8
4
  6
CONTINUOUS
 62
     2
 10
180.0
 20
145.0
 11
190.0
 21
145.0
  0
LINE
  8
4
  6
CONTINUOUS
 62
     2
 10
190.0
 20
145.0
 11
187.585185434
 21
145.647047613
  0
LINE
  8
4
  6
CONTINUOUS
 62
     2
 10
190.0
 20
145.0
 11
187.585185434
 21
144.352952387
  0
LINE
  8
4
  6
CONTINUOUS
 62
     2
 10
190.0
 20
157.5
 11
190.0
 21
144.0
  0
TEXT
  8
4
  6
CONTINUOUS
 62
     5
 10
181.45
 20
146.0
 30
0.1
 40
4.0
  1
１０
 50
0.0
 41
0.875
 51
0.0
  7
KANJI3
  0
LINE
  8
4
  6
CONTINUOUS
 62
     2
 10
195.0
 20
159.0
 11
195.0
 21
134.0
  0
LINE
  8
4
  6
CONTINUOUS
 62
     2
 10
195.0
 20
135.0
 11
192.585185434
 21
135.647047613
  0
LINE
  8
4
  6
CONTINUOUS
 62
     2
 10
195.0
 20
135.0
 11
192.585185434
 21
134.352952387
  0
LINE
  8
4
  6
CONTINUOUS
 62
     2
 10
195.0
 20
135.0
 11
175.0
 21
135.0
  0
LINE
  8
4
  6
CONTINUOUS
 62
     2
 10
175.0
 20
135.0
 11
177.414814566
 21
134.352952387
  0
LINE
  8
4
  6
CONTINUOUS
 62
     2
 10
175.0
 20
135.0
 11
177.414814566
 21
135.647047613
  0
LINE
  8
4
  6
CONTINUOUS
 62
     2
 10
175.0
 20
159.0
 11
175.0
 21
134.0
  0
TEXT
  8
4
  6
CONTINUOUS
 62
     5
 10
181.45
 20
136.0
 30
0.1
 40
4.0
  1
２０
 50
0.0
 41
0.875
 51
0.0
  7
KANJI3
  0
LINE
  8
4
  6
CONTINUOUS
 62
     2
 10
272.0
 20
157.5
 11
272.0
 21
144.0
  0
LINE
  8
4
  6
CONTINUOUS
 62
     2
 10
272.0
 20
145.0
 11
274.414814566
 21
144.352952387
  0
LINE
  8
4
  6
CONTINUOUS
 62
     2
 10
272.0
 20
145.0
 11
274.414814566
 21
145.647047613
  0
LINE
  8
4
  6
CONTINUOUS
 62
     2
 10
272.0
 20
145.0
 11
282.0
 21
145.0
  0
LINE
  8
4
  6
CONTINUOUS
 62
     2
 10
282.0
 20
145.0
 11
279.585185434
 21
145.647047613
  0
LINE
  8
4
  6
CONTINUOUS
 62
     2
 10
282.0
 20
145.0
 11
279.585185434
 21
144.352952387
  0
LINE
  8
4
  6
CONTINUOUS
 62
     2
 10
282.0
 20
157.5
 11
282.0
 21
144.0
  0
TEXT
  8
4
  6
CONTINUOUS
 62
     5
 10
273.45
 20
146.0
 30
0.1
 40
4.0
  1
１０
 50
0.0
 41
0.875
 51
0.0
  7
KANJI3
  0
LINE
  8
4
  6
CONTINUOUS
 62
     2
 10
287.0
 20
159.0
 11
287.0
 21
134.0
  0
LINE
  8
4
  6
CONTINUOUS
 62
     2
 10
287.0
 20
135.0
 11
284.585185434
 21
135.647047613
  0
LINE
  8
4
  6
CONTINUOUS
 62
     2
 10
287.0
 20
135.0
 11
284.585185434
 21
134.352952387
  0
LINE
  8
4
  6
CONTINUOUS
 62
     2
 10
287.0
 20
135.0
 11
267.0
 21
135.0
  0
LINE
  8
4
  6
CONTINUOUS
 62
     2
 10
267.0
 20
135.0
 11
269.414814566
 21
134.352952387
  0
LINE
  8
4
  6
CONTINUOUS
 62
     2
 10
267.0
 20
135.0
 11
269.414814566
 21
135.647047613
  0
LINE
  8
4
  6
CONTINUOUS
 62
     2
 10
267.0
 20
159.0
 11
267.0
 21
134.0
  0
TEXT
  8
4
  6
CONTINUOUS
 62
     5
 10
273.45
 20
136.0
 30
0.1
 40
4.0
  1
２０
 50
0.0
 41
0.875
 51
0.0
  7
KANJI3
  0
LINE
  8
4
  6
CONTINUOUS
 62
     2
 10
145.0
 20
168.0
 11
145.0
 21
124.0
  0
LINE
  8
4
  6
CONTINUOUS
 62
     2
 10
145.0
 20
125.0
 11
147.414814566
 21
124.352952387
  0
LINE
  8
4
  6
CONTINUOUS
 62
     2
 10
145.0
 20
125.0
 11
147.414814566
 21
125.647047613
  0
LINE
  8
4
  6
CONTINUOUS
 62
     2
 10
145.0
 20
125.0
 11
297.0
 21
125.0
  0
LINE
  8
4
  6
CONTINUOUS
 62
     2
 10
297.0
 20
125.0
 11
294.585185434
 21
125.647047613
  0
LINE
  8
4
  6
CONTINUOUS
 62
     2
 10
297.0
 20
125.0
 11
294.585185434
 21
124.352952387
  0
LINE
  8
4
  6
CONTINUOUS
 62
     2
 10
297.0
 20
168.0
 11
297.0
 21
124.0
  0
TEXT
  8
4
  6
CONTINUOUS
 62
     5
 10
215.65
 20
126.0
 30
0.1
 40
4.0
  1
１５２
 50
0.0
 41
0.875
 51
0.0
  7
KANJI3
  0
LINE
  8
4
  6
CONTINUOUS
 62
     2
 10
297.0
 20
125.0
 11
299.414814566
 21
124.352952387
  0
LINE
  8
4
  6
CONTINUOUS
 62
     2
 10
297.0
 20
125.0
 11
299.414814566
 21
125.647047613
  0
LINE
  8
4
  6
CONTINUOUS
 62
     2
 10
297.0
 20
125.0
 11
357.0
 21
125.0
  0
LINE
  8
4
  6
CONTINUOUS
 62
     2
 10
357.0
 20
125.0
 11
354.585185434
 21
125.647047613
  0
LINE
  8
4
  6
CONTINUOUS
 62
     2
 10
357.0
 20
125.0
 11
354.585185434
 21
124.352952387
  0
LINE
  8
4
  6
CONTINUOUS
 62
     2
 10
357.0
 20
176.9
 11
357.0
 21
124.0
  0
TEXT
  8
4
  6
CONTINUOUS
 62
     5
 10
323.45
 20
126.0
 30
0.1
 40
4.0
  1
６０
 50
0.0
 41
0.875
 51
0.0
  7
KANJI3
  0
LINE
  8
4
  6
CONTINUOUS
 62
     2
 10
337.0
 20
176.0
 11
337.0
 21
134.0
  0
LINE
  8
4
  6
CONTINUOUS
 62
     2
 10
337.0
 20
135.0
 11
339.414814566
 21
134.352952387
  0
LINE
  8
4
  6
CONTINUOUS
 62
     2
 10
337.0
 20
135.0
 11
339.414814566
 21
135.647047613
  0
LINE
  8
4
  6
CONTINUOUS
 62
     2
 10
337.0
 20
135.0
 11
357.0
 21
135.0
  0
LINE
  8
4
  6
CONTINUOUS
 62
     2
 10
357.0
 20
135.0
 11
354.585185434
 21
135.647047613
  0
LINE
  8
4
  6
CONTINUOUS
 62
     2
 10
357.0
 20
135.0
 11
354.585185434
 21
134.352952387
  0
TEXT
  8
4
  6
CONTINUOUS
 62
     5
 10
343.45
 20
136.0
 30
0.1
 40
4.0
  1
２０
 50
0.0
 41
0.875
 51
0.0
  7
KANJI3
  0
LINE
  8
4
  6
CONTINUOUS
 62
     2
 10
357.0
 20
124.0
 11
357.0
 21
114.0
  0
LINE
  8
4
  6
CONTINUOUS
 62
     2
 10
357.0
 20
115.0
 11
354.585185434
 21
115.647047613
  0
LINE
  8
4
  6
CONTINUOUS
 62
     2
 10
357.0
 20
115.0
 11
354.585185434
 21
114.352952387
  0
LINE
  8
4
  6
CONTINUOUS
 62
     2
 10
357.0
 20
115.0
 11
145.0
 21
115.0
  0
LINE
  8
4
  6
CONTINUOUS
 62
     2
 10
145.0
 20
115.0
 11
147.414814566
 21
114.352952387
  0
LINE
  8
4
  6
CONTINUOUS
 62
     2
 10
145.0
 20
115.0
 11
147.414814566
 21
115.647047613
  0
LINE
  8
4
  6
CONTINUOUS
 62
     2
 10
145.0
 20
124.0
 11
145.0
 21
114.0
  0
TEXT
  8
4
  6
CONTINUOUS
 62
     5
 10
245.65
 20
116.0
 30
0.1
 40
4.0
  1
２１２
 50
0.0
 41
0.875
 51
0.0
  7
KANJI3
  0
LINE
  8
4
  6
CONTINUOUS
 62
     2
 10
232.0
 20
193.0
 11
231.352952387
 21
190.585185434
  0
LINE
  8
4
  6
CONTINUOUS
 62
     2
 10
232.0
 20
193.0
 11
232.647047613
 21
190.585185434
  0
LINE
  8
4
  6
CONTINUOUS
 62
     2
 10
232.0
 20
206.2
 11
232.0
 21
167.0
  0
LINE
  8
4
  6
CONTINUOUS
 62
     2
 10
232.0
 20
167.0
 11
232.647047613
 21
169.414814566
  0
LINE
  8
4
  6
CONTINUOUS
 62
     2
 10
232.0
 20
167.0
 11
231.352952387
 21
169.414814566
  0
TEXT
  8
4
  6
CONTINUOUS
 62
     5
 10
231.0
 20
195.5
 30
0.1
 40
4.0
  1
φ２６
 50
90.0
 41
0.875
 51
0.0
  7
KANJI3
  0
LINE
  8
4
  6
CONTINUOUS
 62
     2
 10
317.0
 20
177.0
 11
316.352952387
 21
174.585185434
  0
LINE
  8
4
  6
CONTINUOUS
 62
     2
 10
317.0
 20
177.0
 11
317.647047613
 21
174.585185434
  0
LINE
  8
4
  6
CONTINUOUS
 62
     2
 10
317.0
 20
173.25
 11
317.0
 21
177.0
  0
LINE
  8
4
  6
CONTINUOUS
 62
     2
 10
317.0
 20
177.0
 11
317.0
 21
183.0
  0
LINE
  8
4
  6
CONTINUOUS
 62
     2
 10
317.0
 20
183.0
 11
317.0
 21
193.85
  0
LINE
  8
4
  6
CONTINUOUS
 62
     2
 10
317.0
 20
183.0
 11
317.647047613
 21
185.414814566
  0
LINE
  8
4
  6
CONTINUOUS
 62
     2
 10
317.0
 20
183.0
 11
316.352952387
 21
185.414814566
  0
TEXT
  8
4
  6
CONTINUOUS
 62
     5
 10
316.0
 20
186.75
 30
0.1
 40
4.0
  1
φ６
 50
90.0
 41
0.875
 51
0.0
  7
KANJI3
  0
LINE
  8
4
  6
CONTINUOUS
 62
     2
 10
347.0
 20
182.5
 11
348.213406949
 21
184.685782143
  0
LINE
  8
4
  6
CONTINUOUS
 62
     2
 10
347.0
 20
182.5
 11
346.957950171
 21
184.999646337
  0
LINE
  8
4
  6
CONTINUOUS
 62
     2
 10
347.0
 20
182.5
 11
352.0
 21
202.5
  0
LINE
  8
4
  6
CONTINUOUS
 62
     2
 10
352.0
 20
202.5
 11
359.1
 21
202.5
  0
TEXT
  8
4
  6
CONTINUOUS
 62
     5
 10
352.0
 20
203.5
 30
0.1
 40
4.0
  1
Ｍ５
 50
0.0
 41
0.875
 51
0.0
  7
KANJI3
  0
LINE
  8
4
  6
CONTINUOUS
 62
     2
 10
357.0
 20
180.0
 11
358.25
 21
177.834936491
  0
LINE
  8
4
  6
CONTINUOUS
 62
     2
 10
357.0
 20
180.0
 11
359.165063509
 21
178.75
  0
LINE
  8
4
  6
CONTINUOUS
 62
     2
 10
357.0
 20
180.0
 11
367.0
 21
170.0
  0
LINE
  8
4
  6
CONTINUOUS
 62
     2
 10
367.0
 20
170.0
 11
390.35
 21
170.0
  0
LINE
  8
0
  6
CONTINUOUS
 62
     1
 10
60.073333335
 20
182.0
 11
64.926666665
 21
182.0
  0
LINE
  8
0
  6
CONTINUOUS
 62
     1
 10
60.073333335
 20
182.0
 11
60.160000002
 21
182.866666666
  0
LINE
  8
0
  6
CONTINUOUS
 62
     1
 10
64.926666665
 20
182.0
 11
64.839999998
 21
182.866666666
  0
ARC
  8
0
  6
CONTINUOUS
 62
     1
 10
64.059999999
 20
182.693333333
 40
0.779999999
 50
12.6
 51
63.4
  0
ARC
  8
0
  6
CONTINUOUS
 62
     1
 10
60.940000001
 20
182.693333333
 40
0.779999999
 50
116.6
 51
167.4
  0
ARC
  8
0
  6
CONTINUOUS
 62
     1
 10
62.5
 20
178.273333336
 40
5.459999996
 50
69.4
 51
110.6
  0
LINE
  8
0
  6
LTYPE2
 62
     2
 10
62.5
 20
185.033333331
 11
62.5
 21
175.0
  0
LINE
  8
0
  6
CONTINUOUS
 62
     1
 10
61.2
 20
180.5
 11
61.2
 21
180.0
  0
LINE
  8
0
  6
CONTINUOUS
 62
     1
 10
63.8
 20
180.5
 11
63.8
 21
180.0
  0
LINE
  8
0
  6
CONTINUOUS
 62
     2
 10
63.575
 20
180.5
 11
63.575
 21
180.0
  0
LINE
  8
0
  6
CONTINUOUS
 62
     2
 10
61.425
 20
180.5
 11
61.425
 21
180.0
  0
CIRCLE
  8
0
  6
CONTINUOUS
 62
     1
 10
80.0
 20
180.0
 40
13.0
  0
LINE
  8
0
  6
CONTINUOUS
 62
     1
 10
53.5
 20
160.0
 11
106.5
 21
160.0
  0
LINE
  8
0
  6
CONTINUOUS
 62
     1
 10
53.5
 20
160.0
 11
53.5
 21
164.0
  0
LINE
  8
0
  6
CONTINUOUS
 62
     1
 10
53.5
 20
164.0
 11
60.0
 21
164.0
  0
LINE
  8
0
  6
CONTINUOUS
 62
     1
 10
60.0
 20
164.0
 11
60.0
 21
180.0
  0
LINE
  8
0
  6
LTYPE3
 62
     2
 10
54.75
 20
164.0
 11
54.75
 21
160.0
  0
LINE
  8
0
  6
LTYPE3
 62
     2
 10
58.25
 20
164.0
 11
58.25
 21
160.0
  0
LINE
  8
0
  6
LTYPE1
 62
     2
 10
56.5
 20
166.5
 11
56.5
 21
157.5
  0
LINE
  8
0
  6
CONTINUOUS
 62
     1
 10
60.0
 20
180.0
 11
67.0
 21
180.0
  0
LINE
  8
0
  6
CONTINUOUS
 62
     1
 10
106.5
 20
160.0
 11
106.5
 21
164.0
  0
LINE
  8
0
  6
CONTINUOUS
 62
     1
 10
106.5
 20
164.0
 11
100.0
 21
164.0
  0
LINE
  8
0
  6
CONTINUOUS
 62
     1
 10
100.0
 20
164.0
 11
100.0
 21
180.0
  0
LINE
  8
0
  6
CONTINUOUS
 62
     1
 10
100.0
 20
180.0
 11
93.0
 21
180.0
  0
LINE
  8
0
  6
LTYPE3
 62
     2
 10
105.25
 20
164.0
 11
105.25
 21
160.0
  0
LINE
  8
0
  6
LTYPE3
 62
     2
 10
101.75
 20
164.0
 11
101.75
 21
160.0
  0
LINE
  8
0
  6
LTYPE1
 62
     2
 10
103.5
 20
166.5
 11
103.5
 21
157.5
  0
LINE
  8
0
  6
CONTINUOUS
 62
     1
 10
99.926666665
 20
182.0
 11
95.073333335
 21
182.0
  0
LINE
  8
0
  6
CONTINUOUS
 62
     1
 10
99.926666665
 20
182.0
 11
99.839999998
 21
182.866666666
  0
LINE
  8
0
  6
CONTINUOUS
 62
     1
 10
95.073333335
 20
182.0
 11
95.160000002
 21
182.866666666
  0
ARC
  8
0
  6
CONTINUOUS
 62
     1
 10
95.940000001
 20
182.693333333
 40
0.779999999
 50
116.6
 51
167.4
  0
ARC
  8
0
  6
CONTINUOUS
 62
     1
 10
99.059999999
 20
182.693333333
 40
0.779999999
 50
12.6
 51
63.4
  0
ARC
  8
0
  6
CONTINUOUS
 62
     1
 10
97.5
 20
178.273333336
 40
5.459999996
 50
69.4
 51
110.6
  0
LINE
  8
0
  6
LTYPE2
 62
     2
 10
97.5
 20
185.033333331
 11
97.5
 21
175.0
  0
LINE
  8
0
  6
CONTINUOUS
 62
     1
 10
98.8
 20
180.5
 11
98.8
 21
180.0
  0
LINE
  8
0
  6
CONTINUOUS
 62
     1
 10
96.2
 20
180.5
 11
96.2
 21
180.0
  0
LINE
  8
0
  6
CONTINUOUS
 62
     2
 10
96.425
 20
180.5
 11
96.425
 21
180.0
  0
LINE
  8
0
  6
CONTINUOUS
 62
     2
 10
98.575
 20
180.5
 11
98.575
 21
180.0
  0
CIRCLE
  8
0
  6
CONTINUOUS
 62
     1
 10
80.0
 20
180.0
 40
3.0
  0
CIRCLE
  8
0
  6
CONTINUOUS
 62
     1
 10
80.0
 20
180.0
 40
3.5
  0
CIRCLE
  8
0
  6
CONTINUOUS
 62
     1
 10
88.0
 20
180.0
 40
3.5
  0
CIRCLE
  8
0
  6
CONTINUOUS
 62
     1
 10
72.0
 20
180.0
 40
3.5
  0
LINE
  8
0
  6
LTYPE1
 62
     2
 10
88.0
 20
185.0
 11
88.0
 21
175.0
  0
LINE
  8
0
  6
LTYPE1
 62
     2
 10
72.0
 20
185.0
 11
72.0
 21
175.0
  0
LINE
  8
0
  6
LTYPE1
 62
     2
 10
55.0
 20
180.0
 11
105.0
 21
180.0
  0
LINE
  8
0
  6
CONTINUOUS
 62
     1
 10
78.5
 20
193.0
 11
78.5
 21
213.0
  0
LINE
  8
0
  6
CONTINUOUS
 62
     1
 10
81.5
 20
213.0
 11
81.5
 21
193.0
  0
ARC
  8
0
  6
CONTINUOUS
 62
     1
 10
79.25
 20
212.4375
 40
0.9375
 50
36.869897646
 51
143.130102354
  0
ARC
  8
0
  6
CONTINUOUS
 62
     1
 10
80.75
 20
212.4375
 40
0.9375
 50
36.869897646
 51
143.130102354
  0
ARC
  8
0
  6
CONTINUOUS
 62
     1
 10
80.75
 20
213.5625
 40
0.9375
 50
216.869897646
 51
323.130102354
  0
POLYLINE
  8
0
  6
CONTINUOUS
 62
     1
 66
     1
  0
VERTEX
  8
0
  6
CONTINUOUS
 62
     1
 10
60.0
 20
182.0
  0
VERTEX
  8
0
  6
CONTINUOUS
 62
     1
 10
60.0
 20
180.5
  0
VERTEX
  8
0
  6
CONTINUOUS
 62
     1
 10
65.0
 20
180.5
  0
SEQEND
  0
LINE
  8
0
  6
CONTINUOUS
 62
     1
 10
60.0
 20
182.0
 11
65.0
 21
182.0
  0
LINE
  8
0
  6
CONTINUOUS
 62
     1
 10
100.0
 20
182.0
 11
100.0
 21
180.5
  0
LINE
  8
0
  6
CONTINUOUS
 62
     1
 10
100.0
 20
180.5
 11
95.0
 21
180.5
  0
LINE
  8
0
  6
CONTINUOUS
 62
     1
 10
100.0
 20
182.0
 11
95.0
 21
182.0
  0
ARC
  8
0
  6
CONTINUOUS
 62
     1
 10
95.0
 20
182.75
 40
0.75
 50
190.388857815
 51
270.0
  0
ARC
  8
0
  6
CONTINUOUS
 62
     1
 10
95.0
 20
182.75
 40
2.25
 50
190.388857815
 51
270.0
  0
ARC
  8
0
  6
CONTINUOUS
 62
     1
 10
65.0
 20
182.75
 40
0.75
 50
270.0
 51
349.611142185
  0
ARC
  8
0
  6
CONTINUOUS
 62
     1
 10
65.0
 20
182.75
 40
2.25
 50
270.0
 51
349.611142185
  0
ARC
  8
0
  6
CONTINUOUS
 62
     1
 10
80.0
 20
180.0
 40
14.5
 50
95.937772452
 51
169.611142185
  0
ARC
  8
0
  6
CONTINUOUS
 62
     1
 10
80.0
 20
180.0
 40
14.5
 50
10.388857815
 51
84.062227548
  0
LINE
  8
0
  6
LTYPE1
 62
     2
 10
80.0
 20
155.0
 11
80.0
 21
218.0
  0
LINE
  8
4
  6
CONTINUOUS
 62
     2
 10
56.5
 20
157.5
 11
56.5
 21
144.0
  0
LINE
  8
4
  6
CONTINUOUS
 62
     2
 10
56.5
 20
145.0
 11
58.914814566
 21
144.352952387
  0
LINE
  8
4
  6
CONTINUOUS
 62
     2
 10
56.5
 20
145.0
 11
58.914814566
 21
145.647047613
  0
LINE
  8
4
  6
CONTINUOUS
 62
     2
 10
56.5
 20
145.0
 11
103.5
 21
145.0
  0
LINE
  8
4
  6
CONTINUOUS
 62
     2
 10
103.5
 20
145.0
 11
101.085185434
 21
145.647047613
  0
LINE
  8
4
  6
CONTINUOUS
 62
     2
 10
103.5
 20
145.0
 11
101.085185434
 21
144.352952387
  0
LINE
  8
4
  6
CONTINUOUS
 62
     2
 10
103.5
 20
157.5
 11
103.5
 21
144.0
  0
TEXT
  8
4
  6
CONTINUOUS
 62
     5
 10
76.45
 20
146.0
 30
0.1
 40
4.0
  1
４７
 50
0.0
 41
0.875
 51
0.0
  7
KANJI3
  0
LINE
  8
4
  6
CONTINUOUS
 62
     2
 10
106.5
 20
159.0
 11
106.5
 21
134.0
  0
LINE
  8
4
  6
CONTINUOUS
 62
     2
 10
106.5
 20
135.0
 11
104.085185434
 21
135.647047613
  0
LINE
  8
4
  6
CONTINUOUS
 62
     2
 10
106.5
 20
135.0
 11
104.085185434
 21
134.352952387
  0
LINE
  8
4
  6
CONTINUOUS
 62
     2
 10
106.5
 20
135.0
 11
53.5
 21
135.0
  0
LINE
  8
4
  6
CONTINUOUS
 62
     2
 10
53.5
 20
135.0
 11
55.914814566
 21
134.352952387
  0
LINE
  8
4
  6
CONTINUOUS
 62
     2
 10
53.5
 20
135.0
 11
55.914814566
 21
135.647047613
  0
LINE
  8
4
  6
CONTINUOUS
 62
     2
 10
53.5
 20
159.0
 11
53.5
 21
134.0
  0
TEXT
  8
4
  6
CONTINUOUS
 62
     5
 10
76.45
 20
136.0
 30
0.1
 40
4.0
  1
５３
 50
0.0
 41
0.875
 51
0.0
  7
KANJI3
  0
LINE
  8
4
  6
CONTINUOUS
 62
     2
 10
107.5
 20
164.0
 11
122.5
 21
164.0
  0
LINE
  8
4
  6
CONTINUOUS
 62
     2
 10
121.5
 20
164.0
 11
122.147047613
 21
166.414814566
  0
LINE
  8
4
  6
CONTINUOUS
 62
     2
 10
121.5
 20
164.0
 11
120.852952387
 21
166.414814566
  0
LINE
  8
4
  6
CONTINUOUS
 62
     2
 10
121.5
 20
167.75
 11
121.5
 21
164.0
  0
LINE
  8
4
  6
CONTINUOUS
 62
     2
 10
121.5
 20
164.0
 11
121.5
 21
160.0
  0
LINE
  8
4
  6
CONTINUOUS
 62
     2
 10
121.5
 20
160.0
 11
121.5
 21
156.25
  0
LINE
  8
4
  6
CONTINUOUS
 62
     2
 10
121.5
 20
160.0
 11
120.852952387
 21
157.585185434
  0
LINE
  8
4
  6
CONTINUOUS
 62
     2
 10
121.5
 20
160.0
 11
122.147047613
 21
157.585185434
  0
LINE
  8
4
  6
CONTINUOUS
 62
     2
 10
107.5
 20
160.0
 11
122.5
 21
160.0
  0
TEXT
  8
4
  6
CONTINUOUS
 62
     5
 10
120.5
 20
160.25
 30
0.1
 40
4.0
  1
４
 50
90.0
 41
0.875
 51
0.0
  7
KANJI3
  0
LINE
  8
4
  6
CONTINUOUS
 62
     2
 10
122.5
 20
160.0
 11
132.5
 21
160.0
  0
LINE
  8
4
  6
CONTINUOUS
 62
     2
 10
131.5
 20
160.0
 11
132.147047613
 21
162.414814566
  0
LINE
  8
4
  6
CONTINUOUS
 62
     2
 10
131.5
 20
160.0
 11
130.852952387
 21
162.414814566
  0
LINE
  8
4
  6
CONTINUOUS
 62
     2
 10
131.5
 20
160.0
 11
131.5
 21
180.0
  0
LINE
  8
4
  6
CONTINUOUS
 62
     2
 10
131.5
 20
180.0
 11
130.852952387
 21
177.585185434
  0
LINE
  8
4
  6
CONTINUOUS
 62
     2
 10
131.5
 20
180.0
 11
132.147047613
 21
177.585185434
  0
LINE
  8
4
  6
CONTINUOUS
 62
     2
 10
105.0
 20
180.0
 11
132.5
 21
180.0
  0
TEXT
  8
4
  6
CONTINUOUS
 62
     5
 10
130.5
 20
166.45
 30
0.1
 40
4.0
  1
２０
 50
90.0
 41
0.875
 51
0.0
  7
KANJI3
  0
ARC
  8
0
  6
LTYPE3
 62
     2
 10
80.0
 20
180.0
 40
14.5
 50
84.062227548
 51
95.937772452
  0
LINE
  8
4
  6
CONTINUOUS
 62
     2
 10
52.5
 20
160.0
 11
42.5
 21
160.0
  0
LINE
  8
4
  6
CONTINUOUS
 62
     2
 10
43.5
 20
160.0
 11
44.147047613
 21
162.414814566
  0
LINE
  8
4
  6
CONTINUOUS
 62
     2
 10
43.5
 20
160.0
 11
42.852952387
 21
162.414814566
  0
LINE
  8
4
  6
CONTINUOUS
 62
     2
 10
43.5
 20
160.0
 11
43.5
 21
194.5
  0
LINE
  8
4
  6
CONTINUOUS
 62
     2
 10
43.5
 20
194.5
 11
42.852952387
 21
192.085185434
  0
LINE
  8
4
  6
CONTINUOUS
 62
     2
 10
43.5
 20
194.5
 11
44.147047613
 21
192.085185434
  0
LINE
  8
4
  6
CONTINUOUS
 62
     2
 10
79.0
 20
194.5
 11
42.5
 21
194.5
  0
TEXT
  8
4
  6
CONTINUOUS
 62
     5
 10
42.5
 20
170.1
 30
0.1
 40
4.0
  1
３４．５
 50
90.0
 41
0.875
 51
0.0
  7
KANJI3
  0
TEXT
  8
5
  6
CONTINUOUS
 62
     5
 10
336.75
 20
43.5
 30
0.0
 40
4.0
  1
１
 50
0.0
 41
0.875
 51
0.0
  7
KANJI0
  0
TEXT
  8
5
  6
CONTINUOUS
 62
     5
 10
334.0
 20
25.0
 30
0.0
 40
4.0
  1
９Ｅ０８－Ｄ６－５
 50
0.0
 41
0.875
 51
0.0
  7
KANJI0
  0
TEXT
  8
5
  6
CONTINUOUS
 62
     5
 10
334.0
 20
14.5
 30
0.0
 40
4.0
  1
Ｋ－０１１３－Ａ１１
 50
0.0
 41
0.875
 51
0.0
  7
KANJI0
  0
LINE
  8
0
  6
CONTINUOUS
 62
     1
 10
294.0
 20
167.0
 11
294.0
 21
193.0
  0
LINE
  8
4
  6
CONTINUOUS
 62
     2
 10
272.0
 20
160.0
 11
269.834936491
 21
158.75
  0
LINE
  8
4
  6
CONTINUOUS
 62
     2
 10
272.0
 20
160.0
 11
270.75
 21
157.834936491
  0
LINE
  8
4
  6
CONTINUOUS
 62
     2
 10
221.45
 20
140.0
 11
252.0
 21
140.0
  0
LINE
  8
4
  6
CONTINUOUS
 62
     2
 10
272.0
 20
160.0
 11
252.0
 21
140.0
  0
LINE
  8
4
  6
CONTINUOUS
 62
     2
 10
190.0
 20
160.0
 11
192.165063509
 21
158.75
  0
LINE
  8
4
  6
CONTINUOUS
 62
     2
 10
190.0
 20
160.0
 11
200.0
 21
150.0
  0
LINE
  8
4
  6
CONTINUOUS
 62
     2
 10
190.0
 20
160.0
 11
191.25
 21
157.834936491
  0
LINE
  8
4
  6
CONTINUOUS
 62
     2
 10
200.0
 20
150.0
 11
230.55
 21
150.0
  0
TEXT
  8
4
  6
CONTINUOUS
 62
     5
 10
200.0
 20
151.0
 30
0.1
 40
4.0
  1
４－φ３．５取付穴
 50
0.0
 41
0.875
 51
0.0
  7
KANJI3
  0
TEXT
  8
4
  6
CONTINUOUS
 62
     5
 10
221.45
 20
141.0
 30
0.1
 40
4.0
  1
４－φ３．５取付穴
 50
0.0
 41
0.875
 51
0.0
  7
KANJI3
  0
TEXT
  8
4
  6
CONTINUOUS
 62
     5
 10
367.0
 20
171.0
 30
0.1
 40
4.0
  1
Ｍ２．５深さ６
 50
0.0
 41
0.875
 51
0.0
  7
KANJI3
  0
LINE
  8
0
  6
LTYPE3
 62
     2
 10
357.0
 20
181.25
 11
351.0
 21
181.25
  0
LINE
  8
0
  6
LTYPE3
 62
     2
 10
357.0
 20
181.025
 11
350.0
 21
181.025
  0
LINE
  8
0
  6
LTYPE3
 62
     2
 10
350.0
 20
181.025
 11
349.408215974
 21
180.0
  0
LINE
  8
0
  6
LTYPE3
 62
     2
 10
357.0
 20
178.75
 11
351.0
 21
178.75
  0
LINE
  8
0
  6
LTYPE3
 62
     2
 10
357.0
 20
178.975
 11
350.0
 21
178.975
  0
LINE
  8
0
  6
LTYPE3
 62
     2
 10
350.0
 20
178.975
 11
349.408215974
 21
180.0
  0
LINE
  8
0
  6
LTYPE3
 62
     2
 10
350.0
 20
181.025
 11
350.0
 21
178.975
  0
LINE
  8
0
  6
LTYPE3
 62
     2
 10
351.0
 20
181.25
 11
351.0
 21
178.75
  0
ENDSEC
  0
EOF
