  0
SECTION
  2
HEADER
  9
$EXTMIN
 10
0.0
 20
0.0
 30
0.0
  9
$EXTMAX
 10
840.0
 20
594.0
 30
0.0
  9
$LIMMIN
 10
0.0
 20
0.0
  9
$LIMMAX
 10
840.0
 20
594.0
  9
$LTSCALE
 40
1.0
  9
$PDMODE
 70
     0
  0
ENDSEC
  0
SECTION
  2
TABLES
  0
TABLE
  2
LTYPE
 70
     4
  0
LTYPE
  2
CONTINUOUS
 70
    64
  3
Solid line
 72
    65
 73
     0
 40
0.0
  0
LTYPE
  2
LTYPE1
 70
    64
  3
CENTER
 72
    65
 73
     4
 40
16.0
 49
11.2
 49
-1.6
 49
1.6
 49
-1.6
  0
LTYPE
  2
LTYPE2
 70
    64
  3
HIDDEN
 72
    65
 73
     2
 40
3.0
 49
1.8
 49
-1.2
  0
LTYPE
  2
LTYPE3
 70
    64
  3
CENTER
 72
    65
 73
     4
 40
20.0
 49
14.0
 49
-2.0
 49
2.0
 49
-2.0
  0
ENDTAB
  0
TABLE
  2
LAYER
 70
   128
  0
LAYER
  2
0
 70
     0
 62
     7
  6
CONTINUOUS
  0
LAYER
  2
2
 70
     0
 62
     7
  6
CONTINUOUS
  0
LAYER
  2
3
 70
     0
 62
     7
  6
CONTINUOUS
  0
LAYER
  2
4
 70
     0
 62
     7
  6
CONTINUOUS
  0
LAYER
  2
5
 70
     0
 62
     7
  6
CONTINUOUS
  0
LAYER
  2
6
 70
     0
 62
     7
  6
CONTINUOUS
  0
LAYER
  2
7
 70
     0
 62
     7
  6
CONTINUOUS
  0
LAYER
  2
8
 70
     0
 62
     7
  6
CONTINUOUS
  0
LAYER
  2
9
 70
     0
 62
     7
  6
CONTINUOUS
  0
LAYER
  2
10
 70
     0
 62
     7
  6
CONTINUOUS
  0
LAYER
  2
11
 70
     0
 62
     7
  6
CONTINUOUS
  0
LAYER
  2
12
 70
     0
 62
     7
  6
CONTINUOUS
  0
LAYER
  2
13
 70
     0
 62
     7
  6
CONTINUOUS
  0
LAYER
  2
14
 70
     0
 62
     7
  6
CONTINUOUS
  0
LAYER
  2
15
 70
     0
 62
     7
  6
CONTINUOUS
  0
LAYER
  2
16
 70
     0
 62
     7
  6
CONTINUOUS
  0
LAYER
  2
17
 70
     0
 62
     7
  6
CONTINUOUS
  0
LAYER
  2
18
 70
     0
 62
     7
  6
CONTINUOUS
  0
LAYER
  2
19
 70
     0
 62
     7
  6
CONTINUOUS
  0
LAYER
  2
20
 70
     0
 62
     7
  6
CONTINUOUS
  0
LAYER
  2
21
 70
     0
 62
     7
  6
CONTINUOUS
  0
LAYER
  2
22
 70
     0
 62
     7
  6
CONTINUOUS
  0
LAYER
  2
23
 70
     0
 62
     7
  6
CONTINUOUS
  0
LAYER
  2
24
 70
     0
 62
     7
  6
CONTINUOUS
  0
LAYER
  2
25
 70
     0
 62
     7
  6
CONTINUOUS
  0
LAYER
  2
26
 70
     0
 62
     7
  6
CONTINUOUS
  0
LAYER
  2
27
 70
     0
 62
     7
  6
CONTINUOUS
  0
LAYER
  2
28
 70
     0
 62
     7
  6
CONTINUOUS
  0
LAYER
  2
29
 70
     0
 62
     7
  6
CONTINUOUS
  0
LAYER
  2
30
 70
     0
 62
     7
  6
CONTINUOUS
  0
LAYER
  2
31
 70
     0
 62
     7
  6
CONTINUOUS
  0
LAYER
  2
32
 70
     0
 62
     7
  6
CONTINUOUS
  0
LAYER
  2
33
 70
     0
 62
     7
  6
CONTINUOUS
  0
LAYER
  2
34
 70
     0
 62
     7
  6
CONTINUOUS
  0
LAYER
  2
35
 70
     0
 62
     7
  6
CONTINUOUS
  0
LAYER
  2
36
 70
     0
 62
     7
  6
CONTINUOUS
  0
LAYER
  2
37
 70
     0
 62
     7
  6
CONTINUOUS
  0
LAYER
  2
38
 70
     0
 62
     7
  6
CONTINUOUS
  0
LAYER
  2
39
 70
     0
 62
     7
  6
CONTINUOUS
  0
LAYER
  2
40
 70
     0
 62
     7
  6
CONTINUOUS
  0
LAYER
  2
41
 70
     0
 62
     7
  6
CONTINUOUS
  0
LAYER
  2
42
 70
     0
 62
     7
  6
CONTINUOUS
  0
LAYER
  2
43
 70
     0
 62
     7
  6
CONTINUOUS
  0
LAYER
  2
44
 70
     0
 62
     7
  6
CONTINUOUS
  0
LAYER
  2
45
 70
     0
 62
     7
  6
CONTINUOUS
  0
LAYER
  2
46
 70
     0
 62
     7
  6
CONTINUOUS
  0
LAYER
  2
47
 70
     0
 62
     7
  6
CONTINUOUS
  0
LAYER
  2
48
 70
     0
 62
     7
  6
CONTINUOUS
  0
LAYER
  2
49
 70
     0
 62
     7
  6
CONTINUOUS
  0
LAYER
  2
50
 70
     0
 62
     7
  6
CONTINUOUS
  0
LAYER
  2
51
 70
     0
 62
     7
  6
CONTINUOUS
  0
LAYER
  2
52
 70
     0
 62
     7
  6
CONTINUOUS
  0
LAYER
  2
53
 70
     0
 62
     7
  6
CONTINUOUS
  0
LAYER
  2
54
 70
     0
 62
     7
  6
CONTINUOUS
  0
LAYER
  2
55
 70
     0
 62
     7
  6
CONTINUOUS
  0
LAYER
  2
56
 70
     0
 62
     7
  6
CONTINUOUS
  0
LAYER
  2
57
 70
     0
 62
     7
  6
CONTINUOUS
  0
LAYER
  2
58
 70
     0
 62
     7
  6
CONTINUOUS
  0
LAYER
  2
59
 70
     0
 62
     7
  6
CONTINUOUS
  0
LAYER
  2
60
 70
     0
 62
     7
  6
CONTINUOUS
  0
LAYER
  2
61
 70
     0
 62
     7
  6
CONTINUOUS
  0
LAYER
  2
62
 70
     0
 62
     7
  6
CONTINUOUS
  0
LAYER
  2
63
 70
     0
 62
     7
  6
CONTINUOUS
  0
LAYER
  2
64
 70
     0
 62
     7
  6
CONTINUOUS
  0
LAYER
  2
65
 70
     0
 62
     7
  6
CONTINUOUS
  0
LAYER
  2
66
 70
     0
 62
     7
  6
CONTINUOUS
  0
LAYER
  2
67
 70
     0
 62
     7
  6
CONTINUOUS
  0
LAYER
  2
68
 70
     0
 62
     7
  6
CONTINUOUS
  0
LAYER
  2
69
 70
     0
 62
     7
  6
CONTINUOUS
  0
LAYER
  2
70
 70
     0
 62
     7
  6
CONTINUOUS
  0
LAYER
  2
71
 70
     0
 62
     7
  6
CONTINUOUS
  0
LAYER
  2
72
 70
     0
 62
     7
  6
CONTINUOUS
  0
LAYER
  2
73
 70
     0
 62
     7
  6
CONTINUOUS
  0
LAYER
  2
74
 70
     0
 62
     7
  6
CONTINUOUS
  0
LAYER
  2
75
 70
     0
 62
     7
  6
CONTINUOUS
  0
LAYER
  2
76
 70
     0
 62
     7
  6
CONTINUOUS
  0
LAYER
  2
77
 70
     0
 62
     7
  6
CONTINUOUS
  0
LAYER
  2
78
 70
     0
 62
     7
  6
CONTINUOUS
  0
LAYER
  2
79
 70
     0
 62
     7
  6
CONTINUOUS
  0
LAYER
  2
80
 70
     0
 62
     7
  6
CONTINUOUS
  0
LAYER
  2
81
 70
     0
 62
     7
  6
CONTINUOUS
  0
LAYER
  2
82
 70
     0
 62
     7
  6
CONTINUOUS
  0
LAYER
  2
83
 70
     0
 62
     7
  6
CONTINUOUS
  0
LAYER
  2
84
 70
     0
 62
     7
  6
CONTINUOUS
  0
LAYER
  2
85
 70
     0
 62
     7
  6
CONTINUOUS
  0
LAYER
  2
86
 70
     0
 62
     7
  6
CONTINUOUS
  0
LAYER
  2
87
 70
     0
 62
     7
  6
CONTINUOUS
  0
LAYER
  2
88
 70
     0
 62
     7
  6
CONTINUOUS
  0
LAYER
  2
89
 70
     0
 62
     7
  6
CONTINUOUS
  0
LAYER
  2
90
 70
     0
 62
     7
  6
CONTINUOUS
  0
LAYER
  2
91
 70
     0
 62
     7
  6
CONTINUOUS
  0
LAYER
  2
92
 70
     0
 62
     7
  6
CONTINUOUS
  0
LAYER
  2
93
 70
     0
 62
     7
  6
CONTINUOUS
  0
LAYER
  2
94
 70
     0
 62
     7
  6
CONTINUOUS
  0
LAYER
  2
95
 70
     0
 62
     7
  6
CONTINUOUS
  0
LAYER
  2
96
 70
     0
 62
     7
  6
CONTINUOUS
  0
LAYER
  2
97
 70
     0
 62
     7
  6
CONTINUOUS
  0
LAYER
  2
98
 70
     0
 62
     7
  6
CONTINUOUS
  0
LAYER
  2
99
 70
     0
 62
     7
  6
CONTINUOUS
  0
LAYER
  2
100
 70
     0
 62
     7
  6
CONTINUOUS
  0
LAYER
  2
101
 70
     0
 62
     7
  6
CONTINUOUS
  0
LAYER
  2
102
 70
     0
 62
     7
  6
CONTINUOUS
  0
LAYER
  2
103
 70
     0
 62
     7
  6
CONTINUOUS
  0
LAYER
  2
104
 70
     0
 62
     7
  6
CONTINUOUS
  0
LAYER
  2
105
 70
     0
 62
     7
  6
CONTINUOUS
  0
LAYER
  2
106
 70
     0
 62
     7
  6
CONTINUOUS
  0
LAYER
  2
107
 70
     0
 62
     7
  6
CONTINUOUS
  0
LAYER
  2
108
 70
     0
 62
     7
  6
CONTINUOUS
  0
LAYER
  2
109
 70
     0
 62
     7
  6
CONTINUOUS
  0
LAYER
  2
110
 70
     0
 62
     7
  6
CONTINUOUS
  0
LAYER
  2
111
 70
     0
 62
     7
  6
CONTINUOUS
  0
LAYER
  2
112
 70
     0
 62
     7
  6
CONTINUOUS
  0
LAYER
  2
113
 70
     0
 62
     7
  6
CONTINUOUS
  0
LAYER
  2
114
 70
     0
 62
     7
  6
CONTINUOUS
  0
LAYER
  2
115
 70
     0
 62
     7
  6
CONTINUOUS
  0
LAYER
  2
116
 70
     0
 62
     7
  6
CONTINUOUS
  0
LAYER
  2
117
 70
     0
 62
     7
  6
CONTINUOUS
  0
LAYER
  2
118
 70
     0
 62
     7
  6
CONTINUOUS
  0
LAYER
  2
119
 70
     0
 62
     7
  6
CONTINUOUS
  0
LAYER
  2
120
 70
     0
 62
     7
  6
CONTINUOUS
  0
LAYER
  2
121
 70
     0
 62
     7
  6
CONTINUOUS
  0
LAYER
  2
122
 70
     0
 62
     7
  6
CONTINUOUS
  0
LAYER
  2
123
 70
     0
 62
     7
  6
CONTINUOUS
  0
LAYER
  2
124
 70
     0
 62
     7
  6
CONTINUOUS
  0
LAYER
  2
125
 70
     0
 62
     7
  6
CONTINUOUS
  0
LAYER
  2
126
 70
     0
 62
     7
  6
CONTINUOUS
  0
LAYER
  2
127
 70
     0
 62
     7
  6
CONTINUOUS
  0
LAYER
  2
128
 70
     0
 62
     7
  6
CONTINUOUS
  0
ENDTAB
  0
TABLE
  2
STYLE
 70
     6
  0
STYLE
  2
STANDARD
 70
     0
 40
0.0
 41
1.0
 50
0.0
 71
     0
 42
0.2
  3
txt
  4

  0
STYLE
  2
KANJI0
 70
     0
 40
8.0
 41
0.875
 50
0.0
 71
     0
 42
8.0
  3

  4
bigfont
  0
STYLE
  2
KANJI1
 70
     0
 40
5.0
 41
1.0
 50
0.0
 71
     0
 42
5.0
  3

  4
bigfont
  0
STYLE
  2
KANJI2
 70
     0
 40
7.0
 41
1.0
 50
0.0
 71
     0
 42
7.0
  3

  4
bigfont
  0
STYLE
  2
KANJI3
 70
     0
 40
8.0
 41
0.875
 50
0.0
 71
     0
 42
8.0
  3

  4
bigfont
  0
STYLE
  2
KANJI4
 70
     0
 40
8.0
 41
0.875
 50
0.0
 71
     0
 42
8.0
  3

  4
bigfont
  0
ENDTAB
  0
TABLE
  2
VIEW
 70
     0
  0
ENDTAB
  0
ENDSEC
  0
SECTION
  2
BLOCKS
  0
ENDSEC
  0
SECTION
  2
ENTITIES
  0
TEXT
  8
5
  6
CONTINUOUS
 62
     5
 10
657.5
 20
87.0
 30
0.0
 40
8.0
  1
１
 50
0.0
 41
0.875
 51
0.0
  7
KANJI0
  0
POLYLINE
  8
6
  6
CONTINUOUS
 62
     6
 66
     1
  0
VERTEX
  8
6
  6
CONTINUOUS
 62
     6
 10
53.0
 20
563.0
  0
VERTEX
  8
6
  6
CONTINUOUS
 62
     6
 10
53.0
 20
25.0
  0
VERTEX
  8
6
  6
CONTINUOUS
 62
     6
 10
811.0
 20
25.0
  0
SEQEND
  0
LINE
  8
6
  6
CONTINUOUS
 62
     6
 10
811.0
 20
563.0
 11
53.0
 21
563.0
  0
LINE
  8
6
  6
CONTINUOUS
 62
     6
 10
811.0
 20
25.0
 11
811.0
 21
563.0
  0
LINE
  8
6
  6
CONTINUOUS
 62
     2
 10
791.0
 20
563.0
 11
791.0
 21
539.0
  0
LINE
  8
6
  6
CONTINUOUS
 62
     2
 10
771.0
 20
563.0
 11
771.0
 21
539.0
  0
LINE
  8
6
  6
CONTINUOUS
 62
     2
 10
751.0
 20
563.0
 11
751.0
 21
539.0
  0
LINE
  8
6
  6
CONTINUOUS
 62
     2
 10
672.0
 20
563.0
 11
672.0
 21
539.0
  0
LINE
  8
6
  6
CONTINUOUS
 62
     2
 10
656.0
 20
563.0
 11
656.0
 21
539.0
  0
LINE
  8
6
  6
CONTINUOUS
 62
     2
 10
656.0
 20
551.0
 11
811.0
 21
551.0
  0
LINE
  8
6
  6
CONTINUOUS
 62
     2
 10
656.0
 20
539.0
 11
811.0
 21
539.0
  0
LINE
  8
6
  6
CONTINUOUS
 62
     2
 10
811.0
 20
111.0
 11
644.0
 21
111.0
  0
LINE
  8
6
  6
CONTINUOUS
 62
     2
 10
644.0
 20
111.0
 11
644.0
 21
25.0
  0
LINE
  8
6
  6
CONTINUOUS
 62
     2
 10
644.0
 20
99.0
 11
811.0
 21
99.0
  0
LINE
  8
6
  6
CONTINUOUS
 62
     2
 10
644.0
 20
67.0
 11
811.0
 21
67.0
  0
LINE
  8
6
  6
CONTINUOUS
 62
     2
 10
644.0
 20
46.0
 11
811.0
 21
46.0
  0
LINE
  8
6
  6
CONTINUOUS
 62
     2
 10
775.0
 20
46.0
 11
775.0
 21
25.0
  0
LINE
  8
6
  6
CONTINUOUS
 62
     2
 10
772.0
 20
111.0
 11
772.0
 21
67.0
  0
LINE
  8
6
  6
CONTINUOUS
 62
     2
 10
733.0
 20
111.0
 11
733.0
 21
67.0
  0
LINE
  8
6
  6
CONTINUOUS
 62
     2
 10
694.0
 20
111.0
 11
694.0
 21
67.0
  0
LINE
  8
6
  6
CONTINUOUS
 62
     2
 10
694.0
 20
83.0
 11
644.0
 21
83.0
  0
TEXT
  8
6
  6
CONTINUOUS
 62
     4
 10
706.0
 20
101.0
 30
0.6
 40
5.0
  1
承認
 50
0.0
 41
1.0
 51
0.0
  7
KANJI1
  0
TEXT
  8
6
  6
CONTINUOUS
 62
     4
 10
747.0
 20
101.0
 30
0.6
 40
5.0
  1
査閲
 50
0.0
 41
1.0
 51
0.0
  7
KANJI1
  0
TEXT
  8
6
  6
CONTINUOUS
 62
     4
 10
786.0
 20
101.0
 30
0.6
 40
5.0
  1
作成
 50
0.0
 41
1.0
 51
0.0
  7
KANJI1
  0
TEXT
  8
6
  6
CONTINUOUS
 62
     4
 10
664.0
 20
101.0
 30
0.6
 40
5.0
  1
尺度
 50
0.0
 41
1.0
 51
0.0
  7
KANJI1
  0
TEXT
  8
6
  6
CONTINUOUS
 62
     4
 10
646.0
 20
38.0
 30
0.6
 40
5.0
  1
図番
 50
0.0
 41
1.0
 51
0.0
  7
KANJI1
  0
TEXT
  8
6
  6
CONTINUOUS
 62
     4
 10
646.0
 20
59.0
 30
0.6
 40
5.0
  1
名称
 50
0.0
 41
1.0
 51
0.0
  7
KANJI1
  0
TEXT
  8
6
  6
CONTINUOUS
 62
     4
 10
656.0
 20
71.0
 30
0.0
 40
7.0
  1
第三角法
 50
0.0
 41
1.0
 51
0.0
  7
KANJI2
  0
CIRCLE
  8
6
  6
CONTINUOUS
 62
     6
 10
669.0
 20
93.0
 40
0.4
  0
CIRCLE
  8
6
  6
CONTINUOUS
 62
     6
 10
669.0
 20
88.0
 40
0.4
  0
LINE
  8
6
  6
CONTINUOUS
 62
     6
 10
53.0
 20
297.0
 11
0.0
 21
297.0
  0
LINE
  8
6
  6
CONTINUOUS
 62
     6
 10
811.0
 20
297.0
 11
840.0
 21
297.0
  0
LINE
  8
6
  6
CONTINUOUS
 62
     6
 10
420.0
 20
25.0
 11
420.0
 21
0.0
  0
LINE
  8
6
  6
CONTINUOUS
 62
     6
 10
420.0
 20
563.0
 11
420.0
 21
594.0
  0
TEXT
  8
5
  6
CONTINUOUS
 62
     5
 10
673.5
 20
87.0
 30
0.0
 40
8.0
  1
２
 50
0.0
 41
0.875
 51
0.0
  7
KANJI0
  0
TEXT
  8
5
  6
CONTINUOUS
 62
     5
 10
668.0
 20
50.0
 30
0.0
 40
8.0
  1
９Ｅ０１－Ｄ６－１００
 50
0.0
 41
0.875
 51
0.0
  7
KANJI0
  0
LINE
  8
0
  6
CONTINUOUS
 62
     1
 10
100.073333335
 20
342.0
 11
104.926666665
 21
342.0
  0
LINE
  8
0
  6
CONTINUOUS
 62
     1
 10
100.073333335
 20
342.0
 11
100.160000002
 21
342.866666666
  0
LINE
  8
0
  6
CONTINUOUS
 62
     1
 10
104.926666665
 20
342.0
 11
104.839999998
 21
342.866666666
  0
ARC
  8
0
  6
CONTINUOUS
 62
     1
 10
104.059999999
 20
342.693333333
 40
0.779999999
 50
12.6
 51
63.4
  0
ARC
  8
0
  6
CONTINUOUS
 62
     1
 10
100.940000001
 20
342.693333333
 40
0.779999999
 50
116.6
 51
167.4
  0
ARC
  8
0
  6
CONTINUOUS
 62
     1
 10
102.5
 20
338.273333336
 40
5.459999996
 50
69.4
 51
110.6
  0
LINE
  8
0
  6
LTYPE1
 62
     2
 10
102.5
 20
345.033333331
 11
102.5
 21
335.0
  0
LINE
  8
0
  6
CONTINUOUS
 62
     1
 10
101.2
 20
340.5
 11
101.2
 21
340.0
  0
LINE
  8
0
  6
CONTINUOUS
 62
     1
 10
103.8
 20
340.5
 11
103.8
 21
340.0
  0
LINE
  8
0
  6
CONTINUOUS
 62
     2
 10
103.575
 20
340.5
 11
103.575
 21
340.0
  0
LINE
  8
0
  6
CONTINUOUS
 62
     2
 10
101.425
 20
340.5
 11
101.425
 21
340.0
  0
CIRCLE
  8
0
  6
CONTINUOUS
 62
     1
 10
120.0
 20
340.0
 40
13.0
  0
LINE
  8
0
  6
CONTINUOUS
 62
     1
 10
93.5
 20
320.0
 11
146.5
 21
320.0
  0
LINE
  8
0
  6
CONTINUOUS
 62
     1
 10
93.5
 20
320.0
 11
93.5
 21
324.0
  0
LINE
  8
0
  6
CONTINUOUS
 62
     1
 10
93.5
 20
324.0
 11
100.0
 21
324.0
  0
LINE
  8
0
  6
CONTINUOUS
 62
     1
 10
100.0
 20
324.0
 11
100.0
 21
340.0
  0
LINE
  8
0
  6
LTYPE2
 62
     2
 10
94.75
 20
324.0
 11
94.75
 21
320.0
  0
LINE
  8
0
  6
LTYPE2
 62
     2
 10
98.25
 20
324.0
 11
98.25
 21
320.0
  0
LINE
  8
0
  6
CONTINUOUS
 62
     1
 10
100.0
 20
340.0
 11
107.0
 21
340.0
  0
LINE
  8
0
  6
CONTINUOUS
 62
     1
 10
146.5
 20
320.0
 11
146.5
 21
324.0
  0
LINE
  8
0
  6
CONTINUOUS
 62
     1
 10
146.5
 20
324.0
 11
140.0
 21
324.0
  0
LINE
  8
0
  6
CONTINUOUS
 62
     1
 10
140.0
 20
324.0
 11
140.0
 21
340.0
  0
LINE
  8
0
  6
CONTINUOUS
 62
     1
 10
140.0
 20
340.0
 11
133.0
 21
340.0
  0
LINE
  8
0
  6
LTYPE2
 62
     2
 10
145.25
 20
324.0
 11
145.25
 21
320.0
  0
LINE
  8
0
  6
LTYPE2
 62
     2
 10
141.75
 20
324.0
 11
141.75
 21
320.0
  0
LINE
  8
0
  6
CONTINUOUS
 62
     1
 10
139.926666665
 20
342.0
 11
135.073333335
 21
342.0
  0
LINE
  8
0
  6
CONTINUOUS
 62
     1
 10
139.926666665
 20
342.0
 11
139.839999998
 21
342.866666666
  0
LINE
  8
0
  6
CONTINUOUS
 62
     1
 10
135.073333335
 20
342.0
 11
135.160000002
 21
342.866666666
  0
ARC
  8
0
  6
CONTINUOUS
 62
     1
 10
135.940000001
 20
342.693333333
 40
0.779999999
 50
116.6
 51
167.4
  0
ARC
  8
0
  6
CONTINUOUS
 62
     1
 10
139.059999999
 20
342.693333333
 40
0.779999999
 50
12.6
 51
63.4
  0
ARC
  8
0
  6
CONTINUOUS
 62
     1
 10
137.5
 20
338.273333336
 40
5.459999996
 50
69.4
 51
110.6
  0
LINE
  8
0
  6
LTYPE1
 62
     2
 10
137.5
 20
345.033333331
 11
137.5
 21
335.0
  0
LINE
  8
0
  6
CONTINUOUS
 62
     1
 10
138.8
 20
340.5
 11
138.8
 21
340.0
  0
LINE
  8
0
  6
CONTINUOUS
 62
     1
 10
136.2
 20
340.5
 11
136.2
 21
340.0
  0
LINE
  8
0
  6
CONTINUOUS
 62
     2
 10
136.425
 20
340.5
 11
136.425
 21
340.0
  0
LINE
  8
0
  6
CONTINUOUS
 62
     2
 10
138.575
 20
340.5
 11
138.575
 21
340.0
  0
CIRCLE
  8
0
  6
CONTINUOUS
 62
     1
 10
120.0
 20
340.0
 40
3.0
  0
CIRCLE
  8
0
  6
CONTINUOUS
 62
     1
 10
120.0
 20
340.0
 40
3.5
  0
CIRCLE
  8
0
  6
CONTINUOUS
 62
     1
 10
128.0
 20
340.0
 40
3.5
  0
CIRCLE
  8
0
  6
CONTINUOUS
 62
     1
 10
112.0
 20
340.0
 40
3.5
  0
LINE
  8
0
  6
LTYPE3
 62
     2
 10
128.0
 20
345.0
 11
128.0
 21
335.0
  0
LINE
  8
0
  6
LTYPE3
 62
     2
 10
112.0
 20
345.0
 11
112.0
 21
335.0
  0
LINE
  8
0
  6
CONTINUOUS
 62
     1
 10
118.5
 20
353.0
 11
118.5
 21
373.0
  0
LINE
  8
0
  6
CONTINUOUS
 62
     1
 10
121.5
 20
373.0
 11
121.5
 21
353.0
  0
ARC
  8
0
  6
CONTINUOUS
 62
     1
 10
119.25
 20
372.4375
 40
0.9375
 50
36.869897646
 51
143.130102354
  0
ARC
  8
0
  6
CONTINUOUS
 62
     1
 10
120.75
 20
372.4375
 40
0.9375
 50
36.869897646
 51
143.130102354
  0
ARC
  8
0
  6
CONTINUOUS
 62
     1
 10
120.75
 20
373.5625
 40
0.9375
 50
216.869897646
 51
323.130102354
  0
POLYLINE
  8
0
  6
CONTINUOUS
 62
     1
 66
     1
  0
VERTEX
  8
0
  6
CONTINUOUS
 62
     1
 10
100.0
 20
342.0
  0
VERTEX
  8
0
  6
CONTINUOUS
 62
     1
 10
100.0
 20
340.5
  0
VERTEX
  8
0
  6
CONTINUOUS
 62
     1
 10
105.0
 20
340.5
  0
SEQEND
  0
LINE
  8
0
  6
CONTINUOUS
 62
     1
 10
100.0
 20
342.0
 11
105.0
 21
342.0
  0
LINE
  8
0
  6
CONTINUOUS
 62
     1
 10
140.0
 20
342.0
 11
140.0
 21
340.5
  0
LINE
  8
0
  6
CONTINUOUS
 62
     1
 10
140.0
 20
340.5
 11
135.0
 21
340.5
  0
LINE
  8
0
  6
CONTINUOUS
 62
     1
 10
140.0
 20
342.0
 11
135.0
 21
342.0
  0
ARC
  8
0
  6
CONTINUOUS
 62
     1
 10
135.0
 20
342.75
 40
0.75
 50
190.388857815
 51
270.0
  0
ARC
  8
0
  6
CONTINUOUS
 62
     1
 10
135.0
 20
342.75
 40
2.25
 50
190.388857815
 51
270.0
  0
ARC
  8
0
  6
CONTINUOUS
 62
     1
 10
105.0
 20
342.75
 40
0.75
 50
270.0
 51
349.611142185
  0
ARC
  8
0
  6
CONTINUOUS
 62
     1
 10
105.0
 20
342.75
 40
2.25
 50
270.0
 51
349.611142185
  0
ARC
  8
0
  6
CONTINUOUS
 62
     1
 10
120.0
 20
340.0
 40
14.5
 50
95.937772452
 51
169.611142185
  0
ARC
  8
0
  6
CONTINUOUS
 62
     1
 10
120.0
 20
340.0
 40
14.5
 50
10.388857815
 51
84.062227548
  0
ARC
  8
0
  6
LTYPE2
 62
     2
 10
120.0
 20
340.0
 40
14.5
 50
84.062227548
 51
95.937772452
  0
LINE
  8
0
  6
LTYPE3
 62
     2
 10
120.0
 20
310.0
 11
120.0
 21
383.0
  0
LINE
  8
0
  6
LTYPE3
 62
     2
 10
143.5
 20
329.0
 11
143.5
 21
315.0
  0
LINE
  8
0
  6
LTYPE3
 62
     2
 10
96.5
 20
329.0
 11
96.5
 21
315.0
  0
LINE
  8
0
  6
LTYPE3
 62
     2
 10
90.0
 20
340.0
 11
150.0
 21
340.0
  0
LINE
  8
4
  6
CONTINUOUS
 62
     2
 10
148.5
 20
320.0
 11
172.0
 21
320.0
  0
LINE
  8
4
  6
CONTINUOUS
 62
     2
 10
170.0
 20
320.0
 11
168.705904774
 21
315.170370869
  0
LINE
  8
4
  6
CONTINUOUS
 62
     2
 10
170.0
 20
320.0
 11
171.294095226
 21
315.170370869
  0
LINE
  8
4
  6
CONTINUOUS
 62
     2
 10
170.0
 20
305.5
 11
170.0
 21
320.0
  0
LINE
  8
4
  6
CONTINUOUS
 62
     2
 10
170.0
 20
320.0
 11
170.0
 21
324.0
  0
LINE
  8
4
  6
CONTINUOUS
 62
     2
 10
170.0
 20
324.0
 11
170.0
 21
331.5
  0
LINE
  8
4
  6
CONTINUOUS
 62
     2
 10
170.0
 20
324.0
 11
171.294095226
 21
328.829629131
  0
LINE
  8
4
  6
CONTINUOUS
 62
     2
 10
170.0
 20
324.0
 11
168.705904774
 21
328.829629131
  0
LINE
  8
4
  6
CONTINUOUS
 62
     2
 10
148.5
 20
324.0
 11
172.0
 21
324.0
  0
TEXT
  8
4
  6
CONTINUOUS
 62
     5
 10
168.0
 20
305.5
 30
0.2
 40
8.0
  1
４
 50
90.0
 41
0.875
 51
0.0
  7
KANJI3
  0
LINE
  8
4
  6
CONTINUOUS
 62
     2
 10
91.5
 20
320.0
 11
78.0
 21
320.0
  0
LINE
  8
4
  6
CONTINUOUS
 62
     2
 10
80.0
 20
320.0
 11
81.294095226
 21
324.829629131
  0
LINE
  8
4
  6
CONTINUOUS
 62
     2
 10
80.0
 20
320.0
 11
78.705904774
 21
324.829629131
  0
LINE
  8
4
  6
CONTINUOUS
 62
     2
 10
80.0
 20
320.0
 11
80.0
 21
354.5
  0
LINE
  8
4
  6
CONTINUOUS
 62
     2
 10
80.0
 20
354.5
 11
78.705904774
 21
349.670370869
  0
LINE
  8
4
  6
CONTINUOUS
 62
     2
 10
80.0
 20
354.5
 11
81.294095226
 21
349.670370869
  0
LINE
  8
4
  6
CONTINUOUS
 62
     2
 10
118.0
 20
354.5
 11
78.0
 21
354.5
  0
TEXT
  8
4
  6
CONTINUOUS
 62
     5
 10
78.0
 20
322.95
 30
0.2
 40
8.0
  1
３４．５
 50
90.0
 41
0.875
 51
0.0
  7
KANJI3
  0
LINE
  8
4
  6
CONTINUOUS
 62
     2
 10
172.0
 20
320.0
 11
192.0
 21
320.0
  0
LINE
  8
4
  6
CONTINUOUS
 62
     2
 10
190.0
 20
320.0
 11
191.294095226
 21
324.829629131
  0
LINE
  8
4
  6
CONTINUOUS
 62
     2
 10
190.0
 20
320.0
 11
188.705904774
 21
324.829629131
  0
LINE
  8
4
  6
CONTINUOUS
 62
     2
 10
190.0
 20
320.0
 11
190.0
 21
340.0
  0
LINE
  8
4
  6
CONTINUOUS
 62
     2
 10
190.0
 20
340.0
 11
188.705904774
 21
335.170370869
  0
LINE
  8
4
  6
CONTINUOUS
 62
     2
 10
190.0
 20
340.0
 11
191.294095226
 21
335.170370869
  0
LINE
  8
4
  6
CONTINUOUS
 62
     2
 10
150.0
 20
340.0
 11
192.0
 21
340.0
  0
TEXT
  8
4
  6
CONTINUOUS
 62
     5
 10
188.0
 20
322.9
 30
0.2
 40
8.0
  1
２０
 50
90.0
 41
0.875
 51
0.0
  7
KANJI3
  0
LINE
  8
4
  6
CONTINUOUS
 62
     2
 10
96.5
 20
315.0
 11
96.5
 21
288.0
  0
LINE
  8
4
  6
CONTINUOUS
 62
     2
 10
96.5
 20
290.0
 11
101.329629131
 21
288.705904774
  0
LINE
  8
4
  6
CONTINUOUS
 62
     2
 10
96.5
 20
290.0
 11
101.329629131
 21
291.294095226
  0
LINE
  8
4
  6
CONTINUOUS
 62
     2
 10
96.5
 20
290.0
 11
143.5
 21
290.0
  0
LINE
  8
4
  6
CONTINUOUS
 62
     2
 10
143.5
 20
290.0
 11
138.670370869
 21
291.294095226
  0
LINE
  8
4
  6
CONTINUOUS
 62
     2
 10
143.5
 20
290.0
 11
138.670370869
 21
288.705904774
  0
LINE
  8
4
  6
CONTINUOUS
 62
     2
 10
143.5
 20
315.0
 11
143.5
 21
288.0
  0
TEXT
  8
4
  6
CONTINUOUS
 62
     5
 10
112.9
 20
292.0
 30
0.2
 40
8.0
  1
４７
 50
0.0
 41
0.875
 51
0.0
  7
KANJI3
  0
LINE
  8
4
  6
CONTINUOUS
 62
     2
 10
146.5
 20
318.0
 11
146.5
 21
268.0
  0
LINE
  8
4
  6
CONTINUOUS
 62
     2
 10
146.5
 20
270.0
 11
141.670370869
 21
271.294095226
  0
LINE
  8
4
  6
CONTINUOUS
 62
     2
 10
146.5
 20
270.0
 11
141.670370869
 21
268.705904774
  0
LINE
  8
4
  6
CONTINUOUS
 62
     2
 10
146.5
 20
270.0
 11
93.5
 21
270.0
  0
LINE
  8
4
  6
CONTINUOUS
 62
     2
 10
93.5
 20
270.0
 11
98.329629131
 21
268.705904774
  0
LINE
  8
4
  6
CONTINUOUS
 62
     2
 10
93.5
 20
270.0
 11
98.329629131
 21
271.294095226
  0
LINE
  8
4
  6
CONTINUOUS
 62
     2
 10
93.5
 20
318.0
 11
93.5
 21
268.0
  0
TEXT
  8
4
  6
CONTINUOUS
 62
     5
 10
112.9
 20
272.0
 30
0.2
 40
8.0
  1
５３
 50
0.0
 41
0.875
 51
0.0
  7
KANJI3
  0
LINE
  8
0
  6
CONTINUOUS
 62
     1
 10
222.0
 20
353.0
 11
222.0
 21
327.0
  0
LINE
  8
0
  6
CONTINUOUS
 62
     1
 10
220.0
 20
351.0
 11
220.0
 21
329.0
  0
ARC
  8
0
  6
CONTINUOUS
 62
     1
 10
222.0
 20
351.0
 40
2.0
 50
90.0
 51
180.0
  0
ARC
  8
0
  6
CONTINUOUS
 62
     1
 10
222.0
 20
329.0
 40
2.0
 50
180.0
 51
270.0
  0
LINE
  8
0
  6
CONTINUOUS
 62
     1
 10
262.573333335
 20
342.0
 11
267.426666665
 21
342.0
  0
LINE
  8
0
  6
CONTINUOUS
 62
     1
 10
262.573333335
 20
342.0
 11
262.660000002
 21
342.866666666
  0
LINE
  8
0
  6
CONTINUOUS
 62
     1
 10
267.426666665
 20
342.0
 11
267.339999998
 21
342.866666666
  0
ARC
  8
0
  6
CONTINUOUS
 62
     1
 10
266.559999999
 20
342.693333333
 40
0.779999999
 50
12.6
 51
63.4
  0
ARC
  8
0
  6
CONTINUOUS
 62
     1
 10
263.440000001
 20
342.693333333
 40
0.779999999
 50
116.6
 51
167.4
  0
ARC
  8
0
  6
CONTINUOUS
 62
     1
 10
265.0
 20
338.273333336
 40
5.459999996
 50
69.4
 51
110.6
  0
LINE
  8
0
  6
CONTINUOUS
 62
     1
 10
263.7
 20
340.5
 11
263.7
 21
340.0
  0
LINE
  8
0
  6
CONTINUOUS
 62
     1
 10
266.3
 20
340.5
 11
266.3
 21
340.0
  0
LINE
  8
0
  6
CONTINUOUS
 62
     2
 10
266.075
 20
340.5
 11
266.075
 21
340.0
  0
LINE
  8
0
  6
CONTINUOUS
 62
     2
 10
263.925
 20
340.5
 11
263.925
 21
340.0
  0
LINE
  8
0
  6
CONTINUOUS
 62
     1
 10
272.573333335
 20
342.0
 11
277.426666665
 21
342.0
  0
LINE
  8
0
  6
CONTINUOUS
 62
     1
 10
272.573333335
 20
342.0
 11
272.660000002
 21
342.866666666
  0
LINE
  8
0
  6
CONTINUOUS
 62
     1
 10
277.426666665
 20
342.0
 11
277.339999998
 21
342.866666666
  0
ARC
  8
0
  6
CONTINUOUS
 62
     1
 10
276.559999999
 20
342.693333333
 40
0.779999999
 50
12.6
 51
63.4
  0
ARC
  8
0
  6
CONTINUOUS
 62
     1
 10
273.440000001
 20
342.693333333
 40
0.779999999
 50
116.6
 51
167.4
  0
ARC
  8
0
  6
CONTINUOUS
 62
     1
 10
275.0
 20
338.273333336
 40
5.459999996
 50
69.4
 51
110.6
  0
LINE
  8
0
  6
CONTINUOUS
 62
     1
 10
273.7
 20
340.5
 11
273.7
 21
340.0
  0
LINE
  8
0
  6
CONTINUOUS
 62
     1
 10
276.3
 20
340.5
 11
276.3
 21
340.0
  0
LINE
  8
0
  6
CONTINUOUS
 62
     2
 10
276.075
 20
340.5
 11
276.075
 21
340.0
  0
LINE
  8
0
  6
CONTINUOUS
 62
     2
 10
273.925
 20
340.5
 11
273.925
 21
340.0
  0
POLYLINE
  8
0
  6
CONTINUOUS
 62
     1
 66
     1
  0
VERTEX
  8
0
  6
CONTINUOUS
 62
     1
 10
260.0
 20
354.5
  0
VERTEX
  8
0
  6
CONTINUOUS
 62
     1
 10
260.0
 20
340.5
  0
VERTEX
  8
0
  6
CONTINUOUS
 62
     1
 10
280.0
 20
340.5
  0
SEQEND
  0
LINE
  8
0
  6
CONTINUOUS
 62
     1
 10
260.0
 20
342.0
 11
280.0
 21
342.0
  0
LINE
  8
0
  6
CONTINUOUS
 62
     1
 10
280.0
 20
354.5
 11
280.0
 21
340.5
  0
LINE
  8
0
  6
CONTINUOUS
 62
     1
 10
260.0
 20
354.5
 11
280.0
 21
354.5
  0
LINE
  8
0
  6
CONTINUOUS
 62
     1
 10
260.0
 20
320.0
 11
260.0
 21
340.0
  0
LINE
  8
0
  6
CONTINUOUS
 62
     1
 10
280.0
 20
340.0
 11
280.0
 21
320.0
  0
LINE
  8
0
  6
CONTINUOUS
 62
     1
 10
260.0
 20
340.0
 11
280.0
 21
340.0
  0
LINE
  8
0
  6
CONTINUOUS
 62
     1
 10
260.0
 20
320.0
 11
280.0
 21
320.0
  0
LINE
  8
0
  6
CONTINUOUS
 62
     1
 10
260.0
 20
324.0
 11
280.0
 21
324.0
  0
LINE
  8
0
  6
LTYPE2
 62
     2
 10
266.75
 20
324.0
 11
266.75
 21
320.0
  0
LINE
  8
0
  6
LTYPE2
 62
     2
 10
263.25
 20
324.0
 11
263.25
 21
320.0
  0
LINE
  8
0
  6
LTYPE2
 62
     2
 10
276.75
 20
324.0
 11
276.75
 21
320.0
  0
LINE
  8
0
  6
LTYPE2
 62
     2
 10
273.25
 20
324.0
 11
273.25
 21
320.0
  0
LINE
  8
0
  6
CONTINUOUS
 62
     1
 10
260.0
 20
353.0
 11
222.0
 21
353.0
  0
LINE
  8
0
  6
CONTINUOUS
 62
     1
 10
222.0
 20
327.0
 11
260.0
 21
327.0
  0
LINE
  8
0
  6
LTYPE3
 62
     2
 10
265.0
 20
329.0
 11
265.0
 21
315.0
  0
LINE
  8
0
  6
LTYPE3
 62
     2
 10
275.0
 20
329.0
 11
275.0
 21
315.0
  0
LINE
  8
0
  6
LTYPE1
 62
     2
 10
265.0
 20
346.733333332
 11
265.0
 21
335.0
  0
LINE
  8
0
  6
LTYPE1
 62
     2
 10
275.0
 20
346.733333332
 11
275.0
 21
335.0
  0
LINE
  8
0
  6
CONTINUOUS
 62
     1
 10
238.5
 20
353.0
 11
238.5
 21
373.0
  0
LINE
  8
0
  6
CONTINUOUS
 62
     1
 10
241.5
 20
373.0
 11
241.5
 21
353.0
  0
ARC
  8
0
  6
CONTINUOUS
 62
     1
 10
239.25
 20
372.4375
 40
0.9375
 50
36.869897646
 51
143.130102354
  0
ARC
  8
0
  6
CONTINUOUS
 62
     1
 10
240.75
 20
372.4375
 40
0.9375
 50
36.869897646
 51
143.130102354
  0
ARC
  8
0
  6
CONTINUOUS
 62
     1
 10
240.75
 20
373.5625
 40
0.9375
 50
216.869897646
 51
323.130102354
  0
LINE
  8
0
  6
CONTINUOUS
 62
     1
 10
235.0
 20
353.0
 11
235.0
 21
327.0
  0
LINE
  8
0
  6
CONTINUOUS
 62
     1
 10
245.0
 20
353.0
 11
245.0
 21
327.0
  0
LINE
  8
0
  6
LTYPE3
 62
     2
 10
240.0
 20
343.0
 11
240.0
 21
383.0
  0
LINE
  8
0
  6
CONTINUOUS
 62
     1
 10
612.0
 20
329.0
 11
612.0
 21
351.0
  0
ARC
  8
0
  6
CONTINUOUS
 62
     1
 10
610.0
 20
329.0
 40
2.0
 50
270.0
 51
0.0
  0
ARC
  8
0
  6
CONTINUOUS
 62
     1
 10
610.0
 20
351.0
 40
2.0
 50
0.0
 51
90.0
  0
LINE
  8
0
  6
CONTINUOUS
 62
     1
 10
554.573333335
 20
342.0
 11
559.426666665
 21
342.0
  0
LINE
  8
0
  6
CONTINUOUS
 62
     1
 10
554.573333335
 20
342.0
 11
554.660000002
 21
342.866666666
  0
LINE
  8
0
  6
CONTINUOUS
 62
     1
 10
559.426666665
 20
342.0
 11
559.339999998
 21
342.866666666
  0
ARC
  8
0
  6
CONTINUOUS
 62
     1
 10
558.559999999
 20
342.693333333
 40
0.779999999
 50
12.6
 51
63.4
  0
ARC
  8
0
  6
CONTINUOUS
 62
     1
 10
555.440000001
 20
342.693333333
 40
0.779999999
 50
116.6
 51
167.4
  0
ARC
  8
0
  6
CONTINUOUS
 62
     1
 10
557.0
 20
338.273333336
 40
5.459999996
 50
69.4
 51
110.6
  0
LINE
  8
0
  6
CONTINUOUS
 62
     1
 10
555.7
 20
340.5
 11
555.7
 21
340.0
  0
LINE
  8
0
  6
CONTINUOUS
 62
     1
 10
558.3
 20
340.5
 11
558.3
 21
340.0
  0
LINE
  8
0
  6
CONTINUOUS
 62
     2
 10
558.075
 20
340.5
 11
558.075
 21
340.0
  0
LINE
  8
0
  6
CONTINUOUS
 62
     2
 10
555.925
 20
340.5
 11
555.925
 21
340.0
  0
LINE
  8
0
  6
CONTINUOUS
 62
     1
 10
564.573333335
 20
342.0
 11
569.426666665
 21
342.0
  0
LINE
  8
0
  6
CONTINUOUS
 62
     1
 10
564.573333335
 20
342.0
 11
564.660000002
 21
342.866666666
  0
LINE
  8
0
  6
CONTINUOUS
 62
     1
 10
569.426666665
 20
342.0
 11
569.339999998
 21
342.866666666
  0
ARC
  8
0
  6
CONTINUOUS
 62
     1
 10
568.559999999
 20
342.693333333
 40
0.779999999
 50
12.6
 51
63.4
  0
ARC
  8
0
  6
CONTINUOUS
 62
     1
 10
565.440000001
 20
342.693333333
 40
0.779999999
 50
116.6
 51
167.4
  0
ARC
  8
0
  6
CONTINUOUS
 62
     1
 10
567.0
 20
338.273333336
 40
5.459999996
 50
69.4
 51
110.6
  0
LINE
  8
0
  6
CONTINUOUS
 62
     1
 10
565.7
 20
340.5
 11
565.7
 21
340.0
  0
LINE
  8
0
  6
CONTINUOUS
 62
     1
 10
568.3
 20
340.5
 11
568.3
 21
340.0
  0
LINE
  8
0
  6
CONTINUOUS
 62
     2
 10
568.075
 20
340.5
 11
568.075
 21
340.0
  0
LINE
  8
0
  6
CONTINUOUS
 62
     2
 10
565.925
 20
340.5
 11
565.925
 21
340.0
  0
POLYLINE
  8
0
  6
CONTINUOUS
 62
     1
 66
     1
  0
VERTEX
  8
0
  6
CONTINUOUS
 62
     1
 10
552.0
 20
354.5
  0
VERTEX
  8
0
  6
CONTINUOUS
 62
     1
 10
552.0
 20
340.5
  0
VERTEX
  8
0
  6
CONTINUOUS
 62
     1
 10
572.0
 20
340.5
  0
SEQEND
  0
LINE
  8
0
  6
CONTINUOUS
 62
     1
 10
552.0
 20
342.0
 11
572.0
 21
342.0
  0
LINE
  8
0
  6
CONTINUOUS
 62
     1
 10
572.0
 20
354.5
 11
572.0
 21
340.5
  0
LINE
  8
0
  6
CONTINUOUS
 62
     1
 10
552.0
 20
354.5
 11
572.0
 21
354.5
  0
LINE
  8
0
  6
CONTINUOUS
 62
     1
 10
552.0
 20
320.0
 11
552.0
 21
340.0
  0
LINE
  8
0
  6
CONTINUOUS
 62
     1
 10
572.0
 20
340.0
 11
572.0
 21
320.0
  0
LINE
  8
0
  6
CONTINUOUS
 62
     1
 10
552.0
 20
340.0
 11
572.0
 21
340.0
  0
LINE
  8
0
  6
CONTINUOUS
 62
     1
 10
552.0
 20
320.0
 11
572.0
 21
320.0
  0
LINE
  8
0
  6
CONTINUOUS
 62
     1
 10
552.0
 20
324.0
 11
572.0
 21
324.0
  0
LINE
  8
0
  6
LTYPE2
 62
     2
 10
558.75
 20
324.0
 11
558.75
 21
320.0
  0
LINE
  8
0
  6
LTYPE2
 62
     2
 10
555.25
 20
324.0
 11
555.25
 21
320.0
  0
LINE
  8
0
  6
LTYPE2
 62
     2
 10
568.75
 20
324.0
 11
568.75
 21
320.0
  0
LINE
  8
0
  6
LTYPE2
 62
     2
 10
565.25
 20
324.0
 11
565.25
 21
320.0
  0
LINE
  8
0
  6
CONTINUOUS
 62
     1
 10
572.0
 20
327.0
 11
610.0
 21
327.0
  0
LINE
  8
0
  6
CONTINUOUS
 62
     1
 10
610.0
 20
353.0
 11
572.0
 21
353.0
  0
LINE
  8
0
  6
LTYPE1
 62
     2
 10
557.0
 20
346.733333332
 11
557.0
 21
335.0
  0
LINE
  8
0
  6
LTYPE1
 62
     2
 10
567.0
 20
346.733333332
 11
567.0
 21
335.0
  0
LINE
  8
0
  6
LTYPE3
 62
     2
 10
557.0
 20
329.0
 11
557.0
 21
315.0
  0
LINE
  8
0
  6
LTYPE3
 62
     2
 10
567.0
 20
329.0
 11
567.0
 21
315.0
  0
POLYLINE
  8
0
  6
CONTINUOUS
 62
     1
 66
     1
  0
VERTEX
  8
0
  6
CONTINUOUS
 62
     1
 10
612.0
 20
343.0
  0
VERTEX
  8
0
  6
CONTINUOUS
 62
     1
 10
742.0
 20
343.0
  0
VERTEX
  8
0
  6
CONTINUOUS
 62
     1
 10
742.0
 20
337.0
  0
VERTEX
  8
0
  6
CONTINUOUS
 62
     1
 10
612.0
 20
337.0
  0
SEQEND
  0
LINE
  8
0
  6
CONTINUOUS
 62
     1
 10
761.6
 20
342.5
 11
761.6
 21
337.5
  0
LINE
  8
0
  6
CONTINUOUS
 62
     2
 10
742.0
 20
342.1
 11
762.0
 21
342.1
  0
LINE
  8
0
  6
CONTINUOUS
 62
     2
 10
762.0
 20
337.9
 11
742.0
 21
337.9
  0
POLYLINE
  8
0
  6
CONTINUOUS
 62
     1
 66
     1
  0
VERTEX
  8
0
  6
CONTINUOUS
 62
     1
 10
742.0
 20
342.5
  0
VERTEX
  8
0
  6
CONTINUOUS
 62
     1
 10
761.6
 20
342.5
  0
VERTEX
  8
0
  6
CONTINUOUS
 62
     1
 10
762.0
 20
342.1
  0
SEQEND
  0
LINE
  8
0
  6
CONTINUOUS
 62
     1
 10
761.6
 20
337.5
 11
742.0
 21
337.5
  0
LINE
  8
0
  6
CONTINUOUS
 62
     1
 10
762.0
 20
342.1
 11
762.0
 21
337.9
  0
LINE
  8
0
  6
CONTINUOUS
 62
     1
 10
761.6
 20
337.5
 11
762.0
 21
337.9
  0
LINE
  8
4
  6
CONTINUOUS
 62
     2
 10
752.0
 20
342.5
 11
750.137498702
 21
347.14016044
  0
LINE
  8
4
  6
CONTINUOUS
 62
     2
 10
752.0
 20
342.5
 11
748.066946341
 21
345.58724617
  0
LINE
  8
4
  6
CONTINUOUS
 62
     2
 10
752.0
 20
342.5
 11
737.0
 21
362.5
  0
LINE
  8
0
  6
LTYPE3
 62
     2
 10
772.0
 20
340.0
 11
210.0
 21
340.0
  0
ARC
  8
0
  6
CONTINUOUS
 62
     1
 10
425.875
 20
346.5
 40
8.125
 50
126.869897646
 51
233.130102354
  0
ARC
  8
0
  6
CONTINUOUS
 62
     1
 10
425.875
 20
333.5
 40
8.125
 50
126.869897646
 51
233.130102354
  0
ARC
  8
0
  6
CONTINUOUS
 62
     1
 10
416.125
 20
346.5
 40
8.125
 50
306.869897646
 51
53.130102354
  0
ARC
  8
0
  6
CONTINUOUS
 62
     1
 10
406.125
 20
333.5
 40
8.125
 50
306.869897646
 51
53.130102354
  0
ARC
  8
0
  6
CONTINUOUS
 62
     1
 10
406.125
 20
346.5
 40
8.125
 50
306.869897646
 51
53.130102354
  0
ARC
  8
0
  6
CONTINUOUS
 62
     1
 10
415.875
 20
333.5
 40
8.125
 50
126.869897646
 51
233.130102354
  0
LINE
  8
0
  6
CONTINUOUS
 62
     1
 10
411.0
 20
353.0
 11
280.0
 21
353.0
  0
LINE
  8
0
  6
CONTINUOUS
 62
     1
 10
552.0
 20
353.0
 11
421.0
 21
353.0
  0
LINE
  8
0
  6
CONTINUOUS
 62
     1
 10
421.0
 20
327.0
 11
552.0
 21
327.0
  0
LINE
  8
0
  6
CONTINUOUS
 62
     1
 10
280.0
 20
327.0
 11
411.0
 21
327.0
  0
LINE
  8
4
  6
CONTINUOUS
 62
     2
 10
557.0
 20
315.0
 11
557.0
 21
288.0
  0
LINE
  8
4
  6
CONTINUOUS
 62
     2
 10
557.0
 20
290.0
 11
561.829629131
 21
288.705904774
  0
LINE
  8
4
  6
CONTINUOUS
 62
     2
 10
557.0
 20
290.0
 11
561.829629131
 21
291.294095226
  0
LINE
  8
4
  6
CONTINUOUS
 62
     2
 10
557.0
 20
290.0
 11
567.0
 21
290.0
  0
LINE
  8
4
  6
CONTINUOUS
 62
     2
 10
567.0
 20
290.0
 11
562.170370869
 21
291.294095226
  0
LINE
  8
4
  6
CONTINUOUS
 62
     2
 10
567.0
 20
290.0
 11
562.170370869
 21
288.705904774
  0
LINE
  8
4
  6
CONTINUOUS
 62
     2
 10
567.0
 20
315.0
 11
567.0
 21
288.0
  0
LINE
  8
4
  6
CONTINUOUS
 62
     2
 10
265.0
 20
315.0
 11
265.0
 21
288.0
  0
LINE
  8
4
  6
CONTINUOUS
 62
     2
 10
265.0
 20
290.0
 11
269.829629131
 21
288.705904774
  0
LINE
  8
4
  6
CONTINUOUS
 62
     2
 10
265.0
 20
290.0
 11
269.829629131
 21
291.294095226
  0
LINE
  8
4
  6
CONTINUOUS
 62
     2
 10
265.0
 20
290.0
 11
275.0
 21
290.0
  0
LINE
  8
4
  6
CONTINUOUS
 62
     2
 10
275.0
 20
290.0
 11
270.170370869
 21
291.294095226
  0
LINE
  8
4
  6
CONTINUOUS
 62
     2
 10
275.0
 20
290.0
 11
270.170370869
 21
288.705904774
  0
LINE
  8
4
  6
CONTINUOUS
 62
     2
 10
275.0
 20
315.0
 11
275.0
 21
288.0
  0
TEXT
  8
4
  6
CONTINUOUS
 62
     5
 10
554.9
 20
292.0
 30
-1.0
 40
8.0
  1
１０
 50
0.0
 41
0.875
 51
0.0
  7
KANJI4
  0
TEXT
  8
4
  6
CONTINUOUS
 62
     5
 10
262.9
 20
292.0
 30
-1.0
 40
8.0
  1
１０
 50
0.0
 41
0.875
 51
0.0
  7
KANJI4
  0
LINE
  8
4
  6
CONTINUOUS
 62
     2
 10
260.0
 20
318.0
 11
260.0
 21
268.0
  0
LINE
  8
4
  6
CONTINUOUS
 62
     2
 10
260.0
 20
270.0
 11
264.829629131
 21
268.705904774
  0
LINE
  8
4
  6
CONTINUOUS
 62
     2
 10
260.0
 20
270.0
 11
264.829629131
 21
271.294095226
  0
LINE
  8
4
  6
CONTINUOUS
 62
     2
 10
260.0
 20
270.0
 11
280.0
 21
270.0
  0
LINE
  8
4
  6
CONTINUOUS
 62
     2
 10
280.0
 20
270.0
 11
275.170370869
 21
271.294095226
  0
LINE
  8
4
  6
CONTINUOUS
 62
     2
 10
280.0
 20
270.0
 11
275.170370869
 21
268.705904774
  0
LINE
  8
4
  6
CONTINUOUS
 62
     2
 10
280.0
 20
318.0
 11
280.0
 21
268.0
  0
TEXT
  8
4
  6
CONTINUOUS
 62
     5
 10
262.9
 20
272.0
 30
0.2
 40
8.0
  1
２０
 50
0.0
 41
0.875
 51
0.0
  7
KANJI3
  0
LINE
  8
4
  6
CONTINUOUS
 62
     2
 10
552.0
 20
318.0
 11
552.0
 21
268.0
  0
LINE
  8
4
  6
CONTINUOUS
 62
     2
 10
552.0
 20
270.0
 11
556.829629131
 21
268.705904774
  0
LINE
  8
4
  6
CONTINUOUS
 62
     2
 10
552.0
 20
270.0
 11
556.829629131
 21
271.294095226
  0
LINE
  8
4
  6
CONTINUOUS
 62
     2
 10
552.0
 20
270.0
 11
572.0
 21
270.0
  0
LINE
  8
4
  6
CONTINUOUS
 62
     2
 10
572.0
 20
270.0
 11
567.170370869
 21
271.294095226
  0
LINE
  8
4
  6
CONTINUOUS
 62
     2
 10
572.0
 20
270.0
 11
567.170370869
 21
268.705904774
  0
LINE
  8
4
  6
CONTINUOUS
 62
     2
 10
572.0
 20
318.0
 11
572.0
 21
268.0
  0
TEXT
  8
4
  6
CONTINUOUS
 62
     5
 10
554.9
 20
272.0
 30
0.2
 40
8.0
  1
２０
 50
0.0
 41
0.875
 51
0.0
  7
KANJI3
  0
LINE
  8
4
  6
CONTINUOUS
 62
     2
 10
762.0
 20
335.9
 11
762.0
 21
248.0
  0
LINE
  8
4
  6
CONTINUOUS
 62
     2
 10
762.0
 20
250.0
 11
757.170370869
 21
251.294095226
  0
LINE
  8
4
  6
CONTINUOUS
 62
     2
 10
762.0
 20
250.0
 11
757.170370869
 21
248.705904774
  0
LINE
  8
4
  6
CONTINUOUS
 62
     2
 10
762.0
 20
250.0
 11
612.0
 21
250.0
  0
LINE
  8
4
  6
CONTINUOUS
 62
     2
 10
612.0
 20
250.0
 11
616.829629131
 21
248.705904774
  0
LINE
  8
4
  6
CONTINUOUS
 62
     2
 10
612.0
 20
250.0
 11
616.829629131
 21
251.294095226
  0
LINE
  8
4
  6
CONTINUOUS
 62
     2
 10
612.0
 20
327.0
 11
612.0
 21
248.0
  0
TEXT
  8
4
  6
CONTINUOUS
 62
     5
 10
676.3
 20
252.0
 30
0.2
 40
8.0
  1
１５０
 50
0.0
 41
0.875
 51
0.0
  7
KANJI3
  0
LINE
  8
4
  6
CONTINUOUS
 62
     2
 10
220.0
 20
327.0
 11
220.0
 21
248.0
  0
LINE
  8
4
  6
CONTINUOUS
 62
     2
 10
220.0
 20
250.0
 11
224.829629131
 21
248.705904774
  0
LINE
  8
4
  6
CONTINUOUS
 62
     2
 10
220.0
 20
250.0
 11
224.829629131
 21
251.294095226
  0
LINE
  8
4
  6
CONTINUOUS
 62
     2
 10
220.0
 20
250.0
 11
612.0
 21
250.0
  0
LINE
  8
4
  6
CONTINUOUS
 62
     2
 10
612.0
 20
250.0
 11
607.170370869
 21
251.294095226
  0
LINE
  8
4
  6
CONTINUOUS
 62
     2
 10
612.0
 20
250.0
 11
607.170370869
 21
248.705904774
  0
TEXT
  8
4
  6
CONTINUOUS
 62
     5
 10
405.3
 20
252.0
 30
0.2
 40
8.0
  1
５７２
 50
0.0
 41
0.875
 51
0.0
  7
KANJI3
  0
LINE
  8
4
  6
CONTINUOUS
 62
     2
 10
762.0
 20
248.0
 11
762.0
 21
228.0
  0
LINE
  8
4
  6
CONTINUOUS
 62
     2
 10
762.0
 20
230.0
 11
757.170370869
 21
231.294095226
  0
LINE
  8
4
  6
CONTINUOUS
 62
     2
 10
762.0
 20
230.0
 11
757.170370869
 21
228.705904774
  0
LINE
  8
4
  6
CONTINUOUS
 62
     2
 10
762.0
 20
230.0
 11
220.0
 21
230.0
  0
LINE
  8
4
  6
CONTINUOUS
 62
     2
 10
220.0
 20
230.0
 11
224.829629131
 21
228.705904774
  0
LINE
  8
4
  6
CONTINUOUS
 62
     2
 10
220.0
 20
230.0
 11
224.829629131
 21
231.294095226
  0
LINE
  8
4
  6
CONTINUOUS
 62
     2
 10
220.0
 20
248.0
 11
220.0
 21
228.0
  0
TEXT
  8
4
  6
CONTINUOUS
 62
     5
 10
480.3
 20
232.0
 30
0.2
 40
8.0
  1
７２２
 50
0.0
 41
0.875
 51
0.0
  7
KANJI3
  0
LINE
  8
4
  6
CONTINUOUS
 62
     2
 10
682.0
 20
343.0
 11
683.294095226
 21
347.829629131
  0
LINE
  8
4
  6
CONTINUOUS
 62
     2
 10
682.0
 20
343.0
 11
680.705904774
 21
347.829629131
  0
LINE
  8
4
  6
CONTINUOUS
 62
     2
 10
682.0
 20
364.7
 11
682.0
 21
343.0
  0
LINE
  8
4
  6
CONTINUOUS
 62
     2
 10
682.0
 20
343.0
 11
682.0
 21
337.0
  0
LINE
  8
4
  6
CONTINUOUS
 62
     2
 10
682.0
 20
337.0
 11
682.0
 21
329.5
  0
LINE
  8
4
  6
CONTINUOUS
 62
     2
 10
682.0
 20
337.0
 11
680.705904774
 21
332.170370869
  0
LINE
  8
4
  6
CONTINUOUS
 62
     2
 10
682.0
 20
337.0
 11
683.294095226
 21
332.170370869
  0
TEXT
  8
4
  6
CONTINUOUS
 62
     5
 10
680.0
 20
350.5
 30
0.2
 40
8.0
  1
φ６
 50
90.0
 41
0.875
 51
0.0
  7
KANJI3
  0
LINE
  8
4
  6
CONTINUOUS
 62
     2
 10
722.8
 20
362.5
 11
737.0
 21
362.5
  0
TEXT
  8
4
  6
CONTINUOUS
 62
     5
 10
722.8
 20
364.5
 30
0.2
 40
8.0
  1
Ｍ５
 50
0.0
 41
0.875
 51
0.0
  7
KANJI3
  0
LINE
  8
4
  6
CONTINUOUS
 62
     2
 10
762.0
 20
340.0
 11
765.657088877
 21
343.409648215
  0
LINE
  8
4
  6
CONTINUOUS
 62
     2
 10
762.0
 20
340.0
 11
763.462307764
 21
344.78138641
  0
LINE
  8
4
  6
CONTINUOUS
 62
     2
 10
762.0
 20
340.0
 11
787.0
 21
380.0
  0
LINE
  8
4
  6
CONTINUOUS
 62
     2
 10
740.3
 20
380.0
 11
787.0
 21
380.0
  0
LINE
  8
4
  6
CONTINUOUS
 62
     2
 10
382.0
 20
327.0
 11
383.294095226
 21
331.829629131
  0
LINE
  8
4
  6
CONTINUOUS
 62
     2
 10
382.0
 20
327.0
 11
380.705904774
 21
331.829629131
  0
LINE
  8
4
  6
CONTINUOUS
 62
     2
 10
382.0
 20
327.0
 11
382.0
 21
379.4
  0
LINE
  8
4
  6
CONTINUOUS
 62
     2
 10
382.0
 20
353.0
 11
380.705904774
 21
348.170370869
  0
LINE
  8
4
  6
CONTINUOUS
 62
     2
 10
382.0
 20
353.0
 11
383.294095226
 21
348.170370869
  0
TEXT
  8
4
  6
CONTINUOUS
 62
     5
 10
380.0
 20
358.0
 30
0.2
 40
8.0
  1
φ２６
 50
90.0
 41
0.875
 51
0.0
  7
KANJI3
  0
LINE
  8
4
  6
CONTINUOUS
 62
     2
 10
742.0
 20
335.0
 11
742.0
 21
268.0
  0
LINE
  8
4
  6
CONTINUOUS
 62
     2
 10
742.0
 20
270.0
 11
746.829629131
 21
268.705904774
  0
LINE
  8
4
  6
CONTINUOUS
 62
     2
 10
742.0
 20
270.0
 11
746.829629131
 21
271.294095226
  0
LINE
  8
4
  6
CONTINUOUS
 62
     2
 10
742.0
 20
270.0
 11
762.0
 21
270.0
  0
LINE
  8
4
  6
CONTINUOUS
 62
     2
 10
762.0
 20
270.0
 11
757.170370869
 21
271.294095226
  0
LINE
  8
4
  6
CONTINUOUS
 62
     2
 10
762.0
 20
270.0
 11
757.170370869
 21
268.705904774
  0
TEXT
  8
4
  6
CONTINUOUS
 62
     5
 10
744.9
 20
272.0
 30
0.2
 40
8.0
  1
２０
 50
0.0
 41
0.875
 51
0.0
  7
KANJI3
  0
TEXT
  8
5
  6
CONTINUOUS
 62
     5
 10
668.0
 20
29.0
 30
0.0
 40
8.0
  1
Ｋ－０１１３－Ａ１５
 50
0.0
 41
0.875
 51
0.0
  7
KANJI0
  0
LINE
  8
0
  6
CONTINUOUS
 62
     1
 10
609.0
 20
327.0
 11
609.0
 21
353.0
  0
LINE
  8
4
  6
CONTINUOUS
 62
     2
 10
275.0
 20
320.0
 11
277.5
 21
315.669872981
  0
LINE
  8
4
  6
CONTINUOUS
 62
     2
 10
275.0
 20
320.0
 11
279.330127019
 21
317.5
  0
LINE
  8
4
  6
CONTINUOUS
 62
     2
 10
275.0
 20
320.0
 11
300.0
 21
295.0
  0
LINE
  8
4
  6
CONTINUOUS
 62
     2
 10
300.0
 20
295.0
 11
361.1
 21
295.0
  0
TEXT
  8
4
  6
CONTINUOUS
 62
     5
 10
300.0
 20
297.0
 30
0.2
 40
8.0
  1
４－φ３．５取付穴
 50
0.0
 41
0.875
 51
0.0
  7
KANJI3
  0
LINE
  8
4
  6
CONTINUOUS
 62
     2
 10
557.0
 20
320.0
 11
554.5
 21
315.669872981
  0
LINE
  8
4
  6
CONTINUOUS
 62
     2
 10
557.0
 20
320.0
 11
552.669872981
 21
317.5
  0
LINE
  8
4
  6
CONTINUOUS
 62
     2
 10
557.0
 20
320.0
 11
532.0
 21
295.0
  0
LINE
  8
4
  6
CONTINUOUS
 62
     2
 10
532.0
 20
295.0
 11
470.9
 21
295.0
  0
TEXT
  8
4
  6
CONTINUOUS
 62
     5
 10
470.9
 20
297.0
 30
0.2
 40
8.0
  1
４－φ３．５取付穴
 50
0.0
 41
0.875
 51
0.0
  7
KANJI3
  0
TEXT
  8
4
  6
CONTINUOUS
 62
     5
 10
740.3
 20
382.0
 30
0.2
 40
8.0
  1
Ｍ２．５深さ６
 50
0.0
 41
0.875
 51
0.0
  7
KANJI3
  0
LINE
  8
0
  6
LTYPE2
 62
     2
 10
762.0
 20
341.25
 11
756.0
 21
341.25
  0
LINE
  8
0
  6
LTYPE2
 62
     2
 10
762.0
 20
341.025
 11
755.0
 21
341.025
  0
LINE
  8
0
  6
LTYPE2
 62
     2
 10
755.0
 20
341.025
 11
754.408215974
 21
340.0
  0
LINE
  8
0
  6
LTYPE2
 62
     2
 10
762.0
 20
338.75
 11
756.0
 21
338.75
  0
LINE
  8
0
  6
LTYPE2
 62
     2
 10
762.0
 20
338.975
 11
755.0
 21
338.975
  0
LINE
  8
0
  6
LTYPE2
 62
     2
 10
755.0
 20
338.975
 11
754.408215974
 21
340.0
  0
LINE
  8
0
  6
LTYPE2
 62
     2
 10
755.0
 20
341.025
 11
755.0
 21
338.975
  0
LINE
  8
0
  6
LTYPE2
 62
     2
 10
756.0
 20
341.25
 11
756.0
 21
338.75
  0
ENDSEC
  0
EOF
