  0
SECTION
  2
HEADER
  9
$EXTMIN
 10
0.0
 20
0.0
 30
0.0
  9
$EXTMAX
 10
420.0
 20
297.0
 30
0.0
  9
$LIMMIN
 10
0.0
 20
0.0
  9
$LIMMAX
 10
420.0
 20
297.0
  9
$LTSCALE
 40
1.0
  9
$PDMODE
 70
     0
  0
ENDSEC
  0
SECTION
  2
TABLES
  0
TABLE
  2
LTYPE
 70
     6
  0
LTYPE
  2
CONTINUOUS
 70
    64
  3
Solid line
 72
    65
 73
     0
 40
0.0
  0
LTYPE
  2
LTYPE1
 70
    64
  3
PHANTOM
 72
    65
 73
     6
 40
10.0
 49
7.5
 49
-0.5
 49
0.5
 49
-0.5
 49
0.5
 49
-0.5
  0
LTYPE
  2
LTYPE2
 70
    64
  3
HIDDEN
 72
    65
 73
     2
 40
2.0
 49
1.2
 49
-0.8
  0
LTYPE
  2
LTYPE3
 70
    64
  3
CENTER
 72
    65
 73
     4
 40
10.0
 49
7.0
 49
-1.0
 49
1.0
 49
-1.0
  0
LTYPE
  2
LTYPE4
 70
    64
  3
CENTER
 72
    65
 73
     4
 40
8.0
 49
5.6
 49
-0.8
 49
0.8
 49
-0.8
  0
LTYPE
  2
LTYPE5
 70
    64
  3
HIDDEN
 72
    65
 73
     2
 40
1.5
 49
0.9
 49
-0.6
  0
ENDTAB
  0
TABLE
  2
LAYER
 70
   128
  0
LAYER
  2
0
 70
     0
 62
     7
  6
CONTINUOUS
  0
LAYER
  2
ハッチング
 70
     0
 62
     7
  6
CONTINUOUS
  0
LAYER
  2
治具
 70
     0
 62
     7
  6
CONTINUOUS
  0
LAYER
  2
購入品
 70
     0
 62
     7
  6
CONTINUOUS
  0
LAYER
  2
寸法線
 70
     0
 62
     7
  6
CONTINUOUS
  0
LAYER
  2
表題欄
 70
     0
 62
     7
  6
CONTINUOUS
  0
LAYER
  2
図枠
 70
     0
 62
     7
  6
CONTINUOUS
  0
LAYER
  2
8
 70
     0
 62
     7
  6
CONTINUOUS
  0
LAYER
  2
9
 70
     0
 62
     7
  6
CONTINUOUS
  0
LAYER
  2
10
 70
     0
 62
     7
  6
CONTINUOUS
  0
LAYER
  2
11
 70
     0
 62
     7
  6
CONTINUOUS
  0
LAYER
  2
12
 70
     0
 62
     7
  6
CONTINUOUS
  0
LAYER
  2
13
 70
     0
 62
     7
  6
CONTINUOUS
  0
LAYER
  2
14
 70
     0
 62
     7
  6
CONTINUOUS
  0
LAYER
  2
15
 70
     0
 62
     7
  6
CONTINUOUS
  0
LAYER
  2
16
 70
     0
 62
     7
  6
CONTINUOUS
  0
LAYER
  2
17
 70
     0
 62
     7
  6
CONTINUOUS
  0
LAYER
  2
18
 70
     0
 62
     7
  6
CONTINUOUS
  0
LAYER
  2
19
 70
     0
 62
     7
  6
CONTINUOUS
  0
LAYER
  2
20
 70
     0
 62
     7
  6
CONTINUOUS
  0
LAYER
  2
21
 70
     0
 62
     7
  6
CONTINUOUS
  0
LAYER
  2
22
 70
     0
 62
     7
  6
CONTINUOUS
  0
LAYER
  2
23
 70
     0
 62
     7
  6
CONTINUOUS
  0
LAYER
  2
24
 70
     0
 62
     7
  6
CONTINUOUS
  0
LAYER
  2
25
 70
     0
 62
     7
  6
CONTINUOUS
  0
LAYER
  2
26
 70
     0
 62
     7
  6
CONTINUOUS
  0
LAYER
  2
27
 70
     0
 62
     7
  6
CONTINUOUS
  0
LAYER
  2
28
 70
     0
 62
     7
  6
CONTINUOUS
  0
LAYER
  2
29
 70
     0
 62
     7
  6
CONTINUOUS
  0
LAYER
  2
30
 70
     0
 62
     7
  6
CONTINUOUS
  0
LAYER
  2
31
 70
     0
 62
     7
  6
CONTINUOUS
  0
LAYER
  2
32
 70
     0
 62
     7
  6
CONTINUOUS
  0
LAYER
  2
33
 70
     0
 62
     7
  6
CONTINUOUS
  0
LAYER
  2
34
 70
     0
 62
     7
  6
CONTINUOUS
  0
LAYER
  2
35
 70
     0
 62
     7
  6
CONTINUOUS
  0
LAYER
  2
36
 70
     0
 62
     7
  6
CONTINUOUS
  0
LAYER
  2
37
 70
     0
 62
     7
  6
CONTINUOUS
  0
LAYER
  2
38
 70
     0
 62
     7
  6
CONTINUOUS
  0
LAYER
  2
39
 70
     0
 62
     7
  6
CONTINUOUS
  0
LAYER
  2
40
 70
     0
 62
     7
  6
CONTINUOUS
  0
LAYER
  2
41
 70
     0
 62
     7
  6
CONTINUOUS
  0
LAYER
  2
42
 70
     0
 62
     7
  6
CONTINUOUS
  0
LAYER
  2
43
 70
     0
 62
     7
  6
CONTINUOUS
  0
LAYER
  2
44
 70
     0
 62
     7
  6
CONTINUOUS
  0
LAYER
  2
45
 70
     0
 62
     7
  6
CONTINUOUS
  0
LAYER
  2
46
 70
     0
 62
     7
  6
CONTINUOUS
  0
LAYER
  2
47
 70
     0
 62
     7
  6
CONTINUOUS
  0
LAYER
  2
48
 70
     0
 62
     7
  6
CONTINUOUS
  0
LAYER
  2
49
 70
     0
 62
     7
  6
CONTINUOUS
  0
LAYER
  2
50
 70
     0
 62
     7
  6
CONTINUOUS
  0
LAYER
  2
51
 70
     0
 62
     7
  6
CONTINUOUS
  0
LAYER
  2
52
 70
     0
 62
     7
  6
CONTINUOUS
  0
LAYER
  2
53
 70
     0
 62
     7
  6
CONTINUOUS
  0
LAYER
  2
54
 70
     0
 62
     7
  6
CONTINUOUS
  0
LAYER
  2
55
 70
     0
 62
     7
  6
CONTINUOUS
  0
LAYER
  2
56
 70
     0
 62
     7
  6
CONTINUOUS
  0
LAYER
  2
57
 70
     0
 62
     7
  6
CONTINUOUS
  0
LAYER
  2
58
 70
     0
 62
     7
  6
CONTINUOUS
  0
LAYER
  2
59
 70
     0
 62
     7
  6
CONTINUOUS
  0
LAYER
  2
60
 70
     0
 62
     7
  6
CONTINUOUS
  0
LAYER
  2
61
 70
     0
 62
     7
  6
CONTINUOUS
  0
LAYER
  2
62
 70
     0
 62
     7
  6
CONTINUOUS
  0
LAYER
  2
63
 70
     0
 62
     7
  6
CONTINUOUS
  0
LAYER
  2
64
 70
     0
 62
     7
  6
CONTINUOUS
  0
LAYER
  2
65
 70
     0
 62
     7
  6
CONTINUOUS
  0
LAYER
  2
66
 70
     0
 62
     7
  6
CONTINUOUS
  0
LAYER
  2
67
 70
     0
 62
     7
  6
CONTINUOUS
  0
LAYER
  2
68
 70
     0
 62
     7
  6
CONTINUOUS
  0
LAYER
  2
69
 70
     0
 62
     7
  6
CONTINUOUS
  0
LAYER
  2
70
 70
     0
 62
     7
  6
CONTINUOUS
  0
LAYER
  2
71
 70
     0
 62
     7
  6
CONTINUOUS
  0
LAYER
  2
72
 70
     0
 62
     7
  6
CONTINUOUS
  0
LAYER
  2
73
 70
     0
 62
     7
  6
CONTINUOUS
  0
LAYER
  2
74
 70
     0
 62
     7
  6
CONTINUOUS
  0
LAYER
  2
75
 70
     0
 62
     7
  6
CONTINUOUS
  0
LAYER
  2
76
 70
     0
 62
     7
  6
CONTINUOUS
  0
LAYER
  2
77
 70
     0
 62
     7
  6
CONTINUOUS
  0
LAYER
  2
78
 70
     0
 62
     7
  6
CONTINUOUS
  0
LAYER
  2
79
 70
     0
 62
     7
  6
CONTINUOUS
  0
LAYER
  2
80
 70
     0
 62
     7
  6
CONTINUOUS
  0
LAYER
  2
81
 70
     0
 62
     7
  6
CONTINUOUS
  0
LAYER
  2
82
 70
     0
 62
     7
  6
CONTINUOUS
  0
LAYER
  2
83
 70
     0
 62
     7
  6
CONTINUOUS
  0
LAYER
  2
84
 70
     0
 62
     7
  6
CONTINUOUS
  0
LAYER
  2
85
 70
     0
 62
     7
  6
CONTINUOUS
  0
LAYER
  2
86
 70
     0
 62
     7
  6
CONTINUOUS
  0
LAYER
  2
87
 70
     0
 62
     7
  6
CONTINUOUS
  0
LAYER
  2
88
 70
     0
 62
     7
  6
CONTINUOUS
  0
LAYER
  2
89
 70
     0
 62
     7
  6
CONTINUOUS
  0
LAYER
  2
90
 70
     0
 62
     7
  6
CONTINUOUS
  0
LAYER
  2
91
 70
     0
 62
     7
  6
CONTINUOUS
  0
LAYER
  2
92
 70
     0
 62
     7
  6
CONTINUOUS
  0
LAYER
  2
93
 70
     0
 62
     7
  6
CONTINUOUS
  0
LAYER
  2
94
 70
     0
 62
     7
  6
CONTINUOUS
  0
LAYER
  2
95
 70
     0
 62
     7
  6
CONTINUOUS
  0
LAYER
  2
96
 70
     0
 62
     7
  6
CONTINUOUS
  0
LAYER
  2
97
 70
     0
 62
     7
  6
CONTINUOUS
  0
LAYER
  2
98
 70
     0
 62
     7
  6
CONTINUOUS
  0
LAYER
  2
99
 70
     0
 62
     7
  6
CONTINUOUS
  0
LAYER
  2
100
 70
     0
 62
     7
  6
CONTINUOUS
  0
LAYER
  2
101
 70
     0
 62
     7
  6
CONTINUOUS
  0
LAYER
  2
102
 70
     0
 62
     7
  6
CONTINUOUS
  0
LAYER
  2
103
 70
     0
 62
     7
  6
CONTINUOUS
  0
LAYER
  2
104
 70
     0
 62
     7
  6
CONTINUOUS
  0
LAYER
  2
105
 70
     0
 62
     7
  6
CONTINUOUS
  0
LAYER
  2
106
 70
     0
 62
     7
  6
CONTINUOUS
  0
LAYER
  2
107
 70
     0
 62
     7
  6
CONTINUOUS
  0
LAYER
  2
108
 70
     0
 62
     7
  6
CONTINUOUS
  0
LAYER
  2
109
 70
     0
 62
     7
  6
CONTINUOUS
  0
LAYER
  2
110
 70
     0
 62
     7
  6
CONTINUOUS
  0
LAYER
  2
111
 70
     0
 62
     7
  6
CONTINUOUS
  0
LAYER
  2
112
 70
     0
 62
     7
  6
CONTINUOUS
  0
LAYER
  2
113
 70
     0
 62
     7
  6
CONTINUOUS
  0
LAYER
  2
114
 70
     0
 62
     7
  6
CONTINUOUS
  0
LAYER
  2
115
 70
     0
 62
     7
  6
CONTINUOUS
  0
LAYER
  2
116
 70
     0
 62
     7
  6
CONTINUOUS
  0
LAYER
  2
117
 70
     0
 62
     7
  6
CONTINUOUS
  0
LAYER
  2
118
 70
     0
 62
     7
  6
CONTINUOUS
  0
LAYER
  2
119
 70
     0
 62
     7
  6
CONTINUOUS
  0
LAYER
  2
120
 70
     0
 62
     7
  6
CONTINUOUS
  0
LAYER
  2
121
 70
     0
 62
     7
  6
CONTINUOUS
  0
LAYER
  2
122
 70
     0
 62
     7
  6
CONTINUOUS
  0
LAYER
  2
123
 70
     0
 62
     7
  6
CONTINUOUS
  0
LAYER
  2
124
 70
     0
 62
     7
  6
CONTINUOUS
  0
LAYER
  2
125
 70
     0
 62
     7
  6
CONTINUOUS
  0
LAYER
  2
126
 70
     0
 62
     7
  6
CONTINUOUS
  0
LAYER
  2
127
 70
     0
 62
     7
  6
CONTINUOUS
  0
LAYER
  2
128
 70
     0
 62
     7
  6
CONTINUOUS
  0
ENDTAB
  0
TABLE
  2
STYLE
 70
    13
  0
STYLE
  2
STANDARD
 70
     0
 40
0.0
 41
1.0
 50
0.0
 71
     0
 42
0.2
  3
txt
  4

  0
STYLE
  2
KANJI0
 70
     0
 40
4.0
 41
0.875
 50
0.0
 71
     0
 42
4.0
  3

  4
bigfont
  0
STYLE
  2
KANJI1
 70
     0
 40
4.0
 41
0.875
 50
0.0
 71
     0
 42
4.0
  3

  4
bigfont
  0
STYLE
  2
KANJI2
 70
     0
 40
5.0
 41
1.0
 50
0.0
 71
     0
 42
5.0
  3

  4
bigfont
  0
STYLE
  2
KANJI3
 70
     0
 40
5.0
 41
1.2
 50
0.0
 71
     0
 42
5.0
  3

  4
bigfont
  0
STYLE
  2
KANJI4
 70
     0
 40
3.0
 41
0.666666667
 50
0.0
 71
     0
 42
3.0
  3

  4
bigfont
  0
STYLE
  2
KANJI5
 70
     0
 40
3.0
 41
1.0
 50
0.0
 71
     0
 42
3.0
  3

  4
bigfont
  0
STYLE
  2
KANJI6
 70
     0
 40
2.5
 41
1.0
 50
0.0
 71
     0
 42
2.5
  3

  4
bigfont
  0
STYLE
  2
KANJI7
 70
     0
 40
2.5
 41
1.0
 50
0.0
 71
     0
 42
2.5
  3

  4
bigfont
  0
STYLE
  2
KANJI8
 70
     0
 40
2.5
 41
1.0
 50
0.0
 71
     0
 42
2.5
  3

  4
bigfont
  0
STYLE
  2
KANJI9
 70
     0
 40
4.0
 41
1.125
 50
0.0
 71
     0
 42
4.0
  3

  4
bigfont
  0
STYLE
  2
KANJI10
 70
     0
 40
7.0
 41
0.857142857
 50
0.0
 71
     0
 42
7.0
  3

  4
bigfont
  0
STYLE
  2
KANJI11
 70
     0
 40
3.0
 41
0.833333333
 50
0.0
 71
     0
 42
3.0
  3

  4
bigfont
  0
ENDTAB
  0
TABLE
  2
VIEW
 70
     0
  0
ENDTAB
  0
ENDSEC
  0
SECTION
  2
BLOCKS
  0
ENDSEC
  0
SECTION
  2
ENTITIES
  0
LINE
  8
寸法線
  6
CONTINUOUS
 62
     2
 10
-3.0
 20
177.0
 11
-2.352952387
 21
174.585185434
  0
LINE
  8
寸法線
  6
CONTINUOUS
 62
     2
 10
-3.0
 20
177.0
 11
-3.647047613
 21
174.585185434
  0
POLYLINE
  8
寸法線
  6
CONTINUOUS
 62
     2
 66
     1
  0
VERTEX
  8
寸法線
  6
CONTINUOUS
 62
     2
 10
-3.0
 20
177.0
  0
VERTEX
  8
寸法線
  6
CONTINUOUS
 62
     2
 10
-3.0
 20
170.0
  0
VERTEX
  8
寸法線
  6
CONTINUOUS
 62
     2
 10
-3.647047613
 20
172.414814566
  0
SEQEND
  0
LINE
  8
寸法線
  6
CONTINUOUS
 62
     2
 10
-3.0
 20
170.0
 11
-2.352952387
 21
172.414814566
  0
LINE
  8
寸法線
  6
CONTINUOUS
 62
     2
 10
-4.0
 20
177.0
 11
-14.0
 21
177.0
  0
LINE
  8
寸法線
  6
CONTINUOUS
 62
     2
 10
-13.0
 20
177.0
 11
-12.352952387
 21
174.585185434
  0
LINE
  8
寸法線
  6
CONTINUOUS
 62
     2
 10
-13.0
 20
177.0
 11
-13.647047613
 21
174.585185434
  0
LINE
  8
寸法線
  6
CONTINUOUS
 62
     2
 10
-13.0
 20
177.0
 11
-13.0
 21
159.0
  0
LINE
  8
寸法線
  6
CONTINUOUS
 62
     2
 10
-13.0
 20
159.0
 11
-13.647047613
 21
161.414814566
  0
LINE
  8
寸法線
  6
CONTINUOUS
 62
     2
 10
-13.0
 20
159.0
 11
-12.352952387
 21
161.414814566
  0
TEXT
  8
寸法線
  6
CONTINUOUS
 62
     5
 10
-12.0
 20
171.55
 30
0.1
 40
4.0
  1
１８
 50
270.0
 41
0.875
 51
0.0
  7
KANJI0
  0
TEXT
  8
表題欄
  6
CONTINUOUS
 62
     5
 10
343.0
 20
23.0
 30
0.0
 40
4.0
  1
益子
 50
0.0
 41
0.875
 51
0.0
  7
KANJI1
  0
LINE
  8
図枠
  6
CONTINUOUS
 62
     2
 10
410.0
 20
198.5
 11
415.0
 21
198.5
  0
LINE
  8
図枠
  6
CONTINUOUS
 62
     2
 10
410.0
 20
248.5
 11
415.0
 21
248.5
  0
LINE
  8
図枠
  6
CONTINUOUS
 62
     2
 10
410.0
 20
98.5
 11
415.0
 21
98.5
  0
LINE
  8
図枠
  6
CONTINUOUS
 62
     2
 10
410.0
 20
48.5
 11
415.0
 21
48.5
  0
LINE
  8
図枠
  6
CONTINUOUS
 62
     2
 10
410.0
 20
75.0
 11
407.5
 21
75.0
  0
LINE
  8
図枠
  6
CONTINUOUS
 62
     2
 10
410.0
 20
83.0
 11
407.5
 21
83.0
  0
LINE
  8
図枠
  6
CONTINUOUS
 62
     2
 10
410.0
 20
91.0
 11
407.5
 21
91.0
  0
TEXT
  8
図枠
  6
CONTINUOUS
 62
     6
 10
411.5
 20
271.0
 30
0.0
 40
5.0
  1
Ａ
 50
0.0
 41
1.0
 51
0.0
  7
KANJI2
  0
TEXT
  8
図枠
  6
CONTINUOUS
 62
     6
 10
411.5
 20
221.0
 30
0.0
 40
5.0
  1
Ｂ
 50
0.0
 41
1.0
 51
0.0
  7
KANJI2
  0
TEXT
  8
図枠
  6
CONTINUOUS
 62
     6
 10
411.5
 20
171.0
 30
0.0
 40
5.0
  1
Ｃ
 50
0.0
 41
1.0
 51
0.0
  7
KANJI2
  0
TEXT
  8
図枠
  6
CONTINUOUS
 62
     6
 10
411.5
 20
121.0
 30
0.0
 40
5.0
  1
Ｄ
 50
0.0
 41
1.0
 51
0.0
  7
KANJI2
  0
TEXT
  8
図枠
  6
CONTINUOUS
 62
     6
 10
411.5
 20
71.0
 30
0.0
 40
5.0
  1
Ｅ
 50
0.0
 41
1.0
 51
0.0
  7
KANJI2
  0
TEXT
  8
図枠
  6
CONTINUOUS
 62
     6
 10
411.5
 20
21.0
 30
0.0
 40
5.0
  1
Ｆ
 50
0.0
 41
1.0
 51
0.0
  7
KANJI2
  0
LINE
  8
図枠
  6
CONTINUOUS
 62
     2
 10
25.0
 20
198.5
 11
20.0
 21
198.5
  0
LINE
  8
図枠
  6
CONTINUOUS
 62
     2
 10
25.0
 20
248.5
 11
20.0
 21
248.5
  0
LINE
  8
図枠
  6
CONTINUOUS
 62
     2
 10
25.0
 20
98.5
 11
20.0
 21
98.5
  0
LINE
  8
図枠
  6
CONTINUOUS
 62
     2
 10
25.0
 20
48.5
 11
20.0
 21
48.5
  0
TEXT
  8
図枠
  6
CONTINUOUS
 62
     6
 10
18.5
 20
271.0
 30
0.0
 40
5.0
  1
Ａ
 50
0.0
 41
1.0
 51
0.0
  7
KANJI2
  0
TEXT
  8
図枠
  6
CONTINUOUS
 62
     6
 10
18.5
 20
221.0
 30
0.0
 40
5.0
  1
Ｂ
 50
0.0
 41
1.0
 51
0.0
  7
KANJI2
  0
TEXT
  8
図枠
  6
CONTINUOUS
 62
     6
 10
18.5
 20
171.0
 30
0.0
 40
5.0
  1
Ｃ
 50
0.0
 41
1.0
 51
0.0
  7
KANJI2
  0
TEXT
  8
図枠
  6
CONTINUOUS
 62
     6
 10
18.5
 20
121.0
 30
0.0
 40
5.0
  1
Ｄ
 50
0.0
 41
1.0
 51
0.0
  7
KANJI2
  0
TEXT
  8
図枠
  6
CONTINUOUS
 62
     6
 10
18.5
 20
71.0
 30
0.0
 40
5.0
  1
Ｅ
 50
0.0
 41
1.0
 51
0.0
  7
KANJI2
  0
TEXT
  8
図枠
  6
CONTINUOUS
 62
     6
 10
18.5
 20
21.0
 30
0.0
 40
5.0
  1
Ｆ
 50
0.0
 41
1.0
 51
0.0
  7
KANJI2
  0
LINE
  8
図枠
  6
CONTINUOUS
 62
     2
 10
160.0
 20
287.0
 11
160.0
 21
292.0
  0
LINE
  8
図枠
  6
CONTINUOUS
 62
     2
 10
110.0
 20
292.0
 11
110.0
 21
287.0
  0
LINE
  8
図枠
  6
CONTINUOUS
 62
     2
 10
60.0
 20
292.0
 11
60.0
 21
287.0
  0
LINE
  8
図枠
  6
CONTINUOUS
 62
     2
 10
260.0
 20
292.0
 11
260.0
 21
287.0
  0
LINE
  8
図枠
  6
CONTINUOUS
 62
     2
 10
310.0
 20
292.0
 11
310.0
 21
287.0
  0
TEXT
  8
図枠
  6
CONTINUOUS
 62
     6
 10
32.0
 20
288.5
 30
0.0
 40
5.0
  1
１
 50
0.0
 41
1.2
 51
0.0
  7
KANJI3
  0
TEXT
  8
図枠
  6
CONTINUOUS
 62
     6
 10
82.0
 20
288.5
 30
0.0
 40
5.0
  1
２
 50
0.0
 41
1.2
 51
0.0
  7
KANJI3
  0
TEXT
  8
図枠
  6
CONTINUOUS
 62
     6
 10
132.0
 20
288.5
 30
0.0
 40
5.0
  1
３
 50
0.0
 41
1.2
 51
0.0
  7
KANJI3
  0
TEXT
  8
図枠
  6
CONTINUOUS
 62
     6
 10
182.0
 20
288.5
 30
0.0
 40
5.0
  1
４
 50
0.0
 41
1.2
 51
0.0
  7
KANJI3
  0
TEXT
  8
図枠
  6
CONTINUOUS
 62
     6
 10
232.0
 20
288.5
 30
0.0
 40
5.0
  1
５
 50
0.0
 41
1.2
 51
0.0
  7
KANJI3
  0
TEXT
  8
図枠
  6
CONTINUOUS
 62
     6
 10
282.0
 20
288.5
 30
0.0
 40
5.0
  1
６
 50
0.0
 41
1.2
 51
0.0
  7
KANJI3
  0
TEXT
  8
図枠
  6
CONTINUOUS
 62
     6
 10
332.0
 20
288.5
 30
0.0
 40
5.0
  1
７
 50
0.0
 41
1.2
 51
0.0
  7
KANJI3
  0
TEXT
  8
図枠
  6
CONTINUOUS
 62
     6
 10
382.0
 20
288.5
 30
0.0
 40
5.0
  1
８
 50
0.0
 41
1.2
 51
0.0
  7
KANJI3
  0
LINE
  8
図枠
  6
CONTINUOUS
 62
     2
 10
110.0
 20
5.0
 11
110.0
 21
10.0
  0
LINE
  8
図枠
  6
CONTINUOUS
 62
     2
 10
60.0
 20
5.0
 11
60.0
 21
10.0
  0
TEXT
  8
図枠
  6
CONTINUOUS
 62
     6
 10
32.0
 20
3.5
 30
0.0
 40
5.0
  1
１
 50
0.0
 41
1.2
 51
0.0
  7
KANJI3
  0
TEXT
  8
図枠
  6
CONTINUOUS
 62
     6
 10
82.0
 20
3.5
 30
0.0
 40
5.0
  1
２
 50
0.0
 41
1.2
 51
0.0
  7
KANJI3
  0
TEXT
  8
図枠
  6
CONTINUOUS
 62
     6
 10
132.0
 20
3.5
 30
0.0
 40
5.0
  1
３
 50
0.0
 41
1.2
 51
0.0
  7
KANJI3
  0
LINE
  8
図枠
  6
CONTINUOUS
 62
     2
 10
360.0
 20
287.0
 11
360.0
 21
292.0
  0
LINE
  8
図枠
  6
CONTINUOUS
 62
     6
 10
25.0
 20
287.0
 11
25.0
 21
10.0
  0
LINE
  8
図枠
  6
CONTINUOUS
 62
     6
 10
210.0
 20
10.0
 11
210.0
 21
0.0
  0
LINE
  8
図枠
  6
CONTINUOUS
 62
     6
 10
160.0
 20
10.0
 11
160.0
 21
5.0
  0
LINE
  8
図枠
  6
CONTINUOUS
 62
     6
 10
170.0
 20
10.0
 11
170.0
 21
5.0
  0
LINE
  8
図枠
  6
CONTINUOUS
 62
     6
 10
180.0
 20
10.0
 11
180.0
 21
5.0
  0
LINE
  8
図枠
  6
CONTINUOUS
 62
     6
 10
190.0
 20
10.0
 11
190.0
 21
5.0
  0
LINE
  8
図枠
  6
CONTINUOUS
 62
     6
 10
200.0
 20
10.0
 11
200.0
 21
5.0
  0
LINE
  8
図枠
  6
CONTINUOUS
 62
     6
 10
25.0
 20
10.0
 11
410.0
 21
10.0
  0
LINE
  8
図枠
  6
CONTINUOUS
 62
     6
 10
260.0
 20
5.0
 11
260.0
 21
10.0
  0
LINE
  8
図枠
  6
CONTINUOUS
 62
     6
 10
250.0
 20
5.0
 11
250.0
 21
10.0
  0
LINE
  8
図枠
  6
CONTINUOUS
 62
     6
 10
240.0
 20
5.0
 11
240.0
 21
10.0
  0
LINE
  8
図枠
  6
CONTINUOUS
 62
     6
 10
230.0
 20
5.0
 11
230.0
 21
10.0
  0
LINE
  8
図枠
  6
CONTINUOUS
 62
     6
 10
220.0
 20
5.0
 11
220.0
 21
10.0
  0
LINE
  8
図枠
  6
CONTINUOUS
 62
     6
 10
160.0
 20
5.0
 11
260.0
 21
5.0
  0
LINE
  8
図枠
  6
CONTINUOUS
 62
     6
 10
25.0
 20
148.5
 11
0.0
 21
148.5
  0
LINE
  8
図枠
  6
CONTINUOUS
 62
     6
 10
210.0
 20
287.0
 11
210.0
 21
297.0
  0
LINE
  8
図枠
  6
CONTINUOUS
 62
     6
 10
410.0
 20
287.0
 11
25.0
 21
287.0
  0
LINE
  8
図枠
  6
CONTINUOUS
 62
     6
 10
410.0
 20
148.5
 11
420.0
 21
148.5
  0
LINE
  8
図枠
  6
CONTINUOUS
 62
     6
 10
410.0
 20
10.0
 11
410.0
 21
287.0
  0
TEXT
  8
図枠
  6
CONTINUOUS
 62
     6
 10
285.0
 20
3.5
 30
0.0
 40
5.0
  1
６
 50
0.0
 41
1.2
 51
0.0
  7
KANJI3
  0
TEXT
  8
図枠
  6
CONTINUOUS
 62
     6
 10
335.0
 20
3.5
 30
0.0
 40
5.0
  1
７
 50
0.0
 41
1.2
 51
0.0
  7
KANJI3
  0
TEXT
  8
図枠
  6
CONTINUOUS
 62
     6
 10
385.0
 20
3.5
 30
0.0
 40
5.0
  1
８
 50
0.0
 41
1.2
 51
0.0
  7
KANJI3
  0
LINE
  8
図枠
  6
CONTINUOUS
 62
     2
 10
310.0
 20
5.0
 11
310.0
 21
10.0
  0
LINE
  8
図枠
  6
CONTINUOUS
 62
     2
 10
360.0
 20
5.0
 11
360.0
 21
10.0
  0
LINE
  8
図枠
  6
CONTINUOUS
 62
     2
 10
241.0
 20
67.0
 11
241.0
 21
10.0
  0
LINE
  8
図枠
  6
CONTINUOUS
 62
     2
 10
248.0
 20
67.0
 11
248.0
 21
10.0
  0
LINE
  8
図枠
  6
CONTINUOUS
 62
     2
 10
255.0
 20
67.0
 11
255.0
 21
10.0
  0
LINE
  8
図枠
  6
CONTINUOUS
 62
     2
 10
262.0
 20
67.0
 11
262.0
 21
10.0
  0
LINE
  8
図枠
  6
CONTINUOUS
 62
     2
 10
323.0
 20
43.0
 11
323.0
 21
21.0
  0
LINE
  8
図枠
  6
CONTINUOUS
 62
     2
 10
339.0
 20
43.0
 11
339.0
 21
21.0
  0
LINE
  8
図枠
  6
CONTINUOUS
 62
     2
 10
299.0
 20
43.0
 11
299.0
 21
32.0
  0
LINE
  8
図枠
  6
CONTINUOUS
 62
     2
 10
269.0
 20
67.0
 11
269.0
 21
10.0
  0
LINE
  8
図枠
  6
CONTINUOUS
 62
     2
 10
291.0
 20
32.0
 11
291.0
 21
10.0
  0
LINE
  8
図枠
  6
CONTINUOUS
 62
     2
 10
307.0
 20
32.0
 11
307.0
 21
10.0
  0
LINE
  8
図枠
  6
CONTINUOUS
 62
     2
 10
355.0
 20
43.0
 11
355.0
 21
10.0
  0
LINE
  8
図枠
  6
LTYPE1
 62
     2
 10
313.0
 20
13.5
 11
317.0
 21
13.5
  0
LINE
  8
図枠
  6
LTYPE1
 62
     2
 10
317.0
 20
13.5
 11
317.0
 21
17.5
  0
LINE
  8
図枠
  6
LTYPE1
 62
     2
 10
317.0
 20
17.5
 11
313.0
 21
17.5
  0
LINE
  8
図枠
  6
LTYPE1
 62
     2
 10
313.0
 20
17.5
 11
313.0
 21
13.5
  0
TEXT
  8
図枠
  6
CONTINUOUS
 62
     4
 10
356.0
 20
47.0
 30
-0.5
 40
3.0
  1
１セット分
 50
0.0
 41
0.666666667
 51
0.0
  7
KANJI4
  0
TEXT
  8
図枠
  6
CONTINUOUS
 62
     4
 10
345.0
 20
47.0
 30
0.0
 40
3.0
  1
１台分
 50
0.0
 41
1.0
 51
0.0
  7
KANJI5
  0
TEXT
  8
図枠
  6
CONTINUOUS
 62
     4
 10
347.0
 20
44.0
 30
0.0
 40
3.0
  1
個数
 50
0.0
 41
1.0
 51
0.0
  7
KANJI5
  0
TEXT
  8
図枠
  6
CONTINUOUS
 62
     4
 10
357.0
 20
44.0
 30
0.0
 40
3.0
  1
個数
 50
0.0
 41
1.0
 51
0.0
  7
KANJI5
  0
TEXT
  8
図枠
  6
CONTINUOUS
 62
     4
 10
366.5
 20
45.0
 30
0.0
 40
4.0
  1
総数
 50
0.0
 41
0.875
 51
0.0
  7
KANJI1
  0
TEXT
  8
図枠
  6
CONTINUOUS
 62
     4
 10
273.15
 20
52.5
 30
0.3
 40
2.5
  1
氏名
 50
90.0
 41
1.0
 51
0.0
  7
KANJI6
  0
TEXT
  8
図枠
  6
CONTINUOUS
 62
     4
 10
273.15
 20
40.425
 30
1.0
 40
2.5
  1
年月日
 50
90.0
 41
1.0
 51
0.0
  7
KANJI7
  0
TEXT
  8
図枠
  6
CONTINUOUS
 62
     4
 10
273.15
 20
60.375
 30
0.3
 40
2.5
  1
承認
 50
90.0
 41
1.0
 51
0.0
  7
KANJI6
  0
TEXT
  8
図枠
  6
CONTINUOUS
 62
     4
 10
276.0
 20
39.5
 30
0.0
 40
2.5
  1
熱処理
 50
0.0
 41
1.0
 51
0.0
  7
KANJI8
  0
TEXT
  8
図枠
  6
CONTINUOUS
 62
     4
 10
300.0
 20
39.5
 30
0.0
 40
2.5
  1
表面処理
 50
0.0
 41
1.0
 51
0.0
  7
KANJI8
  0
TEXT
  8
図枠
  6
CONTINUOUS
 62
     4
 10
324.0
 20
39.5
 30
0.0
 40
2.5
  1
台数
 50
0.0
 41
1.0
 51
0.0
  7
KANJI8
  0
TEXT
  8
図枠
  6
CONTINUOUS
 62
     4
 10
340.0
 20
39.5
 30
0.0
 40
2.5
  1
作成日付
 50
0.0
 41
1.0
 51
0.0
  7
KANJI8
  0
TEXT
  8
図枠
  6
CONTINUOUS
 62
     4
 10
356.0
 20
39.5
 30
0.0
 40
2.5
  1
名称
 50
0.0
 41
1.0
 51
0.0
  7
KANJI8
  0
TEXT
  8
図枠
  6
CONTINUOUS
 62
     4
 10
276.0
 20
28.5
 30
0.0
 40
2.5
  1
尺度
 50
0.0
 41
1.0
 51
0.0
  7
KANJI8
  0
TEXT
  8
図枠
  6
CONTINUOUS
 62
     4
 10
292.0
 20
28.5
 30
0.0
 40
2.5
  1
承認
 50
0.0
 41
1.0
 51
0.0
  7
KANJI8
  0
TEXT
  8
図枠
  6
CONTINUOUS
 62
     4
 10
308.0
 20
28.5
 30
0.0
 40
2.5
  1
検図
 50
0.0
 41
1.0
 51
0.0
  7
KANJI8
  0
TEXT
  8
図枠
  6
CONTINUOUS
 62
     4
 10
324.0
 20
28.5
 30
0.0
 40
2.5
  1
設計
 50
0.0
 41
1.0
 51
0.0
  7
KANJI8
  0
TEXT
  8
図枠
  6
CONTINUOUS
 62
     4
 10
340.0
 20
28.5
 30
0.0
 40
2.5
  1
製図
 50
0.0
 41
1.0
 51
0.0
  7
KANJI8
  0
TEXT
  8
図枠
  6
CONTINUOUS
 62
     4
 10
356.0
 20
28.5
 30
0.0
 40
2.5
  1
機名
 50
0.0
 41
1.0
 51
0.0
  7
KANJI8
  0
TEXT
  8
図枠
  6
CONTINUOUS
 62
     4
 10
273.15
 20
10.875
 30
0.3
 40
2.5
  1
記号
 50
90.0
 41
1.0
 51
0.0
  7
KANJI6
  0
TEXT
  8
図枠
  6
CONTINUOUS
 62
     4
 10
356.0
 20
17.5
 30
0.0
 40
2.5
  1
図面番号
 50
0.0
 41
1.0
 51
0.0
  7
KANJI8
  0
TEXT
  8
図枠
  6
CONTINUOUS
 62
     4
 10
319.0
 20
14.25
 30
0.0
 40
2.5
  1
株式会社
 50
0.0
 41
1.0
 51
0.0
  7
KANJI8
  0
TEXT
  8
図枠
  6
CONTINUOUS
 62
     4
 10
331.0
 20
13.5
 30
0.0
 40
4.0
  1
昭和測器
 50
0.0
 41
1.125
 51
0.0
  7
KANJI9
  0
TEXT
  8
図枠
  6
CONTINUOUS
 62
     4
 10
273.15
 20
18.375
 30
0.3
 40
2.5
  1
来歴・改訂記事
 50
90.0
 41
1.0
 51
0.0
  7
KANJI6
  0
TEXT
  8
図枠
  6
CONTINUOUS
 62
     1
 10
278.0
 20
15.5
 30
0.0
 40
5.0
  1
第３
 50
0.0
 41
1.0
 51
0.0
  7
KANJI2
  0
TEXT
  8
図枠
  6
CONTINUOUS
 62
     1
 10
278.0
 20
10.5
 30
0.0
 40
5.0
  1
角法
 50
0.0
 41
1.0
 51
0.0
  7
KANJI2
  0
LINE
  8
図枠
  6
CONTINUOUS
 62
     2
 10
234.0
 20
67.0
 11
234.0
 21
10.0
  0
LINE
  8
図枠
  6
CONTINUOUS
 62
     2
 10
233.0
 20
17.0
 11
275.0
 21
17.0
  0
TEXT
  8
図枠
  6
CONTINUOUS
 62
     4
 10
326.0
 20
45.0
 30
0.0
 40
4.0
  1
材　　質
 50
0.0
 41
0.875
 51
0.0
  7
KANJI1
  0
TEXT
  8
図枠
  6
CONTINUOUS
 62
     4
 10
383.25
 20
45.0
 30
0.0
 40
4.0
  1
摘　　　要
 50
0.0
 41
0.875
 51
0.0
  7
KANJI1
  0
TEXT
  8
図枠
  6
CONTINUOUS
 62
     4
 10
276.5
 20
45.0
 30
0.0
 40
4.0
  1
番号
 50
0.0
 41
0.875
 51
0.0
  7
KANJI1
  0
TEXT
  8
図枠
  6
CONTINUOUS
 62
     4
 10
294.25
 20
45.0
 30
0.0
 40
4.0
  1
部　品　名
 50
0.0
 41
0.875
 51
0.0
  7
KANJI1
  0
CIRCLE
  8
図枠
  6
CONTINUOUS
 62
     6
 10
283.0
 20
26.0
 40
0.2
  0
CIRCLE
  8
図枠
  6
CONTINUOUS
 62
     6
 10
283.0
 20
23.5
 40
0.2
  0
TEXT
  8
図枠
  6
CONTINUOUS
 62
     6
 10
293.725
 20
12.025
 30
-1.0
 40
7.0
  1
Ａ３
 50
0.0
 41
0.857142857
 51
0.0
  7
KANJI10
  0
LINE
  8
図枠
  6
CONTINUOUS
 62
     2
 10
233.0
 20
67.0
 11
275.0
 21
67.0
  0
LINE
  8
図枠
  6
CONTINUOUS
 62
     2
 10
233.0
 20
59.0
 11
275.0
 21
59.0
  0
LINE
  8
図枠
  6
CONTINUOUS
 62
     2
 10
285.0
 20
51.0
 11
285.0
 21
43.0
  0
LINE
  8
図枠
  6
CONTINUOUS
 62
     2
 10
285.0
 20
67.0
 11
285.0
 21
51.0
  0
LINE
  8
図枠
  6
CONTINUOUS
 62
     2
 10
321.0
 20
51.0
 11
321.0
 21
43.0
  0
LINE
  8
図枠
  6
CONTINUOUS
 62
     2
 10
321.0
 20
67.0
 11
321.0
 21
51.0
  0
LINE
  8
図枠
  6
CONTINUOUS
 62
     2
 10
345.0
 20
51.0
 11
345.0
 21
43.0
  0
LINE
  8
図枠
  6
CONTINUOUS
 62
     2
 10
345.0
 20
67.0
 11
345.0
 21
51.0
  0
LINE
  8
図枠
  6
CONTINUOUS
 62
     2
 10
355.0
 20
51.0
 11
355.0
 21
43.0
  0
LINE
  8
図枠
  6
CONTINUOUS
 62
     2
 10
355.0
 20
67.0
 11
355.0
 21
51.0
  0
LINE
  8
図枠
  6
CONTINUOUS
 62
     2
 10
365.0
 20
51.0
 11
365.0
 21
43.0
  0
LINE
  8
図枠
  6
CONTINUOUS
 62
     2
 10
365.0
 20
67.0
 11
365.0
 21
51.0
  0
LINE
  8
図枠
  6
CONTINUOUS
 62
     2
 10
375.0
 20
51.0
 11
375.0
 21
43.0
  0
LINE
  8
図枠
  6
CONTINUOUS
 62
     2
 10
375.0
 20
67.0
 11
375.0
 21
51.0
  0
LINE
  8
図枠
  6
CONTINUOUS
 62
     2
 10
275.0
 20
51.0
 11
275.0
 21
10.0
  0
LINE
  8
図枠
  6
CONTINUOUS
 62
     2
 10
275.0
 20
67.0
 11
275.0
 21
51.0
  0
LINE
  8
図枠
  6
CONTINUOUS
 62
     2
 10
233.0
 20
39.0
 11
275.0
 21
39.0
  0
LINE
  8
図枠
  6
CONTINUOUS
 62
     2
 10
233.0
 20
51.0
 11
275.0
 21
51.0
  0
LINE
  8
図枠
  6
LTYPE2
 62
     2
 10
400.0
 20
21.0
 11
400.0
 21
10.0
  0
LINE
  8
図枠
  6
CONTINUOUS
 62
     2
 10
275.0
 20
67.0
 11
410.0
 21
67.0
  0
LINE
  8
図枠
  6
CONTINUOUS
 62
     2
 10
275.0
 20
59.0
 11
410.0
 21
59.0
  0
LINE
  8
図枠
  6
CONTINUOUS
 62
     2
 10
275.0
 20
51.0
 11
410.0
 21
51.0
  0
LINE
  8
図枠
  6
CONTINUOUS
 62
     2
 10
275.0
 20
43.0
 11
410.0
 21
43.0
  0
LINE
  8
図枠
  6
CONTINUOUS
 62
     2
 10
275.0
 20
32.0
 11
410.0
 21
32.0
  0
LINE
  8
図枠
  6
CONTINUOUS
 62
     2
 10
275.0
 20
21.0
 11
410.0
 21
21.0
  0
TEXT
  8
表題欄
  6
CONTINUOUS
 62
     5
 10
278.0
 20
23.0
 30
0.0
 40
4.0
  1
１
 50
0.0
 41
0.875
 51
0.0
  7
KANJI1
  0
TEXT
  8
表題欄
  6
CONTINUOUS
 62
     5
 10
284.5
 20
23.0
 30
0.0
 40
4.0
  1
１
 50
0.0
 41
0.875
 51
0.0
  7
KANJI1
  0
TEXT
  8
表題欄
  6
CONTINUOUS
 62
     5
 10
340.5
 20
36.0
 30
-0.5
 40
3.0
  1
２０１７．
 50
0.0
 41
0.833333333
 51
0.0
  7
KANJI11
  0
TEXT
  8
表題欄
  6
CONTINUOUS
 62
     5
 10
343.0
 20
33.0
 30
-0.5
 40
3.0
  1
０７．１３
 50
0.0
 41
0.833333333
 51
0.0
  7
KANJI11
  0
TEXT
  8
表題欄
  6
CONTINUOUS
 62
     5
 10
377.4
 20
34.0
 30
0.1
 40
4.0
  1
外観図
 50
0.0
 41
0.875
 51
0.0
  7
KANJI0
  0
TEXT
  8
表題欄
  6
CONTINUOUS
 62
     5
 10
361.2
 20
23.0
 30
0.1
 40
4.0
  1
ＴＣＬ－５０Ｍ
 50
0.0
 41
0.875
 51
0.0
  7
KANJI0
  0
TEXT
  8
表題欄
  6
CONTINUOUS
 62
     5
 10
363.15
 20
12.0
 30
0.1
 40
4.0
  1
Ｋ－０１４９－Ａ１０
 50
0.0
 41
0.875
 51
0.0
  7
KANJI0
  0
LINE
  8
0
  6
CONTINUOUS
 62
     1
 10
247.0
 20
215.0
 11
246.0
 21
215.0
  0
LINE
  8
0
  6
CONTINUOUS
 62
     1
 10
246.0
 20
211.0
 11
247.0
 21
211.0
  0
LINE
  8
0
  6
CONTINUOUS
 62
     1
 10
244.0
 20
217.460175545
 11
246.0
 21
217.460175545
  0
LINE
  8
0
  6
CONTINUOUS
 62
     1
 10
246.0
 20
216.418286479
 11
244.0
 21
216.418286479
  0
LINE
  8
0
  6
CONTINUOUS
 62
     2
 10
246.0
 20
216.418286479
 11
244.0
 21
217.460175545
  0
LINE
  8
0
  6
CONTINUOUS
 62
     2
 10
246.0
 20
217.460175545
 11
244.0
 21
216.418286479
  0
LINE
  8
0
  6
CONTINUOUS
 62
     1
 10
264.0
 20
204.0
 11
246.0
 21
204.0
  0
LINE
  8
0
  6
CONTINUOUS
 62
     1
 10
246.0
 20
208.0
 11
264.0
 21
208.0
  0
ARC
  8
0
  6
CONTINUOUS
 62
     1
 10
263.25
 20
207.0
 40
1.25
 50
306.869897646
 51
53.130102354
  0
ARC
  8
0
  6
CONTINUOUS
 62
     1
 10
263.25
 20
205.0
 40
1.25
 50
306.869897646
 51
53.130102354
  0
ARC
  8
0
  6
CONTINUOUS
 62
     1
 10
264.75
 20
205.0
 40
1.25
 50
126.869897646
 51
233.130102354
  0
LINE
  8
0
  6
LTYPE3
 62
     2
 10
269.0
 20
206.0
 11
239.0
 21
206.0
  0
LINE
  8
0
  6
CONTINUOUS
 62
     1
 10
246.0
 20
209.0
 11
246.0
 21
203.0
  0
LINE
  8
0
  6
CONTINUOUS
 62
     1
 10
246.0
 20
203.0
 11
244.0
 21
203.0
  0
LINE
  8
0
  6
CONTINUOUS
 62
     1
 10
244.0
 20
209.0
 11
246.0
 21
209.0
  0
LINE
  8
0
  6
CONTINUOUS
 62
     1
 10
246.0
 20
217.460175545
 11
246.0
 21
209.0
  0
LINE
  8
0
  6
CONTINUOUS
 62
     1
 10
244.0
 20
148.0
 11
244.0
 21
173.0
  0
CIRCLE
  8
0
  6
CONTINUOUS
 62
     1
 10
241.5
 20
150.5
 40
1.75
  0
LINE
  8
0
  6
LTYPE4
 62
     2
 10
241.5
 20
153.25
 11
241.5
 21
147.75
  0
LINE
  8
0
  6
LTYPE4
 62
     2
 10
244.25
 20
150.5
 11
238.75
 21
150.5
  0
LINE
  8
0
  6
CONTINUOUS
 62
     1
 10
242.55
 20
150.3
 11
242.55
 21
150.7
  0
LINE
  8
0
  6
CONTINUOUS
 62
     1
 10
241.7
 20
151.55
 11
241.3
 21
151.55
  0
LINE
  8
0
  6
CONTINUOUS
 62
     1
 10
240.45
 20
150.7
 11
240.45
 21
150.3
  0
LINE
  8
0
  6
CONTINUOUS
 62
     1
 10
241.7
 20
149.45
 11
241.3
 21
149.45
  0
LINE
  8
0
  6
CONTINUOUS
 62
     1
 10
241.3
 20
151.55
 11
241.3
 21
151.15
  0
LINE
  8
0
  6
CONTINUOUS
 62
     1
 10
241.7
 20
151.55
 11
241.7
 21
151.15
  0
LINE
  8
0
  6
CONTINUOUS
 62
     1
 10
240.45
 20
150.7
 11
240.85
 21
150.7
  0
LINE
  8
0
  6
CONTINUOUS
 62
     1
 10
241.3
 20
149.45
 11
241.3
 21
149.85
  0
LINE
  8
0
  6
CONTINUOUS
 62
     1
 10
242.55
 20
150.3
 11
242.15
 21
150.3
  0
LINE
  8
0
  6
CONTINUOUS
 62
     1
 10
240.45
 20
150.3
 11
240.85
 21
150.3
  0
LINE
  8
0
  6
CONTINUOUS
 62
     1
 10
241.7
 20
149.45
 11
241.7
 21
149.85
  0
LINE
  8
0
  6
CONTINUOUS
 62
     1
 10
242.55
 20
150.7
 11
242.15
 21
150.7
  0
ARC
  8
0
  6
CONTINUOUS
 62
     1
 10
240.9
 20
151.1
 40
0.4
 50
262.3
 51
7.7
  0
ARC
  8
0
  6
CONTINUOUS
 62
     1
 10
240.9
 20
149.9
 40
0.4
 50
352.3
 51
97.7
  0
ARC
  8
0
  6
CONTINUOUS
 62
     1
 10
242.1
 20
149.9
 40
0.4
 50
82.3
 51
187.7
  0
ARC
  8
0
  6
CONTINUOUS
 62
     1
 10
242.1
 20
151.1
 40
0.4
 50
172.3
 51
277.7
  0
LINE
  8
0
  6
CONTINUOUS
 62
     1
 10
244.0
 20
168.0
 11
246.0
 21
168.0
  0
LINE
  8
0
  6
CONTINUOUS
 62
     1
 10
247.0
 20
165.0
 11
246.0
 21
165.0
  0
LINE
  8
0
  6
CONTINUOUS
 62
     1
 10
246.0
 20
161.0
 11
247.0
 21
161.0
  0
LINE
  8
0
  6
CONTINUOUS
 62
     1
 10
246.0
 20
165.259830548
 11
244.0
 21
165.259830548
  0
LINE
  8
0
  6
CONTINUOUS
 62
     1
 10
246.0
 20
168.0
 11
246.0
 21
160.0
  0
LINE
  8
0
  6
CONTINUOUS
 62
     2
 10
244.0
 20
165.259830548
 11
245.780323971
 21
160.0
  0
LINE
  8
0
  6
CONTINUOUS
 62
     2
 10
244.219676029
 20
160.0
 11
246.0
 21
165.259830548
  0
LINE
  8
0
  6
CONTINUOUS
 62
     1
 10
264.0
 20
155.0
 11
246.0
 21
155.0
  0
LINE
  8
0
  6
CONTINUOUS
 62
     1
 10
246.0
 20
159.0
 11
264.0
 21
159.0
  0
ARC
  8
0
  6
CONTINUOUS
 62
     1
 10
263.25
 20
158.0
 40
1.25
 50
306.869897646
 51
53.130102354
  0
ARC
  8
0
  6
CONTINUOUS
 62
     1
 10
263.25
 20
156.0
 40
1.25
 50
306.869897646
 51
53.130102354
  0
ARC
  8
0
  6
CONTINUOUS
 62
     1
 10
264.75
 20
156.0
 40
1.25
 50
126.869897646
 51
233.130102354
  0
LINE
  8
0
  6
LTYPE3
 62
     2
 10
269.0
 20
157.0
 11
239.0
 21
157.0
  0
LINE
  8
0
  6
CONTINUOUS
 62
     1
 10
246.0
 20
160.0
 11
246.0
 21
154.0
  0
LINE
  8
0
  6
CONTINUOUS
 62
     1
 10
246.0
 20
154.0
 11
244.0
 21
154.0
  0
LINE
  8
0
  6
CONTINUOUS
 62
     1
 10
244.0
 20
160.0
 11
246.0
 21
160.0
  0
LINE
  8
0
  6
CONTINUOUS
 62
     1
 10
244.0
 20
202.0
 11
244.0
 21
220.0
  0
LINE
  8
0
  6
CONTINUOUS
 62
     1
 10
247.0
 20
215.25
 11
247.0
 21
210.75
  0
LINE
  8
0
  6
CONTINUOUS
 62
     1
 10
247.0
 20
215.25
 11
249.0
 21
215.25
  0
LINE
  8
0
  6
CONTINUOUS
 62
     1
 10
247.0
 20
210.75
 11
249.0
 21
210.75
  0
POLYLINE
  8
0
  6
CONTINUOUS
 62
     1
 66
     1
  0
VERTEX
  8
0
  6
CONTINUOUS
 62
     1
 10
249.0
 20
209.0
  0
VERTEX
  8
0
  6
CONTINUOUS
 62
     1
 10
250.0
 20
209.0
  0
VERTEX
  8
0
  6
CONTINUOUS
 62
     1
 10
250.0
 20
217.0
  0
SEQEND
  0
LINE
  8
0
  6
CONTINUOUS
 62
     1
 10
249.0
 20
217.0
 11
249.0
 21
209.0
  0
ARC
  8
0
  6
CONTINUOUS
 62
     1
 10
242.5
 20
213.0
 40
8.5
 50
331.927513064
 51
28.072486936
  0
LINE
  8
0
  6
CONTINUOUS
 62
     1
 10
249.0
 20
212.581886147
 11
250.0
 21
212.581886147
  0
LINE
  8
0
  6
CONTINUOUS
 62
     1
 10
249.0
 20
209.087409597
 11
250.0
 21
209.087409597
  0
LINE
  8
0
  6
CONTINUOUS
 62
     1
 10
249.0
 20
209.345818169
 11
250.0
 21
209.345818169
  0
LINE
  8
0
  6
CONTINUOUS
 62
     1
 10
249.0
 20
209.763932023
 11
250.0
 21
209.763932023
  0
LINE
  8
0
  6
CONTINUOUS
 62
     1
 10
249.0
 20
210.323477575
 11
250.0
 21
210.323477575
  0
LINE
  8
0
  6
CONTINUOUS
 62
     1
 10
249.0
 20
211.0
 11
250.0
 21
211.0
  0
LINE
  8
0
  6
CONTINUOUS
 62
     1
 10
249.0
 20
211.763932023
 11
250.0
 21
211.763932023
  0
LINE
  8
0
  6
CONTINUOUS
 62
     1
 10
249.0
 20
217.0
 11
250.0
 21
217.0
  0
LINE
  8
0
  6
CONTINUOUS
 62
     1
 10
249.0
 20
213.418113853
 11
250.0
 21
213.418113853
  0
LINE
  8
0
  6
CONTINUOUS
 62
     1
 10
249.0
 20
216.912590403
 11
250.0
 21
216.912590403
  0
LINE
  8
0
  6
CONTINUOUS
 62
     1
 10
249.0
 20
216.654181831
 11
250.0
 21
216.654181831
  0
LINE
  8
0
  6
CONTINUOUS
 62
     1
 10
249.0
 20
216.236067977
 11
250.0
 21
216.236067977
  0
LINE
  8
0
  6
CONTINUOUS
 62
     1
 10
249.0
 20
215.676522425
 11
250.0
 21
215.676522425
  0
LINE
  8
0
  6
CONTINUOUS
 62
     1
 10
249.0
 20
215.0
 11
250.0
 21
215.0
  0
LINE
  8
0
  6
CONTINUOUS
 62
     1
 10
249.0
 20
214.236067977
 11
250.0
 21
214.236067977
  0
LINE
  8
寸法線
  6
CONTINUOUS
 62
     2
 10
244.0
 20
105.0
 11
241.585185434
 21
105.647047613
  0
LINE
  8
寸法線
  6
CONTINUOUS
 62
     2
 10
244.0
 20
105.0
 11
241.585185434
 21
104.352952387
  0
LINE
  8
0
  6
CONTINUOUS
 62
     1
 10
247.0
 20
165.25
 11
247.0
 21
160.75
  0
LINE
  8
0
  6
CONTINUOUS
 62
     1
 10
247.0
 20
165.25
 11
249.0
 21
165.25
  0
LINE
  8
0
  6
CONTINUOUS
 62
     1
 10
247.0
 20
160.75
 11
249.0
 21
160.75
  0
POLYLINE
  8
0
  6
CONTINUOUS
 62
     1
 66
     1
  0
VERTEX
  8
0
  6
CONTINUOUS
 62
     1
 10
249.0
 20
159.0
  0
VERTEX
  8
0
  6
CONTINUOUS
 62
     1
 10
250.0
 20
159.0
  0
VERTEX
  8
0
  6
CONTINUOUS
 62
     1
 10
250.0
 20
167.0
  0
SEQEND
  0
LINE
  8
0
  6
CONTINUOUS
 62
     1
 10
249.0
 20
167.0
 11
249.0
 21
159.0
  0
ARC
  8
0
  6
CONTINUOUS
 62
     1
 10
242.5
 20
163.0
 40
8.5
 50
331.927513064
 51
28.072486936
  0
LINE
  8
0
  6
CONTINUOUS
 62
     1
 10
249.0
 20
162.581886147
 11
250.0
 21
162.581886147
  0
LINE
  8
0
  6
CONTINUOUS
 62
     1
 10
249.0
 20
159.087409597
 11
250.0
 21
159.087409597
  0
LINE
  8
0
  6
CONTINUOUS
 62
     1
 10
249.0
 20
159.345818169
 11
250.0
 21
159.345818169
  0
LINE
  8
0
  6
CONTINUOUS
 62
     1
 10
249.0
 20
159.763932023
 11
250.0
 21
159.763932023
  0
LINE
  8
0
  6
CONTINUOUS
 62
     1
 10
249.0
 20
160.323477575
 11
250.0
 21
160.323477575
  0
LINE
  8
0
  6
CONTINUOUS
 62
     1
 10
249.0
 20
161.0
 11
250.0
 21
161.0
  0
LINE
  8
0
  6
CONTINUOUS
 62
     1
 10
249.0
 20
161.763932023
 11
250.0
 21
161.763932023
  0
LINE
  8
0
  6
CONTINUOUS
 62
     1
 10
249.0
 20
167.0
 11
250.0
 21
167.0
  0
LINE
  8
0
  6
CONTINUOUS
 62
     1
 10
249.0
 20
163.418113853
 11
250.0
 21
163.418113853
  0
LINE
  8
0
  6
CONTINUOUS
 62
     1
 10
249.0
 20
166.912590403
 11
250.0
 21
166.912590403
  0
LINE
  8
0
  6
CONTINUOUS
 62
     1
 10
249.0
 20
166.654181831
 11
250.0
 21
166.654181831
  0
LINE
  8
0
  6
CONTINUOUS
 62
     1
 10
249.0
 20
166.236067977
 11
250.0
 21
166.236067977
  0
LINE
  8
0
  6
CONTINUOUS
 62
     1
 10
249.0
 20
165.676522425
 11
250.0
 21
165.676522425
  0
LINE
  8
0
  6
CONTINUOUS
 62
     1
 10
249.0
 20
165.0
 11
250.0
 21
165.0
  0
LINE
  8
0
  6
CONTINUOUS
 62
     1
 10
249.0
 20
164.236067977
 11
250.0
 21
164.236067977
  0
LINE
  8
寸法線
  6
CONTINUOUS
 62
     2
 10
251.0
 20
162.0
 11
251.0
 21
104.0
  0
LINE
  8
寸法線
  6
CONTINUOUS
 62
     2
 10
244.0
 20
147.0
 11
244.0
 21
104.0
  0
LINE
  8
寸法線
  6
CONTINUOUS
 62
     2
 10
251.0
 20
104.0
 11
251.0
 21
94.0
  0
LINE
  8
寸法線
  6
CONTINUOUS
 62
     2
 10
251.0
 20
95.0
 11
248.585185434
 21
95.647047613
  0
LINE
  8
寸法線
  6
CONTINUOUS
 62
     2
 10
251.0
 20
95.0
 11
248.585185434
 21
94.352952387
  0
LINE
  8
0
  6
LTYPE4
 62
     2
 10
241.5
 20
221.5
 11
241.5
 21
218.0
  0
LINE
  8
0
  6
LTYPE4
 62
     2
 10
241.5
 20
200.5
 11
241.5
 21
204.0
  0
CIRCLE
  8
0
  6
CONTINUOUS
 62
     1
 10
194.0
 20
138.0
 40
3.25
  0
LINE
  8
0
  6
LTYPE3
 62
     2
 10
204.0
 20
138.0
 11
184.0
 21
138.0
  0
LINE
  8
0
  6
LTYPE3
 62
     2
 10
194.0
 20
125.0
 11
194.0
 21
150.5
  0
LINE
  8
寸法線
  6
CONTINUOUS
 62
     2
 10
196.070552361
 20
130.27259339
 11
196.070552361
 21
127.77259339
  0
LINE
  8
寸法線
  6
CONTINUOUS
 62
     2
 10
196.070552361
 20
130.27259339
 11
197.320552361
 21
128.10752988
  0
LINE
  8
寸法線
  6
CONTINUOUS
 62
     2
 10
194.0
 20
138.0
 11
199.497869258
 21
117.481672596
  0
TEXT
  8
寸法線
  6
CONTINUOUS
 62
     5
 10
198.626179864
 20
124.598565007
 30
0.1
 40
4.0
  1
Ｒ８
 50
285.0
 41
0.875
 51
0.0
  7
KANJI0
  0
LINE
  8
寸法線
  6
CONTINUOUS
 62
     2
 10
194.0
 20
125.0
 11
194.0
 21
114.0
  0
LINE
  8
寸法線
  6
CONTINUOUS
 62
     2
 10
194.0
 20
115.0
 11
191.585185434
 21
115.647047613
  0
LINE
  8
寸法線
  6
CONTINUOUS
 62
     2
 10
194.0
 20
115.0
 11
191.585185434
 21
114.352952387
  0
LINE
  8
0
  6
CONTINUOUS
 62
     1
 10
200.92820323
 20
134.0
 11
209.011106999
 21
148.0
  0
LINE
  8
0
  6
CONTINUOUS
 62
     1
 10
187.07179677
 20
134.0
 11
178.988893001
 21
148.0
  0
ARC
  8
0
  6
CONTINUOUS
 62
     1
 10
194.0
 20
138.0
 40
8.0
 50
210.0
 51
330.0
  0
LINE
  8
0
  6
LTYPE4
 62
     2
 10
194.0
 20
221.5
 11
194.0
 21
218.0
  0
LINE
  8
0
  6
LTYPE4
 62
     2
 10
194.0
 20
200.5
 11
194.0
 21
204.0
  0
CIRCLE
  8
0
  6
CONTINUOUS
 62
     1
 10
194.0
 20
150.5
 40
1.75
  0
LINE
  8
0
  6
LTYPE4
 62
     2
 10
194.0
 20
153.25
 11
194.0
 21
147.75
  0
LINE
  8
0
  6
LTYPE4
 62
     2
 10
196.75
 20
150.5
 11
191.25
 21
150.5
  0
LINE
  8
0
  6
CONTINUOUS
 62
     1
 10
195.05
 20
150.3
 11
195.05
 21
150.7
  0
LINE
  8
0
  6
CONTINUOUS
 62
     1
 10
194.2
 20
151.55
 11
193.8
 21
151.55
  0
LINE
  8
0
  6
CONTINUOUS
 62
     1
 10
192.95
 20
150.7
 11
192.95
 21
150.3
  0
LINE
  8
0
  6
CONTINUOUS
 62
     1
 10
194.2
 20
149.45
 11
193.8
 21
149.45
  0
LINE
  8
0
  6
CONTINUOUS
 62
     1
 10
193.8
 20
151.55
 11
193.8
 21
151.15
  0
LINE
  8
0
  6
CONTINUOUS
 62
     1
 10
194.2
 20
151.55
 11
194.2
 21
151.15
  0
LINE
  8
0
  6
CONTINUOUS
 62
     1
 10
192.95
 20
150.7
 11
193.35
 21
150.7
  0
LINE
  8
0
  6
CONTINUOUS
 62
     1
 10
193.8
 20
149.45
 11
193.8
 21
149.85
  0
LINE
  8
0
  6
CONTINUOUS
 62
     1
 10
195.05
 20
150.3
 11
194.65
 21
150.3
  0
LINE
  8
0
  6
CONTINUOUS
 62
     1
 10
192.95
 20
150.3
 11
193.35
 21
150.3
  0
LINE
  8
0
  6
CONTINUOUS
 62
     1
 10
194.2
 20
149.45
 11
194.2
 21
149.85
  0
LINE
  8
0
  6
CONTINUOUS
 62
     1
 10
195.05
 20
150.7
 11
194.65
 21
150.7
  0
ARC
  8
0
  6
CONTINUOUS
 62
     1
 10
193.4
 20
151.1
 40
0.4
 50
262.3
 51
7.7
  0
ARC
  8
0
  6
CONTINUOUS
 62
     1
 10
193.4
 20
149.9
 40
0.4
 50
352.3
 51
97.7
  0
ARC
  8
0
  6
CONTINUOUS
 62
     1
 10
194.6
 20
149.9
 40
0.4
 50
82.3
 51
187.7
  0
ARC
  8
0
  6
CONTINUOUS
 62
     1
 10
194.6
 20
151.1
 40
0.4
 50
172.3
 51
277.7
  0
LINE
  8
0
  6
CONTINUOUS
 62
     1
 10
142.0
 20
217.460175545
 11
144.0
 21
217.460175545
  0
LINE
  8
0
  6
CONTINUOUS
 62
     1
 10
144.0
 20
208.539824455
 11
142.0
 21
208.539824455
  0
LINE
  8
0
  6
CONTINUOUS
 62
     1
 10
142.0
 20
208.539824455
 11
142.0
 21
217.460175545
  0
LINE
  8
0
  6
CONTINUOUS
 62
     2
 10
142.0
 20
208.539824455
 11
144.0
 21
209.581713521
  0
LINE
  8
0
  6
CONTINUOUS
 62
     2
 10
144.0
 20
208.539824455
 11
142.0
 21
209.581713521
  0
LINE
  8
0
  6
CONTINUOUS
 62
     1
 10
142.0
 20
209.581713521
 11
144.0
 21
209.581713521
  0
LINE
  8
0
  6
CONTINUOUS
 62
     1
 10
144.0
 20
220.0
 11
144.0
 21
202.0
  0
LINE
  8
0
  6
CONTINUOUS
 62
     1
 10
144.0
 20
173.0
 11
144.0
 21
148.0
  0
CIRCLE
  8
0
  6
CONTINUOUS
 62
     1
 10
146.5
 20
150.5
 40
1.75
  0
LINE
  8
0
  6
LTYPE4
 62
     2
 10
146.5
 20
153.25
 11
146.5
 21
147.75
  0
LINE
  8
0
  6
LTYPE4
 62
     2
 10
149.25
 20
150.5
 11
143.75
 21
150.5
  0
LINE
  8
0
  6
CONTINUOUS
 62
     1
 10
147.55
 20
150.3
 11
147.55
 21
150.7
  0
LINE
  8
0
  6
CONTINUOUS
 62
     1
 10
146.7
 20
151.55
 11
146.3
 21
151.55
  0
LINE
  8
0
  6
CONTINUOUS
 62
     1
 10
145.45
 20
150.7
 11
145.45
 21
150.3
  0
LINE
  8
0
  6
CONTINUOUS
 62
     1
 10
146.7
 20
149.45
 11
146.3
 21
149.45
  0
LINE
  8
0
  6
CONTINUOUS
 62
     1
 10
146.3
 20
151.55
 11
146.3
 21
151.15
  0
LINE
  8
0
  6
CONTINUOUS
 62
     1
 10
146.7
 20
151.55
 11
146.7
 21
151.15
  0
LINE
  8
0
  6
CONTINUOUS
 62
     1
 10
145.45
 20
150.7
 11
145.85
 21
150.7
  0
LINE
  8
0
  6
CONTINUOUS
 62
     1
 10
146.3
 20
149.45
 11
146.3
 21
149.85
  0
LINE
  8
0
  6
CONTINUOUS
 62
     1
 10
147.55
 20
150.3
 11
147.15
 21
150.3
  0
LINE
  8
0
  6
CONTINUOUS
 62
     1
 10
145.45
 20
150.3
 11
145.85
 21
150.3
  0
LINE
  8
0
  6
CONTINUOUS
 62
     1
 10
146.7
 20
149.45
 11
146.7
 21
149.85
  0
LINE
  8
0
  6
CONTINUOUS
 62
     1
 10
147.55
 20
150.7
 11
147.15
 21
150.7
  0
ARC
  8
0
  6
CONTINUOUS
 62
     1
 10
145.9
 20
151.1
 40
0.4
 50
262.3
 51
7.7
  0
ARC
  8
0
  6
CONTINUOUS
 62
     1
 10
145.9
 20
149.9
 40
0.4
 50
352.3
 51
97.7
  0
ARC
  8
0
  6
CONTINUOUS
 62
     1
 10
147.1
 20
149.9
 40
0.4
 50
82.3
 51
187.7
  0
ARC
  8
0
  6
CONTINUOUS
 62
     1
 10
147.1
 20
151.1
 40
0.4
 50
172.3
 51
277.7
  0
LINE
  8
0
  6
CONTINUOUS
 62
     1
 10
144.0
 20
168.0
 11
142.0
 21
168.0
  0
LINE
  8
0
  6
CONTINUOUS
 62
     1
 10
142.0
 20
168.0
 11
142.0
 21
158.0
  0
LINE
  8
0
  6
CONTINUOUS
 62
     1
 10
142.0
 20
158.0
 11
144.0
 21
158.0
  0
LINE
  8
0
  6
CONTINUOUS
 62
     1
 10
144.0
 20
166.64901597
 11
142.0
 21
166.64901597
  0
LINE
  8
0
  6
CONTINUOUS
 62
     1
 10
144.0
 20
160.740169452
 11
142.0
 21
160.740169452
  0
LINE
  8
0
  6
CONTINUOUS
 62
     2
 10
142.0
 20
160.740169452
 11
144.0
 21
166.64901597
  0
LINE
  8
0
  6
CONTINUOUS
 62
     2
 10
144.0
 20
160.740169452
 11
142.0
 21
166.64901597
  0
LINE
  8
寸法線
  6
CONTINUOUS
 62
     2
 10
144.0
 20
147.0
 11
144.0
 21
114.0
  0
LINE
  8
寸法線
  6
CONTINUOUS
 62
     2
 10
144.0
 20
115.0
 11
141.585185434
 21
115.647047613
  0
LINE
  8
寸法線
  6
CONTINUOUS
 62
     2
 10
144.0
 20
115.0
 11
141.585185434
 21
114.352952387
  0
POLYLINE
  8
寸法線
  6
CONTINUOUS
 62
     2
 66
     1
  0
VERTEX
  8
寸法線
  6
CONTINUOUS
 62
     2
 10
194.0
 20
115.0
  0
VERTEX
  8
寸法線
  6
CONTINUOUS
 62
     2
 10
144.0
 20
115.0
  0
VERTEX
  8
寸法線
  6
CONTINUOUS
 62
     2
 10
146.414814566
 20
114.352952387
  0
SEQEND
  0
LINE
  8
寸法線
  6
CONTINUOUS
 62
     2
 10
144.0
 20
115.0
 11
146.414814566
 21
115.647047613
  0
LINE
  8
寸法線
  6
CONTINUOUS
 62
     2
 10
144.0
 20
105.0
 11
146.414814566
 21
104.352952387
  0
LINE
  8
寸法線
  6
CONTINUOUS
 62
     2
 10
144.0
 20
105.0
 11
146.414814566
 21
105.647047613
  0
LINE
  8
寸法線
  6
CONTINUOUS
 62
     2
 10
144.0
 20
114.0
 11
144.0
 21
104.0
  0
LINE
  8
寸法線
  6
CONTINUOUS
 62
     2
 10
144.0
 20
105.0
 11
141.585185434
 21
105.647047613
  0
LINE
  8
寸法線
  6
CONTINUOUS
 62
     2
 10
144.0
 20
105.0
 11
141.585185434
 21
104.352952387
  0
LINE
  8
0
  6
CONTINUOUS
 62
     1
 10
144.0
 20
202.0
 11
244.0
 21
202.0
  0
LINE
  8
0
  6
CONTINUOUS
 62
     1
 10
244.0
 20
220.0
 11
144.0
 21
220.0
  0
LINE
  8
0
  6
CONTINUOUS
 62
     1
 10
144.0
 20
148.0
 11
244.0
 21
148.0
  0
LINE
  8
0
  6
CONTINUOUS
 62
     1
 10
244.0
 20
173.0
 11
144.0
 21
173.0
  0
LINE
  8
寸法線
  6
CONTINUOUS
 62
     2
 10
244.0
 20
105.0
 11
144.0
 21
105.0
  0
LINE
  8
0
  6
LTYPE4
 62
     2
 10
146.5
 20
221.5
 11
146.5
 21
218.0
  0
LINE
  8
0
  6
LTYPE4
 62
     2
 10
146.5
 20
200.5
 11
146.5
 21
204.0
  0
LINE
  8
0
  6
CONTINUOUS
 62
     1
 10
89.0
 20
165.0
 11
89.0
 21
161.0
  0
LINE
  8
0
  6
CONTINUOUS
 62
     1
 10
85.0
 20
160.5
 11
85.0
 21
165.5
  0
LINE
  8
0
  6
CONTINUOUS
 62
     1
 10
81.0
 20
165.5
 11
81.0
 21
160.5
  0
LINE
  8
0
  6
CONTINUOUS
 62
     1
 10
81.0
 20
165.5
 11
80.0
 21
164.922649731
  0
LINE
  8
0
  6
CONTINUOUS
 62
     1
 10
85.0
 20
165.5
 11
81.0
 21
165.5
  0
LINE
  8
0
  6
CONTINUOUS
 62
     1
 10
81.0
 20
160.5
 11
80.0
 21
161.077350269
  0
LINE
  8
0
  6
CONTINUOUS
 62
     1
 10
81.0
 20
160.5
 11
85.0
 21
160.5
  0
LINE
  8
0
  6
CONTINUOUS
 62
     1
 10
80.0
 20
164.922649731
 11
80.0
 21
161.077350269
  0
ARC
  8
0
  6
CONTINUOUS
 62
     1
 10
80.5
 20
163.0
 40
1.5
 50
109.471220634
 51
250.528779366
  0
LINE
  8
0
  6
CONTINUOUS
 62
     1
 10
85.0
 20
164.75
 11
89.0
 21
164.75
  0
LINE
  8
0
  6
CONTINUOUS
 62
     1
 10
89.0
 20
161.25
 11
85.0
 21
161.25
  0
LINE
  8
0
  6
CONTINUOUS
 62
     1
 10
85.0
 20
165.349231552
 11
81.0
 21
165.349231552
  0
LINE
  8
0
  6
CONTINUOUS
 62
     1
 10
85.0
 20
164.915111108
 11
81.0
 21
164.915111108
  0
LINE
  8
0
  6
CONTINUOUS
 62
     1
 10
85.0
 20
164.25
 11
81.0
 21
164.25
  0
LINE
  8
0
  6
CONTINUOUS
 62
     1
 10
85.0
 20
163.434120444
 11
81.0
 21
163.434120444
  0
LINE
  8
0
  6
CONTINUOUS
 62
     1
 10
85.0
 20
162.565879556
 11
81.0
 21
162.565879556
  0
LINE
  8
0
  6
CONTINUOUS
 62
     1
 10
85.0
 20
161.75
 11
81.0
 21
161.75
  0
LINE
  8
0
  6
CONTINUOUS
 62
     1
 10
85.0
 20
161.08
 11
81.0
 21
161.08
  0
LINE
  8
0
  6
CONTINUOUS
 62
     1
 10
85.0
 20
160.650768448
 11
81.0
 21
160.650768448
  0
LINE
  8
0
  6
CONTINUOUS
 62
     1
 10
89.0
 20
161.0
 11
142.0
 21
161.0
  0
LINE
  8
0
  6
CONTINUOUS
 62
     1
 10
142.0
 20
165.0
 11
89.0
 21
165.0
  0
LINE
  8
寸法線
  6
CONTINUOUS
 62
     2
 10
79.0
 20
115.0
 11
81.414814566
 21
114.352952387
  0
LINE
  8
寸法線
  6
CONTINUOUS
 62
     2
 10
79.0
 20
115.0
 11
81.414814566
 21
115.647047613
  0
LINE
  8
寸法線
  6
CONTINUOUS
 62
     2
 10
79.0
 20
115.0
 11
89.0
 21
115.0
  0
LINE
  8
寸法線
  6
CONTINUOUS
 62
     2
 10
89.0
 20
115.0
 11
86.585185434
 21
115.647047613
  0
LINE
  8
寸法線
  6
CONTINUOUS
 62
     2
 10
89.0
 20
115.0
 11
86.585185434
 21
114.352952387
  0
LINE
  8
寸法線
  6
CONTINUOUS
 62
     2
 10
89.0
 20
160.0
 11
89.0
 21
114.0
  0
TEXT
  8
寸法線
  6
CONTINUOUS
 62
     5
 10
80.45
 20
116.0
 30
0.1
 40
4.0
  1
１０
 50
0.0
 41
0.875
 51
0.0
  7
KANJI0
  0
POLYLINE
  8
寸法線
  6
CONTINUOUS
 62
     2
 66
     1
  0
VERTEX
  8
寸法線
  6
CONTINUOUS
 62
     2
 10
144.0
 20
115.0
  0
VERTEX
  8
寸法線
  6
CONTINUOUS
 62
     2
 10
89.0
 20
115.0
  0
VERTEX
  8
寸法線
  6
CONTINUOUS
 62
     2
 10
91.414814566
 20
114.352952387
  0
SEQEND
  0
LINE
  8
寸法線
  6
CONTINUOUS
 62
     2
 10
89.0
 20
115.0
 11
91.414814566
 21
115.647047613
  0
POLYLINE
  8
寸法線
  6
CONTINUOUS
 62
     2
 66
     1
  0
VERTEX
  8
寸法線
  6
CONTINUOUS
 62
     2
 10
144.0
 20
105.0
  0
VERTEX
  8
寸法線
  6
CONTINUOUS
 62
     2
 10
79.0
 20
105.0
  0
VERTEX
  8
寸法線
  6
CONTINUOUS
 62
     2
 10
81.414814566
 20
104.352952387
  0
SEQEND
  0
LINE
  8
寸法線
  6
CONTINUOUS
 62
     2
 10
79.0
 20
105.0
 11
81.414814566
 21
105.647047613
  0
LINE
  8
寸法線
  6
CONTINUOUS
 62
     2
 10
79.0
 20
162.0
 11
79.0
 21
104.0
  0
LINE
  8
寸法線
  6
CONTINUOUS
 62
     2
 10
79.0
 20
95.0
 11
81.414814566
 21
94.352952387
  0
LINE
  8
寸法線
  6
CONTINUOUS
 62
     2
 10
79.0
 20
95.0
 11
81.414814566
 21
95.647047613
  0
LINE
  8
寸法線
  6
CONTINUOUS
 62
     2
 10
79.0
 20
104.0
 11
79.0
 21
94.0
  0
LINE
  8
0
  6
LTYPE3
 62
     2
 10
253.0
 20
163.0
 11
74.0
 21
163.0
  0
LINE
  8
寸法線
  6
CONTINUOUS
 62
     2
 10
251.0
 20
95.0
 11
79.0
 21
95.0
  0
TEXT
  8
寸法線
  6
CONTINUOUS
 62
     5
 10
188.65
 20
106.0
 30
0.1
 40
4.0
  1
１００
 50
0.0
 41
0.875
 51
0.0
  7
KANJI0
  0
TEXT
  8
寸法線
  6
CONTINUOUS
 62
     5
 10
165.45
 20
116.0
 30
0.1
 40
4.0
  1
５０
 50
0.0
 41
0.875
 51
0.0
  7
KANJI0
  0
TEXT
  8
寸法線
  6
CONTINUOUS
 62
     5
 10
112.95
 20
116.0
 30
0.1
 40
4.0
  1
５５
 50
0.0
 41
0.875
 51
0.0
  7
KANJI0
  0
TEXT
  8
寸法線
  6
CONTINUOUS
 62
     5
 10
107.95
 20
106.0
 30
0.1
 40
4.0
  1
６５
 50
0.0
 41
0.875
 51
0.0
  7
KANJI0
  0
TEXT
  8
寸法線
  6
CONTINUOUS
 62
     5
 10
159.65
 20
96.0
 30
0.1
 40
4.0
  1
１７１
 50
0.0
 41
0.875
 51
0.0
  7
KANJI0
  0
LINE
  8
0
  6
CONTINUOUS
 62
     1
 10
89.0
 20
215.0
 11
89.0
 21
211.0
  0
LINE
  8
0
  6
CONTINUOUS
 62
     1
 10
85.0
 20
210.5
 11
85.0
 21
215.5
  0
LINE
  8
0
  6
CONTINUOUS
 62
     1
 10
81.0
 20
215.5
 11
81.0
 21
210.5
  0
LINE
  8
0
  6
CONTINUOUS
 62
     1
 10
81.0
 20
215.5
 11
80.0
 21
214.922649731
  0
LINE
  8
0
  6
CONTINUOUS
 62
     1
 10
85.0
 20
215.5
 11
81.0
 21
215.5
  0
LINE
  8
0
  6
CONTINUOUS
 62
     1
 10
81.0
 20
210.5
 11
80.0
 21
211.077350269
  0
LINE
  8
0
  6
CONTINUOUS
 62
     1
 10
81.0
 20
210.5
 11
85.0
 21
210.5
  0
LINE
  8
0
  6
CONTINUOUS
 62
     1
 10
80.0
 20
214.922649731
 11
80.0
 21
211.077350269
  0
ARC
  8
0
  6
CONTINUOUS
 62
     1
 10
80.5
 20
213.0
 40
1.5
 50
109.471220634
 51
250.528779366
  0
LINE
  8
0
  6
CONTINUOUS
 62
     1
 10
85.0
 20
214.75
 11
89.0
 21
214.75
  0
LINE
  8
0
  6
CONTINUOUS
 62
     1
 10
89.0
 20
211.25
 11
85.0
 21
211.25
  0
LINE
  8
0
  6
CONTINUOUS
 62
     1
 10
85.0
 20
215.349231552
 11
81.0
 21
215.349231552
  0
LINE
  8
0
  6
CONTINUOUS
 62
     1
 10
85.0
 20
214.915111108
 11
81.0
 21
214.915111108
  0
LINE
  8
0
  6
CONTINUOUS
 62
     1
 10
85.0
 20
214.25
 11
81.0
 21
214.25
  0
LINE
  8
0
  6
CONTINUOUS
 62
     1
 10
85.0
 20
213.434120444
 11
81.0
 21
213.434120444
  0
LINE
  8
0
  6
CONTINUOUS
 62
     1
 10
85.0
 20
212.565879556
 11
81.0
 21
212.565879556
  0
LINE
  8
0
  6
CONTINUOUS
 62
     1
 10
85.0
 20
211.75
 11
81.0
 21
211.75
  0
LINE
  8
0
  6
CONTINUOUS
 62
     1
 10
85.0
 20
211.08
 11
81.0
 21
211.08
  0
LINE
  8
0
  6
CONTINUOUS
 62
     1
 10
85.0
 20
210.650768448
 11
81.0
 21
210.650768448
  0
LINE
  8
0
  6
CONTINUOUS
 62
     1
 10
142.0
 20
215.0
 11
89.0
 21
215.0
  0
LINE
  8
0
  6
CONTINUOUS
 62
     1
 10
89.0
 20
211.0
 11
142.0
 21
211.0
  0
LINE
  8
0
  6
LTYPE3
 62
     2
 10
256.0
 20
213.0
 11
74.0
 21
213.0
  0
LINE
  8
0
  6
LTYPE3
 62
     2
 10
332.5
 20
163.0
 11
317.5
 21
163.0
  0
LINE
  8
0
  6
CONTINUOUS
 62
     1
 10
328.418286479
 20
166.64901597
 11
329.460175545
 21
160.740169452
  0
ARC
  8
0
  6
CONTINUOUS
 62
     1
 10
325.0
 20
163.0
 40
5.0
 50
226.869897646
 51
333.130102354
  0
LINE
  8
0
  6
CONTINUOUS
 62
     1
 10
320.539824455
 20
165.259830548
 11
321.581713521
 21
159.35098403
  0
ARC
  8
0
  6
CONTINUOUS
 62
     1
 10
325.0
 20
163.0
 40
5.0
 50
46.869897646
 51
153.130102354
  0
LINE
  8
0
  6
CONTINUOUS
 62
     1
 10
327.5
 20
148.0
 11
327.5
 21
130.0
  0
LINE
  8
0
  6
CONTINUOUS
 62
     1
 10
327.5
 20
130.0
 11
322.5
 21
130.0
  0
LINE
  8
0
  6
CONTINUOUS
 62
     1
 10
322.5
 20
130.0
 11
322.5
 21
148.0
  0
LINE
  8
0
  6
LTYPE3
 62
     2
 10
325.0
 20
125.0
 11
325.0
 21
178.0
  0
LINE
  8
0
  6
LTYPE5
 62
     2
 10
327.5
 20
141.25
 11
322.5
 21
141.25
  0
LINE
  8
0
  6
LTYPE5
 62
     2
 10
327.5
 20
134.75
 11
322.5
 21
134.75
  0
LINE
  8
0
  6
LTYPE3
 62
     2
 10
332.5
 20
138.0
 11
317.5
 21
138.0
  0
LINE
  8
0
  6
CONTINUOUS
 62
     1
 10
331.0
 20
148.0
 11
331.0
 21
172.0
  0
LINE
  8
0
  6
CONTINUOUS
 62
     1
 10
332.0
 20
148.0
 11
332.0
 21
173.0
  0
LINE
  8
0
  6
CONTINUOUS
 62
     1
 10
331.0
 20
148.0
 11
332.0
 21
148.0
  0
LINE
  8
0
  6
CONTINUOUS
 62
     1
 10
315.0
 20
172.0
 11
315.0
 21
148.0
  0
POLYLINE
  8
0
  6
CONTINUOUS
 62
     1
 66
     1
  0
VERTEX
  8
0
  6
CONTINUOUS
 62
     1
 10
314.0
 20
173.0
  0
VERTEX
  8
0
  6
CONTINUOUS
 62
     1
 10
314.0
 20
148.0
  0
VERTEX
  8
0
  6
CONTINUOUS
 62
     1
 10
315.0
 20
148.0
  0
SEQEND
  0
LINE
  8
0
  6
CONTINUOUS
 62
     1
 10
315.0
 20
148.0
 11
331.0
 21
148.0
  0
LINE
  8
0
  6
CONTINUOUS
 62
     1
 10
331.0
 20
172.0
 11
315.0
 21
172.0
  0
LINE
  8
0
  6
CONTINUOUS
 62
     1
 10
332.0
 20
173.0
 11
314.0
 21
173.0
  0
CIRCLE
  8
0
  6
CONTINUOUS
 62
     1
 10
318.0
 20
157.0
 40
2.0
  0
CIRCLE
  8
0
  6
CONTINUOUS
 62
     1
 10
318.0
 20
157.0
 40
3.0
  0
LINE
  8
0
  6
LTYPE3
 62
     2
 10
318.0
 20
152.0
 11
318.0
 21
162.0
  0
LINE
  8
0
  6
LTYPE3
 62
     2
 10
323.0
 20
157.0
 11
313.0
 21
157.0
  0
CIRCLE
  8
0
  6
CONTINUOUS
 62
     1
 10
325.0
 20
163.0
 40
4.0
  0
LINE
  8
寸法線
  6
CONTINUOUS
 62
     2
 10
327.5
 20
129.0
 11
327.5
 21
114.0
  0
LINE
  8
寸法線
  6
CONTINUOUS
 62
     2
 10
327.5
 20
115.0
 11
329.914814566
 21
114.352952387
  0
LINE
  8
寸法線
  6
CONTINUOUS
 62
     2
 10
327.5
 20
115.0
 11
329.914814566
 21
115.647047613
  0
LINE
  8
寸法線
  6
CONTINUOUS
 62
     2
 10
331.25
 20
115.0
 11
327.5
 21
115.0
  0
LINE
  8
寸法線
  6
CONTINUOUS
 62
     2
 10
327.5
 20
115.0
 11
322.5
 21
115.0
  0
LINE
  8
寸法線
  6
CONTINUOUS
 62
     2
 10
322.5
 20
115.0
 11
315.25
 21
115.0
  0
LINE
  8
寸法線
  6
CONTINUOUS
 62
     2
 10
322.5
 20
115.0
 11
320.085185434
 21
115.647047613
  0
LINE
  8
寸法線
  6
CONTINUOUS
 62
     2
 10
322.5
 20
115.0
 11
320.085185434
 21
114.352952387
  0
LINE
  8
寸法線
  6
CONTINUOUS
 62
     2
 10
322.5
 20
129.0
 11
322.5
 21
114.0
  0
TEXT
  8
寸法線
  6
CONTINUOUS
 62
     5
 10
315.25
 20
116.0
 30
0.1
 40
4.0
  1
５
 50
0.0
 41
0.875
 51
0.0
  7
KANJI0
  0
LINE
  8
寸法線
  6
CONTINUOUS
 62
     2
 10
332.0
 20
147.0
 11
332.0
 21
104.0
  0
LINE
  8
寸法線
  6
CONTINUOUS
 62
     2
 10
332.0
 20
105.0
 11
329.585185434
 21
105.647047613
  0
LINE
  8
寸法線
  6
CONTINUOUS
 62
     2
 10
332.0
 20
105.0
 11
329.585185434
 21
104.352952387
  0
LINE
  8
寸法線
  6
CONTINUOUS
 62
     2
 10
332.0
 20
105.0
 11
325.0
 21
105.0
  0
LINE
  8
寸法線
  6
CONTINUOUS
 62
     2
 10
325.0
 20
105.0
 11
327.414814566
 21
104.352952387
  0
LINE
  8
寸法線
  6
CONTINUOUS
 62
     2
 10
325.0
 20
105.0
 11
327.414814566
 21
105.647047613
  0
LINE
  8
寸法線
  6
CONTINUOUS
 62
     2
 10
325.0
 20
125.0
 11
325.0
 21
104.0
  0
TEXT
  8
寸法線
  6
CONTINUOUS
 62
     5
 10
326.75
 20
106.0
 30
0.1
 40
4.0
  1
７
 50
0.0
 41
0.875
 51
0.0
  7
KANJI0
  0
LINE
  8
寸法線
  6
CONTINUOUS
 62
     2
 10
332.0
 20
104.0
 11
332.0
 21
94.0
  0
LINE
  8
寸法線
  6
CONTINUOUS
 62
     2
 10
332.0
 20
95.0
 11
329.585185434
 21
95.647047613
  0
LINE
  8
寸法線
  6
CONTINUOUS
 62
     2
 10
332.0
 20
95.0
 11
329.585185434
 21
94.352952387
  0
LINE
  8
寸法線
  6
CONTINUOUS
 62
     2
 10
332.0
 20
95.0
 11
314.0
 21
95.0
  0
LINE
  8
寸法線
  6
CONTINUOUS
 62
     2
 10
314.0
 20
95.0
 11
316.414814566
 21
94.352952387
  0
LINE
  8
寸法線
  6
CONTINUOUS
 62
     2
 10
314.0
 20
95.0
 11
316.414814566
 21
95.647047613
  0
LINE
  8
寸法線
  6
CONTINUOUS
 62
     2
 10
314.0
 20
147.0
 11
314.0
 21
94.0
  0
TEXT
  8
寸法線
  6
CONTINUOUS
 62
     5
 10
319.45
 20
96.0
 30
0.1
 40
4.0
  1
１８
 50
0.0
 41
0.875
 51
0.0
  7
KANJI0
  0
LINE
  8
0
  6
LTYPE4
 62
     2
 10
333.5
 20
150.5
 11
330.0
 21
150.5
  0
LINE
  8
0
  6
LTYPE4
 62
     2
 10
312.5
 20
150.5
 11
316.0
 21
150.5
  0
LINE
  8
寸法線
  6
CONTINUOUS
 62
     2
 10
196.754151366
 20
136.274557954
 11
198.457019574
 21
134.444191907
  0
LINE
  8
寸法線
  6
CONTINUOUS
 62
     2
 10
196.754151366
 20
136.274557954
 11
199.144061517
 21
135.540848563
  0
LINE
  8
寸法線
  6
CONTINUOUS
 62
     2
 10
196.754151366
 20
136.274557954
 11
212.438745268
 21
126.44835227
  0
LINE
  8
寸法線
  6
CONTINUOUS
 62
     2
 10
212.438745268
 20
126.44835227
 11
237.538745268
 21
126.44835227
  0
TEXT
  8
寸法線
  6
CONTINUOUS
 62
     5
 10
212.438745268
 20
127.44835227
 30
0.1
 40
4.0
  1
φ６．５取付穴
 50
0.0
 41
0.875
 51
0.0
  7
KANJI0
  0
LINE
  8
寸法線
  6
CONTINUOUS
 62
     2
 10
198.25
 20
138.0
 11
280.0
 21
138.0
  0
LINE
  8
寸法線
  6
CONTINUOUS
 62
     2
 10
279.0
 20
138.0
 11
279.647047613
 21
140.414814566
  0
LINE
  8
寸法線
  6
CONTINUOUS
 62
     2
 10
279.0
 20
138.0
 11
278.352952387
 21
140.414814566
  0
LINE
  8
寸法線
  6
CONTINUOUS
 62
     2
 10
279.0
 20
138.0
 11
279.0
 21
148.0
  0
LINE
  8
寸法線
  6
CONTINUOUS
 62
     2
 10
279.0
 20
148.0
 11
278.352952387
 21
145.585185434
  0
LINE
  8
寸法線
  6
CONTINUOUS
 62
     2
 10
279.0
 20
148.0
 11
279.647047613
 21
145.585185434
  0
LINE
  8
寸法線
  6
CONTINUOUS
 62
     2
 10
245.0
 20
148.0
 11
280.0
 21
148.0
  0
TEXT
  8
寸法線
  6
CONTINUOUS
 62
     5
 10
278.0
 20
139.45
 30
0.1
 40
4.0
  1
１０
 50
90.0
 41
0.875
 51
0.0
  7
KANJI0
  0
LINE
  8
寸法線
  6
CONTINUOUS
 62
     2
 10
245.0
 20
148.0
 11
280.0
 21
148.0
  0
LINE
  8
寸法線
  6
CONTINUOUS
 62
     2
 10
279.0
 20
148.0
 11
279.647047613
 21
150.414814566
  0
LINE
  8
寸法線
  6
CONTINUOUS
 62
     2
 10
279.0
 20
148.0
 11
278.352952387
 21
150.414814566
  0
LINE
  8
寸法線
  6
CONTINUOUS
 62
     2
 10
279.0
 20
148.0
 11
279.0
 21
163.0
  0
LINE
  8
寸法線
  6
CONTINUOUS
 62
     2
 10
279.0
 20
163.0
 11
278.352952387
 21
160.585185434
  0
LINE
  8
寸法線
  6
CONTINUOUS
 62
     2
 10
279.0
 20
163.0
 11
279.647047613
 21
160.585185434
  0
LINE
  8
寸法線
  6
CONTINUOUS
 62
     2
 10
252.0
 20
163.0
 11
280.0
 21
163.0
  0
TEXT
  8
寸法線
  6
CONTINUOUS
 62
     5
 10
278.0
 20
151.95
 30
0.1
 40
4.0
  1
１５
 50
90.0
 41
0.875
 51
0.0
  7
KANJI0
  0
LINE
  8
寸法線
  6
CONTINUOUS
 62
     2
 10
245.0
 20
148.0
 11
290.0
 21
148.0
  0
LINE
  8
寸法線
  6
CONTINUOUS
 62
     2
 10
289.0
 20
148.0
 11
289.647047613
 21
150.414814566
  0
LINE
  8
寸法線
  6
CONTINUOUS
 62
     2
 10
289.0
 20
148.0
 11
288.352952387
 21
150.414814566
  0
LINE
  8
寸法線
  6
CONTINUOUS
 62
     2
 10
289.0
 20
148.0
 11
289.0
 21
173.0
  0
LINE
  8
寸法線
  6
CONTINUOUS
 62
     2
 10
289.0
 20
173.0
 11
288.352952387
 21
170.585185434
  0
LINE
  8
寸法線
  6
CONTINUOUS
 62
     2
 10
289.0
 20
173.0
 11
289.647047613
 21
170.585185434
  0
LINE
  8
寸法線
  6
CONTINUOUS
 62
     2
 10
245.0
 20
173.0
 11
290.0
 21
173.0
  0
TEXT
  8
寸法線
  6
CONTINUOUS
 62
     5
 10
288.0
 20
156.95
 30
0.1
 40
4.0
  1
２５
 50
90.0
 41
0.875
 51
0.0
  7
KANJI0
  0
ENDSEC
  0
EOF
