  0
SECTION
  2
HEADER
  9
$EXTMIN
 10
0.0
 20
0.0
 30
0.0
  9
$EXTMAX
 10
210.0
 20
297.0
 30
0.0
  9
$LIMMIN
 10
0.0
 20
0.0
  9
$LIMMAX
 10
210.0
 20
297.0
  9
$LTSCALE
 40
1.0
  9
$PDMODE
 70
     0
  0
ENDSEC
  0
SECTION
  2
TABLES
  0
TABLE
  2
LTYPE
 70
     6
  0
LTYPE
  2
CONTINUOUS
 70
    64
  3
Solid line
 72
    65
 73
     0
 40
0.0
  0
LTYPE
  2
LTYPE1
 70
    64
  3
PHANTOM
 72
    65
 73
     6
 40
10.0
 49
7.5
 49
-0.5
 49
0.5
 49
-0.5
 49
0.5
 49
-0.5
  0
LTYPE
  2
LTYPE2
 70
    64
  3
HIDDEN
 72
    65
 73
     2
 40
2.0
 49
1.2
 49
-0.8
  0
LTYPE
  2
LTYPE3
 70
    64
  3
CENTER
 72
    65
 73
     4
 40
8.0
 49
5.6
 49
-0.8
 49
0.8
 49
-0.8
  0
LTYPE
  2
LTYPE4
 70
    64
  3
CENTER
 72
    65
 73
     4
 40
10.0
 49
7.0
 49
-1.0
 49
1.0
 49
-1.0
  0
LTYPE
  2
LTYPE5
 70
    64
  3
HIDDEN
 72
    65
 73
     2
 40
1.5
 49
0.9
 49
-0.6
  0
ENDTAB
  0
TABLE
  2
LAYER
 70
   128
  0
LAYER
  2
0
 70
     0
 62
     7
  6
CONTINUOUS
  0
LAYER
  2
ハッチング
 70
     0
 62
     7
  6
CONTINUOUS
  0
LAYER
  2
治具
 70
     0
 62
     7
  6
CONTINUOUS
  0
LAYER
  2
購入品
 70
     0
 62
     7
  6
CONTINUOUS
  0
LAYER
  2
寸法線
 70
     0
 62
     7
  6
CONTINUOUS
  0
LAYER
  2
表題欄
 70
     0
 62
     7
  6
CONTINUOUS
  0
LAYER
  2
図枠
 70
     0
 62
     7
  6
CONTINUOUS
  0
LAYER
  2
8
 70
     0
 62
     7
  6
CONTINUOUS
  0
LAYER
  2
9
 70
     0
 62
     7
  6
CONTINUOUS
  0
LAYER
  2
10
 70
     0
 62
     7
  6
CONTINUOUS
  0
LAYER
  2
11
 70
     0
 62
     7
  6
CONTINUOUS
  0
LAYER
  2
12
 70
     0
 62
     7
  6
CONTINUOUS
  0
LAYER
  2
13
 70
     0
 62
     7
  6
CONTINUOUS
  0
LAYER
  2
14
 70
     0
 62
     7
  6
CONTINUOUS
  0
LAYER
  2
15
 70
     0
 62
     7
  6
CONTINUOUS
  0
LAYER
  2
16
 70
     0
 62
     7
  6
CONTINUOUS
  0
LAYER
  2
17
 70
     0
 62
     7
  6
CONTINUOUS
  0
LAYER
  2
18
 70
     0
 62
     7
  6
CONTINUOUS
  0
LAYER
  2
19
 70
     0
 62
     7
  6
CONTINUOUS
  0
LAYER
  2
20
 70
     0
 62
     7
  6
CONTINUOUS
  0
LAYER
  2
21
 70
     0
 62
     7
  6
CONTINUOUS
  0
LAYER
  2
22
 70
     0
 62
     7
  6
CONTINUOUS
  0
LAYER
  2
23
 70
     0
 62
     7
  6
CONTINUOUS
  0
LAYER
  2
24
 70
     0
 62
     7
  6
CONTINUOUS
  0
LAYER
  2
25
 70
     0
 62
     7
  6
CONTINUOUS
  0
LAYER
  2
26
 70
     0
 62
     7
  6
CONTINUOUS
  0
LAYER
  2
27
 70
     0
 62
     7
  6
CONTINUOUS
  0
LAYER
  2
28
 70
     0
 62
     7
  6
CONTINUOUS
  0
LAYER
  2
29
 70
     0
 62
     7
  6
CONTINUOUS
  0
LAYER
  2
30
 70
     0
 62
     7
  6
CONTINUOUS
  0
LAYER
  2
31
 70
     0
 62
     7
  6
CONTINUOUS
  0
LAYER
  2
32
 70
     0
 62
     7
  6
CONTINUOUS
  0
LAYER
  2
33
 70
     0
 62
     7
  6
CONTINUOUS
  0
LAYER
  2
34
 70
     0
 62
     7
  6
CONTINUOUS
  0
LAYER
  2
35
 70
     0
 62
     7
  6
CONTINUOUS
  0
LAYER
  2
36
 70
     0
 62
     7
  6
CONTINUOUS
  0
LAYER
  2
37
 70
     0
 62
     7
  6
CONTINUOUS
  0
LAYER
  2
38
 70
     0
 62
     7
  6
CONTINUOUS
  0
LAYER
  2
39
 70
     0
 62
     7
  6
CONTINUOUS
  0
LAYER
  2
40
 70
     0
 62
     7
  6
CONTINUOUS
  0
LAYER
  2
41
 70
     0
 62
     7
  6
CONTINUOUS
  0
LAYER
  2
42
 70
     0
 62
     7
  6
CONTINUOUS
  0
LAYER
  2
43
 70
     0
 62
     7
  6
CONTINUOUS
  0
LAYER
  2
44
 70
     0
 62
     7
  6
CONTINUOUS
  0
LAYER
  2
45
 70
     0
 62
     7
  6
CONTINUOUS
  0
LAYER
  2
46
 70
     0
 62
     7
  6
CONTINUOUS
  0
LAYER
  2
47
 70
     0
 62
     7
  6
CONTINUOUS
  0
LAYER
  2
48
 70
     0
 62
     7
  6
CONTINUOUS
  0
LAYER
  2
49
 70
     0
 62
     7
  6
CONTINUOUS
  0
LAYER
  2
50
 70
     0
 62
     7
  6
CONTINUOUS
  0
LAYER
  2
51
 70
     0
 62
     7
  6
CONTINUOUS
  0
LAYER
  2
52
 70
     0
 62
     7
  6
CONTINUOUS
  0
LAYER
  2
53
 70
     0
 62
     7
  6
CONTINUOUS
  0
LAYER
  2
54
 70
     0
 62
     7
  6
CONTINUOUS
  0
LAYER
  2
55
 70
     0
 62
     7
  6
CONTINUOUS
  0
LAYER
  2
56
 70
     0
 62
     7
  6
CONTINUOUS
  0
LAYER
  2
57
 70
     0
 62
     7
  6
CONTINUOUS
  0
LAYER
  2
58
 70
     0
 62
     7
  6
CONTINUOUS
  0
LAYER
  2
59
 70
     0
 62
     7
  6
CONTINUOUS
  0
LAYER
  2
60
 70
     0
 62
     7
  6
CONTINUOUS
  0
LAYER
  2
61
 70
     0
 62
     7
  6
CONTINUOUS
  0
LAYER
  2
62
 70
     0
 62
     7
  6
CONTINUOUS
  0
LAYER
  2
63
 70
     0
 62
     7
  6
CONTINUOUS
  0
LAYER
  2
64
 70
     0
 62
     7
  6
CONTINUOUS
  0
LAYER
  2
65
 70
     0
 62
     7
  6
CONTINUOUS
  0
LAYER
  2
66
 70
     0
 62
     7
  6
CONTINUOUS
  0
LAYER
  2
67
 70
     0
 62
     7
  6
CONTINUOUS
  0
LAYER
  2
68
 70
     0
 62
     7
  6
CONTINUOUS
  0
LAYER
  2
69
 70
     0
 62
     7
  6
CONTINUOUS
  0
LAYER
  2
70
 70
     0
 62
     7
  6
CONTINUOUS
  0
LAYER
  2
71
 70
     0
 62
     7
  6
CONTINUOUS
  0
LAYER
  2
72
 70
     0
 62
     7
  6
CONTINUOUS
  0
LAYER
  2
73
 70
     0
 62
     7
  6
CONTINUOUS
  0
LAYER
  2
74
 70
     0
 62
     7
  6
CONTINUOUS
  0
LAYER
  2
75
 70
     0
 62
     7
  6
CONTINUOUS
  0
LAYER
  2
76
 70
     0
 62
     7
  6
CONTINUOUS
  0
LAYER
  2
77
 70
     0
 62
     7
  6
CONTINUOUS
  0
LAYER
  2
78
 70
     0
 62
     7
  6
CONTINUOUS
  0
LAYER
  2
79
 70
     0
 62
     7
  6
CONTINUOUS
  0
LAYER
  2
80
 70
     0
 62
     7
  6
CONTINUOUS
  0
LAYER
  2
81
 70
     0
 62
     7
  6
CONTINUOUS
  0
LAYER
  2
82
 70
     0
 62
     7
  6
CONTINUOUS
  0
LAYER
  2
83
 70
     0
 62
     7
  6
CONTINUOUS
  0
LAYER
  2
84
 70
     0
 62
     7
  6
CONTINUOUS
  0
LAYER
  2
85
 70
     0
 62
     7
  6
CONTINUOUS
  0
LAYER
  2
86
 70
     0
 62
     7
  6
CONTINUOUS
  0
LAYER
  2
87
 70
     0
 62
     7
  6
CONTINUOUS
  0
LAYER
  2
88
 70
     0
 62
     7
  6
CONTINUOUS
  0
LAYER
  2
89
 70
     0
 62
     7
  6
CONTINUOUS
  0
LAYER
  2
90
 70
     0
 62
     7
  6
CONTINUOUS
  0
LAYER
  2
91
 70
     0
 62
     7
  6
CONTINUOUS
  0
LAYER
  2
92
 70
     0
 62
     7
  6
CONTINUOUS
  0
LAYER
  2
93
 70
     0
 62
     7
  6
CONTINUOUS
  0
LAYER
  2
94
 70
     0
 62
     7
  6
CONTINUOUS
  0
LAYER
  2
95
 70
     0
 62
     7
  6
CONTINUOUS
  0
LAYER
  2
96
 70
     0
 62
     7
  6
CONTINUOUS
  0
LAYER
  2
97
 70
     0
 62
     7
  6
CONTINUOUS
  0
LAYER
  2
98
 70
     0
 62
     7
  6
CONTINUOUS
  0
LAYER
  2
99
 70
     0
 62
     7
  6
CONTINUOUS
  0
LAYER
  2
100
 70
     0
 62
     7
  6
CONTINUOUS
  0
LAYER
  2
101
 70
     0
 62
     7
  6
CONTINUOUS
  0
LAYER
  2
102
 70
     0
 62
     7
  6
CONTINUOUS
  0
LAYER
  2
103
 70
     0
 62
     7
  6
CONTINUOUS
  0
LAYER
  2
104
 70
     0
 62
     7
  6
CONTINUOUS
  0
LAYER
  2
105
 70
     0
 62
     7
  6
CONTINUOUS
  0
LAYER
  2
106
 70
     0
 62
     7
  6
CONTINUOUS
  0
LAYER
  2
107
 70
     0
 62
     7
  6
CONTINUOUS
  0
LAYER
  2
108
 70
     0
 62
     7
  6
CONTINUOUS
  0
LAYER
  2
109
 70
     0
 62
     7
  6
CONTINUOUS
  0
LAYER
  2
110
 70
     0
 62
     7
  6
CONTINUOUS
  0
LAYER
  2
111
 70
     0
 62
     7
  6
CONTINUOUS
  0
LAYER
  2
112
 70
     0
 62
     7
  6
CONTINUOUS
  0
LAYER
  2
113
 70
     0
 62
     7
  6
CONTINUOUS
  0
LAYER
  2
114
 70
     0
 62
     7
  6
CONTINUOUS
  0
LAYER
  2
115
 70
     0
 62
     7
  6
CONTINUOUS
  0
LAYER
  2
116
 70
     0
 62
     7
  6
CONTINUOUS
  0
LAYER
  2
117
 70
     0
 62
     7
  6
CONTINUOUS
  0
LAYER
  2
118
 70
     0
 62
     7
  6
CONTINUOUS
  0
LAYER
  2
119
 70
     0
 62
     7
  6
CONTINUOUS
  0
LAYER
  2
120
 70
     0
 62
     7
  6
CONTINUOUS
  0
LAYER
  2
121
 70
     0
 62
     7
  6
CONTINUOUS
  0
LAYER
  2
122
 70
     0
 62
     7
  6
CONTINUOUS
  0
LAYER
  2
123
 70
     0
 62
     7
  6
CONTINUOUS
  0
LAYER
  2
124
 70
     0
 62
     7
  6
CONTINUOUS
  0
LAYER
  2
125
 70
     0
 62
     7
  6
CONTINUOUS
  0
LAYER
  2
126
 70
     0
 62
     7
  6
CONTINUOUS
  0
LAYER
  2
127
 70
     0
 62
     7
  6
CONTINUOUS
  0
LAYER
  2
128
 70
     0
 62
     7
  6
CONTINUOUS
  0
ENDTAB
  0
TABLE
  2
STYLE
 70
    13
  0
STYLE
  2
STANDARD
 70
     0
 40
0.0
 41
1.0
 50
0.0
 71
     0
 42
0.2
  3
txt
  4

  0
STYLE
  2
KANJI0
 70
     0
 40
4.0
 41
0.875
 50
0.0
 71
     0
 42
4.0
  3

  4
bigfont
  0
STYLE
  2
KANJI1
 70
     0
 40
5.0
 41
1.2
 50
0.0
 71
     0
 42
5.0
  3

  4
bigfont
  0
STYLE
  2
KANJI2
 70
     0
 40
5.0
 41
1.0
 50
0.0
 71
     0
 42
5.0
  3

  4
bigfont
  0
STYLE
  2
KANJI3
 70
     0
 40
2.5
 41
1.0
 50
0.0
 71
     0
 42
2.5
  3

  4
bigfont
  0
STYLE
  2
KANJI4
 70
     0
 40
2.5
 41
1.0
 50
0.0
 71
     0
 42
2.5
  3

  4
bigfont
  0
STYLE
  2
KANJI5
 70
     0
 40
2.5
 41
1.0
 50
0.0
 71
     0
 42
2.5
  3

  4
bigfont
  0
STYLE
  2
KANJI6
 70
     0
 40
4.0
 41
1.125
 50
0.0
 71
     0
 42
4.0
  3

  4
bigfont
  0
STYLE
  2
KANJI7
 70
     0
 40
7.0
 41
0.857142857
 50
0.0
 71
     0
 42
7.0
  3

  4
bigfont
  0
STYLE
  2
KANJI8
 70
     0
 40
3.0
 41
0.666666667
 50
0.0
 71
     0
 42
3.0
  3

  4
bigfont
  0
STYLE
  2
KANJI9
 70
     0
 40
3.0
 41
1.0
 50
0.0
 71
     0
 42
3.0
  3

  4
bigfont
  0
STYLE
  2
KANJI10
 70
     0
 40
3.0
 41
0.833333333
 50
0.0
 71
     0
 42
3.0
  3

  4
bigfont
  0
STYLE
  2
KANJI11
 70
     0
 40
4.0
 41
0.875
 50
0.0
 71
     0
 42
4.0
  3

  4
bigfont
  0
ENDTAB
  0
TABLE
  2
VIEW
 70
     0
  0
ENDTAB
  0
ENDSEC
  0
SECTION
  2
BLOCKS
  0
ENDSEC
  0
SECTION
  2
ENTITIES
  0
TEXT
  8
表題欄
  6
CONTINUOUS
 62
     5
 10
133.0
 20
24.0
 30
0.0
 40
4.0
  1
益子
 50
0.0
 41
0.875
 51
0.0
  7
KANJI0
  0
LINE
  8
図枠
  6
CONTINUOUS
 62
     2
 10
24.0
 20
249.5
 11
19.0
 21
249.5
  0
LINE
  8
図枠
  6
CONTINUOUS
 62
     2
 10
156.5
 20
288.0
 11
156.5
 21
293.0
  0
LINE
  8
図枠
  6
CONTINUOUS
 62
     2
 10
51.5
 20
288.0
 11
51.5
 21
293.0
  0
LINE
  8
図枠
  6
CONTINUOUS
 62
     2
 10
24.0
 20
199.5
 11
19.0
 21
199.5
  0
TEXT
  8
図枠
  6
CONTINUOUS
 62
     6
 10
74.75
 20
289.5
 30
0.0
 40
5.0
  1
２
 50
0.0
 41
1.2
 51
0.0
  7
KANJI1
  0
TEXT
  8
図枠
  6
CONTINUOUS
 62
     6
 10
22.25
 20
289.5
 30
0.0
 40
5.0
  1
１
 50
0.0
 41
1.2
 51
0.0
  7
KANJI1
  0
TEXT
  8
図枠
  6
CONTINUOUS
 62
     6
 10
127.25
 20
289.5
 30
0.0
 40
5.0
  1
３
 50
0.0
 41
1.2
 51
0.0
  7
KANJI1
  0
TEXT
  8
図枠
  6
CONTINUOUS
 62
     6
 10
178.25
 20
289.0
 30
0.0
 40
5.0
  1
４
 50
0.0
 41
1.2
 51
0.0
  7
KANJI1
  0
TEXT
  8
図枠
  6
CONTINUOUS
 62
     6
 10
17.5
 20
272.0
 30
0.0
 40
5.0
  1
Ａ
 50
0.0
 41
1.0
 51
0.0
  7
KANJI2
  0
TEXT
  8
図枠
  6
CONTINUOUS
 62
     6
 10
17.5
 20
222.0
 30
0.0
 40
5.0
  1
Ｂ
 50
0.0
 41
1.0
 51
0.0
  7
KANJI2
  0
TEXT
  8
図枠
  6
CONTINUOUS
 62
     6
 10
17.5
 20
172.0
 30
0.0
 40
5.0
  1
Ｃ
 50
0.0
 41
1.0
 51
0.0
  7
KANJI2
  0
TEXT
  8
図枠
  6
CONTINUOUS
 62
     6
 10
17.5
 20
122.0
 30
0.0
 40
5.0
  1
Ｄ
 50
0.0
 41
1.0
 51
0.0
  7
KANJI2
  0
LINE
  8
図枠
  6
CONTINUOUS
 62
     6
 10
104.0
 20
288.0
 11
104.0
 21
298.0
  0
LINE
  8
図枠
  6
CONTINUOUS
 62
     6
 10
24.0
 20
149.5
 11
-1.0
 21
149.5
  0
LINE
  8
図枠
  6
CONTINUOUS
 62
     6
 10
24.0
 20
288.0
 11
24.0
 21
11.0
  0
LINE
  8
図枠
  6
CONTINUOUS
 62
     2
 10
198.0
 20
199.5
 11
203.0
 21
199.5
  0
LINE
  8
図枠
  6
CONTINUOUS
 62
     2
 10
198.0
 20
249.5
 11
203.0
 21
249.5
  0
TEXT
  8
図枠
  6
CONTINUOUS
 62
     6
 10
199.5
 20
272.0
 30
0.0
 40
5.0
  1
Ａ
 50
0.0
 41
1.0
 51
0.0
  7
KANJI2
  0
TEXT
  8
図枠
  6
CONTINUOUS
 62
     6
 10
199.5
 20
222.0
 30
0.0
 40
5.0
  1
Ｂ
 50
0.0
 41
1.0
 51
0.0
  7
KANJI2
  0
TEXT
  8
図枠
  6
CONTINUOUS
 62
     6
 10
199.5
 20
172.0
 30
0.0
 40
5.0
  1
Ｃ
 50
0.0
 41
1.0
 51
0.0
  7
KANJI2
  0
TEXT
  8
図枠
  6
CONTINUOUS
 62
     6
 10
199.5
 20
122.0
 30
0.0
 40
5.0
  1
Ｄ
 50
0.0
 41
1.0
 51
0.0
  7
KANJI2
  0
LINE
  8
図枠
  6
CONTINUOUS
 62
     6
 10
198.0
 20
288.0
 11
24.0
 21
288.0
  0
LINE
  8
図枠
  6
CONTINUOUS
 62
     6
 10
198.0
 20
149.5
 11
209.0
 21
149.5
  0
LINE
  8
図枠
  6
CONTINUOUS
 62
     6
 10
198.0
 20
11.0
 11
198.0
 21
288.0
  0
LINE
  8
図枠
  6
CONTINUOUS
 62
     2
 10
198.0
 20
99.5
 11
203.0
 21
99.5
  0
LINE
  8
図枠
  6
CONTINUOUS
 62
     2
 10
198.0
 20
49.5
 11
203.0
 21
49.5
  0
LINE
  8
図枠
  6
CONTINUOUS
 62
     2
 10
198.0
 20
76.0
 11
195.5
 21
76.0
  0
LINE
  8
図枠
  6
CONTINUOUS
 62
     2
 10
198.0
 20
84.0
 11
195.5
 21
84.0
  0
LINE
  8
図枠
  6
CONTINUOUS
 62
     2
 10
198.0
 20
92.0
 11
195.5
 21
92.0
  0
TEXT
  8
図枠
  6
CONTINUOUS
 62
     6
 10
199.5
 20
72.0
 30
0.0
 40
5.0
  1
Ｅ
 50
0.0
 41
1.0
 51
0.0
  7
KANJI2
  0
TEXT
  8
図枠
  6
CONTINUOUS
 62
     6
 10
199.5
 20
22.0
 30
0.0
 40
5.0
  1
Ｆ
 50
0.0
 41
1.0
 51
0.0
  7
KANJI2
  0
LINE
  8
図枠
  6
CONTINUOUS
 62
     2
 10
145.0
 20
33.0
 11
198.0
 21
33.0
  0
LINE
  8
図枠
  6
CONTINUOUS
 62
     2
 10
145.0
 20
22.0
 11
198.0
 21
22.0
  0
LINE
  8
図枠
  6
CONTINUOUS
 62
     6
 10
189.0
 20
11.0
 11
198.0
 21
11.0
  0
LINE
  8
図枠
  6
CONTINUOUS
 62
     2
 10
65.0
 20
52.0
 11
198.0
 21
52.0
  0
LINE
  8
図枠
  6
CONTINUOUS
 62
     2
 10
65.0
 20
68.0
 11
198.0
 21
68.0
  0
LINE
  8
図枠
  6
CONTINUOUS
 62
     2
 10
65.0
 20
60.0
 11
198.0
 21
60.0
  0
LINE
  8
図枠
  6
CONTINUOUS
 62
     2
 10
65.0
 20
44.0
 11
198.0
 21
44.0
  0
LINE
  8
図枠
  6
CONTINUOUS
 62
     2
 10
51.5
 20
11.0
 11
51.5
 21
6.0
  0
LINE
  8
図枠
  6
CONTINUOUS
 62
     2
 10
24.0
 20
99.5
 11
19.0
 21
99.5
  0
LINE
  8
図枠
  6
CONTINUOUS
 62
     2
 10
24.0
 20
49.5
 11
19.0
 21
49.5
  0
LINE
  8
図枠
  6
CONTINUOUS
 62
     2
 10
31.0
 20
68.0
 11
31.0
 21
11.0
  0
LINE
  8
図枠
  6
CONTINUOUS
 62
     2
 10
38.0
 20
68.0
 11
38.0
 21
11.0
  0
LINE
  8
図枠
  6
CONTINUOUS
 62
     2
 10
45.0
 20
68.0
 11
45.0
 21
11.0
  0
LINE
  8
図枠
  6
CONTINUOUS
 62
     2
 10
52.0
 20
68.0
 11
52.0
 21
11.0
  0
TEXT
  8
図枠
  6
CONTINUOUS
 62
     6
 10
17.5
 20
72.0
 30
0.0
 40
5.0
  1
Ｅ
 50
0.0
 41
1.0
 51
0.0
  7
KANJI2
  0
TEXT
  8
図枠
  6
CONTINUOUS
 62
     6
 10
17.5
 20
22.0
 30
0.0
 40
5.0
  1
Ｆ
 50
0.0
 41
1.0
 51
0.0
  7
KANJI2
  0
TEXT
  8
図枠
  6
CONTINUOUS
 62
     6
 10
22.25
 20
4.5
 30
0.0
 40
5.0
  1
１
 50
0.0
 41
1.2
 51
0.0
  7
KANJI1
  0
LINE
  8
図枠
  6
CONTINUOUS
 62
     6
 10
54.0
 20
6.0
 11
154.0
 21
6.0
  0
LINE
  8
図枠
  6
CONTINUOUS
 62
     2
 10
156.5
 20
11.0
 11
156.5
 21
6.0
  0
LINE
  8
図枠
  6
CONTINUOUS
 62
     2
 10
24.0
 20
40.0
 11
65.0
 21
40.0
  0
LINE
  8
図枠
  6
CONTINUOUS
 62
     2
 10
24.0
 20
18.0
 11
65.0
 21
18.0
  0
LINE
  8
図枠
  6
CONTINUOUS
 62
     2
 10
113.0
 20
44.0
 11
113.0
 21
22.0
  0
LINE
  8
図枠
  6
CONTINUOUS
 62
     2
 10
129.0
 20
44.0
 11
129.0
 21
22.0
  0
LINE
  8
図枠
  6
CONTINUOUS
 62
     2
 10
89.0
 20
44.0
 11
89.0
 21
33.0
  0
LINE
  8
図枠
  6
CONTINUOUS
 62
     2
 10
59.0
 20
68.0
 11
59.0
 21
11.0
  0
LINE
  8
図枠
  6
CONTINUOUS
 62
     2
 10
81.0
 20
33.0
 11
81.0
 21
11.0
  0
LINE
  8
図枠
  6
CONTINUOUS
 62
     2
 10
97.0
 20
33.0
 11
97.0
 21
11.0
  0
LINE
  8
図枠
  6
LTYPE1
 62
     2
 10
103.0
 20
14.5
 11
107.0
 21
14.5
  0
LINE
  8
図枠
  6
LTYPE1
 62
     2
 10
107.0
 20
14.5
 11
107.0
 21
18.5
  0
LINE
  8
図枠
  6
LTYPE1
 62
     2
 10
107.0
 20
18.5
 11
103.0
 21
18.5
  0
LINE
  8
図枠
  6
LTYPE1
 62
     2
 10
103.0
 20
18.5
 11
103.0
 21
14.5
  0
TEXT
  8
図枠
  6
CONTINUOUS
 62
     4
 10
63.15
 20
53.5
 30
0.3
 40
2.5
  1
氏名
 50
90.0
 41
1.0
 51
0.0
  7
KANJI3
  0
TEXT
  8
図枠
  6
CONTINUOUS
 62
     4
 10
63.15
 20
41.425
 30
1.0
 40
2.5
  1
年月日
 50
90.0
 41
1.0
 51
0.0
  7
KANJI4
  0
TEXT
  8
図枠
  6
CONTINUOUS
 62
     4
 10
63.15
 20
61.375
 30
0.3
 40
2.5
  1
承認
 50
90.0
 41
1.0
 51
0.0
  7
KANJI3
  0
TEXT
  8
図枠
  6
CONTINUOUS
 62
     4
 10
66.0
 20
40.5
 30
0.0
 40
2.5
  1
熱処理
 50
0.0
 41
1.0
 51
0.0
  7
KANJI5
  0
TEXT
  8
図枠
  6
CONTINUOUS
 62
     4
 10
90.0
 20
40.5
 30
0.0
 40
2.5
  1
表面処理
 50
0.0
 41
1.0
 51
0.0
  7
KANJI5
  0
TEXT
  8
図枠
  6
CONTINUOUS
 62
     4
 10
114.0
 20
40.5
 30
0.0
 40
2.5
  1
台数
 50
0.0
 41
1.0
 51
0.0
  7
KANJI5
  0
TEXT
  8
図枠
  6
CONTINUOUS
 62
     4
 10
130.0
 20
40.5
 30
0.0
 40
2.5
  1
作成日付
 50
0.0
 41
1.0
 51
0.0
  7
KANJI5
  0
TEXT
  8
図枠
  6
CONTINUOUS
 62
     4
 10
146.0
 20
40.5
 30
0.0
 40
2.5
  1
名称
 50
0.0
 41
1.0
 51
0.0
  7
KANJI5
  0
TEXT
  8
図枠
  6
CONTINUOUS
 62
     4
 10
66.0
 20
29.5
 30
0.0
 40
2.5
  1
尺度
 50
0.0
 41
1.0
 51
0.0
  7
KANJI5
  0
TEXT
  8
図枠
  6
CONTINUOUS
 62
     4
 10
82.0
 20
29.5
 30
0.0
 40
2.5
  1
承認
 50
0.0
 41
1.0
 51
0.0
  7
KANJI5
  0
TEXT
  8
図枠
  6
CONTINUOUS
 62
     4
 10
98.0
 20
29.5
 30
0.0
 40
2.5
  1
検図
 50
0.0
 41
1.0
 51
0.0
  7
KANJI5
  0
TEXT
  8
図枠
  6
CONTINUOUS
 62
     4
 10
114.0
 20
29.5
 30
0.0
 40
2.5
  1
設計
 50
0.0
 41
1.0
 51
0.0
  7
KANJI5
  0
TEXT
  8
図枠
  6
CONTINUOUS
 62
     4
 10
130.0
 20
29.5
 30
0.0
 40
2.5
  1
製図
 50
0.0
 41
1.0
 51
0.0
  7
KANJI5
  0
TEXT
  8
図枠
  6
CONTINUOUS
 62
     4
 10
146.0
 20
29.5
 30
0.0
 40
2.5
  1
機名
 50
0.0
 41
1.0
 51
0.0
  7
KANJI5
  0
TEXT
  8
図枠
  6
CONTINUOUS
 62
     4
 10
63.15
 20
11.875
 30
0.3
 40
2.5
  1
記号
 50
90.0
 41
1.0
 51
0.0
  7
KANJI3
  0
TEXT
  8
図枠
  6
CONTINUOUS
 62
     4
 10
146.0
 20
18.5
 30
0.0
 40
2.5
  1
図面番号
 50
0.0
 41
1.0
 51
0.0
  7
KANJI5
  0
TEXT
  8
図枠
  6
CONTINUOUS
 62
     4
 10
109.0
 20
15.25
 30
0.0
 40
2.5
  1
株式会社
 50
0.0
 41
1.0
 51
0.0
  7
KANJI5
  0
TEXT
  8
図枠
  6
CONTINUOUS
 62
     4
 10
121.0
 20
14.5
 30
0.0
 40
4.0
  1
昭和測器
 50
0.0
 41
1.125
 51
0.0
  7
KANJI6
  0
TEXT
  8
図枠
  6
CONTINUOUS
 62
     4
 10
63.15
 20
19.375
 30
0.3
 40
2.5
  1
来歴・改訂記事
 50
90.0
 41
1.0
 51
0.0
  7
KANJI3
  0
TEXT
  8
図枠
  6
CONTINUOUS
 62
     1
 10
68.0
 20
16.5
 30
0.0
 40
5.0
  1
第３
 50
0.0
 41
1.0
 51
0.0
  7
KANJI2
  0
TEXT
  8
図枠
  6
CONTINUOUS
 62
     1
 10
68.0
 20
11.5
 30
0.0
 40
5.0
  1
角法
 50
0.0
 41
1.0
 51
0.0
  7
KANJI2
  0
CIRCLE
  8
図枠
  6
CONTINUOUS
 62
     6
 10
72.75
 20
27.0
 40
0.2
  0
CIRCLE
  8
図枠
  6
CONTINUOUS
 62
     6
 10
72.75
 20
24.5
 40
0.2
  0
TEXT
  8
図枠
  6
CONTINUOUS
 62
     6
 10
83.725
 20
13.025
 30
-1.0
 40
7.0
  1
Ａ４
 50
0.0
 41
0.857142857
 51
0.0
  7
KANJI7
  0
TEXT
  8
図枠
  6
CONTINUOUS
 62
     6
 10
178.25
 20
5.0
 30
0.0
 40
5.0
  1
４
 50
0.0
 41
1.2
 51
0.0
  7
KANJI1
  0
TEXT
  8
図枠
  6
CONTINUOUS
 62
     4
 10
66.5
 20
46.0
 30
0.0
 40
4.0
  1
番号
 50
0.0
 41
0.875
 51
0.0
  7
KANJI0
  0
TEXT
  8
図枠
  6
CONTINUOUS
 62
     4
 10
84.25
 20
46.0
 30
0.0
 40
4.0
  1
部　品　名
 50
0.0
 41
0.875
 51
0.0
  7
KANJI0
  0
LINE
  8
図枠
  6
CONTINUOUS
 62
     6
 10
104.0
 20
11.0
 11
104.0
 21
1.0
  0
LINE
  8
図枠
  6
CONTINUOUS
 62
     6
 10
54.0
 20
11.0
 11
54.0
 21
6.0
  0
LINE
  8
図枠
  6
CONTINUOUS
 62
     6
 10
154.0
 20
6.0
 11
154.0
 21
11.0
  0
LINE
  8
図枠
  6
CONTINUOUS
 62
     6
 10
64.0
 20
11.0
 11
64.0
 21
6.0
  0
LINE
  8
図枠
  6
CONTINUOUS
 62
     6
 10
74.0
 20
11.0
 11
74.0
 21
6.0
  0
LINE
  8
図枠
  6
CONTINUOUS
 62
     6
 10
84.0
 20
11.0
 11
84.0
 21
6.0
  0
LINE
  8
図枠
  6
CONTINUOUS
 62
     6
 10
94.0
 20
11.0
 11
94.0
 21
6.0
  0
LINE
  8
図枠
  6
CONTINUOUS
 62
     6
 10
144.0
 20
6.0
 11
144.0
 21
11.0
  0
LINE
  8
図枠
  6
CONTINUOUS
 62
     6
 10
134.0
 20
6.0
 11
134.0
 21
11.0
  0
LINE
  8
図枠
  6
CONTINUOUS
 62
     6
 10
124.0
 20
6.0
 11
124.0
 21
11.0
  0
LINE
  8
図枠
  6
CONTINUOUS
 62
     6
 10
114.0
 20
6.0
 11
114.0
 21
11.0
  0
LINE
  8
図枠
  6
CONTINUOUS
 62
     2
 10
24.0
 20
68.0
 11
65.0
 21
68.0
  0
LINE
  8
図枠
  6
CONTINUOUS
 62
     2
 10
24.0
 20
60.0
 11
65.0
 21
60.0
  0
LINE
  8
図枠
  6
CONTINUOUS
 62
     2
 10
65.0
 20
52.0
 11
65.0
 21
11.0
  0
LINE
  8
図枠
  6
CONTINUOUS
 62
     2
 10
65.0
 20
68.0
 11
65.0
 21
52.0
  0
LINE
  8
図枠
  6
CONTINUOUS
 62
     2
 10
75.0
 20
52.0
 11
75.0
 21
44.0
  0
LINE
  8
図枠
  6
CONTINUOUS
 62
     2
 10
75.0
 20
68.0
 11
75.0
 21
52.0
  0
LINE
  8
図枠
  6
CONTINUOUS
 62
     2
 10
111.0
 20
52.0
 11
111.0
 21
44.0
  0
LINE
  8
図枠
  6
CONTINUOUS
 62
     2
 10
111.0
 20
68.0
 11
111.0
 21
52.0
  0
LINE
  8
図枠
  6
CONTINUOUS
 62
     2
 10
65.0
 20
33.0
 11
145.0
 21
33.0
  0
LINE
  8
図枠
  6
CONTINUOUS
 62
     2
 10
65.0
 20
22.0
 11
145.0
 21
22.0
  0
LINE
  8
図枠
  6
CONTINUOUS
 62
     6
 10
24.0
 20
11.0
 11
145.0
 21
11.0
  0
LINE
  8
図枠
  6
CONTINUOUS
 62
     6
 10
145.0
 20
11.0
 11
189.0
 21
11.0
  0
TEXT
  8
図枠
  6
CONTINUOUS
 62
     4
 10
172.25
 20
46.0
 30
0.0
 40
4.0
  1
摘　　　要
 50
0.0
 41
0.875
 51
0.0
  7
KANJI0
  0
LINE
  8
図枠
  6
LTYPE2
 62
     2
 10
187.0
 20
22.0
 11
187.0
 21
11.0
  0
TEXT
  8
図枠
  6
CONTINUOUS
 62
     4
 10
145.0
 20
48.0
 30
-0.5
 40
3.0
  1
１セット分
 50
0.0
 41
0.666666667
 51
0.0
  7
KANJI8
  0
TEXT
  8
図枠
  6
CONTINUOUS
 62
     4
 10
134.0
 20
48.0
 30
0.0
 40
3.0
  1
１台分
 50
0.0
 41
1.0
 51
0.0
  7
KANJI9
  0
TEXT
  8
図枠
  6
CONTINUOUS
 62
     4
 10
136.0
 20
45.0
 30
0.0
 40
3.0
  1
個数
 50
0.0
 41
1.0
 51
0.0
  7
KANJI9
  0
TEXT
  8
図枠
  6
CONTINUOUS
 62
     4
 10
146.0
 20
45.0
 30
0.0
 40
3.0
  1
個数
 50
0.0
 41
1.0
 51
0.0
  7
KANJI9
  0
TEXT
  8
図枠
  6
CONTINUOUS
 62
     4
 10
155.5
 20
46.0
 30
0.0
 40
4.0
  1
総数
 50
0.0
 41
0.875
 51
0.0
  7
KANJI0
  0
LINE
  8
図枠
  6
CONTINUOUS
 62
     2
 10
134.0
 20
52.0
 11
134.0
 21
44.0
  0
LINE
  8
図枠
  6
CONTINUOUS
 62
     2
 10
134.0
 20
68.0
 11
134.0
 21
52.0
  0
LINE
  8
図枠
  6
CONTINUOUS
 62
     2
 10
144.0
 20
52.0
 11
144.0
 21
44.0
  0
LINE
  8
図枠
  6
CONTINUOUS
 62
     2
 10
144.0
 20
68.0
 11
144.0
 21
52.0
  0
LINE
  8
図枠
  6
CONTINUOUS
 62
     2
 10
154.0
 20
52.0
 11
154.0
 21
44.0
  0
LINE
  8
図枠
  6
CONTINUOUS
 62
     2
 10
154.0
 20
68.0
 11
154.0
 21
52.0
  0
LINE
  8
図枠
  6
CONTINUOUS
 62
     2
 10
164.0
 20
52.0
 11
164.0
 21
44.0
  0
LINE
  8
図枠
  6
CONTINUOUS
 62
     2
 10
164.0
 20
68.0
 11
164.0
 21
52.0
  0
LINE
  8
図枠
  6
CONTINUOUS
 62
     2
 10
145.0
 20
44.0
 11
145.0
 21
11.0
  0
TEXT
  8
図枠
  6
CONTINUOUS
 62
     4
 10
117.25
 20
46.0
 30
0.0
 40
4.0
  1
材　質
 50
0.0
 41
0.875
 51
0.0
  7
KANJI0
  0
LINE
  8
図枠
  6
CONTINUOUS
 62
     2
 10
25.0
 20
52.0
 11
65.0
 21
52.0
  0
TEXT
  8
表題欄
  6
CONTINUOUS
 62
     5
 10
67.75
 20
24.0
 30
0.0
 40
4.0
  1
１
 50
0.0
 41
0.875
 51
0.0
  7
KANJI0
  0
TEXT
  8
表題欄
  6
CONTINUOUS
 62
     5
 10
74.25
 20
24.0
 30
0.0
 40
4.0
  1
１
 50
0.0
 41
0.875
 51
0.0
  7
KANJI0
  0
TEXT
  8
表題欄
  6
CONTINUOUS
 62
     5
 10
130.5
 20
37.0
 30
-0.5
 40
3.0
  1
２０１７．
 50
0.0
 41
0.833333333
 51
0.0
  7
KANJI10
  0
TEXT
  8
表題欄
  6
CONTINUOUS
 62
     5
 10
133.0
 20
34.0
 30
-0.5
 40
3.0
  1
０７．１３
 50
0.0
 41
0.833333333
 51
0.0
  7
KANJI10
  0
TEXT
  8
表題欄
  6
CONTINUOUS
 62
     5
 10
166.15
 20
35.0
 30
0.1
 40
4.0
  1
外観図
 50
0.0
 41
0.875
 51
0.0
  7
KANJI11
  0
LINE
  8
0
  6
CONTINUOUS
 62
     1
 10
66.0
 20
179.25
 11
66.0
 21
175.75
  0
LINE
  8
0
  6
CONTINUOUS
 62
     1
 10
66.0
 20
179.25
 11
66.6
 21
179.2
  0
LINE
  8
0
  6
CONTINUOUS
 62
     1
 10
66.0
 20
175.75
 11
66.6
 21
175.8
  0
ARC
  8
0
  6
CONTINUOUS
 62
     1
 10
66.45
 20
176.55
 40
0.75
 50
281.0
 51
337.6
  0
ARC
  8
0
  6
CONTINUOUS
 62
     1
 10
66.45
 20
178.45
 40
0.75
 50
22.4
 51
79.0
  0
ARC
  8
0
  6
CONTINUOUS
 62
     1
 10
62.4
 20
177.5
 40
4.9
 50
345.8
 51
14.3
  0
LINE
  8
0
  6
LTYPE3
 62
     2
 10
68.3
 20
177.5
 11
64.0
 21
177.5
  0
LINE
  8
0
  6
CONTINUOUS
 62
     1
 10
53.0
 20
183.0
 11
53.0
 21
182.0
  0
LINE
  8
0
  6
CONTINUOUS
 62
     1
 10
57.0
 20
182.0
 11
57.0
 21
183.0
  0
LINE
  8
0
  6
CONTINUOUS
 62
     1
 10
50.539824455
 20
180.0
 11
50.539824455
 21
182.0
  0
LINE
  8
0
  6
CONTINUOUS
 62
     1
 10
51.581713521
 20
182.0
 11
51.581713521
 21
180.0
  0
LINE
  8
0
  6
CONTINUOUS
 62
     2
 10
51.581713521
 20
182.0
 11
50.539824455
 21
180.0
  0
LINE
  8
0
  6
CONTINUOUS
 62
     2
 10
50.539824455
 20
182.0
 11
51.581713521
 21
180.0
  0
LINE
  8
0
  6
CONTINUOUS
 62
     1
 10
64.0
 20
200.0
 11
64.0
 21
182.0
  0
LINE
  8
0
  6
CONTINUOUS
 62
     1
 10
60.0
 20
182.0
 11
60.0
 21
200.0
  0
ARC
  8
0
  6
CONTINUOUS
 62
     1
 10
61.0
 20
199.25
 40
1.25
 50
36.869897646
 51
143.130102354
  0
ARC
  8
0
  6
CONTINUOUS
 62
     1
 10
63.0
 20
199.25
 40
1.25
 50
36.869897646
 51
143.130102354
  0
ARC
  8
0
  6
CONTINUOUS
 62
     1
 10
63.0
 20
200.75
 40
1.25
 50
216.869897646
 51
323.130102354
  0
LINE
  8
0
  6
LTYPE4
 62
     2
 10
62.0
 20
205.0
 11
62.0
 21
175.0
  0
LINE
  8
0
  6
CONTINUOUS
 62
     1
 10
59.0
 20
182.0
 11
65.0
 21
182.0
  0
LINE
  8
0
  6
CONTINUOUS
 62
     1
 10
65.0
 20
182.0
 11
65.0
 21
180.0
  0
LINE
  8
0
  6
CONTINUOUS
 62
     1
 10
59.0
 20
180.0
 11
59.0
 21
182.0
  0
LINE
  8
0
  6
CONTINUOUS
 62
     1
 10
50.539824455
 20
182.0
 11
59.0
 21
182.0
  0
LINE
  8
0
  6
CONTINUOUS
 62
     1
 10
120.0
 20
180.0
 11
95.0
 21
180.0
  0
CIRCLE
  8
0
  6
CONTINUOUS
 62
     1
 10
117.5
 20
177.5
 40
1.75
  0
LINE
  8
0
  6
LTYPE3
 62
     2
 10
114.75
 20
177.5
 11
120.25
 21
177.5
  0
LINE
  8
0
  6
LTYPE3
 62
     2
 10
117.5
 20
180.25
 11
117.5
 21
174.75
  0
LINE
  8
0
  6
CONTINUOUS
 62
     1
 10
117.7
 20
178.55
 11
117.3
 21
178.55
  0
LINE
  8
0
  6
CONTINUOUS
 62
     1
 10
116.45
 20
177.7
 11
116.45
 21
177.3
  0
LINE
  8
0
  6
CONTINUOUS
 62
     1
 10
117.3
 20
176.45
 11
117.7
 21
176.45
  0
LINE
  8
0
  6
CONTINUOUS
 62
     1
 10
118.55
 20
177.7
 11
118.55
 21
177.3
  0
LINE
  8
0
  6
CONTINUOUS
 62
     1
 10
116.45
 20
177.3
 11
116.85
 21
177.3
  0
LINE
  8
0
  6
CONTINUOUS
 62
     1
 10
116.45
 20
177.7
 11
116.85
 21
177.7
  0
LINE
  8
0
  6
CONTINUOUS
 62
     1
 10
117.3
 20
176.45
 11
117.3
 21
176.85
  0
LINE
  8
0
  6
CONTINUOUS
 62
     1
 10
118.55
 20
177.3
 11
118.15
 21
177.3
  0
LINE
  8
0
  6
CONTINUOUS
 62
     1
 10
117.7
 20
178.55
 11
117.7
 21
178.15
  0
LINE
  8
0
  6
CONTINUOUS
 62
     1
 10
117.7
 20
176.45
 11
117.7
 21
176.85
  0
LINE
  8
0
  6
CONTINUOUS
 62
     1
 10
118.55
 20
177.7
 11
118.15
 21
177.7
  0
LINE
  8
0
  6
CONTINUOUS
 62
     1
 10
117.3
 20
178.55
 11
117.3
 21
178.15
  0
ARC
  8
0
  6
CONTINUOUS
 62
     1
 10
116.9
 20
176.9
 40
0.4
 50
352.3
 51
97.7
  0
ARC
  8
0
  6
CONTINUOUS
 62
     1
 10
118.1
 20
176.9
 40
0.4
 50
82.3
 51
187.7
  0
ARC
  8
0
  6
CONTINUOUS
 62
     1
 10
118.1
 20
178.1
 40
0.4
 50
172.3
 51
277.7
  0
ARC
  8
0
  6
CONTINUOUS
 62
     1
 10
116.9
 20
178.1
 40
0.4
 50
262.3
 51
7.7
  0
LINE
  8
0
  6
CONTINUOUS
 62
     1
 10
100.0
 20
180.0
 11
100.0
 21
182.0
  0
LINE
  8
0
  6
CONTINUOUS
 62
     1
 10
103.0
 20
183.0
 11
103.0
 21
182.0
  0
LINE
  8
0
  6
CONTINUOUS
 62
     1
 10
107.0
 20
182.0
 11
107.0
 21
183.0
  0
LINE
  8
0
  6
CONTINUOUS
 62
     1
 10
102.740169452
 20
182.0
 11
102.740169452
 21
180.0
  0
LINE
  8
0
  6
CONTINUOUS
 62
     1
 10
100.0
 20
182.0
 11
108.0
 21
182.0
  0
LINE
  8
0
  6
CONTINUOUS
 62
     2
 10
102.740169452
 20
180.0
 11
108.0
 21
181.780323971
  0
LINE
  8
0
  6
CONTINUOUS
 62
     2
 10
108.0
 20
180.219676029
 11
102.740169452
 21
182.0
  0
LINE
  8
0
  6
CONTINUOUS
 62
     1
 10
113.0
 20
200.0
 11
113.0
 21
182.0
  0
LINE
  8
0
  6
CONTINUOUS
 62
     1
 10
109.0
 20
182.0
 11
109.0
 21
200.0
  0
ARC
  8
0
  6
CONTINUOUS
 62
     1
 10
110.0
 20
199.25
 40
1.25
 50
36.869897646
 51
143.130102354
  0
ARC
  8
0
  6
CONTINUOUS
 62
     1
 10
112.0
 20
199.25
 40
1.25
 50
36.869897646
 51
143.130102354
  0
ARC
  8
0
  6
CONTINUOUS
 62
     1
 10
112.0
 20
200.75
 40
1.25
 50
216.869897646
 51
323.130102354
  0
LINE
  8
0
  6
LTYPE4
 62
     2
 10
111.0
 20
205.0
 11
111.0
 21
175.0
  0
LINE
  8
0
  6
CONTINUOUS
 62
     1
 10
108.0
 20
182.0
 11
114.0
 21
182.0
  0
LINE
  8
0
  6
CONTINUOUS
 62
     1
 10
114.0
 20
182.0
 11
114.0
 21
180.0
  0
LINE
  8
0
  6
CONTINUOUS
 62
     1
 10
108.0
 20
180.0
 11
108.0
 21
182.0
  0
LINE
  8
寸法線
  6
CONTINUOUS
 62
     2
 10
105.0
 20
189.0
 11
105.0
 21
216.0
  0
LINE
  8
寸法線
  6
CONTINUOUS
 62
     2
 10
105.0
 20
215.0
 11
107.414814566
 21
214.352952387
  0
LINE
  8
寸法線
  6
CONTINUOUS
 62
     2
 10
105.0
 20
215.0
 11
107.414814566
 21
215.647047613
  0
LINE
  8
寸法線
  6
CONTINUOUS
 62
     2
 10
105.0
 20
215.0
 11
120.0
 21
215.0
  0
LINE
  8
寸法線
  6
CONTINUOUS
 62
     2
 10
120.0
 20
215.0
 11
117.585185434
 21
215.647047613
  0
LINE
  8
寸法線
  6
CONTINUOUS
 62
     2
 10
120.0
 20
215.0
 11
117.585185434
 21
214.352952387
  0
LINE
  8
寸法線
  6
CONTINUOUS
 62
     2
 10
120.0
 20
181.0
 11
120.0
 21
216.0
  0
TEXT
  8
寸法線
  6
CONTINUOUS
 62
     5
 10
108.95
 20
216.0
 30
0.1
 40
4.0
  1
１５
 50
0.0
 41
0.875
 51
0.0
  7
KANJI11
  0
LINE
  8
寸法線
  6
CONTINUOUS
 62
     2
 10
120.0
 20
215.0
 11
122.414814566
 21
214.352952387
  0
LINE
  8
寸法線
  6
CONTINUOUS
 62
     2
 10
120.0
 20
215.0
 11
122.414814566
 21
215.647047613
  0
LINE
  8
寸法線
  6
CONTINUOUS
 62
     2
 10
120.0
 20
215.0
 11
130.0
 21
215.0
  0
LINE
  8
寸法線
  6
CONTINUOUS
 62
     2
 10
130.0
 20
215.0
 11
127.585185434
 21
215.647047613
  0
LINE
  8
寸法線
  6
CONTINUOUS
 62
     2
 10
130.0
 20
215.0
 11
127.585185434
 21
214.352952387
  0
TEXT
  8
寸法線
  6
CONTINUOUS
 62
     5
 10
121.45
 20
216.0
 30
0.1
 40
4.0
  1
１０
 50
0.0
 41
0.875
 51
0.0
  7
KANJI11
  0
LINE
  8
寸法線
  6
CONTINUOUS
 62
     2
 10
95.0
 20
181.0
 11
95.0
 21
226.0
  0
LINE
  8
寸法線
  6
CONTINUOUS
 62
     2
 10
95.0
 20
225.0
 11
97.414814566
 21
224.352952387
  0
LINE
  8
寸法線
  6
CONTINUOUS
 62
     2
 10
95.0
 20
225.0
 11
97.414814566
 21
225.647047613
  0
LINE
  8
寸法線
  6
CONTINUOUS
 62
     2
 10
95.0
 20
225.0
 11
120.0
 21
225.0
  0
LINE
  8
寸法線
  6
CONTINUOUS
 62
     2
 10
120.0
 20
225.0
 11
117.585185434
 21
225.647047613
  0
LINE
  8
寸法線
  6
CONTINUOUS
 62
     2
 10
120.0
 20
225.0
 11
117.585185434
 21
224.352952387
  0
LINE
  8
寸法線
  6
CONTINUOUS
 62
     2
 10
120.0
 20
216.0
 11
120.0
 21
226.0
  0
TEXT
  8
寸法線
  6
CONTINUOUS
 62
     5
 10
103.95
 20
226.0
 30
0.1
 40
4.0
  1
２５
 50
0.0
 41
0.875
 51
0.0
  7
KANJI11
  0
LINE
  8
0
  6
CONTINUOUS
 62
     1
 10
66.0
 20
180.0
 11
48.0
 21
180.0
  0
LINE
  8
0
  6
CONTINUOUS
 62
     1
 10
48.0
 20
179.25
 11
48.0
 21
175.75
  0
LINE
  8
0
  6
CONTINUOUS
 62
     1
 10
48.0
 20
179.25
 11
47.4
 21
179.2
  0
LINE
  8
0
  6
CONTINUOUS
 62
     1
 10
48.0
 20
175.75
 11
47.4
 21
175.8
  0
ARC
  8
0
  6
CONTINUOUS
 62
     1
 10
47.55
 20
176.55
 40
0.75
 50
202.4
 51
259.0
  0
ARC
  8
0
  6
CONTINUOUS
 62
     1
 10
47.55
 20
178.45
 40
0.75
 50
101.0
 51
157.6
  0
ARC
  8
0
  6
CONTINUOUS
 62
     1
 10
51.6
 20
177.5
 40
4.9
 50
165.7
 51
194.2
  0
LINE
  8
0
  6
LTYPE3
 62
     2
 10
45.7
 20
177.5
 11
50.0
 21
177.5
  0
LINE
  8
0
  6
CONTINUOUS
 62
     1
 10
66.0
 20
120.0
 11
66.0
 21
180.0
  0
LINE
  8
0
  6
CONTINUOUS
 62
     1
 10
66.0
 20
124.25
 11
66.0
 21
120.75
  0
LINE
  8
0
  6
CONTINUOUS
 62
     1
 10
66.0
 20
124.25
 11
66.6
 21
124.2
  0
LINE
  8
0
  6
CONTINUOUS
 62
     1
 10
66.0
 20
120.75
 11
66.6
 21
120.8
  0
ARC
  8
0
  6
CONTINUOUS
 62
     1
 10
66.45
 20
121.55
 40
0.75
 50
281.0
 51
337.6
  0
ARC
  8
0
  6
CONTINUOUS
 62
     1
 10
66.45
 20
123.45
 40
0.75
 50
22.4
 51
79.0
  0
ARC
  8
0
  6
CONTINUOUS
 62
     1
 10
62.4
 20
122.5
 40
4.9
 50
345.8
 51
14.3
  0
LINE
  8
0
  6
LTYPE3
 62
     2
 10
68.3
 20
122.5
 11
64.0
 21
122.5
  0
LINE
  8
0
  6
CONTINUOUS
 62
     1
 10
50.539824455
 20
118.0
 11
50.539824455
 21
120.0
  0
LINE
  8
0
  6
CONTINUOUS
 62
     1
 10
59.460175545
 20
120.0
 11
59.460175545
 21
118.0
  0
LINE
  8
0
  6
CONTINUOUS
 62
     1
 10
59.460175545
 20
118.0
 11
50.539824455
 21
118.0
  0
LINE
  8
0
  6
CONTINUOUS
 62
     2
 10
59.460175545
 20
118.0
 11
58.418286479
 21
120.0
  0
LINE
  8
0
  6
CONTINUOUS
 62
     2
 10
59.460175545
 20
120.0
 11
58.418286479
 21
118.0
  0
LINE
  8
0
  6
CONTINUOUS
 62
     1
 10
58.418286479
 20
118.0
 11
58.418286479
 21
120.0
  0
LINE
  8
0
  6
CONTINUOUS
 62
     1
 10
48.0
 20
120.0
 11
66.0
 21
120.0
  0
LINE
  8
0
  6
CONTINUOUS
 62
     1
 10
48.0
 20
180.0
 11
48.0
 21
120.0
  0
LINE
  8
0
  6
CONTINUOUS
 62
     1
 10
48.0
 20
124.25
 11
48.0
 21
120.75
  0
LINE
  8
0
  6
CONTINUOUS
 62
     1
 10
48.0
 20
124.25
 11
47.4
 21
124.2
  0
LINE
  8
0
  6
CONTINUOUS
 62
     1
 10
48.0
 20
120.75
 11
47.4
 21
120.8
  0
ARC
  8
0
  6
CONTINUOUS
 62
     1
 10
47.55
 20
121.55
 40
0.75
 50
202.4
 51
259.0
  0
ARC
  8
0
  6
CONTINUOUS
 62
     1
 10
47.55
 20
123.45
 40
0.75
 50
101.0
 51
157.6
  0
ARC
  8
0
  6
CONTINUOUS
 62
     1
 10
51.6
 20
122.5
 40
4.9
 50
165.7
 51
194.2
  0
LINE
  8
0
  6
LTYPE3
 62
     2
 10
45.7
 20
122.5
 11
50.0
 21
122.5
  0
POLYLINE
  8
0
  6
CONTINUOUS
 62
     1
 66
     1
  0
VERTEX
  8
0
  6
CONTINUOUS
 62
     1
 10
95.0
 20
120.0
  0
VERTEX
  8
0
  6
CONTINUOUS
 62
     1
 10
120.0
 20
120.0
  0
VERTEX
  8
0
  6
CONTINUOUS
 62
     1
 10
120.0
 20
180.0
  0
SEQEND
  0
LINE
  8
0
  6
CONTINUOUS
 62
     1
 10
95.0
 20
180.0
 11
95.0
 21
120.0
  0
CIRCLE
  8
0
  6
CONTINUOUS
 62
     1
 10
117.5
 20
122.5
 40
1.75
  0
LINE
  8
0
  6
LTYPE3
 62
     2
 10
114.75
 20
122.5
 11
120.25
 21
122.5
  0
LINE
  8
0
  6
LTYPE3
 62
     2
 10
117.5
 20
125.25
 11
117.5
 21
119.75
  0
LINE
  8
0
  6
CONTINUOUS
 62
     1
 10
117.7
 20
123.55
 11
117.3
 21
123.55
  0
LINE
  8
0
  6
CONTINUOUS
 62
     1
 10
116.45
 20
122.7
 11
116.45
 21
122.3
  0
LINE
  8
0
  6
CONTINUOUS
 62
     1
 10
117.3
 20
121.45
 11
117.7
 21
121.45
  0
LINE
  8
0
  6
CONTINUOUS
 62
     1
 10
118.55
 20
122.7
 11
118.55
 21
122.3
  0
LINE
  8
0
  6
CONTINUOUS
 62
     1
 10
116.45
 20
122.3
 11
116.85
 21
122.3
  0
LINE
  8
0
  6
CONTINUOUS
 62
     1
 10
116.45
 20
122.7
 11
116.85
 21
122.7
  0
LINE
  8
0
  6
CONTINUOUS
 62
     1
 10
117.3
 20
121.45
 11
117.3
 21
121.85
  0
LINE
  8
0
  6
CONTINUOUS
 62
     1
 10
118.55
 20
122.3
 11
118.15
 21
122.3
  0
LINE
  8
0
  6
CONTINUOUS
 62
     1
 10
117.7
 20
123.55
 11
117.7
 21
123.15
  0
LINE
  8
0
  6
CONTINUOUS
 62
     1
 10
117.7
 20
121.45
 11
117.7
 21
121.85
  0
LINE
  8
0
  6
CONTINUOUS
 62
     1
 10
118.55
 20
122.7
 11
118.15
 21
122.7
  0
LINE
  8
0
  6
CONTINUOUS
 62
     1
 10
117.3
 20
123.55
 11
117.3
 21
123.15
  0
ARC
  8
0
  6
CONTINUOUS
 62
     1
 10
116.9
 20
121.9
 40
0.4
 50
352.3
 51
97.7
  0
ARC
  8
0
  6
CONTINUOUS
 62
     1
 10
118.1
 20
121.9
 40
0.4
 50
82.3
 51
187.7
  0
ARC
  8
0
  6
CONTINUOUS
 62
     1
 10
118.1
 20
123.1
 40
0.4
 50
172.3
 51
277.7
  0
ARC
  8
0
  6
CONTINUOUS
 62
     1
 10
116.9
 20
123.1
 40
0.4
 50
262.3
 51
7.7
  0
LINE
  8
0
  6
CONTINUOUS
 62
     1
 10
100.0
 20
120.0
 11
100.0
 21
118.0
  0
LINE
  8
0
  6
CONTINUOUS
 62
     1
 10
100.0
 20
118.0
 11
110.0
 21
118.0
  0
LINE
  8
0
  6
CONTINUOUS
 62
     1
 10
110.0
 20
118.0
 11
110.0
 21
120.0
  0
LINE
  8
0
  6
CONTINUOUS
 62
     1
 10
101.35098403
 20
120.0
 11
101.35098403
 21
118.0
  0
LINE
  8
0
  6
CONTINUOUS
 62
     1
 10
107.259830548
 20
120.0
 11
107.259830548
 21
118.0
  0
LINE
  8
0
  6
CONTINUOUS
 62
     2
 10
107.259830548
 20
118.0
 11
101.35098403
 21
120.0
  0
LINE
  8
0
  6
CONTINUOUS
 62
     2
 10
107.259830548
 20
120.0
 11
101.35098403
 21
118.0
  0
CIRCLE
  8
0
  6
CONTINUOUS
 62
     1
 10
130.0
 20
150.0
 40
3.25
  0
LINE
  8
0
  6
CONTINUOUS
 62
     1
 10
132.070552361
 20
142.27259339
 11
120.0
 21
139.038298632
  0
LINE
  8
0
  6
CONTINUOUS
 62
     1
 10
132.070552361
 20
157.72740661
 11
120.0
 21
160.961701368
  0
ARC
  8
0
  6
CONTINUOUS
 62
     1
 10
130.0
 20
150.0
 40
8.0
 50
285.0
 51
75.0
  0
LINE
  8
0
  6
LTYPE4
 62
     2
 10
130.0
 20
160.0
 11
130.0
 21
140.0
  0
LINE
  8
0
  6
LTYPE4
 62
     2
 10
143.0
 20
150.0
 11
117.5
 21
150.0
  0
LINE
  8
寸法線
  6
CONTINUOUS
 62
     2
 10
130.0
 20
160.0
 11
130.0
 21
216.0
  0
LINE
  8
寸法線
  6
CONTINUOUS
 62
     2
 10
137.72740661
 20
152.070552361
 11
140.22740661
 21
152.070552361
  0
LINE
  8
寸法線
  6
CONTINUOUS
 62
     2
 10
137.72740661
 20
152.070552361
 11
139.89247012
 21
153.320552361
  0
LINE
  8
寸法線
  6
CONTINUOUS
 62
     2
 10
130.0
 20
150.0
 11
150.518327404
 21
155.497869258
  0
TEXT
  8
寸法線
  6
CONTINUOUS
 62
     5
 10
143.401434993
 20
154.626179864
 30
0.1
 40
4.0
  1
Ｒ８
 50
15.0
 41
0.875
 51
0.0
  7
KANJI11
  0
LINE
  8
0
  6
CONTINUOUS
 62
     1
 10
53.0
 20
105.0
 11
57.0
 21
105.0
  0
LINE
  8
0
  6
CONTINUOUS
 62
     1
 10
57.5
 20
101.0
 11
52.5
 21
101.0
  0
LINE
  8
0
  6
CONTINUOUS
 62
     1
 10
52.5
 20
97.0
 11
57.5
 21
97.0
  0
LINE
  8
0
  6
CONTINUOUS
 62
     1
 10
52.5
 20
97.0
 11
53.077350269
 21
96.0
  0
LINE
  8
0
  6
CONTINUOUS
 62
     1
 10
52.5
 20
101.0
 11
52.5
 21
97.0
  0
LINE
  8
0
  6
CONTINUOUS
 62
     1
 10
57.5
 20
97.0
 11
56.922649731
 21
96.0
  0
LINE
  8
0
  6
CONTINUOUS
 62
     1
 10
57.5
 20
97.0
 11
57.5
 21
101.0
  0
LINE
  8
0
  6
CONTINUOUS
 62
     1
 10
53.077350269
 20
96.0
 11
56.922649731
 21
96.0
  0
ARC
  8
0
  6
CONTINUOUS
 62
     1
 10
55.0
 20
96.5
 40
1.5
 50
199.471220634
 51
340.528779366
  0
LINE
  8
0
  6
CONTINUOUS
 62
     1
 10
53.25
 20
101.0
 11
53.25
 21
105.0
  0
LINE
  8
0
  6
CONTINUOUS
 62
     1
 10
56.75
 20
105.0
 11
56.75
 21
101.0
  0
LINE
  8
0
  6
CONTINUOUS
 62
     1
 10
52.650768448
 20
101.0
 11
52.650768448
 21
97.0
  0
LINE
  8
0
  6
CONTINUOUS
 62
     1
 10
53.084888892
 20
101.0
 11
53.084888892
 21
97.0
  0
LINE
  8
0
  6
CONTINUOUS
 62
     1
 10
53.75
 20
101.0
 11
53.75
 21
97.0
  0
LINE
  8
0
  6
CONTINUOUS
 62
     1
 10
54.565879556
 20
101.0
 11
54.565879556
 21
97.0
  0
LINE
  8
0
  6
CONTINUOUS
 62
     1
 10
55.434120444
 20
101.0
 11
55.434120444
 21
97.0
  0
LINE
  8
0
  6
CONTINUOUS
 62
     1
 10
56.25
 20
101.0
 11
56.25
 21
97.0
  0
LINE
  8
0
  6
CONTINUOUS
 62
     1
 10
56.92
 20
101.0
 11
56.92
 21
97.0
  0
LINE
  8
0
  6
CONTINUOUS
 62
     1
 10
57.349231552
 20
101.0
 11
57.349231552
 21
97.0
  0
LINE
  8
0
  6
CONTINUOUS
 62
     1
 10
57.0
 20
105.0
 11
57.0
 21
118.0
  0
LINE
  8
0
  6
CONTINUOUS
 62
     1
 10
53.0
 20
118.0
 11
53.0
 21
105.0
  0
LINE
  8
0
  6
CONTINUOUS
 62
     1
 10
103.0
 20
105.0
 11
107.0
 21
105.0
  0
LINE
  8
0
  6
CONTINUOUS
 62
     1
 10
107.5
 20
101.0
 11
102.5
 21
101.0
  0
LINE
  8
0
  6
CONTINUOUS
 62
     1
 10
102.5
 20
97.0
 11
107.5
 21
97.0
  0
LINE
  8
0
  6
CONTINUOUS
 62
     1
 10
102.5
 20
97.0
 11
103.077350269
 21
96.0
  0
LINE
  8
0
  6
CONTINUOUS
 62
     1
 10
102.5
 20
101.0
 11
102.5
 21
97.0
  0
LINE
  8
0
  6
CONTINUOUS
 62
     1
 10
107.5
 20
97.0
 11
106.922649731
 21
96.0
  0
LINE
  8
0
  6
CONTINUOUS
 62
     1
 10
107.5
 20
97.0
 11
107.5
 21
101.0
  0
LINE
  8
0
  6
CONTINUOUS
 62
     1
 10
103.077350269
 20
96.0
 11
106.922649731
 21
96.0
  0
ARC
  8
0
  6
CONTINUOUS
 62
     1
 10
105.0
 20
96.5
 40
1.5
 50
199.471220634
 51
340.528779366
  0
LINE
  8
0
  6
CONTINUOUS
 62
     1
 10
103.25
 20
101.0
 11
103.25
 21
105.0
  0
LINE
  8
0
  6
CONTINUOUS
 62
     1
 10
106.75
 20
105.0
 11
106.75
 21
101.0
  0
LINE
  8
0
  6
CONTINUOUS
 62
     1
 10
102.650768448
 20
101.0
 11
102.650768448
 21
97.0
  0
LINE
  8
0
  6
CONTINUOUS
 62
     1
 10
103.084888892
 20
101.0
 11
103.084888892
 21
97.0
  0
LINE
  8
0
  6
CONTINUOUS
 62
     1
 10
103.75
 20
101.0
 11
103.75
 21
97.0
  0
LINE
  8
0
  6
CONTINUOUS
 62
     1
 10
104.565879556
 20
101.0
 11
104.565879556
 21
97.0
  0
LINE
  8
0
  6
CONTINUOUS
 62
     1
 10
105.434120444
 20
101.0
 11
105.434120444
 21
97.0
  0
LINE
  8
0
  6
CONTINUOUS
 62
     1
 10
106.25
 20
101.0
 11
106.25
 21
97.0
  0
LINE
  8
0
  6
CONTINUOUS
 62
     1
 10
106.92
 20
101.0
 11
106.92
 21
97.0
  0
LINE
  8
0
  6
CONTINUOUS
 62
     1
 10
107.349231552
 20
101.0
 11
107.349231552
 21
97.0
  0
LINE
  8
0
  6
CONTINUOUS
 62
     1
 10
107.0
 20
105.0
 11
107.0
 21
118.0
  0
LINE
  8
0
  6
CONTINUOUS
 62
     1
 10
103.0
 20
118.0
 11
103.0
 21
105.0
  0
LINE
  8
0
  6
LTYPE4
 62
     2
 10
105.0
 20
189.0
 11
105.0
 21
90.0
  0
LINE
  8
寸法線
  6
CONTINUOUS
 62
     2
 10
153.0
 20
95.0
 11
153.647047613
 21
97.414814566
  0
LINE
  8
寸法線
  6
CONTINUOUS
 62
     2
 10
153.0
 20
95.0
 11
152.352952387
 21
97.414814566
  0
LINE
  8
寸法線
  6
CONTINUOUS
 62
     2
 10
153.0
 20
95.0
 11
153.0
 21
105.0
  0
LINE
  8
寸法線
  6
CONTINUOUS
 62
     2
 10
153.0
 20
105.0
 11
152.352952387
 21
102.585185434
  0
LINE
  8
寸法線
  6
CONTINUOUS
 62
     2
 10
153.0
 20
105.0
 11
153.647047613
 21
102.585185434
  0
LINE
  8
寸法線
  6
CONTINUOUS
 62
     2
 10
108.0
 20
105.0
 11
154.0
 21
105.0
  0
TEXT
  8
寸法線
  6
CONTINUOUS
 62
     5
 10
152.0
 20
96.45
 30
0.1
 40
4.0
  1
１０
 50
90.0
 41
0.875
 51
0.0
  7
KANJI11
  0
LINE
  8
0
  6
CONTINUOUS
 62
     1
 10
52.75
 20
183.0
 11
57.25
 21
183.0
  0
LINE
  8
0
  6
CONTINUOUS
 62
     1
 10
52.75
 20
183.0
 11
52.75
 21
185.0
  0
LINE
  8
0
  6
CONTINUOUS
 62
     1
 10
57.25
 20
183.0
 11
57.25
 21
185.0
  0
POLYLINE
  8
0
  6
CONTINUOUS
 62
     1
 66
     1
  0
VERTEX
  8
0
  6
CONTINUOUS
 62
     1
 10
59.0
 20
185.0
  0
VERTEX
  8
0
  6
CONTINUOUS
 62
     1
 10
59.0
 20
186.0
  0
VERTEX
  8
0
  6
CONTINUOUS
 62
     1
 10
51.0
 20
186.0
  0
SEQEND
  0
LINE
  8
0
  6
CONTINUOUS
 62
     1
 10
51.0
 20
185.0
 11
59.0
 21
185.0
  0
ARC
  8
0
  6
CONTINUOUS
 62
     1
 10
55.0
 20
178.5
 40
8.5
 50
61.927513064
 51
118.072486936
  0
LINE
  8
0
  6
CONTINUOUS
 62
     1
 10
55.418113853
 20
185.0
 11
55.418113853
 21
186.0
  0
LINE
  8
0
  6
CONTINUOUS
 62
     1
 10
58.912590403
 20
185.0
 11
58.912590403
 21
186.0
  0
LINE
  8
0
  6
CONTINUOUS
 62
     1
 10
58.654181831
 20
185.0
 11
58.654181831
 21
186.0
  0
LINE
  8
0
  6
CONTINUOUS
 62
     1
 10
58.236067977
 20
185.0
 11
58.236067977
 21
186.0
  0
LINE
  8
0
  6
CONTINUOUS
 62
     1
 10
57.676522425
 20
185.0
 11
57.676522425
 21
186.0
  0
LINE
  8
0
  6
CONTINUOUS
 62
     1
 10
57.0
 20
185.0
 11
57.0
 21
186.0
  0
LINE
  8
0
  6
CONTINUOUS
 62
     1
 10
56.236067977
 20
185.0
 11
56.236067977
 21
186.0
  0
LINE
  8
0
  6
CONTINUOUS
 62
     1
 10
51.0
 20
185.0
 11
51.0
 21
186.0
  0
LINE
  8
0
  6
CONTINUOUS
 62
     1
 10
54.581886147
 20
185.0
 11
54.581886147
 21
186.0
  0
LINE
  8
0
  6
CONTINUOUS
 62
     1
 10
51.087409597
 20
185.0
 11
51.087409597
 21
186.0
  0
LINE
  8
0
  6
CONTINUOUS
 62
     1
 10
51.345818169
 20
185.0
 11
51.345818169
 21
186.0
  0
LINE
  8
0
  6
CONTINUOUS
 62
     1
 10
51.763932023
 20
185.0
 11
51.763932023
 21
186.0
  0
LINE
  8
0
  6
CONTINUOUS
 62
     1
 10
52.323477575
 20
185.0
 11
52.323477575
 21
186.0
  0
LINE
  8
0
  6
CONTINUOUS
 62
     1
 10
53.0
 20
185.0
 11
53.0
 21
186.0
  0
LINE
  8
0
  6
CONTINUOUS
 62
     1
 10
53.763932023
 20
185.0
 11
53.763932023
 21
186.0
  0
LINE
  8
0
  6
LTYPE4
 62
     2
 10
55.0
 20
192.0
 11
55.0
 21
90.0
  0
LINE
  8
寸法線
  6
CONTINUOUS
 62
     2
 10
121.0
 20
120.0
 11
154.0
 21
120.0
  0
LINE
  8
寸法線
  6
CONTINUOUS
 62
     2
 10
153.0
 20
120.0
 11
152.352952387
 21
117.585185434
  0
LINE
  8
寸法線
  6
CONTINUOUS
 62
     2
 10
153.0
 20
120.0
 11
153.647047613
 21
117.585185434
  0
LINE
  8
寸法線
  6
CONTINUOUS
 62
     2
 10
153.0
 20
120.0
 11
153.0
 21
105.0
  0
LINE
  8
寸法線
  6
CONTINUOUS
 62
     2
 10
153.0
 20
105.0
 11
153.647047613
 21
107.414814566
  0
LINE
  8
寸法線
  6
CONTINUOUS
 62
     2
 10
153.0
 20
105.0
 11
152.352952387
 21
107.414814566
  0
TEXT
  8
寸法線
  6
CONTINUOUS
 62
     5
 10
152.0
 20
108.95
 30
0.1
 40
4.0
  1
１５
 50
90.0
 41
0.875
 51
0.0
  7
KANJI11
  0
LINE
  8
寸法線
  6
CONTINUOUS
 62
     2
 10
143.0
 20
150.0
 11
154.0
 21
150.0
  0
LINE
  8
寸法線
  6
CONTINUOUS
 62
     2
 10
153.0
 20
150.0
 11
152.352952387
 21
147.585185434
  0
LINE
  8
寸法線
  6
CONTINUOUS
 62
     2
 10
153.0
 20
150.0
 11
153.647047613
 21
147.585185434
  0
LINE
  8
寸法線
  6
CONTINUOUS
 62
     2
 10
153.0
 20
150.0
 11
153.0
 21
120.0
  0
LINE
  8
寸法線
  6
CONTINUOUS
 62
     2
 10
153.0
 20
120.0
 11
153.647047613
 21
122.414814566
  0
LINE
  8
寸法線
  6
CONTINUOUS
 62
     2
 10
153.0
 20
120.0
 11
152.352952387
 21
122.414814566
  0
TEXT
  8
寸法線
  6
CONTINUOUS
 62
     5
 10
152.0
 20
131.45
 30
0.1
 40
4.0
  1
３０
 50
90.0
 41
0.875
 51
0.0
  7
KANJI11
  0
LINE
  8
寸法線
  6
CONTINUOUS
 62
     2
 10
163.0
 20
120.0
 11
162.352952387
 21
117.585185434
  0
LINE
  8
寸法線
  6
CONTINUOUS
 62
     2
 10
163.0
 20
120.0
 11
163.647047613
 21
117.585185434
  0
LINE
  8
寸法線
  6
CONTINUOUS
 62
     2
 10
163.0
 20
120.0
 11
163.0
 21
95.0
  0
LINE
  8
寸法線
  6
CONTINUOUS
 62
     2
 10
163.0
 20
95.0
 11
163.647047613
 21
97.414814566
  0
LINE
  8
寸法線
  6
CONTINUOUS
 62
     2
 10
163.0
 20
95.0
 11
162.352952387
 21
97.414814566
  0
LINE
  8
寸法線
  6
CONTINUOUS
 62
     2
 10
106.0
 20
95.0
 11
164.0
 21
95.0
  0
TEXT
  8
寸法線
  6
CONTINUOUS
 62
     5
 10
162.0
 20
103.95
 30
0.1
 40
4.0
  1
２５
 50
90.0
 41
0.875
 51
0.0
  7
KANJI11
  0
LINE
  8
0
  6
CONTINUOUS
 62
     1
 10
102.75
 20
183.0
 11
107.25
 21
183.0
  0
LINE
  8
0
  6
CONTINUOUS
 62
     1
 10
102.75
 20
183.0
 11
102.75
 21
185.0
  0
LINE
  8
0
  6
CONTINUOUS
 62
     1
 10
107.25
 20
183.0
 11
107.25
 21
185.0
  0
POLYLINE
  8
0
  6
CONTINUOUS
 62
     1
 66
     1
  0
VERTEX
  8
0
  6
CONTINUOUS
 62
     1
 10
109.0
 20
185.0
  0
VERTEX
  8
0
  6
CONTINUOUS
 62
     1
 10
109.0
 20
186.0
  0
VERTEX
  8
0
  6
CONTINUOUS
 62
     1
 10
101.0
 20
186.0
  0
SEQEND
  0
LINE
  8
0
  6
CONTINUOUS
 62
     1
 10
101.0
 20
185.0
 11
109.0
 21
185.0
  0
ARC
  8
0
  6
CONTINUOUS
 62
     1
 10
105.0
 20
178.5
 40
8.5
 50
61.927513064
 51
118.072486936
  0
LINE
  8
0
  6
CONTINUOUS
 62
     1
 10
105.418113853
 20
185.0
 11
105.418113853
 21
186.0
  0
LINE
  8
0
  6
CONTINUOUS
 62
     1
 10
108.912590403
 20
185.0
 11
108.912590403
 21
186.0
  0
LINE
  8
0
  6
CONTINUOUS
 62
     1
 10
108.654181831
 20
185.0
 11
108.654181831
 21
186.0
  0
LINE
  8
0
  6
CONTINUOUS
 62
     1
 10
108.236067977
 20
185.0
 11
108.236067977
 21
186.0
  0
LINE
  8
0
  6
CONTINUOUS
 62
     1
 10
107.676522425
 20
185.0
 11
107.676522425
 21
186.0
  0
LINE
  8
0
  6
CONTINUOUS
 62
     1
 10
107.0
 20
185.0
 11
107.0
 21
186.0
  0
LINE
  8
0
  6
CONTINUOUS
 62
     1
 10
106.236067977
 20
185.0
 11
106.236067977
 21
186.0
  0
LINE
  8
0
  6
CONTINUOUS
 62
     1
 10
101.0
 20
185.0
 11
101.0
 21
186.0
  0
LINE
  8
0
  6
CONTINUOUS
 62
     1
 10
104.581886147
 20
185.0
 11
104.581886147
 21
186.0
  0
LINE
  8
0
  6
CONTINUOUS
 62
     1
 10
101.087409597
 20
185.0
 11
101.087409597
 21
186.0
  0
LINE
  8
0
  6
CONTINUOUS
 62
     1
 10
101.345818169
 20
185.0
 11
101.345818169
 21
186.0
  0
LINE
  8
0
  6
CONTINUOUS
 62
     1
 10
101.763932023
 20
185.0
 11
101.763932023
 21
186.0
  0
LINE
  8
0
  6
CONTINUOUS
 62
     1
 10
102.323477575
 20
185.0
 11
102.323477575
 21
186.0
  0
LINE
  8
0
  6
CONTINUOUS
 62
     1
 10
103.0
 20
185.0
 11
103.0
 21
186.0
  0
LINE
  8
0
  6
CONTINUOUS
 62
     1
 10
103.763932023
 20
185.0
 11
103.763932023
 21
186.0
  0
LINE
  8
寸法線
  6
CONTINUOUS
 62
     2
 10
130.788240781
 20
153.152963125
 11
132.00164773
 21
155.338745268
  0
LINE
  8
寸法線
  6
CONTINUOUS
 62
     2
 10
130.788240781
 20
153.152963125
 11
130.746190953
 21
155.652609463
  0
LINE
  8
寸法線
  6
CONTINUOUS
 62
     2
 10
130.788240781
 20
153.152963125
 11
135.0
 21
170.0
  0
LINE
  8
寸法線
  6
CONTINUOUS
 62
     2
 10
135.0
 20
170.0
 11
160.1
 21
170.0
  0
TEXT
  8
寸法線
  6
CONTINUOUS
 62
     5
 10
135.0
 20
171.0
 30
0.1
 40
4.0
  1
φ６．５取付穴
 50
0.0
 41
0.875
 51
0.0
  7
KANJI11
  0
LINE
  8
0
  6
LTYPE4
 62
     2
 10
105.0
 20
262.5
 11
105.0
 21
247.5
  0
LINE
  8
0
  6
CONTINUOUS
 62
     1
 10
101.35098403
 20
258.418286479
 11
107.259830548
 21
259.460175545
  0
ARC
  8
0
  6
CONTINUOUS
 62
     1
 10
105.0
 20
255.0
 40
5.0
 50
316.869897646
 51
63.130102354
  0
LINE
  8
0
  6
CONTINUOUS
 62
     1
 10
102.740169452
 20
250.539824455
 11
108.64901597
 21
251.581713521
  0
ARC
  8
0
  6
CONTINUOUS
 62
     1
 10
105.0
 20
255.0
 40
5.0
 50
136.869897646
 51
243.130102354
  0
LINE
  8
0
  6
CONTINUOUS
 62
     1
 10
120.0
 20
257.5
 11
138.0
 21
257.5
  0
LINE
  8
0
  6
CONTINUOUS
 62
     1
 10
138.0
 20
257.5
 11
138.0
 21
252.5
  0
LINE
  8
0
  6
CONTINUOUS
 62
     1
 10
138.0
 20
252.5
 11
120.0
 21
252.5
  0
LINE
  8
0
  6
LTYPE4
 62
     2
 10
143.0
 20
255.0
 11
90.0
 21
255.0
  0
LINE
  8
0
  6
LTYPE5
 62
     2
 10
126.75
 20
257.5
 11
126.75
 21
252.5
  0
LINE
  8
0
  6
LTYPE5
 62
     2
 10
133.25
 20
257.5
 11
133.25
 21
252.5
  0
LINE
  8
0
  6
LTYPE4
 62
     2
 10
130.0
 20
262.5
 11
130.0
 21
247.5
  0
LINE
  8
0
  6
CONTINUOUS
 62
     1
 10
120.0
 20
261.0
 11
96.0
 21
261.0
  0
LINE
  8
0
  6
CONTINUOUS
 62
     1
 10
120.0
 20
262.0
 11
95.0
 21
262.0
  0
LINE
  8
0
  6
CONTINUOUS
 62
     1
 10
120.0
 20
261.0
 11
120.0
 21
262.0
  0
LINE
  8
0
  6
CONTINUOUS
 62
     1
 10
115.75
 20
262.0
 11
119.25
 21
262.0
  0
LINE
  8
0
  6
CONTINUOUS
 62
     1
 10
115.75
 20
262.0
 11
115.8
 21
262.6
  0
LINE
  8
0
  6
CONTINUOUS
 62
     1
 10
119.25
 20
262.0
 11
119.2
 21
262.6
  0
ARC
  8
0
  6
CONTINUOUS
 62
     1
 10
118.45
 20
262.45
 40
0.75
 50
11.0
 51
67.6
  0
ARC
  8
0
  6
CONTINUOUS
 62
     1
 10
116.55
 20
262.45
 40
0.75
 50
112.4
 51
169.0
  0
ARC
  8
0
  6
CONTINUOUS
 62
     1
 10
117.5
 20
258.4
 40
4.9
 50
75.8
 51
104.3
  0
LINE
  8
0
  6
LTYPE3
 62
     2
 10
117.5
 20
264.3
 11
117.5
 21
260.0
  0
LINE
  8
0
  6
CONTINUOUS
 62
     1
 10
96.0
 20
245.0
 11
120.0
 21
245.0
  0
POLYLINE
  8
0
  6
CONTINUOUS
 62
     1
 66
     1
  0
VERTEX
  8
0
  6
CONTINUOUS
 62
     1
 10
95.0
 20
244.0
  0
VERTEX
  8
0
  6
CONTINUOUS
 62
     1
 10
120.0
 20
244.0
  0
VERTEX
  8
0
  6
CONTINUOUS
 62
     1
 10
120.0
 20
245.0
  0
SEQEND
  0
LINE
  8
0
  6
CONTINUOUS
 62
     1
 10
115.75
 20
244.0
 11
119.25
 21
244.0
  0
LINE
  8
0
  6
CONTINUOUS
 62
     1
 10
115.75
 20
244.0
 11
115.8
 21
243.4
  0
LINE
  8
0
  6
CONTINUOUS
 62
     1
 10
119.25
 20
244.0
 11
119.2
 21
243.4
  0
ARC
  8
0
  6
CONTINUOUS
 62
     1
 10
118.45
 20
243.55
 40
0.75
 50
292.4
 51
349.0
  0
ARC
  8
0
  6
CONTINUOUS
 62
     1
 10
116.55
 20
243.55
 40
0.75
 50
191.0
 51
247.6
  0
ARC
  8
0
  6
CONTINUOUS
 62
     1
 10
117.5
 20
247.6
 40
4.9
 50
255.7
 51
284.2
  0
LINE
  8
0
  6
LTYPE3
 62
     2
 10
117.5
 20
241.7
 11
117.5
 21
246.0
  0
LINE
  8
0
  6
CONTINUOUS
 62
     1
 10
120.0
 20
245.0
 11
120.0
 21
261.0
  0
LINE
  8
0
  6
CONTINUOUS
 62
     1
 10
96.0
 20
261.0
 11
96.0
 21
245.0
  0
LINE
  8
0
  6
CONTINUOUS
 62
     1
 10
95.0
 20
262.0
 11
95.0
 21
244.0
  0
CIRCLE
  8
0
  6
CONTINUOUS
 62
     1
 10
111.0
 20
248.0
 40
2.0
  0
CIRCLE
  8
0
  6
CONTINUOUS
 62
     1
 10
111.0
 20
248.0
 40
3.0
  0
LINE
  8
0
  6
LTYPE4
 62
     2
 10
116.0
 20
248.0
 11
106.0
 21
248.0
  0
LINE
  8
0
  6
LTYPE4
 62
     2
 10
111.0
 20
253.0
 11
111.0
 21
243.0
  0
CIRCLE
  8
0
  6
CONTINUOUS
 62
     1
 10
105.0
 20
255.0
 40
4.0
  0
LINE
  8
寸法線
  6
CONTINUOUS
 62
     2
 10
139.0
 20
257.5
 11
154.0
 21
257.5
  0
LINE
  8
寸法線
  6
CONTINUOUS
 62
     2
 10
153.0
 20
257.5
 11
153.647047613
 21
259.914814566
  0
LINE
  8
寸法線
  6
CONTINUOUS
 62
     2
 10
153.0
 20
257.5
 11
152.352952387
 21
259.914814566
  0
LINE
  8
寸法線
  6
CONTINUOUS
 62
     2
 10
153.0
 20
261.25
 11
153.0
 21
257.5
  0
LINE
  8
寸法線
  6
CONTINUOUS
 62
     2
 10
153.0
 20
257.5
 11
153.0
 21
252.5
  0
LINE
  8
寸法線
  6
CONTINUOUS
 62
     2
 10
153.0
 20
252.5
 11
153.0
 21
245.25
  0
LINE
  8
寸法線
  6
CONTINUOUS
 62
     2
 10
153.0
 20
252.5
 11
152.352952387
 21
250.085185434
  0
LINE
  8
寸法線
  6
CONTINUOUS
 62
     2
 10
153.0
 20
252.5
 11
153.647047613
 21
250.085185434
  0
LINE
  8
寸法線
  6
CONTINUOUS
 62
     2
 10
139.0
 20
252.5
 11
154.0
 21
252.5
  0
TEXT
  8
寸法線
  6
CONTINUOUS
 62
     5
 10
152.0
 20
245.25
 30
0.1
 40
4.0
  1
５
 50
90.0
 41
0.875
 51
0.0
  7
KANJI11
  0
LINE
  8
寸法線
  6
CONTINUOUS
 62
     2
 10
121.0
 20
262.0
 11
164.0
 21
262.0
  0
LINE
  8
寸法線
  6
CONTINUOUS
 62
     2
 10
163.0
 20
262.0
 11
162.352952387
 21
259.585185434
  0
LINE
  8
寸法線
  6
CONTINUOUS
 62
     2
 10
163.0
 20
262.0
 11
163.647047613
 21
259.585185434
  0
LINE
  8
寸法線
  6
CONTINUOUS
 62
     2
 10
163.0
 20
262.0
 11
163.0
 21
255.0
  0
LINE
  8
寸法線
  6
CONTINUOUS
 62
     2
 10
163.0
 20
255.0
 11
163.647047613
 21
257.414814566
  0
LINE
  8
寸法線
  6
CONTINUOUS
 62
     2
 10
163.0
 20
255.0
 11
162.352952387
 21
257.414814566
  0
LINE
  8
寸法線
  6
CONTINUOUS
 62
     2
 10
143.0
 20
255.0
 11
164.0
 21
255.0
  0
TEXT
  8
寸法線
  6
CONTINUOUS
 62
     5
 10
162.0
 20
256.75
 30
0.1
 40
4.0
  1
７
 50
90.0
 41
0.875
 51
0.0
  7
KANJI11
  0
LINE
  8
寸法線
  6
CONTINUOUS
 62
     2
 10
164.0
 20
262.0
 11
174.0
 21
262.0
  0
LINE
  8
寸法線
  6
CONTINUOUS
 62
     2
 10
173.0
 20
262.0
 11
172.352952387
 21
259.585185434
  0
LINE
  8
寸法線
  6
CONTINUOUS
 62
     2
 10
173.0
 20
262.0
 11
173.647047613
 21
259.585185434
  0
LINE
  8
寸法線
  6
CONTINUOUS
 62
     2
 10
173.0
 20
262.0
 11
173.0
 21
244.0
  0
LINE
  8
寸法線
  6
CONTINUOUS
 62
     2
 10
173.0
 20
244.0
 11
173.647047613
 21
246.414814566
  0
LINE
  8
寸法線
  6
CONTINUOUS
 62
     2
 10
173.0
 20
244.0
 11
172.352952387
 21
246.414814566
  0
LINE
  8
寸法線
  6
CONTINUOUS
 62
     2
 10
121.0
 20
244.0
 11
174.0
 21
244.0
  0
TEXT
  8
寸法線
  6
CONTINUOUS
 62
     5
 10
172.0
 20
249.45
 30
0.1
 40
4.0
  1
１８
 50
90.0
 41
0.875
 51
0.0
  7
KANJI11
  0
LINE
  8
寸法線
  6
CONTINUOUS
 62
     2
 10
154.0
 20
120.0
 11
164.0
 21
120.0
  0
LINE
  8
寸法線
  6
CONTINUOUS
 62
     2
 10
163.0
 20
120.0
 11
163.647047613
 21
122.414814566
  0
LINE
  8
寸法線
  6
CONTINUOUS
 62
     2
 10
163.0
 20
120.0
 11
162.352952387
 21
122.414814566
  0
LINE
  8
寸法線
  6
CONTINUOUS
 62
     2
 10
163.0
 20
120.0
 11
163.0
 21
180.0
  0
LINE
  8
寸法線
  6
CONTINUOUS
 62
     2
 10
163.0
 20
180.0
 11
162.352952387
 21
177.585185434
  0
LINE
  8
寸法線
  6
CONTINUOUS
 62
     2
 10
163.0
 20
180.0
 11
163.647047613
 21
177.585185434
  0
LINE
  8
寸法線
  6
CONTINUOUS
 62
     2
 10
121.0
 20
180.0
 11
164.0
 21
180.0
  0
TEXT
  8
寸法線
  6
CONTINUOUS
 62
     5
 10
162.0
 20
146.45
 30
0.1
 40
4.0
  1
６０
 50
90.0
 41
0.875
 51
0.0
  7
KANJI11
  0
LINE
  8
寸法線
  6
CONTINUOUS
 62
     2
 10
164.0
 20
95.0
 11
174.0
 21
95.0
  0
LINE
  8
寸法線
  6
CONTINUOUS
 62
     2
 10
173.0
 20
95.0
 11
173.647047613
 21
97.414814566
  0
LINE
  8
寸法線
  6
CONTINUOUS
 62
     2
 10
173.0
 20
95.0
 11
172.352952387
 21
97.414814566
  0
LINE
  8
寸法線
  6
CONTINUOUS
 62
     2
 10
173.0
 20
95.0
 11
173.0
 21
187.0
  0
LINE
  8
寸法線
  6
CONTINUOUS
 62
     2
 10
173.0
 20
187.0
 11
172.352952387
 21
184.585185434
  0
LINE
  8
寸法線
  6
CONTINUOUS
 62
     2
 10
173.0
 20
187.0
 11
173.647047613
 21
184.585185434
  0
LINE
  8
寸法線
  6
CONTINUOUS
 62
     2
 10
106.0
 20
187.0
 11
174.0
 21
187.0
  0
TEXT
  8
寸法線
  6
CONTINUOUS
 62
     5
 10
172.0
 20
137.45
 30
0.1
 40
4.0
  1
９１
 50
90.0
 41
0.875
 51
0.0
  7
KANJI11
  0
TEXT
  8
表題欄
  6
CONTINUOUS
 62
     5
 10
150.7
 20
24.0
 30
0.1
 40
4.0
  1
ＴＣＬ－１０Ｍ
 50
0.0
 41
0.875
 51
0.0
  7
KANJI11
  0
TEXT
  8
表題欄
  6
CONTINUOUS
 62
     5
 10
151.65
 20
13.0
 30
0.1
 40
4.0
  1
Ｋ－０１４９－Ａ７
 50
0.0
 41
0.875
 51
0.0
  7
KANJI11
  0
ENDSEC
  0
EOF
