  0
SECTION
  2
HEADER
  9
$EXTMIN
 10
0.0
 20
0.0
 30
0.0
  9
$EXTMAX
 10
420.0
 20
297.0
 30
0.0
  9
$LIMMIN
 10
0.0
 20
0.0
  9
$LIMMAX
 10
420.0
 20
297.0
  9
$LTSCALE
 40
1.0
  9
$PDMODE
 70
     0
  0
ENDSEC
  0
SECTION
  2
TABLES
  0
TABLE
  2
LTYPE
 70
     6
  0
LTYPE
  2
CONTINUOUS
 70
    64
  3
Solid line
 72
    65
 73
     0
 40
0.0
  0
LTYPE
  2
LTYPE1
 70
    64
  3
CENTER
 72
    65
 73
     4
 40
10.0
 49
7.0
 49
-1.0
 49
1.0
 49
-1.0
  0
LTYPE
  2
LTYPE2
 70
    64
  3
CENTER
 72
    65
 73
     4
 40
5.0
 49
3.5
 49
-0.5
 49
0.5
 49
-0.5
  0
LTYPE
  2
LTYPE3
 70
    64
  3
HIDDEN
 72
    65
 73
     2
 40
1.5
 49
0.9
 49
-0.6
  0
LTYPE
  2
LTYPE4
 70
    64
  3
PHANTOM
 72
    65
 73
     6
 40
10.0
 49
7.5
 49
-0.5
 49
0.5
 49
-0.5
 49
0.5
 49
-0.5
  0
LTYPE
  2
LTYPE5
 70
    64
  3
HIDDEN
 72
    65
 73
     2
 40
2.0
 49
1.2
 49
-0.8
  0
ENDTAB
  0
TABLE
  2
LAYER
 70
   128
  0
LAYER
  2
0
 70
     0
 62
     7
  6
CONTINUOUS
  0
LAYER
  2
2
 70
     0
 62
     7
  6
CONTINUOUS
  0
LAYER
  2
3
 70
     0
 62
     7
  6
CONTINUOUS
  0
LAYER
  2
4
 70
     0
 62
     7
  6
CONTINUOUS
  0
LAYER
  2
5
 70
     0
 62
     7
  6
CONTINUOUS
  0
LAYER
  2
6
 70
     0
 62
     7
  6
CONTINUOUS
  0
LAYER
  2
7
 70
     0
 62
     7
  6
CONTINUOUS
  0
LAYER
  2
8
 70
     0
 62
     7
  6
CONTINUOUS
  0
LAYER
  2
9
 70
     0
 62
     7
  6
CONTINUOUS
  0
LAYER
  2
10
 70
     0
 62
     7
  6
CONTINUOUS
  0
LAYER
  2
11
 70
     0
 62
     7
  6
CONTINUOUS
  0
LAYER
  2
12
 70
     0
 62
     7
  6
CONTINUOUS
  0
LAYER
  2
13
 70
     0
 62
     7
  6
CONTINUOUS
  0
LAYER
  2
14
 70
     0
 62
     7
  6
CONTINUOUS
  0
LAYER
  2
15
 70
     0
 62
     7
  6
CONTINUOUS
  0
LAYER
  2
16
 70
     0
 62
     7
  6
CONTINUOUS
  0
LAYER
  2
17
 70
     0
 62
     7
  6
CONTINUOUS
  0
LAYER
  2
18
 70
     0
 62
     7
  6
CONTINUOUS
  0
LAYER
  2
19
 70
     0
 62
     7
  6
CONTINUOUS
  0
LAYER
  2
20
 70
     0
 62
     7
  6
CONTINUOUS
  0
LAYER
  2
21
 70
     0
 62
     7
  6
CONTINUOUS
  0
LAYER
  2
22
 70
     0
 62
     7
  6
CONTINUOUS
  0
LAYER
  2
23
 70
     0
 62
     7
  6
CONTINUOUS
  0
LAYER
  2
24
 70
     0
 62
     7
  6
CONTINUOUS
  0
LAYER
  2
25
 70
     0
 62
     7
  6
CONTINUOUS
  0
LAYER
  2
26
 70
     0
 62
     7
  6
CONTINUOUS
  0
LAYER
  2
27
 70
     0
 62
     7
  6
CONTINUOUS
  0
LAYER
  2
28
 70
     0
 62
     7
  6
CONTINUOUS
  0
LAYER
  2
29
 70
     0
 62
     7
  6
CONTINUOUS
  0
LAYER
  2
30
 70
     0
 62
     7
  6
CONTINUOUS
  0
LAYER
  2
31
 70
     0
 62
     7
  6
CONTINUOUS
  0
LAYER
  2
32
 70
     0
 62
     7
  6
CONTINUOUS
  0
LAYER
  2
33
 70
     0
 62
     7
  6
CONTINUOUS
  0
LAYER
  2
34
 70
     0
 62
     7
  6
CONTINUOUS
  0
LAYER
  2
35
 70
     0
 62
     7
  6
CONTINUOUS
  0
LAYER
  2
36
 70
     0
 62
     7
  6
CONTINUOUS
  0
LAYER
  2
37
 70
     0
 62
     7
  6
CONTINUOUS
  0
LAYER
  2
38
 70
     0
 62
     7
  6
CONTINUOUS
  0
LAYER
  2
39
 70
     0
 62
     7
  6
CONTINUOUS
  0
LAYER
  2
40
 70
     0
 62
     7
  6
CONTINUOUS
  0
LAYER
  2
41
 70
     0
 62
     7
  6
CONTINUOUS
  0
LAYER
  2
42
 70
     0
 62
     7
  6
CONTINUOUS
  0
LAYER
  2
43
 70
     0
 62
     7
  6
CONTINUOUS
  0
LAYER
  2
44
 70
     0
 62
     7
  6
CONTINUOUS
  0
LAYER
  2
45
 70
     0
 62
     7
  6
CONTINUOUS
  0
LAYER
  2
46
 70
     0
 62
     7
  6
CONTINUOUS
  0
LAYER
  2
47
 70
     0
 62
     7
  6
CONTINUOUS
  0
LAYER
  2
48
 70
     0
 62
     7
  6
CONTINUOUS
  0
LAYER
  2
49
 70
     0
 62
     7
  6
CONTINUOUS
  0
LAYER
  2
50
 70
     0
 62
     7
  6
CONTINUOUS
  0
LAYER
  2
51
 70
     0
 62
     7
  6
CONTINUOUS
  0
LAYER
  2
52
 70
     0
 62
     7
  6
CONTINUOUS
  0
LAYER
  2
53
 70
     0
 62
     7
  6
CONTINUOUS
  0
LAYER
  2
54
 70
     0
 62
     7
  6
CONTINUOUS
  0
LAYER
  2
55
 70
     0
 62
     7
  6
CONTINUOUS
  0
LAYER
  2
56
 70
     0
 62
     7
  6
CONTINUOUS
  0
LAYER
  2
57
 70
     0
 62
     7
  6
CONTINUOUS
  0
LAYER
  2
58
 70
     0
 62
     7
  6
CONTINUOUS
  0
LAYER
  2
59
 70
     0
 62
     7
  6
CONTINUOUS
  0
LAYER
  2
60
 70
     0
 62
     7
  6
CONTINUOUS
  0
LAYER
  2
61
 70
     0
 62
     7
  6
CONTINUOUS
  0
LAYER
  2
62
 70
     0
 62
     7
  6
CONTINUOUS
  0
LAYER
  2
63
 70
     0
 62
     7
  6
CONTINUOUS
  0
LAYER
  2
64
 70
     0
 62
     7
  6
CONTINUOUS
  0
LAYER
  2
65
 70
     0
 62
     7
  6
CONTINUOUS
  0
LAYER
  2
66
 70
     0
 62
     7
  6
CONTINUOUS
  0
LAYER
  2
67
 70
     0
 62
     7
  6
CONTINUOUS
  0
LAYER
  2
68
 70
     0
 62
     7
  6
CONTINUOUS
  0
LAYER
  2
69
 70
     0
 62
     7
  6
CONTINUOUS
  0
LAYER
  2
70
 70
     0
 62
     7
  6
CONTINUOUS
  0
LAYER
  2
71
 70
     0
 62
     7
  6
CONTINUOUS
  0
LAYER
  2
72
 70
     0
 62
     7
  6
CONTINUOUS
  0
LAYER
  2
73
 70
     0
 62
     7
  6
CONTINUOUS
  0
LAYER
  2
74
 70
     0
 62
     7
  6
CONTINUOUS
  0
LAYER
  2
75
 70
     0
 62
     7
  6
CONTINUOUS
  0
LAYER
  2
76
 70
     0
 62
     7
  6
CONTINUOUS
  0
LAYER
  2
77
 70
     0
 62
     7
  6
CONTINUOUS
  0
LAYER
  2
78
 70
     0
 62
     7
  6
CONTINUOUS
  0
LAYER
  2
79
 70
     0
 62
     7
  6
CONTINUOUS
  0
LAYER
  2
80
 70
     0
 62
     7
  6
CONTINUOUS
  0
LAYER
  2
81
 70
     0
 62
     7
  6
CONTINUOUS
  0
LAYER
  2
82
 70
     0
 62
     7
  6
CONTINUOUS
  0
LAYER
  2
83
 70
     0
 62
     7
  6
CONTINUOUS
  0
LAYER
  2
84
 70
     0
 62
     7
  6
CONTINUOUS
  0
LAYER
  2
85
 70
     0
 62
     7
  6
CONTINUOUS
  0
LAYER
  2
86
 70
     0
 62
     7
  6
CONTINUOUS
  0
LAYER
  2
87
 70
     0
 62
     7
  6
CONTINUOUS
  0
LAYER
  2
88
 70
     0
 62
     7
  6
CONTINUOUS
  0
LAYER
  2
89
 70
     0
 62
     7
  6
CONTINUOUS
  0
LAYER
  2
90
 70
     0
 62
     7
  6
CONTINUOUS
  0
LAYER
  2
91
 70
     0
 62
     7
  6
CONTINUOUS
  0
LAYER
  2
92
 70
     0
 62
     7
  6
CONTINUOUS
  0
LAYER
  2
93
 70
     0
 62
     7
  6
CONTINUOUS
  0
LAYER
  2
94
 70
     0
 62
     7
  6
CONTINUOUS
  0
LAYER
  2
95
 70
     0
 62
     7
  6
CONTINUOUS
  0
LAYER
  2
96
 70
     0
 62
     7
  6
CONTINUOUS
  0
LAYER
  2
97
 70
     0
 62
     7
  6
CONTINUOUS
  0
LAYER
  2
98
 70
     0
 62
     7
  6
CONTINUOUS
  0
LAYER
  2
99
 70
     0
 62
     7
  6
CONTINUOUS
  0
LAYER
  2
100
 70
     0
 62
     7
  6
CONTINUOUS
  0
LAYER
  2
101
 70
     0
 62
     7
  6
CONTINUOUS
  0
LAYER
  2
102
 70
     0
 62
     7
  6
CONTINUOUS
  0
LAYER
  2
103
 70
     0
 62
     7
  6
CONTINUOUS
  0
LAYER
  2
104
 70
     0
 62
     7
  6
CONTINUOUS
  0
LAYER
  2
105
 70
     0
 62
     7
  6
CONTINUOUS
  0
LAYER
  2
106
 70
     0
 62
     7
  6
CONTINUOUS
  0
LAYER
  2
107
 70
     0
 62
     7
  6
CONTINUOUS
  0
LAYER
  2
108
 70
     0
 62
     7
  6
CONTINUOUS
  0
LAYER
  2
109
 70
     0
 62
     7
  6
CONTINUOUS
  0
LAYER
  2
110
 70
     0
 62
     7
  6
CONTINUOUS
  0
LAYER
  2
111
 70
     0
 62
     7
  6
CONTINUOUS
  0
LAYER
  2
112
 70
     0
 62
     7
  6
CONTINUOUS
  0
LAYER
  2
113
 70
     0
 62
     7
  6
CONTINUOUS
  0
LAYER
  2
114
 70
     0
 62
     7
  6
CONTINUOUS
  0
LAYER
  2
115
 70
     0
 62
     7
  6
CONTINUOUS
  0
LAYER
  2
116
 70
     0
 62
     7
  6
CONTINUOUS
  0
LAYER
  2
117
 70
     0
 62
     7
  6
CONTINUOUS
  0
LAYER
  2
118
 70
     0
 62
     7
  6
CONTINUOUS
  0
LAYER
  2
119
 70
     0
 62
     7
  6
CONTINUOUS
  0
LAYER
  2
120
 70
     0
 62
     7
  6
CONTINUOUS
  0
LAYER
  2
121
 70
     0
 62
     7
  6
CONTINUOUS
  0
LAYER
  2
122
 70
     0
 62
     7
  6
CONTINUOUS
  0
LAYER
  2
123
 70
     0
 62
     7
  6
CONTINUOUS
  0
LAYER
  2
124
 70
     0
 62
     7
  6
CONTINUOUS
  0
LAYER
  2
125
 70
     0
 62
     7
  6
CONTINUOUS
  0
LAYER
  2
126
 70
     0
 62
     7
  6
CONTINUOUS
  0
LAYER
  2
127
 70
     0
 62
     7
  6
CONTINUOUS
  0
LAYER
  2
128
 70
     0
 62
     7
  6
CONTINUOUS
  0
ENDTAB
  0
TABLE
  2
STYLE
 70
    17
  0
STYLE
  2
STANDARD
 70
     0
 40
0.0
 41
1.0
 50
0.0
 71
     0
 42
0.2
  3
txt
  4

  0
STYLE
  2
KANJI0
 70
     0
 40
4.0
 41
0.875
 50
0.0
 71
     0
 42
4.0
  3

  4
bigfont
  0
STYLE
  2
KANJI1
 70
     0
 40
2.4
 41
0.875
 50
0.0
 71
     0
 42
2.4
  3

  4
bigfont
  0
STYLE
  2
KANJI2
 70
     0
 40
4.0
 41
1.0
 50
0.0
 71
     0
 42
4.0
  3

  4
bigfont
  0
STYLE
  2
KANJI3
 70
     0
 40
2.0
 41
1.0
 50
0.0
 71
     0
 42
2.0
  3

  4
bigfont
  0
STYLE
  2
KANJI4
 70
     0
 40
1.2
 41
1.0
 50
0.0
 71
     0
 42
1.2
  3

  4
bigfont
  0
STYLE
  2
KANJI5
 70
     0
 40
4.0
 41
0.875
 50
0.0
 71
     0
 42
4.0
  3

  4
bigfont
  0
STYLE
  2
KANJI6
 70
     0
 40
5.0
 41
1.0
 50
0.0
 71
     0
 42
5.0
  3

  4
bigfont
  0
STYLE
  2
KANJI7
 70
     0
 40
5.0
 41
1.2
 50
0.0
 71
     0
 42
5.0
  3

  4
bigfont
  0
STYLE
  2
KANJI8
 70
     0
 40
3.0
 41
0.666666667
 50
0.0
 71
     0
 42
3.0
  3

  4
bigfont
  0
STYLE
  2
KANJI9
 70
     0
 40
3.0
 41
1.0
 50
0.0
 71
     0
 42
3.0
  3

  4
bigfont
  0
STYLE
  2
KANJI10
 70
     0
 40
2.5
 41
1.0
 50
0.0
 71
     0
 42
2.5
  3

  4
bigfont
  0
STYLE
  2
KANJI11
 70
     0
 40
2.5
 41
1.0
 50
0.0
 71
     0
 42
2.5
  3

  4
bigfont
  0
STYLE
  2
KANJI12
 70
     0
 40
2.5
 41
1.0
 50
0.0
 71
     0
 42
2.5
  3

  4
bigfont
  0
STYLE
  2
KANJI13
 70
     0
 40
4.0
 41
1.125
 50
0.0
 71
     0
 42
4.0
  3

  4
bigfont
  0
STYLE
  2
KANJI14
 70
     0
 40
7.0
 41
0.857142857
 50
0.0
 71
     0
 42
7.0
  3

  4
bigfont
  0
STYLE
  2
KANJI15
 70
     0
 40
3.0
 41
0.833333333
 50
0.0
 71
     0
 42
3.0
  3

  4
bigfont
  0
ENDTAB
  0
TABLE
  2
VIEW
 70
     0
  0
ENDTAB
  0
ENDSEC
  0
SECTION
  2
BLOCKS
  0
ENDSEC
  0
SECTION
  2
ENTITIES
  0
LINE
  8
0
  6
CONTINUOUS
 62
     1
 10
216.0
 20
143.75
 11
216.0
 21
124.95
  0
LINE
  8
0
  6
CONTINUOUS
 62
     1
 10
224.0
 20
143.75
 11
224.0
 21
124.95
  0
LINE
  8
0
  6
CONTINUOUS
 62
     1
 10
217.5
 20
119.45
 11
217.5
 21
87.0
  0
LINE
  8
0
  6
CONTINUOUS
 62
     1
 10
222.5
 20
119.45
 11
222.5
 21
87.0
  0
LINE
  8
0
  6
CONTINUOUS
 62
     1
 10
216.1
 20
119.65
 11
223.9
 21
119.65
  0
LINE
  8
0
  6
CONTINUOUS
 62
     1
 10
216.0
 20
124.95
 11
224.0
 21
124.95
  0
LINE
  8
0
  6
CONTINUOUS
 62
     1
 10
216.3
 20
119.45
 11
223.7
 21
119.45
  0
LINE
  8
0
  6
CONTINUOUS
 62
     1
 10
216.1
 20
124.95
 11
216.1
 21
119.65
  0
LINE
  8
0
  6
CONTINUOUS
 62
     1
 10
216.1
 20
119.65
 11
216.3
 21
119.45
  0
LINE
  8
0
  6
CONTINUOUS
 62
     1
 10
223.9
 20
124.95
 11
223.9
 21
119.65
  0
LINE
  8
0
  6
CONTINUOUS
 62
     1
 10
223.7
 20
119.45
 11
223.9
 21
119.65
  0
LINE
  8
0
  6
CONTINUOUS
 62
     1
 10
216.0
 20
219.5
 11
216.0
 21
216.25
  0
LINE
  8
0
  6
CONTINUOUS
 62
     1
 10
224.0
 20
219.5
 11
224.0
 21
216.25
  0
ARC
  8
0
  6
CONTINUOUS
 62
     1
 10
220.0
 20
213.5
 40
12.5
 50
73.739795292
 51
106.260204708
  0
LINE
  8
0
  6
CONTINUOUS
 62
     1
 10
216.5
 20
220.0
 11
223.5
 21
220.0
  0
ARC
  8
0
  6
CONTINUOUS
 62
     1
 10
216.5
 20
219.5
 40
0.5
 50
90.0
 51
180.0
  0
ARC
  8
0
  6
CONTINUOUS
 62
     1
 10
223.5
 20
219.5
 40
0.5
 50
0.0
 51
90.0
  0
LINE
  8
0
  6
CONTINUOUS
 62
     1
 10
213.0
 20
216.25
 11
228.0
 21
216.25
  0
LINE
  8
0
  6
CONTINUOUS
 62
     1
 10
213.0
 20
143.75
 11
228.0
 21
143.75
  0
LINE
  8
0
  6
CONTINUOUS
 62
     1
 10
213.0
 20
216.9
 11
213.0
 21
180.0
  0
LINE
  8
0
  6
CONTINUOUS
 62
     1
 10
205.0
 20
214.85
 11
205.0
 21
180.0
  0
LINE
  8
0
  6
CONTINUOUS
 62
     1
 10
212.6
 20
216.9
 11
213.0
 21
216.9
  0
LINE
  8
0
  6
CONTINUOUS
 62
     1
 10
206.5
 20
217.2
 11
207.4
 21
217.2
  0
LINE
  8
0
  6
CONTINUOUS
 62
     1
 10
206.5
 20
217.2
 11
206.5
 21
180.0
  0
ARC
  8
0
  6
CONTINUOUS
 62
     1
 10
206.5
 20
216.7
 40
0.5
 50
90.0
 51
156.851480366
  0
LINE
  8
0
  6
CONTINUOUS
 62
     1
 10
205.0
 20
214.85
 11
206.040255537
 21
216.896557953
  0
LINE
  8
0
  6
CONTINUOUS
 62
     1
 10
205.0
 20
145.15
 11
205.0
 21
180.0
  0
LINE
  8
0
  6
CONTINUOUS
 62
     1
 10
206.5
 20
142.8
 11
206.5
 21
180.0
  0
LINE
  8
0
  6
CONTINUOUS
 62
     1
 10
213.0
 20
143.1
 11
213.0
 21
180.0
  0
LINE
  8
0
  6
CONTINUOUS
 62
     1
 10
206.5
 20
142.8
 11
207.4
 21
142.8
  0
ARC
  8
0
  6
CONTINUOUS
 62
     1
 10
206.5
 20
143.3
 40
0.5
 50
203.148519634
 51
270.0
  0
LINE
  8
0
  6
CONTINUOUS
 62
     1
 10
205.0
 20
145.15
 11
206.040255537
 21
143.103442047
  0
LINE
  8
0
  6
CONTINUOUS
 62
     1
 10
212.6
 20
143.1
 11
213.0
 21
143.1
  0
ARC
  8
0
  6
CONTINUOUS
 62
     1
 10
446.6545
 20
180.0
 40
244.1545
 50
171.793716005
 51
188.206283995
  0
LINE
  8
0
  6
CONTINUOUS
 62
     1
 10
207.4
 20
180.0
 11
212.6
 21
180.0
  0
LINE
  8
0
  6
CONTINUOUS
 62
     1
 10
207.4
 20
181.3
 11
212.6
 21
181.3
  0
LINE
  8
0
  6
CONTINUOUS
 62
     1
 10
207.4
 20
178.7
 11
212.6
 21
178.7
  0
LINE
  8
0
  6
CONTINUOUS
 62
     1
 10
207.4
 20
182.5
 11
212.6
 21
182.5
  0
LINE
  8
0
  6
CONTINUOUS
 62
     1
 10
207.4
 20
177.5
 11
212.6
 21
177.5
  0
LINE
  8
0
  6
CONTINUOUS
 62
     1
 10
223.5
 20
220.5
 11
216.5
 21
220.5
  0
LINE
  8
0
  6
CONTINUOUS
 62
     1
 10
223.5
 20
225.5
 11
216.5
 21
225.5
  0
LINE
  8
0
  6
CONTINUOUS
 62
     1
 10
223.5
 20
225.5
 11
223.5
 21
220.5
  0
LINE
  8
0
  6
CONTINUOUS
 62
     1
 10
223.5
 20
225.488925882
 11
223.493606355
 21
225.5
  0
LINE
  8
0
  6
CONTINUOUS
 62
     1
 10
216.5
 20
225.5
 11
216.5
 21
220.5
  0
LINE
  8
0
  6
CONTINUOUS
 62
     1
 10
223.5
 20
220.5
 11
223.0
 21
220.0
  0
LINE
  8
0
  6
CONTINUOUS
 62
     1
 10
217.0
 20
220.0
 11
216.5
 21
220.5
  0
LINE
  8
0
  6
CONTINUOUS
 62
     1
 10
217.196699141
 20
225.5
 11
216.5
 21
224.803300859
  0
LINE
  8
0
  6
CONTINUOUS
 62
     1
 10
216.5
 20
223.035533906
 11
218.964466094
 21
225.5
  0
LINE
  8
0
  6
CONTINUOUS
 62
     1
 10
220.732233047
 20
225.5
 11
216.5
 21
221.267766953
  0
LINE
  8
0
  6
CONTINUOUS
 62
     1
 10
217.5
 20
220.5
 11
222.5
 21
225.5
  0
LINE
  8
0
  6
CONTINUOUS
 62
     1
 10
223.5
 20
224.732233047
 11
219.267766953
 21
220.5
  0
LINE
  8
0
  6
CONTINUOUS
 62
     1
 10
221.035533906
 20
220.5
 11
223.5
 21
222.964466094
  0
LINE
  8
0
  6
CONTINUOUS
 62
     1
 10
223.5
 20
221.196699141
 11
222.803300859
 21
220.5
  0
LINE
  8
0
  6
CONTINUOUS
 62
     1
 10
216.5
 20
221.196699141
 11
217.196699141
 21
220.5
  0
LINE
  8
0
  6
CONTINUOUS
 62
     1
 10
218.964466094
 20
220.5
 11
216.5
 21
222.964466094
  0
LINE
  8
0
  6
CONTINUOUS
 62
     1
 10
216.5
 20
224.732233047
 11
220.732233047
 21
220.5
  0
LINE
  8
0
  6
CONTINUOUS
 62
     1
 10
222.5
 20
220.5
 11
217.5
 21
225.5
  0
LINE
  8
0
  6
CONTINUOUS
 62
     1
 10
219.267766953
 20
225.5
 11
223.5
 21
221.267766953
  0
LINE
  8
0
  6
CONTINUOUS
 62
     1
 10
223.5
 20
223.035533906
 11
221.035533906
 21
225.5
  0
LINE
  8
0
  6
CONTINUOUS
 62
     1
 10
222.803300859
 20
225.5
 11
223.5
 21
224.803300859
  0
LINE
  8
0
  6
CONTINUOUS
 62
     1
 10
222.5
 20
86.5
 11
222.5
 21
84.0
  0
LINE
  8
0
  6
CONTINUOUS
 62
     1
 10
222.237822174
 20
84.0
 11
221.3
 21
80.5
  0
ARC
  8
0
  6
CONTINUOUS
 62
     1
 10
220.0
 20
80.65
 40
1.15
 50
187.494717454
 51
352.505282546
  0
LINE
  8
0
  6
CONTINUOUS
 62
     1
 10
222.25
 20
87.0
 11
222.25
 21
86.5
  0
LINE
  8
0
  6
CONTINUOUS
 62
     1
 10
217.5
 20
87.0
 11
222.5
 21
87.0
  0
LINE
  8
0
  6
CONTINUOUS
 62
     1
 10
217.5
 20
86.5
 11
217.5
 21
84.0
  0
LINE
  8
0
  6
CONTINUOUS
 62
     1
 10
217.762177826
 20
84.0
 11
218.7
 21
80.5
  0
LINE
  8
0
  6
CONTINUOUS
 62
     1
 10
217.75
 20
87.0
 11
217.75
 21
86.5
  0
LINE
  8
0
  6
CONTINUOUS
 62
     1
 10
217.5
 20
86.5
 11
222.5
 21
86.5
  0
LINE
  8
0
  6
CONTINUOUS
 62
     1
 10
218.7
 20
80.5
 11
221.3
 21
80.5
  0
LINE
  8
0
  6
CONTINUOUS
 62
     1
 10
217.5
 20
84.0
 11
222.5
 21
84.0
  0
LINE
  8
0
  6
CONTINUOUS
 62
     1
 10
217.714466094
 20
86.5
 11
217.5
 21
86.285533906
  0
LINE
  8
0
  6
CONTINUOUS
 62
     1
 10
217.5
 20
84.517766953
 11
219.482233047
 21
86.5
  0
LINE
  8
0
  6
CONTINUOUS
 62
     1
 10
221.25
 20
86.5
 11
218.75
 21
84.0
  0
LINE
  8
0
  6
CONTINUOUS
 62
     1
 10
220.517766953
 20
84.0
 11
222.5
 21
85.982233047
  0
LINE
  8
0
  6
CONTINUOUS
 62
     1
 10
222.5
 20
84.214466094
 11
222.285533906
 21
84.0
  0
LINE
  8
0
  6
CONTINUOUS
 62
     1
 10
217.5
 20
84.214466094
 11
217.714466094
 21
84.0
  0
LINE
  8
0
  6
CONTINUOUS
 62
     1
 10
219.482233047
 20
84.0
 11
217.5
 21
85.982233047
  0
LINE
  8
0
  6
CONTINUOUS
 62
     1
 10
218.75
 20
86.5
 11
221.25
 21
84.0
  0
LINE
  8
0
  6
CONTINUOUS
 62
     1
 10
222.5
 20
84.517766953
 11
220.517766953
 21
86.5
  0
LINE
  8
0
  6
CONTINUOUS
 62
     1
 10
222.285533906
 20
86.5
 11
222.5
 21
86.285533906
  0
LINE
  8
0
  6
CONTINUOUS
 62
     1
 10
228.0
 20
216.25
 11
228.0
 21
143.75
  0
LINE
  8
0
  6
CONTINUOUS
 62
     1
 10
228.0
 20
214.5
 11
229.5
 21
214.5
  0
LINE
  8
0
  6
CONTINUOUS
 62
     1
 10
228.0
 20
145.5
 11
229.5
 21
145.5
  0
LINE
  8
0
  6
CONTINUOUS
 62
     1
 10
229.5
 20
145.5
 11
229.5
 21
214.5
  0
LINE
  8
0
  6
CONTINUOUS
 62
     1
 10
231.13781664
 20
214.5
 11
229.5
 21
214.5
  0
LINE
  8
0
  6
CONTINUOUS
 62
     1
 10
231.13781664
 20
214.5
 11
231.13781664
 21
145.5
  0
LINE
  8
0
  6
CONTINUOUS
 62
     1
 10
231.13781664
 20
145.5
 11
229.5
 21
145.5
  0
ARC
  8
0
  6
CONTINUOUS
 62
     1
 10
-87.515625
 20
180.0
 40
320.515625
 50
353.820764576
 51
6.179235424
  0
LINE
  8
0
  6
CONTINUOUS
 62
     1
 10
207.7
 20
217.75
 11
212.2
 21
217.75
  0
LINE
  8
0
  6
CONTINUOUS
 62
     1
 10
212.6
 20
217.35
 11
212.2
 21
217.75
  0
LINE
  8
0
  6
CONTINUOUS
 62
     1
 10
207.4
 20
217.25
 11
207.7
 21
217.75
  0
LINE
  8
0
  6
CONTINUOUS
 62
     1
 10
207.4
 20
216.85
 11
212.6
 21
216.85
  0
LINE
  8
0
  6
CONTINUOUS
 62
     1
 10
207.4
 20
215.85
 11
212.6
 21
215.85
  0
LINE
  8
0
  6
CONTINUOUS
 62
     1
 10
207.4
 20
214.75
 11
212.6
 21
214.75
  0
LINE
  8
0
  6
CONTINUOUS
 62
     1
 10
207.4
 20
213.55
 11
212.6
 21
213.55
  0
LINE
  8
0
  6
CONTINUOUS
 62
     1
 10
207.4
 20
212.25
 11
212.6
 21
212.25
  0
LINE
  8
0
  6
CONTINUOUS
 62
     1
 10
212.6
 20
217.35
 11
212.6
 21
180.0
  0
LINE
  8
0
  6
CONTINUOUS
 62
     1
 10
207.4
 20
217.25
 11
207.4
 21
180.0
  0
LINE
  8
0
  6
CONTINUOUS
 62
     1
 10
207.7
 20
142.25
 11
212.2
 21
142.25
  0
LINE
  8
0
  6
CONTINUOUS
 62
     1
 10
207.4
 20
142.75
 11
207.7
 21
142.25
  0
LINE
  8
0
  6
CONTINUOUS
 62
     1
 10
212.6
 20
142.65
 11
212.2
 21
142.25
  0
LINE
  8
0
  6
CONTINUOUS
 62
     1
 10
207.4
 20
143.15
 11
212.6
 21
143.15
  0
LINE
  8
0
  6
CONTINUOUS
 62
     1
 10
207.4
 20
144.15
 11
212.6
 21
144.15
  0
LINE
  8
0
  6
CONTINUOUS
 62
     1
 10
207.4
 20
145.25
 11
212.6
 21
145.25
  0
LINE
  8
0
  6
CONTINUOUS
 62
     1
 10
207.4
 20
146.45
 11
212.6
 21
146.45
  0
LINE
  8
0
  6
CONTINUOUS
 62
     1
 10
207.4
 20
147.75
 11
212.6
 21
147.75
  0
LINE
  8
0
  6
CONTINUOUS
 62
     1
 10
212.6
 20
142.65
 11
212.6
 21
180.0
  0
LINE
  8
0
  6
CONTINUOUS
 62
     1
 10
207.4
 20
142.75
 11
207.4
 21
180.0
  0
LINE
  8
0
  6
LTYPE1
 62
     2
 10
197.5
 20
180.0
 11
257.0
 21
180.0
  0
LINE
  8
5
  6
CONTINUOUS
 62
     2
 10
249.656854249
 20
174.343145751
 11
250.906854249
 21
172.178082241
  0
LINE
  8
5
  6
CONTINUOUS
 62
     2
 10
249.656854249
 20
174.343145751
 11
251.821917759
 21
173.093145751
  0
LINE
  8
5
  6
CONTINUOUS
 62
     2
 10
244.0
 20
180.0
 11
259.020458146
 21
164.979541854
  0
TEXT
  8
5
  6
CONTINUOUS
 62
     5
 10
254.707106781
 20
170.707106781
 30
0.1
 40
4.0
  1
Ｒ８
 50
315.0
 41
0.875
 51
0.0
  7
KANJI0
  0
LINE
  8
5
  6
CONTINUOUS
 62
     2
 10
229.0
 20
216.25
 11
273.0
 21
216.25
  0
LINE
  8
5
  6
CONTINUOUS
 62
     2
 10
272.0
 20
216.25
 11
271.352952387
 21
213.835185434
  0
LINE
  8
5
  6
CONTINUOUS
 62
     2
 10
272.0
 20
216.25
 11
272.647047613
 21
213.835185434
  0
LINE
  8
5
  6
CONTINUOUS
 62
     2
 10
272.0
 20
216.25
 11
272.0
 21
143.75
  0
LINE
  8
5
  6
CONTINUOUS
 62
     2
 10
272.0
 20
143.75
 11
272.647047613
 21
146.164814566
  0
LINE
  8
5
  6
CONTINUOUS
 62
     2
 10
272.0
 20
143.75
 11
271.352952387
 21
146.164814566
  0
LINE
  8
5
  6
CONTINUOUS
 62
     2
 10
229.0
 20
143.75
 11
273.0
 21
143.75
  0
TEXT
  8
5
  6
CONTINUOUS
 62
     5
 10
271.0
 20
171.05
 30
0.1
 40
4.0
  1
φ７２．５
 50
90.0
 41
0.875
 51
0.0
  7
KANJI0
  0
LINE
  8
0
  6
LTYPE1
 62
     2
 10
220.0
 20
231.0
 11
220.0
 21
74.5
  0
LINE
  8
5
  6
CONTINUOUS
 62
     2
 10
220.0
 20
231.0
 11
220.0
 21
237.0
  0
LINE
  8
5
  6
CONTINUOUS
 62
     2
 10
220.0
 20
236.0
 11
222.414814566
 21
235.352952387
  0
LINE
  8
5
  6
CONTINUOUS
 62
     2
 10
220.0
 20
236.0
 11
222.414814566
 21
236.647047613
  0
LINE
  8
5
  6
CONTINUOUS
 62
     2
 10
220.0
 20
236.0
 11
228.0
 21
236.0
  0
LINE
  8
5
  6
CONTINUOUS
 62
     2
 10
228.0
 20
236.0
 11
225.585185434
 21
236.647047613
  0
LINE
  8
5
  6
CONTINUOUS
 62
     2
 10
228.0
 20
236.0
 11
225.585185434
 21
235.352952387
  0
LINE
  8
5
  6
CONTINUOUS
 62
     2
 10
228.0
 20
217.25
 11
228.0
 21
237.0
  0
TEXT
  8
5
  6
CONTINUOUS
 62
     5
 10
222.25
 20
237.0
 30
0.1
 40
4.0
  1
８
 50
0.0
 41
0.875
 51
0.0
  7
KANJI0
  0
LINE
  8
5
  6
CONTINUOUS
 62
     2
 10
202.5
 20
181.0
 11
202.5
 21
247.0
  0
LINE
  8
5
  6
CONTINUOUS
 62
     2
 10
202.5
 20
246.0
 11
204.914814566
 21
245.352952387
  0
LINE
  8
5
  6
CONTINUOUS
 62
     2
 10
202.5
 20
246.0
 11
204.914814566
 21
246.647047613
  0
LINE
  8
5
  6
CONTINUOUS
 62
     2
 10
202.5
 20
246.0
 11
220.0
 21
246.0
  0
LINE
  8
5
  6
CONTINUOUS
 62
     2
 10
220.0
 20
246.0
 11
217.585185434
 21
246.647047613
  0
LINE
  8
5
  6
CONTINUOUS
 62
     2
 10
220.0
 20
246.0
 11
217.585185434
 21
245.352952387
  0
LINE
  8
5
  6
CONTINUOUS
 62
     2
 10
220.0
 20
237.0
 11
220.0
 21
247.0
  0
TEXT
  8
5
  6
CONTINUOUS
 62
     5
 10
204.1
 20
247.0
 30
0.1
 40
4.0
  1
１７．５
 50
0.0
 41
0.875
 51
0.0
  7
KANJI0
  0
LINE
  8
5
  6
CONTINUOUS
 62
     2
 10
220.0
 20
246.0
 11
222.414814566
 21
245.352952387
  0
LINE
  8
5
  6
CONTINUOUS
 62
     2
 10
220.0
 20
246.0
 11
222.414814566
 21
246.647047613
  0
LINE
  8
5
  6
CONTINUOUS
 62
     2
 10
220.0
 20
246.0
 11
244.0
 21
246.0
  0
LINE
  8
5
  6
CONTINUOUS
 62
     2
 10
244.0
 20
246.0
 11
241.585185434
 21
246.647047613
  0
LINE
  8
5
  6
CONTINUOUS
 62
     2
 10
244.0
 20
246.0
 11
241.585185434
 21
245.352952387
  0
LINE
  8
5
  6
CONTINUOUS
 62
     2
 10
244.0
 20
185.0
 11
244.0
 21
247.0
  0
TEXT
  8
5
  6
CONTINUOUS
 62
     5
 10
228.45
 20
247.0
 30
0.1
 40
4.0
  1
２４
 50
0.0
 41
0.875
 51
0.0
  7
KANJI0
  0
CIRCLE
  8
0
  6
CONTINUOUS
 62
     1
 10
244.0
 20
180.0
 40
3.25
  0
ARC
  8
0
  6
CONTINUOUS
 62
     1
 10
244.0
 20
180.0
 40
8.0
 50
270.0
 51
90.0
  0
LINE
  8
0
  6
LTYPE1
 62
     2
 10
244.0
 20
185.0
 11
244.0
 21
175.0
  0
ARC
  8
0
  6
CONTINUOUS
 62
     1
 10
232.5
 20
192.792893219
 40
0.5
 50
0.0
 51
45.0
  0
LINE
  8
0
  6
CONTINUOUS
 62
     1
 10
233.0
 20
192.792893219
 11
233.0
 21
167.707106781
  0
ARC
  8
0
  6
CONTINUOUS
 62
     1
 10
237.0
 20
192.652858552
 40
4.0
 50
180.0
 51
264.805571092
  0
LINE
  8
0
  6
CONTINUOUS
 62
     1
 10
236.637857016
 20
188.669285726
 11
244.0
 21
188.0
  0
LINE
  8
0
  6
CONTINUOUS
 62
     1
 10
232.853553391
 20
193.146446609
 11
232.724971241
 21
193.275028759
  0
ARC
  8
0
  6
CONTINUOUS
 62
     1
 10
232.5
 20
167.207106781
 40
0.5
 50
315.0
 51
0.0
  0
ARC
  8
0
  6
CONTINUOUS
 62
     1
 10
237.0
 20
167.347141448
 40
4.0
 50
95.194428908
 51
180.0
  0
LINE
  8
0
  6
CONTINUOUS
 62
     1
 10
236.637857016
 20
171.330714274
 11
244.0
 21
172.0
  0
LINE
  8
0
  6
CONTINUOUS
 62
     1
 10
232.853553391
 20
166.853553391
 11
232.724971241
 21
166.724971241
  0
LINE
  8
5
  6
CONTINUOUS
 62
     2
 10
233.0
 20
193.792893219
 11
233.0
 21
201.0
  0
LINE
  8
5
  6
CONTINUOUS
 62
     2
 10
233.0
 20
200.0
 11
235.414814566
 21
199.352952387
  0
LINE
  8
5
  6
CONTINUOUS
 62
     2
 10
233.0
 20
200.0
 11
235.414814566
 21
200.647047613
  0
LINE
  8
5
  6
CONTINUOUS
 62
     2
 10
233.0
 20
200.0
 11
244.0
 21
200.0
  0
LINE
  8
5
  6
CONTINUOUS
 62
     2
 10
244.0
 20
200.0
 11
241.585185434
 21
200.647047613
  0
LINE
  8
5
  6
CONTINUOUS
 62
     2
 10
244.0
 20
200.0
 11
241.585185434
 21
199.352952387
  0
TEXT
  8
5
  6
CONTINUOUS
 62
     5
 10
234.95
 20
201.0
 30
0.1
 40
4.0
  1
１１
 50
0.0
 41
0.875
 51
0.0
  7
KANJI0
  0
LINE
  8
5
  6
CONTINUOUS
 62
     2
 10
244.705023988
 20
183.172607946
 11
245.860510324
 21
185.389554343
  0
LINE
  8
5
  6
CONTINUOUS
 62
     2
 10
244.705023988
 20
183.172607946
 11
244.59723131
 21
185.670283012
  0
LINE
  8
5
  6
CONTINUOUS
 62
     2
 10
244.705023988
 20
183.172607946
 11
254.0
 21
225.0
  0
LINE
  8
5
  6
CONTINUOUS
 62
     2
 10
254.0
 20
225.0
 11
279.1
 21
225.0
  0
TEXT
  8
5
  6
CONTINUOUS
 62
     5
 10
254.0
 20
226.0
 30
0.1
 40
4.0
  1
φ６．５取付穴
 50
0.0
 41
0.875
 51
0.0
  7
KANJI0
  0
LINE
  8
5
  6
CONTINUOUS
 62
     2
 10
216.0
 20
129.95
 11
218.414814566
 21
129.302952387
  0
LINE
  8
5
  6
CONTINUOUS
 62
     2
 10
216.0
 20
129.95
 11
218.414814566
 21
130.597047613
  0
LINE
  8
5
  6
CONTINUOUS
 62
     2
 10
216.0
 20
129.95
 11
240.74
 21
129.95
  0
LINE
  8
5
  6
CONTINUOUS
 62
     2
 10
224.0
 20
129.95
 11
221.585185434
 21
130.597047613
  0
LINE
  8
5
  6
CONTINUOUS
 62
     2
 10
224.0
 20
129.95
 11
221.585185434
 21
129.302952387
  0
TEXT
  8
5
  6
CONTINUOUS
 62
     5
 10
226.5
 20
130.95
 30
0.1
 40
4.0
  1
８
 50
0.0
 41
0.875
 51
0.0
  7
KANJI0
  0
TEXT
  8
5
  6
CONTINUOUS
 62
     5
 10
230.1
 20
130.95
 30
0.06
 40
2.4
  1
－０．０３
 50
0.0
 41
0.875
 51
0.0
  7
KANJI1
  0
TEXT
  8
5
  6
CONTINUOUS
 62
     5
 10
230.1
 20
133.35
 30
0.06
 40
2.4
  1
　０
 50
0.0
 41
0.875
 51
0.0
  7
KANJI1
  0
CIRCLE
  8
0
  6
CONTINUOUS
 62
     1
 10
100.0
 20
180.0
 40
34.0
  0
CIRCLE
  8
0
  6
CONTINUOUS
 62
     1
 10
100.0
 20
180.0
 40
37.75
  0
LINE
  8
0
  6
CONTINUOUS
 62
     1
 10
104.0
 20
142.462518731
 11
104.0
 21
124.95
  0
LINE
  8
0
  6
CONTINUOUS
 62
     1
 10
96.0
 20
142.462518731
 11
96.0
 21
124.95
  0
LINE
  8
0
  6
CONTINUOUS
 62
     1
 10
96.3
 20
119.45
 11
103.7
 21
119.45
  0
LINE
  8
0
  6
CONTINUOUS
 62
     1
 10
96.0
 20
124.95
 11
104.0
 21
124.95
  0
LINE
  8
0
  6
CONTINUOUS
 62
     1
 10
103.9
 20
124.95
 11
103.9
 21
119.65
  0
LINE
  8
0
  6
CONTINUOUS
 62
     1
 10
96.1
 20
124.95
 11
96.1
 21
119.65
  0
LINE
  8
0
  6
CONTINUOUS
 62
     1
 10
96.1
 20
119.65
 11
96.3
 21
119.45
  0
LINE
  8
0
  6
CONTINUOUS
 62
     1
 10
103.7
 20
119.45
 11
103.9
 21
119.65
  0
LINE
  8
0
  6
CONTINUOUS
 62
     1
 10
96.1
 20
119.65
 11
103.9
 21
119.65
  0
LINE
  8
0
  6
CONTINUOUS
 62
     1
 10
96.5
 20
220.0
 11
103.5
 21
220.0
  0
ARC
  8
0
  6
CONTINUOUS
 62
     1
 10
96.5
 20
219.5
 40
0.5
 50
90.0
 51
180.0
  0
LINE
  8
0
  6
CONTINUOUS
 62
     1
 10
96.0
 20
219.5
 11
96.0
 21
217.537481269
  0
ARC
  8
0
  6
CONTINUOUS
 62
     1
 10
103.5
 20
219.5
 40
0.5
 50
0.0
 51
90.0
  0
LINE
  8
0
  6
CONTINUOUS
 62
     1
 10
104.0
 20
219.5
 11
104.0
 21
217.537481269
  0
CIRCLE
  8
0
  6
CONTINUOUS
 62
     1
 10
100.0
 20
180.0
 40
20.0
  0
LINE
  8
0
  6
CONTINUOUS
 62
     1
 10
100.0
 20
214.0
 11
100.0
 21
208.5
  0
LINE
  8
0
  6
CONTINUOUS
 62
     1
 10
102.134877664
 20
213.932908767
 11
101.915110846
 21
210.439815217
  0
LINE
  8
0
  6
CONTINUOUS
 62
     1
 10
104.261329941
 20
213.731899845
 11
103.822663624
 21
210.25949839
  0
LINE
  8
0
  6
CONTINUOUS
 62
     1
 10
106.370964696
 20
213.397766525
 11
105.715130095
 21
209.959761147
  0
LINE
  8
0
  6
CONTINUOUS
 62
     1
 10
108.455456164
 20
212.931827478
 11
107.585041559
 21
209.541786414
  0
LINE
  8
0
  6
CONTINUOUS
 62
     1
 10
110.506577809
 20
212.335921554
 11
109.116001334
 21
208.056167231
  0
LINE
  8
0
  6
CONTINUOUS
 62
     1
 10
112.516234791
 20
211.61240052
 11
111.227798857
 21
208.35818282
  0
LINE
  8
0
  6
CONTINUOUS
 62
     1
 10
114.476495913
 20
210.764119784
 11
112.986268393
 21
207.5972251
  0
LINE
  8
0
  6
CONTINUOUS
 62
     1
 10
116.379624919
 20
209.794427121
 11
114.69348706
 21
206.727353741
  0
LINE
  8
0
  6
CONTINUOUS
 62
     1
 10
118.218111029
 20
208.707149467
 11
116.342717247
 21
205.752001728
  0
LINE
  8
0
  6
CONTINUOUS
 62
     1
 10
85.523504087
 20
210.764119784
 11
87.013731607
 21
207.5972251
  0
LINE
  8
0
  6
CONTINUOUS
 62
     1
 10
83.620375081
 20
209.794427121
 11
85.30651294
 21
206.727353741
  0
LINE
  8
0
  6
CONTINUOUS
 62
     1
 10
81.781888971
 20
208.707149467
 11
83.657282753
 21
205.752001728
  0
LINE
  8
0
  6
CONTINUOUS
 62
     1
 10
80.015301422
 20
207.506577809
 11
83.24812031
 21
203.05698434
  0
LINE
  8
0
  6
CONTINUOUS
 62
     1
 10
89.493422191
 20
212.335921554
 11
90.883998666
 21
208.056167231
  0
LINE
  8
0
  6
CONTINUOUS
 62
     1
 10
87.483765209
 20
211.61240052
 11
88.772201143
 21
208.35818282
  0
LINE
  8
0
  6
CONTINUOUS
 62
     1
 10
95.738670059
 20
213.731899845
 11
96.177336376
 21
210.25949839
  0
LINE
  8
0
  6
CONTINUOUS
 62
     1
 10
91.544543836
 20
212.931827478
 11
92.414958441
 21
209.541786414
  0
LINE
  8
0
  6
CONTINUOUS
 62
     1
 10
93.629035304
 20
213.397766525
 11
94.284869905
 21
209.959761147
  0
LINE
  8
0
  6
CONTINUOUS
 62
     1
 10
97.865122336
 20
213.932908767
 11
98.084889154
 21
210.439815217
  0
LINE
  8
0
  6
CONTINUOUS
 62
     1
 10
70.205572879
 20
196.379624919
 11
73.272646259
 21
194.69348706
  0
LINE
  8
0
  6
CONTINUOUS
 62
     1
 10
69.235880216
 20
194.476495913
 11
72.4027749
 21
192.986268393
  0
LINE
  8
0
  6
CONTINUOUS
 62
     1
 10
68.38759948
 20
192.516234791
 11
71.64181718
 21
191.227798857
  0
LINE
  8
0
  6
CONTINUOUS
 62
     1
 10
67.664078446
 20
190.506577809
 11
72.894889286
 21
188.80698434
  0
LINE
  8
0
  6
CONTINUOUS
 62
     1
 10
72.493422191
 20
199.984698578
 11
76.133998666
 21
197.339664943
  0
LINE
  8
0
  6
CONTINUOUS
 62
     1
 10
71.292850533
 20
198.218111029
 11
74.247998272
 21
196.342717247
  0
LINE
  8
0
  6
CONTINUOUS
 62
     1
 10
76.725398398
 20
204.784933332
 11
79.121313269
 21
202.233543136
  0
LINE
  8
0
  6
CONTINUOUS
 62
     1
 10
73.802549746
 20
201.672415651
 11
76.499346095
 21
199.441431687
  0
LINE
  8
0
  6
CONTINUOUS
 62
     1
 10
75.215066668
 20
203.274601602
 11
77.766456864
 21
200.878686731
  0
LINE
  8
0
  6
CONTINUOUS
 62
     1
 10
78.327584349
 20
206.197450254
 11
80.558568313
 21
203.500653905
  0
LINE
  8
0
  6
CONTINUOUS
 62
     1
 10
66.268100155
 20
175.738670059
 11
69.74050161
 21
176.177336376
  0
LINE
  8
0
  6
CONTINUOUS
 62
     1
 10
66.602233475
 20
173.629035304
 11
70.040238853
 21
174.284869905
  0
LINE
  8
0
  6
CONTINUOUS
 62
     1
 10
67.068172522
 20
171.544543836
 11
70.458213586
 21
172.414958441
  0
LINE
  8
0
  6
CONTINUOUS
 62
     1
 10
67.664078446
 20
169.493422191
 11
72.894889286
 21
171.19301566
  0
LINE
  8
0
  6
CONTINUOUS
 62
     1
 10
66.0
 20
180.0
 11
70.5
 21
180.0
  0
LINE
  8
0
  6
CONTINUOUS
 62
     1
 10
66.067091233
 20
177.865122336
 11
69.560184783
 21
178.084889154
  0
LINE
  8
0
  6
CONTINUOUS
 62
     1
 10
66.602233475
 20
186.370964696
 11
70.040238853
 21
185.715130095
  0
LINE
  8
0
  6
CONTINUOUS
 62
     1
 10
66.067091233
 20
182.134877664
 11
69.560184783
 21
181.915110846
  0
LINE
  8
0
  6
CONTINUOUS
 62
     1
 10
66.268100155
 20
184.261329941
 11
69.74050161
 21
183.822663624
  0
LINE
  8
0
  6
CONTINUOUS
 62
     1
 10
67.068172522
 20
188.455456164
 11
70.458213586
 21
187.585041559
  0
LINE
  8
0
  6
CONTINUOUS
 62
     1
 10
75.215066668
 20
156.725398398
 11
77.766456864
 21
159.121313269
  0
LINE
  8
0
  6
CONTINUOUS
 62
     1
 10
76.725398398
 20
155.215066668
 11
79.121313269
 21
157.766456864
  0
LINE
  8
0
  6
CONTINUOUS
 62
     1
 10
78.327584349
 20
153.802549746
 11
80.558568313
 21
156.499346095
  0
LINE
  8
0
  6
CONTINUOUS
 62
     1
 10
80.015301422
 20
152.493422191
 11
83.24812031
 21
156.94301566
  0
LINE
  8
0
  6
CONTINUOUS
 62
     1
 10
72.493422191
 20
160.015301422
 11
76.133998666
 21
162.660335057
  0
LINE
  8
0
  6
CONTINUOUS
 62
     1
 10
73.802549746
 20
158.327584349
 11
76.499346095
 21
160.558568313
  0
LINE
  8
0
  6
CONTINUOUS
 62
     1
 10
69.235880216
 20
165.523504087
 11
72.4027749
 21
167.013731607
  0
LINE
  8
0
  6
CONTINUOUS
 62
     1
 10
71.292850533
 20
161.781888971
 11
74.247998272
 21
163.657282753
  0
LINE
  8
0
  6
CONTINUOUS
 62
     1
 10
70.205572879
 20
163.620375081
 11
73.272646259
 21
165.30651294
  0
LINE
  8
0
  6
CONTINUOUS
 62
     1
 10
68.38759948
 20
167.483765209
 11
71.64181718
 21
168.772201143
  0
LINE
  8
0
  6
CONTINUOUS
 62
     1
 10
93.629035304
 20
146.602233475
 11
94.284869905
 21
150.040238853
  0
LINE
  8
0
  6
CONTINUOUS
 62
     1
 10
95.738670059
 20
146.268100155
 11
96.177336376
 21
149.74050161
  0
LINE
  8
0
  6
CONTINUOUS
 62
     1
 10
97.865122336
 20
146.067091233
 11
98.084889154
 21
149.560184783
  0
LINE
  8
0
  6
CONTINUOUS
 62
     1
 10
100.0
 20
146.0
 11
100.0
 21
151.5
  0
LINE
  8
0
  6
CONTINUOUS
 62
     1
 10
89.493422191
 20
147.664078446
 11
90.883998666
 21
151.943832769
  0
LINE
  8
0
  6
CONTINUOUS
 62
     1
 10
91.544543836
 20
147.068172522
 11
92.414958441
 21
150.458213586
  0
LINE
  8
0
  6
CONTINUOUS
 62
     1
 10
83.620375081
 20
150.205572879
 11
85.30651294
 21
153.272646259
  0
LINE
  8
0
  6
CONTINUOUS
 62
     1
 10
87.483765209
 20
148.38759948
 11
88.772201143
 21
151.64181718
  0
LINE
  8
0
  6
CONTINUOUS
 62
     1
 10
85.523504087
 20
149.235880216
 11
87.013731607
 21
152.4027749
  0
LINE
  8
0
  6
CONTINUOUS
 62
     1
 10
81.781888971
 20
151.292850533
 11
83.657282753
 21
154.247998272
  0
LINE
  8
0
  6
CONTINUOUS
 62
     1
 10
114.476495913
 20
149.235880216
 11
112.986268393
 21
152.4027749
  0
LINE
  8
0
  6
CONTINUOUS
 62
     1
 10
116.379624919
 20
150.205572879
 11
114.69348706
 21
153.272646259
  0
LINE
  8
0
  6
CONTINUOUS
 62
     1
 10
118.218111029
 20
151.292850533
 11
116.342717247
 21
154.247998272
  0
LINE
  8
0
  6
CONTINUOUS
 62
     1
 10
119.984698578
 20
152.493422191
 11
116.75187969
 21
156.94301566
  0
LINE
  8
0
  6
CONTINUOUS
 62
     1
 10
110.506577809
 20
147.664078446
 11
109.116001334
 21
151.943832769
  0
LINE
  8
0
  6
CONTINUOUS
 62
     1
 10
112.516234791
 20
148.38759948
 11
111.227798857
 21
151.64181718
  0
LINE
  8
0
  6
CONTINUOUS
 62
     1
 10
104.261329941
 20
146.268100155
 11
103.822663624
 21
149.74050161
  0
LINE
  8
0
  6
CONTINUOUS
 62
     1
 10
108.455456164
 20
147.068172522
 11
107.585041559
 21
150.458213586
  0
LINE
  8
0
  6
CONTINUOUS
 62
     1
 10
106.370964696
 20
146.602233475
 11
105.715130095
 21
150.040238853
  0
LINE
  8
0
  6
CONTINUOUS
 62
     1
 10
102.134877664
 20
146.067091233
 11
101.915110846
 21
149.560184783
  0
LINE
  8
0
  6
CONTINUOUS
 62
     1
 10
129.794427121
 20
163.620375081
 11
126.727353741
 21
165.30651294
  0
LINE
  8
0
  6
CONTINUOUS
 62
     1
 10
130.764119784
 20
165.523504087
 11
127.5972251
 21
167.013731607
  0
LINE
  8
0
  6
CONTINUOUS
 62
     1
 10
131.61240052
 20
167.483765209
 11
128.35818282
 21
168.772201143
  0
LINE
  8
0
  6
CONTINUOUS
 62
     1
 10
132.335921554
 20
169.493422191
 11
127.105110714
 21
171.19301566
  0
LINE
  8
0
  6
CONTINUOUS
 62
     1
 10
127.506577809
 20
160.015301422
 11
123.866001334
 21
162.660335057
  0
LINE
  8
0
  6
CONTINUOUS
 62
     1
 10
128.707149467
 20
161.781888971
 11
125.752001728
 21
163.657282753
  0
LINE
  8
0
  6
CONTINUOUS
 62
     1
 10
123.274601602
 20
155.215066668
 11
120.878686731
 21
157.766456864
  0
LINE
  8
0
  6
CONTINUOUS
 62
     1
 10
126.197450254
 20
158.327584349
 11
123.500653905
 21
160.558568313
  0
LINE
  8
0
  6
CONTINUOUS
 62
     1
 10
124.784933332
 20
156.725398398
 11
122.233543136
 21
159.121313269
  0
LINE
  8
0
  6
CONTINUOUS
 62
     1
 10
121.672415651
 20
153.802549746
 11
119.441431687
 21
156.499346095
  0
LINE
  8
0
  6
CONTINUOUS
 62
     1
 10
133.731899845
 20
184.261329941
 11
130.25949839
 21
183.822663624
  0
LINE
  8
0
  6
CONTINUOUS
 62
     1
 10
133.397766525
 20
186.370964696
 11
129.959761147
 21
185.715130095
  0
LINE
  8
0
  6
CONTINUOUS
 62
     1
 10
132.931827478
 20
188.455456164
 11
129.541786414
 21
187.585041559
  0
LINE
  8
0
  6
CONTINUOUS
 62
     1
 10
132.335921554
 20
190.506577809
 11
127.105110714
 21
188.80698434
  0
LINE
  8
0
  6
CONTINUOUS
 62
     1
 10
134.0
 20
180.0
 11
129.5
 21
180.0
  0
LINE
  8
0
  6
CONTINUOUS
 62
     1
 10
133.932908767
 20
182.134877664
 11
130.439815217
 21
181.915110846
  0
LINE
  8
0
  6
CONTINUOUS
 62
     1
 10
133.397766525
 20
173.629035304
 11
129.959761147
 21
174.284869905
  0
LINE
  8
0
  6
CONTINUOUS
 62
     1
 10
133.932908767
 20
177.865122336
 11
130.439815217
 21
178.084889154
  0
LINE
  8
0
  6
CONTINUOUS
 62
     1
 10
133.731899845
 20
175.738670059
 11
130.25949839
 21
176.177336376
  0
LINE
  8
0
  6
CONTINUOUS
 62
     1
 10
132.931827478
 20
171.544543836
 11
129.541786414
 21
172.414958441
  0
LINE
  8
0
  6
CONTINUOUS
 62
     1
 10
124.784933332
 20
203.274601602
 11
122.233543136
 21
200.878686731
  0
LINE
  8
0
  6
CONTINUOUS
 62
     1
 10
123.274601602
 20
204.784933332
 11
120.878686731
 21
202.233543136
  0
LINE
  8
0
  6
CONTINUOUS
 62
     1
 10
121.672415651
 20
206.197450254
 11
119.441431687
 21
203.500653905
  0
LINE
  8
0
  6
CONTINUOUS
 62
     1
 10
119.984698578
 20
207.506577809
 11
116.75187969
 21
203.05698434
  0
LINE
  8
0
  6
CONTINUOUS
 62
     1
 10
127.506577809
 20
199.984698578
 11
123.866001334
 21
197.339664943
  0
LINE
  8
0
  6
CONTINUOUS
 62
     1
 10
126.197450254
 20
201.672415651
 11
123.500653905
 21
199.441431687
  0
LINE
  8
0
  6
CONTINUOUS
 62
     1
 10
130.764119784
 20
194.476495913
 11
127.5972251
 21
192.986268393
  0
LINE
  8
0
  6
CONTINUOUS
 62
     1
 10
128.707149467
 20
198.218111029
 11
125.752001728
 21
196.342717247
  0
LINE
  8
0
  6
CONTINUOUS
 62
     1
 10
129.794427121
 20
196.379624919
 11
126.727353741
 21
194.69348706
  0
LINE
  8
0
  6
CONTINUOUS
 62
     1
 10
131.61240052
 20
192.516234791
 11
128.35818282
 21
191.227798857
  0
TEXT
  8
0
  6
CONTINUOUS
 62
     1
 10
98.120888791
 20
203.925509254
 30
0.0
 40
4.0
  1
０
 50
0.0
 41
1.0
 51
0.0
  7
KANJI2
  0
TEXT
  8
0
  6
CONTINUOUS
 62
     1
 10
99.030535236
 20
200.926012208
 30
0.0
 40
2.0
  1
０
 50
0.0
 41
1.0
 51
0.0
  7
KANJI3
  0
TEXT
  8
0
  6
CONTINUOUS
 62
     1
 10
111.566516366
 20
198.43650126
 30
0.0
 40
4.0
  1
１０
 50
0.0
 41
1.0
 51
0.0
  7
KANJI2
  0
TEXT
  8
0
  6
CONTINUOUS
 62
     1
 10
119.686547344
 20
185.892167999
 30
0.0
 40
4.0
  1
２０
 50
0.0
 41
1.0
 51
0.0
  7
KANJI2
  0
TEXT
  8
0
  6
CONTINUOUS
 62
     1
 10
119.31413078
 20
169.278652067
 30
0.0
 40
4.0
  1
３０
 50
0.0
 41
1.0
 51
0.0
  7
KANJI2
  0
TEXT
  8
0
  6
CONTINUOUS
 62
     1
 10
111.855317164
 20
158.146519706
 30
0.0
 40
4.0
  1
４０
 50
0.0
 41
1.0
 51
0.0
  7
KANJI2
  0
TEXT
  8
0
  6
CONTINUOUS
 62
     1
 10
96.253073779
 20
152.320960623
 30
0.0
 40
4.0
  1
５０
 50
0.0
 41
1.0
 51
0.0
  7
KANJI2
  0
TEXT
  8
0
  6
CONTINUOUS
 62
     1
 10
81.369655783
 20
157.536246623
 30
0.0
 40
4.0
  1
６０
 50
0.0
 41
1.0
 51
0.0
  7
KANJI2
  0
TEXT
  8
0
  6
CONTINUOUS
 62
     1
 10
73.09929467
 20
168.668377665
 30
0.0
 40
4.0
  1
７０
 50
0.0
 41
1.0
 51
0.0
  7
KANJI2
  0
TEXT
  8
0
  6
CONTINUOUS
 62
     1
 10
72.729776559
 20
186.092808589
 30
0.0
 40
4.0
  1
８０
 50
0.0
 41
1.0
 51
0.0
  7
KANJI2
  0
TEXT
  8
0
  6
CONTINUOUS
 62
     1
 10
82.572529609
 20
199.092019578
 30
0.0
 40
4.0
  1
９０
 50
0.0
 41
1.0
 51
0.0
  7
KANJI2
  0
TEXT
  8
0
  6
CONTINUOUS
 62
     1
 10
113.848131218
 20
194.962087559
 30
0.0
 40
2.0
  1
９０
 50
0.0
 41
1.0
 51
0.0
  7
KANJI3
  0
TEXT
  8
0
  6
CONTINUOUS
 62
     1
 10
120.274646037
 20
182.441224512
 30
0.0
 40
2.0
  1
８０
 50
0.0
 41
1.0
 51
0.0
  7
KANJI3
  0
TEXT
  8
0
  6
CONTINUOUS
 62
     1
 10
120.073133743
 20
174.372356918
 30
0.0
 40
2.0
  1
７０
 50
0.0
 41
1.0
 51
0.0
  7
KANJI3
  0
TEXT
  8
0
  6
CONTINUOUS
 62
     1
 10
113.802380395
 20
163.046575165
 30
0.0
 40
2.0
  1
６０
 50
0.0
 41
1.0
 51
0.0
  7
KANJI3
  0
TEXT
  8
0
  6
CONTINUOUS
 62
     1
 10
98.207132806
 20
157.064271825
 30
0.0
 40
2.0
  1
５０
 50
0.0
 41
1.0
 51
0.0
  7
KANJI3
  0
TEXT
  8
0
  6
CONTINUOUS
 62
     1
 10
82.821041571
 20
162.753286524
 30
0.0
 40
2.0
  1
４０
 50
0.0
 41
1.0
 51
0.0
  7
KANJI3
  0
TEXT
  8
0
  6
CONTINUOUS
 62
     1
 10
76.320916495
 20
173.822684772
 30
0.0
 40
2.0
  1
３０
 50
0.0
 41
1.0
 51
0.0
  7
KANJI3
  0
TEXT
  8
0
  6
CONTINUOUS
 62
     1
 10
76.027400745
 20
183.071748918
 30
0.0
 40
2.0
  1
２０
 50
0.0
 41
1.0
 51
0.0
  7
KANJI3
  0
TEXT
  8
0
  6
CONTINUOUS
 62
     1
 10
83.801962936
 20
195.956222203
 30
0.0
 40
2.0
  1
１０
 50
0.0
 41
1.0
 51
0.0
  7
KANJI3
  0
CIRCLE
  8
0
  6
CONTINUOUS
 62
     1
 10
93.32
 20
187.36
 40
6.5
  0
LINE
  8
0
  6
CONTINUOUS
 62
     1
 10
93.32
 20
193.86
 11
93.32
 21
192.61
  0
LINE
  8
0
  6
CONTINUOUS
 62
     1
 10
91.96857401
 20
193.717959405
 11
92.103716609
 21
193.082163464
  0
LINE
  8
0
  6
CONTINUOUS
 62
     1
 10
90.67621182
 20
193.298045475
 11
90.940590638
 21
192.704240927
  0
LINE
  8
0
  6
CONTINUOUS
 62
     1
 10
89.49939586
 20
192.618610463
 11
89.881456274
 21
192.092749417
  0
LINE
  8
0
  6
CONTINUOUS
 62
     1
 10
88.489558634
 20
191.709348941
 11
88.972602771
 21
191.274414047
  0
LINE
  8
0
  6
CONTINUOUS
 62
     1
 10
87.690834875
 20
190.61
 11
88.77336663
 21
189.985
  0
LINE
  8
0
  6
CONTINUOUS
 62
     1
 10
87.138132644
 20
189.368610463
 11
87.75631938
 21
189.167749417
  0
LINE
  8
0
  6
CONTINUOUS
 62
     1
 10
86.85560768
 20
188.039435011
 11
87.502046912
 21
187.97149151
  0
LINE
  8
0
  6
CONTINUOUS
 62
     1
 10
86.85560768
 20
186.680564989
 11
87.502046912
 21
186.74850849
  0
LINE
  8
0
  6
CONTINUOUS
 62
     1
 10
87.138132644
 20
185.351389537
 11
87.75631938
 21
185.552250583
  0
LINE
  8
0
  6
CONTINUOUS
 62
     1
 10
87.690834875
 20
184.11
 11
88.77336663
 21
184.735
  0
LINE
  8
0
  6
CONTINUOUS
 62
     1
 10
88.489558634
 20
183.010651059
 11
88.972602771
 21
183.445585953
  0
LINE
  8
0
  6
CONTINUOUS
 62
     1
 10
89.49939586
 20
182.101389537
 11
89.881456274
 21
182.627250583
  0
LINE
  8
0
  6
CONTINUOUS
 62
     1
 10
90.67621182
 20
181.421954525
 11
90.940590638
 21
182.015759073
  0
LINE
  8
0
  6
CONTINUOUS
 62
     1
 10
91.96857401
 20
181.002040595
 11
92.103716609
 21
181.637836536
  0
LINE
  8
0
  6
CONTINUOUS
 62
     1
 10
93.32
 20
180.86
 11
93.32
 21
182.11
  0
LINE
  8
0
  6
CONTINUOUS
 62
     1
 10
94.67142599
 20
181.002040595
 11
94.536283391
 21
181.637836536
  0
LINE
  8
0
  6
CONTINUOUS
 62
     1
 10
95.96378818
 20
181.421954525
 11
95.699409362
 21
182.015759073
  0
LINE
  8
0
  6
CONTINUOUS
 62
     1
 10
97.14060414
 20
182.101389537
 11
96.758543726
 21
182.627250583
  0
LINE
  8
0
  6
CONTINUOUS
 62
     1
 10
98.150441366
 20
183.010651059
 11
97.667397229
 21
183.445585953
  0
LINE
  8
0
  6
CONTINUOUS
 62
     1
 10
98.949165125
 20
184.11
 11
97.86663337
 21
184.735
  0
LINE
  8
0
  6
CONTINUOUS
 62
     1
 10
99.501867356
 20
185.351389537
 11
98.88368062
 21
185.552250583
  0
LINE
  8
0
  6
CONTINUOUS
 62
     1
 10
99.78439232
 20
186.680564989
 11
99.137953088
 21
186.74850849
  0
LINE
  8
0
  6
CONTINUOUS
 62
     1
 10
99.78439232
 20
188.039435011
 11
99.137953088
 21
187.97149151
  0
LINE
  8
0
  6
CONTINUOUS
 62
     1
 10
99.501867356
 20
189.368610463
 11
98.88368062
 21
189.167749417
  0
LINE
  8
0
  6
CONTINUOUS
 62
     1
 10
98.949165125
 20
190.61
 11
97.86663337
 21
189.985
  0
LINE
  8
0
  6
CONTINUOUS
 62
     1
 10
98.150441366
 20
191.709348941
 11
97.667397229
 21
191.274414047
  0
LINE
  8
0
  6
CONTINUOUS
 62
     1
 10
97.14060414
 20
192.618610463
 11
96.758543726
 21
192.092749417
  0
LINE
  8
0
  6
CONTINUOUS
 62
     1
 10
95.96378818
 20
193.298045475
 11
95.699409362
 21
192.704240927
  0
LINE
  8
0
  6
CONTINUOUS
 62
     1
 10
94.67142599
 20
193.717959405
 11
94.536283391
 21
193.082163464
  0
TEXT
  8
0
  6
CONTINUOUS
 62
     1
 10
92.746754219
 20
190.835115284
 30
0.0
 40
1.2
  1
０
 50
0.0
 41
1.0
 51
0.0
  7
KANJI4
  0
TEXT
  8
0
  6
CONTINUOUS
 62
     1
 10
96.310872491
 20
188.847386886
 30
0.0
 40
1.2
  1
５
 50
0.0
 41
1.0
 51
0.0
  7
KANJI4
  0
TEXT
  8
0
  6
CONTINUOUS
 62
     1
 10
95.482007328
 20
184.706286496
 30
0.0
 40
1.2
  1
１０
 50
0.0
 41
1.0
 51
0.0
  7
KANJI4
  0
TEXT
  8
0
  6
CONTINUOUS
 62
     1
 10
92.207994531
 20
182.470092048
 30
0.0
 40
1.2
  1
１５
 50
0.0
 41
1.0
 51
0.0
  7
KANJI4
  0
TEXT
  8
0
  6
CONTINUOUS
 62
     1
 10
89.141194902
 20
184.62346404
 30
0.0
 40
1.2
  1
２０
 50
0.0
 41
1.0
 51
0.0
  7
KANJI4
  0
TEXT
  8
0
  6
CONTINUOUS
 62
     1
 10
89.016864957
 20
189.054442037
 30
0.0
 40
1.2
  1
２５
 50
0.0
 41
1.0
 51
0.0
  7
KANJI4
  0
CIRCLE
  8
0
  6
CONTINUOUS
 62
     1
 10
100.0
 20
180.0
 40
1.9
  0
CIRCLE
  8
0
  6
CONTINUOUS
 62
     1
 10
100.0
 20
180.0
 40
1.5
  0
CIRCLE
  8
0
  6
CONTINUOUS
 62
     1
 10
100.0
 20
180.0
 40
0.475
  0
LINE
  8
0
  6
CONTINUOUS
 62
     1
 10
81.073314876
 20
206.050347219
 11
81.154216576
 21
206.109125744
  0
ARC
  8
0
  6
CONTINUOUS
 62
     1
 10
105.290067271
 20
172.718847051
 40
1.25
 50
161.328587745
 51
90.671412255
  0
LINE
  8
0
  6
CONTINUOUS
 62
     1
 10
102.175781846
 20
178.213118671
 11
104.853372784
 21
174.191620987
  0
ARC
  8
0
  6
CONTINUOUS
 62
     1
 10
103.840533188
 20
179.321542313
 40
2.0
 50
169.98165358
 51
213.656444102
  0
ARC
  8
0
  6
CONTINUOUS
 62
     1
 10
105.26956062
 20
174.468726897
 40
0.5
 50
213.656444102
 51
270.671412255
  0
LINE
  8
0
  6
CONTINUOUS
 62
     1
 10
101.027071565
 20
177.3785318
 11
104.024322039
 21
173.589280363
  0
ARC
  8
0
  6
CONTINUOUS
 62
     1
 10
103.632169544
 20
173.279092645
 40
0.5
 50
341.328587745
 51
38.343555898
  0
ARC
  8
0
  6
CONTINUOUS
 62
     1
 10
99.458461582
 20
176.13778093
 40
2.0
 50
38.343555898
 51
82.01834642
  0
LINE
  8
0
  6
CONTINUOUS
 62
     1
 10
81.154216576
 20
206.109125744
 11
98.524741307
 21
183.009352262
  0
ARC
  8
0
  6
CONTINUOUS
 62
     1
 10
100.922462732
 20
184.812386363
 40
3.0
 50
216.94236586
 51
259.148876978
  0
LINE
  8
0
  6
CONTINUOUS
 62
     1
 10
80.992413177
 20
205.991568694
 11
97.593815928
 21
182.332995384
  0
ARC
  8
0
  6
CONTINUOUS
 62
     1
 10
95.13809193
 20
180.609794977
 40
3.0
 50
352.851123022
 51
35.05763414
  0
LINE
  8
0
  6
CONTINUOUS
 62
     1
 10
81.073314876
 20
206.050347219
 11
80.992413177
 21
205.991568694
  0
CIRCLE
  8
0
  6
CONTINUOUS
 62
     1
 10
93.32
 20
187.36
 40
1.15
  0
CIRCLE
  8
0
  6
CONTINUOUS
 62
     1
 10
93.32
 20
187.36
 40
0.75
  0
CIRCLE
  8
0
  6
CONTINUOUS
 62
     1
 10
93.32
 20
187.36
 40
0.5
  0
LINE
  8
0
  6
CONTINUOUS
 62
     1
 10
93.354053419
 20
193.760690616
 11
93.554009556
 21
193.756502132
  0
LINE
  8
0
  6
CONTINUOUS
 62
     1
 10
93.214339206
 20
189.173745646
 11
93.354053419
 21
193.760690616
  0
ARC
  8
0
  6
CONTINUOUS
 62
     1
 10
92.214802762
 20
189.204190626
 40
1.0
 50
300.933657971
 51
358.255361553
  0
ARC
  8
0
  6
CONTINUOUS
 62
     1
 10
94.501454481
 20
189.1562921
 40
1.0
 50
179.344638447
 51
236.666342029
  0
LINE
  8
0
  6
CONTINUOUS
 62
     1
 10
93.501519896
 20
189.167730068
 11
93.554009556
 21
193.756502132
  0
ARC
  8
0
  6
CONTINUOUS
 62
     1
 10
100.0
 20
213.5
 40
12.5
 50
73.739795292
 51
106.260204708
  0
LINE
  8
0
  6
CONTINUOUS
 62
     1
 10
96.5
 20
225.5
 11
103.5
 21
225.5
  0
LINE
  8
0
  6
CONTINUOUS
 62
     1
 10
96.5
 20
220.5
 11
103.5
 21
220.5
  0
LINE
  8
0
  6
CONTINUOUS
 62
     1
 10
96.5
 20
225.488925882
 11
96.506393645
 21
225.5
  0
LINE
  8
0
  6
CONTINUOUS
 62
     1
 10
96.5
 20
225.5
 11
96.5
 21
220.5
  0
LINE
  8
0
  6
CONTINUOUS
 62
     1
 10
103.5
 20
225.5
 11
103.5
 21
220.5
  0
LINE
  8
0
  6
CONTINUOUS
 62
     1
 10
96.5
 20
220.5
 11
97.0
 21
220.0
  0
LINE
  8
0
  6
CONTINUOUS
 62
     1
 10
103.0
 20
220.0
 11
103.5
 21
220.5
  0
LINE
  8
0
  6
CONTINUOUS
 62
     1
 10
97.0
 20
220.0
 11
103.0
 21
220.0
  0
LINE
  8
0
  6
CONTINUOUS
 62
     1
 10
102.5
 20
86.5
 11
102.5
 21
84.0
  0
LINE
  8
0
  6
CONTINUOUS
 62
     1
 10
102.237822174
 20
84.0
 11
101.3
 21
80.5
  0
ARC
  8
0
  6
CONTINUOUS
 62
     1
 10
100.0
 20
80.65
 40
1.15
 50
187.494717454
 51
352.505282546
  0
LINE
  8
0
  6
CONTINUOUS
 62
     1
 10
102.25
 20
87.0
 11
102.25
 21
86.5
  0
LINE
  8
0
  6
CONTINUOUS
 62
     1
 10
102.5
 20
119.45
 11
102.5
 21
87.0
  0
LINE
  8
0
  6
CONTINUOUS
 62
     1
 10
97.5
 20
87.0
 11
102.5
 21
87.0
  0
LINE
  8
0
  6
CONTINUOUS
 62
     1
 10
97.5
 20
86.5
 11
97.5
 21
84.0
  0
LINE
  8
0
  6
CONTINUOUS
 62
     1
 10
97.762177826
 20
84.0
 11
98.7
 21
80.5
  0
LINE
  8
0
  6
CONTINUOUS
 62
     1
 10
97.75
 20
87.0
 11
97.75
 21
86.5
  0
LINE
  8
0
  6
CONTINUOUS
 62
     1
 10
97.5
 20
119.45
 11
97.5
 21
87.0
  0
ARC
  8
4
  6
CONTINUOUS
 62
     1
 10
66.646167813
 20
208.454854936
 40
2.044658199
 50
100.615752532
 51
169.384247468
  0
LINE
  8
4
  6
CONTINUOUS
 62
     1
 10
69.064075626
 20
213.764346104
 11
54.921940002
 21
227.906481728
  0
LINE
  8
4
  6
CONTINUOUS
 62
     1
 10
66.235648501
 20
210.93591898
 11
52.093512877
 21
225.078054603
  0
ARC
  8
4
  6
CONTINUOUS
 62
     1
 10
73.054095206
 20
206.945907028
 40
7.64273441
 50
117.412046226
 51
152.587953774
  0
ARC
  8
4
  6
CONTINUOUS
 62
     1
 10
71.545147298
 20
213.353834422
 40
2.044658199
 50
100.615752532
 51
169.384247468
  0
LINE
  8
4
  6
CONTINUOUS
 62
     1
 10
70.478293003
 20
215.178563481
 11
71.168477123
 21
215.363497759
  0
LINE
  8
4
  6
CONTINUOUS
 62
     1
 10
64.821438753
 20
209.521709232
 11
70.478293003
 21
215.178563481
  0
LINE
  8
4
  6
CONTINUOUS
 62
     1
 10
75.86559967
 20
210.666375212
 11
71.168477123
 21
215.363497759
  0
LINE
  8
4
  6
CONTINUOUS
 62
     1
 10
74.232606508
 20
209.03338205
 11
69.535483961
 21
213.730504597
  0
LINE
  8
4
  6
CONTINUOUS
 62
     1
 10
64.821438753
 20
209.521709232
 11
64.636504476
 21
208.831525112
  0
LINE
  8
4
  6
CONTINUOUS
 62
     1
 10
69.333627023
 20
204.134402565
 11
64.636504476
 21
208.831525112
  0
LINE
  8
4
  6
CONTINUOUS
 62
     1
 10
70.966620184
 20
205.767395726
 11
66.269497637
 21
210.464518273
  0
LINE
  8
4
  6
CONTINUOUS
 62
     1
 10
75.07448708
 20
209.875262622
 11
75.604817166
 21
209.344932537
  0
LINE
  8
4
  6
CONTINUOUS
 62
     1
 10
69.333627023
 20
204.134402565
 11
75.86559967
 21
210.666375212
  0
LINE
  8
4
  6
CONTINUOUS
 62
     2
 10
74.544156995
 20
209.344932537
 11
75.07448708
 21
208.814602451
  0
LINE
  8
4
  6
CONTINUOUS
 62
     1
 10
70.655069698
 20
204.395185068
 11
75.604817166
 21
209.344932537
  0
LINE
  8
4
  6
CONTINUOUS
 62
     1
 10
70.124739612
 20
204.925515154
 11
70.655069698
 21
204.395185068
  0
LINE
  8
4
  6
CONTINUOUS
 62
     2
 10
70.655069698
 20
205.45584524
 11
71.185399784
 21
204.925515154
  0
LINE
  8
4
  6
LTYPE2
 62
     2
 10
49.972195231
 20
230.027804769
 11
76.842252916
 21
203.157747084
  0
LINE
  8
4
  6
CONTINUOUS
 62
     1
 10
75.322185823
 20
208.566903708
 11
75.07448708
 21
208.814602451
  0
LINE
  8
4
  6
CONTINUOUS
 62
     1
 10
71.433098363
 20
204.677816575
 11
71.185399784
 21
204.925515154
  0
ARC
  8
4
  6
CONTINUOUS
 62
     1
 10
53.330955139
 20
225.254836693
 40
1.25
 50
81.869897647
 51
188.130102353
  0
ARC
  8
4
  6
CONTINUOUS
 62
     1
 10
54.745168701
 20
226.669050256
 40
1.25
 50
81.869897645
 51
188.130102354
  0
ARC
  8
4
  6
CONTINUOUS
 62
     1
 10
53.68450853
 20
227.729710428
 40
1.25
 50
261.869897647
 51
8.130102353
  0
LINE
  8
0
  6
CONTINUOUS
 62
     1
 10
97.196699141
 20
225.5
 11
96.5
 21
224.803300859
  0
LINE
  8
0
  6
CONTINUOUS
 62
     1
 10
96.5
 20
223.035533906
 11
98.964466094
 21
225.5
  0
LINE
  8
0
  6
CONTINUOUS
 62
     1
 10
100.732233047
 20
225.5
 11
96.5
 21
221.267766953
  0
LINE
  8
0
  6
CONTINUOUS
 62
     1
 10
97.5
 20
220.5
 11
102.5
 21
225.5
  0
LINE
  8
0
  6
CONTINUOUS
 62
     1
 10
103.5
 20
224.732233047
 11
99.267766953
 21
220.5
  0
LINE
  8
0
  6
CONTINUOUS
 62
     1
 10
101.035533906
 20
220.5
 11
103.5
 21
222.964466094
  0
LINE
  8
0
  6
CONTINUOUS
 62
     1
 10
103.5
 20
221.196699141
 11
102.803300859
 21
220.5
  0
LINE
  8
0
  6
CONTINUOUS
 62
     1
 10
96.5
 20
221.196699141
 11
97.196699141
 21
220.5
  0
LINE
  8
0
  6
CONTINUOUS
 62
     1
 10
98.964466094
 20
220.5
 11
96.5
 21
222.964466094
  0
LINE
  8
0
  6
CONTINUOUS
 62
     1
 10
96.5
 20
224.732233047
 11
100.732233047
 21
220.5
  0
LINE
  8
0
  6
CONTINUOUS
 62
     1
 10
102.5
 20
220.5
 11
97.5
 21
225.5
  0
LINE
  8
0
  6
CONTINUOUS
 62
     1
 10
99.267766953
 20
225.5
 11
103.5
 21
221.267766953
  0
LINE
  8
0
  6
CONTINUOUS
 62
     1
 10
103.5
 20
223.035533906
 11
101.035533906
 21
225.5
  0
LINE
  8
0
  6
CONTINUOUS
 62
     1
 10
102.803300859
 20
225.5
 11
103.5
 21
224.803300859
  0
LINE
  8
0
  6
CONTINUOUS
 62
     1
 10
97.5
 20
86.5
 11
102.5
 21
86.5
  0
LINE
  8
0
  6
CONTINUOUS
 62
     1
 10
98.7
 20
80.5
 11
101.3
 21
80.5
  0
LINE
  8
0
  6
CONTINUOUS
 62
     1
 10
97.5
 20
84.0
 11
102.5
 21
84.0
  0
LINE
  8
0
  6
CONTINUOUS
 62
     1
 10
97.714466094
 20
86.5
 11
97.5
 21
86.285533906
  0
LINE
  8
0
  6
CONTINUOUS
 62
     1
 10
97.5
 20
84.517766953
 11
99.482233047
 21
86.5
  0
LINE
  8
0
  6
CONTINUOUS
 62
     1
 10
101.25
 20
86.5
 11
98.75
 21
84.0
  0
LINE
  8
0
  6
CONTINUOUS
 62
     1
 10
100.517766953
 20
84.0
 11
102.5
 21
85.982233047
  0
LINE
  8
0
  6
CONTINUOUS
 62
     1
 10
102.5
 20
84.214466094
 11
102.285533906
 21
84.0
  0
LINE
  8
0
  6
CONTINUOUS
 62
     1
 10
97.5
 20
84.214466094
 11
97.714466094
 21
84.0
  0
LINE
  8
0
  6
CONTINUOUS
 62
     1
 10
99.482233047
 20
84.0
 11
97.5
 21
85.982233047
  0
LINE
  8
0
  6
CONTINUOUS
 62
     1
 10
98.75
 20
86.5
 11
101.25
 21
84.0
  0
LINE
  8
0
  6
CONTINUOUS
 62
     1
 10
102.5
 20
84.517766953
 11
100.517766953
 21
86.5
  0
LINE
  8
0
  6
CONTINUOUS
 62
     1
 10
102.285533906
 20
86.5
 11
102.5
 21
86.285533906
  0
CIRCLE
  8
0
  6
CONTINUOUS
 62
     1
 10
100.0
 20
180.0
 40
34.85
  0
CIRCLE
  8
0
  6
CONTINUOUS
 62
     1
 10
100.0
 20
180.0
 40
37.2
  0
LINE
  8
0
  6
LTYPE1
 62
     2
 10
57.25
 20
180.0
 11
142.75
 21
180.0
  0
LINE
  8
5
  6
CONTINUOUS
 62
     2
 10
101.0
 20
226.0
 11
153.75
 21
226.0
  0
LINE
  8
5
  6
CONTINUOUS
 62
     2
 10
152.75
 20
226.0
 11
152.102952387
 21
223.585185434
  0
LINE
  8
5
  6
CONTINUOUS
 62
     2
 10
152.75
 20
226.0
 11
153.397047613
 21
223.585185434
  0
LINE
  8
5
  6
CONTINUOUS
 62
     2
 10
152.75
 20
226.0
 11
152.75
 21
180.0
  0
LINE
  8
5
  6
CONTINUOUS
 62
     2
 10
152.75
 20
180.0
 11
153.397047613
 21
182.414814566
  0
LINE
  8
5
  6
CONTINUOUS
 62
     2
 10
152.75
 20
180.0
 11
152.102952387
 21
182.414814566
  0
LINE
  8
5
  6
CONTINUOUS
 62
     2
 10
142.75
 20
180.0
 11
153.75
 21
180.0
  0
TEXT
  8
5
  6
CONTINUOUS
 62
     5
 10
151.75
 20
199.45
 30
0.1
 40
4.0
  1
４６
 50
90.0
 41
0.875
 51
0.0
  7
KANJI0
  0
LINE
  8
5
  6
CONTINUOUS
 62
     2
 10
152.75
 20
180.0
 11
152.102952387
 21
177.585185434
  0
LINE
  8
5
  6
CONTINUOUS
 62
     2
 10
152.75
 20
180.0
 11
153.397047613
 21
177.585185434
  0
LINE
  8
5
  6
CONTINUOUS
 62
     2
 10
152.75
 20
180.0
 11
152.75
 21
79.5
  0
LINE
  8
5
  6
CONTINUOUS
 62
     2
 10
152.75
 20
79.5
 11
153.397047613
 21
81.914814566
  0
LINE
  8
5
  6
CONTINUOUS
 62
     2
 10
152.75
 20
79.5
 11
152.102952387
 21
81.914814566
  0
LINE
  8
5
  6
CONTINUOUS
 62
     2
 10
101.0
 20
79.5
 11
153.75
 21
79.5
  0
TEXT
  8
5
  6
CONTINUOUS
 62
     5
 10
151.75
 20
120.8
 30
0.1
 40
4.0
  1
１００．５
 50
90.0
 41
0.875
 51
0.0
  7
KANJI0
  0
LINE
  8
5
  6
CONTINUOUS
 62
     2
 10
153.75
 20
226.0
 11
163.75
 21
226.0
  0
LINE
  8
5
  6
CONTINUOUS
 62
     2
 10
162.75
 20
226.0
 11
162.102952387
 21
223.585185434
  0
LINE
  8
5
  6
CONTINUOUS
 62
     2
 10
162.75
 20
226.0
 11
163.397047613
 21
223.585185434
  0
LINE
  8
5
  6
CONTINUOUS
 62
     2
 10
162.75
 20
226.0
 11
162.75
 21
79.5
  0
LINE
  8
5
  6
CONTINUOUS
 62
     2
 10
162.75
 20
79.5
 11
163.397047613
 21
81.914814566
  0
LINE
  8
5
  6
CONTINUOUS
 62
     2
 10
162.75
 20
79.5
 11
162.102952387
 21
81.914814566
  0
LINE
  8
5
  6
CONTINUOUS
 62
     2
 10
153.75
 20
79.5
 11
163.75
 21
79.5
  0
TEXT
  8
5
  6
CONTINUOUS
 62
     5
 10
161.75
 20
143.8
 30
0.1
 40
4.0
  1
１４６．５
 50
90.0
 41
0.875
 51
0.0
  7
KANJI0
  0
LINE
  8
0
  6
LTYPE1
 62
     2
 10
100.0
 20
74.5
 11
100.0
 21
231.0
  0
ARC
  8
0
  6
CONTINUOUS
 62
     1
 10
330.0
 20
180.0
 40
37.75
 50
96.082494339
 51
263.917505661
  0
CIRCLE
  8
0
  6
CONTINUOUS
 62
     1
 10
330.0
 20
180.0
 40
36.25
  0
LINE
  8
0
  6
CONTINUOUS
 62
     1
 10
333.5
 20
220.0
 11
326.5
 21
220.0
  0
LINE
  8
0
  6
CONTINUOUS
 62
     1
 10
326.0
 20
219.5
 11
326.0
 21
216.028634445
  0
ARC
  8
0
  6
CONTINUOUS
 62
     1
 10
326.5
 20
219.5
 40
0.5
 50
90.0
 51
180.0
  0
LINE
  8
0
  6
CONTINUOUS
 62
     1
 10
334.0
 20
219.5
 11
334.0
 21
216.028634445
  0
ARC
  8
0
  6
CONTINUOUS
 62
     1
 10
333.5
 20
219.5
 40
0.5
 50
0.0
 51
90.0
  0
ARC
  8
0
  6
CONTINUOUS
 62
     1
 10
330.0
 20
213.5
 40
12.5
 50
73.739795292
 51
106.260204708
  0
CIRCLE
  8
0
  6
CONTINUOUS
 62
     1
 10
298.0
 20
180.0
 40
1.75
  0
LINE
  8
0
  6
CONTINUOUS
 62
     1
 10
298.869996358
 20
179.130003642
 11
297.130003642
 21
180.869996358
  0
LINE
  8
0
  6
CONTINUOUS
 62
     1
 10
297.130003642
 20
179.130003642
 11
298.869996358
 21
180.869996358
  0
LINE
  8
0
  6
CONTINUOUS
 62
     1
 10
332.5
 20
119.45
 11
332.5
 21
87.0
  0
LINE
  8
0
  6
CONTINUOUS
 62
     1
 10
327.5
 20
119.45
 11
327.5
 21
87.0
  0
LINE
  8
0
  6
CONTINUOUS
 62
     1
 10
333.7
 20
119.45
 11
326.3
 21
119.45
  0
LINE
  8
0
  6
CONTINUOUS
 62
     1
 10
334.0
 20
124.95
 11
326.0
 21
124.95
  0
LINE
  8
0
  6
CONTINUOUS
 62
     1
 10
333.9
 20
119.65
 11
326.1
 21
119.65
  0
LINE
  8
0
  6
CONTINUOUS
 62
     1
 10
326.3
 20
119.45
 11
326.1
 21
119.65
  0
LINE
  8
0
  6
CONTINUOUS
 62
     1
 10
326.1
 20
124.95
 11
326.1
 21
119.65
  0
LINE
  8
0
  6
CONTINUOUS
 62
     1
 10
333.9
 20
119.65
 11
333.7
 21
119.45
  0
LINE
  8
0
  6
CONTINUOUS
 62
     1
 10
333.9
 20
124.95
 11
333.9
 21
119.65
  0
LINE
  8
0
  6
CONTINUOUS
 62
     1
 10
334.0
 20
143.971365555
 11
334.0
 21
124.95
  0
LINE
  8
0
  6
CONTINUOUS
 62
     1
 10
326.0
 20
143.971365555
 11
326.0
 21
124.95
  0
LINE
  8
0
  6
CONTINUOUS
 62
     1
 10
326.5
 20
220.5
 11
333.5
 21
220.5
  0
LINE
  8
0
  6
CONTINUOUS
 62
     1
 10
326.5
 20
225.5
 11
333.5
 21
225.5
  0
LINE
  8
0
  6
CONTINUOUS
 62
     1
 10
326.5
 20
225.5
 11
326.5
 21
220.5
  0
LINE
  8
0
  6
CONTINUOUS
 62
     1
 10
326.5
 20
225.488925882
 11
326.506393645
 21
225.5
  0
LINE
  8
0
  6
CONTINUOUS
 62
     1
 10
333.5
 20
225.5
 11
333.5
 21
220.5
  0
LINE
  8
0
  6
CONTINUOUS
 62
     1
 10
326.5
 20
220.5
 11
327.0
 21
220.0
  0
LINE
  8
0
  6
CONTINUOUS
 62
     1
 10
333.0
 20
220.0
 11
333.5
 21
220.5
  0
ARC
  8
0
  6
CONTINUOUS
 62
     1
 10
330.0
 20
180.0
 40
37.75
 50
49.177567615
 51
83.917505661
  0
ARC
  8
0
  6
CONTINUOUS
 62
     1
 10
330.0
 20
180.0
 40
37.75
 50
276.082494339
 51
40.822437194
  0
ARC
  8
4
  6
CONTINUOUS
 62
     1
 10
363.353832187
 20
208.454854936
 40
2.044658199
 50
10.615752532
 51
79.384247468
  0
LINE
  8
4
  6
LTYPE2
 62
     2
 10
380.027804769
 20
230.027804769
 11
352.097086912
 21
202.097086912
  0
LINE
  8
4
  6
CONTINUOUS
 62
     1
 10
360.935924374
 20
213.764346104
 11
375.078059998
 21
227.906481728
  0
LINE
  8
4
  6
CONTINUOUS
 62
     1
 10
363.764351499
 20
210.93591898
 11
377.906487123
 21
225.078054603
  0
ARC
  8
4
  6
CONTINUOUS
 62
     1
 10
375.254836693
 20
226.669044861
 40
1.25
 50
351.869897647
 51
98.130102353
  0
ARC
  8
4
  6
CONTINUOUS
 62
     1
 10
376.669050256
 20
225.254831299
 40
1.25
 50
351.869897645
 51
98.130102354
  0
ARC
  8
4
  6
CONTINUOUS
 62
     1
 10
377.729710428
 20
226.31549147
 40
1.25
 50
171.869897647
 51
278.130102353
  0
ARC
  8
4
  6
CONTINUOUS
 62
     1
 10
356.945904794
 20
206.945907028
 40
7.64273441
 50
27.412046226
 51
62.587953774
  0
ARC
  8
4
  6
CONTINUOUS
 62
     1
 10
358.454852702
 20
213.353834422
 40
2.044658199
 50
10.615752532
 51
79.384247468
  0
LINE
  8
4
  6
CONTINUOUS
 62
     1
 10
359.521706997
 20
215.178563481
 11
358.831522877
 21
215.363497759
  0
LINE
  8
4
  6
CONTINUOUS
 62
     1
 10
365.178561247
 20
209.521709232
 11
359.521706997
 21
215.178563481
  0
LINE
  8
4
  6
CONTINUOUS
 62
     1
 10
354.13440033
 20
210.666375212
 11
358.831522877
 21
215.363497759
  0
LINE
  8
4
  6
CONTINUOUS
 62
     1
 10
355.767393492
 20
209.03338205
 11
360.464516039
 21
213.730504597
  0
LINE
  8
4
  6
CONTINUOUS
 62
     1
 10
365.178561247
 20
209.521709232
 11
365.363495524
 21
208.831525112
  0
LINE
  8
4
  6
CONTINUOUS
 62
     1
 10
360.666372977
 20
204.134402565
 11
365.363495524
 21
208.831525112
  0
LINE
  8
4
  6
CONTINUOUS
 62
     1
 10
359.033379816
 20
205.767395726
 11
363.730502363
 21
210.464518273
  0
LINE
  8
4
  6
CONTINUOUS
 62
     1
 10
354.92551292
 20
209.875262622
 11
354.395182834
 21
209.344932537
  0
LINE
  8
4
  6
CONTINUOUS
 62
     1
 10
360.666372977
 20
204.134402565
 11
354.13440033
 21
210.666375212
  0
LINE
  8
4
  6
CONTINUOUS
 62
     1
 10
354.041629443
 20
207.930718974
 11
354.92551292
 21
208.814602451
  0
LINE
  8
4
  6
CONTINUOUS
 62
     2
 10
355.455843005
 20
209.344932537
 11
354.92551292
 21
208.814602451
  0
LINE
  8
4
  6
CONTINUOUS
 62
     1
 10
359.344930302
 20
204.395185068
 11
354.395182834
 21
209.344932537
  0
LINE
  8
4
  6
CONTINUOUS
 62
     1
 10
359.875260388
 20
204.925515154
 11
359.344930302
 21
204.395185068
  0
LINE
  8
4
  6
CONTINUOUS
 62
     2
 10
359.344930302
 20
205.45584524
 11
358.814600216
 21
204.925515154
  0
LINE
  8
4
  6
CONTINUOUS
 62
     1
 10
359.252159415
 20
202.720189002
 11
352.720186768
 21
209.25216165
  0
LINE
  8
4
  6
CONTINUOUS
 62
     1
 10
357.93071674
 20
204.041631678
 11
358.814600216
 21
204.925515154
  0
LINE
  8
4
  6
CONTINUOUS
 62
     1
 10
357.213542996
 20
203.947558907
 11
357.619166253
 21
204.353182164
  0
LINE
  8
4
  6
CONTINUOUS
 62
     1
 10
358.689686562
 20
202.157716149
 11
359.252159415
 21
202.720189002
  0
LINE
  8
4
  6
CONTINUOUS
 62
     1
 10
352.157713628
 20
208.68968851
 11
352.720186768
 21
209.25216165
  0
LINE
  8
4
  6
CONTINUOUS
 62
     1
 10
353.94755653
 20
207.213545088
 11
354.353179929
 21
207.619168488
  0
LINE
  8
0
  6
CONTINUOUS
 62
     1
 10
327.196699141
 20
225.5
 11
326.5
 21
224.803300859
  0
LINE
  8
0
  6
CONTINUOUS
 62
     1
 10
326.5
 20
223.035533906
 11
328.964466094
 21
225.5
  0
LINE
  8
0
  6
CONTINUOUS
 62
     1
 10
330.732233047
 20
225.5
 11
326.5
 21
221.267766953
  0
LINE
  8
0
  6
CONTINUOUS
 62
     1
 10
327.5
 20
220.5
 11
332.5
 21
225.5
  0
LINE
  8
0
  6
CONTINUOUS
 62
     1
 10
333.5
 20
224.732233047
 11
329.267766953
 21
220.5
  0
LINE
  8
0
  6
CONTINUOUS
 62
     1
 10
331.035533906
 20
220.5
 11
333.5
 21
222.964466094
  0
LINE
  8
0
  6
CONTINUOUS
 62
     1
 10
333.5
 20
221.196699141
 11
332.803300859
 21
220.5
  0
LINE
  8
0
  6
CONTINUOUS
 62
     1
 10
326.5
 20
221.196699141
 11
327.196699141
 21
220.5
  0
LINE
  8
0
  6
CONTINUOUS
 62
     1
 10
328.964466094
 20
220.5
 11
326.5
 21
222.964466094
  0
LINE
  8
0
  6
CONTINUOUS
 62
     1
 10
326.5
 20
224.732233047
 11
330.732233047
 21
220.5
  0
LINE
  8
0
  6
CONTINUOUS
 62
     1
 10
332.5
 20
220.5
 11
327.5
 21
225.5
  0
LINE
  8
0
  6
CONTINUOUS
 62
     1
 10
329.267766953
 20
225.5
 11
333.5
 21
221.267766953
  0
LINE
  8
0
  6
CONTINUOUS
 62
     1
 10
333.5
 20
223.035533906
 11
331.035533906
 21
225.5
  0
LINE
  8
0
  6
CONTINUOUS
 62
     1
 10
332.803300859
 20
225.5
 11
333.5
 21
224.803300859
  0
LINE
  8
0
  6
CONTINUOUS
 62
     1
 10
332.5
 20
86.5
 11
332.5
 21
84.0
  0
LINE
  8
0
  6
CONTINUOUS
 62
     1
 10
332.237822174
 20
84.0
 11
331.3
 21
80.5
  0
ARC
  8
0
  6
CONTINUOUS
 62
     1
 10
330.0
 20
80.65
 40
1.15
 50
187.494717454
 51
352.505282546
  0
LINE
  8
0
  6
CONTINUOUS
 62
     1
 10
332.25
 20
87.0
 11
332.25
 21
86.5
  0
LINE
  8
0
  6
CONTINUOUS
 62
     1
 10
327.5
 20
87.0
 11
332.5
 21
87.0
  0
LINE
  8
0
  6
CONTINUOUS
 62
     1
 10
327.5
 20
86.5
 11
327.5
 21
84.0
  0
LINE
  8
0
  6
CONTINUOUS
 62
     1
 10
327.762177826
 20
84.0
 11
328.7
 21
80.5
  0
LINE
  8
0
  6
CONTINUOUS
 62
     1
 10
327.75
 20
87.0
 11
327.75
 21
86.5
  0
LINE
  8
0
  6
CONTINUOUS
 62
     1
 10
327.5
 20
86.5
 11
332.5
 21
86.5
  0
LINE
  8
0
  6
CONTINUOUS
 62
     1
 10
328.7
 20
80.5
 11
331.3
 21
80.5
  0
LINE
  8
0
  6
CONTINUOUS
 62
     1
 10
327.5
 20
84.0
 11
332.5
 21
84.0
  0
LINE
  8
0
  6
CONTINUOUS
 62
     1
 10
327.714466094
 20
86.5
 11
327.5
 21
86.285533906
  0
LINE
  8
0
  6
CONTINUOUS
 62
     1
 10
327.5
 20
84.517766953
 11
329.482233047
 21
86.5
  0
LINE
  8
0
  6
CONTINUOUS
 62
     1
 10
331.25
 20
86.5
 11
328.75
 21
84.0
  0
LINE
  8
0
  6
CONTINUOUS
 62
     1
 10
330.517766953
 20
84.0
 11
332.5
 21
85.982233047
  0
LINE
  8
0
  6
CONTINUOUS
 62
     1
 10
332.5
 20
84.214466094
 11
332.285533906
 21
84.0
  0
LINE
  8
0
  6
CONTINUOUS
 62
     1
 10
327.5
 20
84.214466094
 11
327.714466094
 21
84.0
  0
LINE
  8
0
  6
CONTINUOUS
 62
     1
 10
329.482233047
 20
84.0
 11
327.5
 21
85.982233047
  0
LINE
  8
0
  6
CONTINUOUS
 62
     1
 10
328.75
 20
86.5
 11
331.25
 21
84.0
  0
LINE
  8
0
  6
CONTINUOUS
 62
     1
 10
332.5
 20
84.517766953
 11
330.517766953
 21
86.5
  0
LINE
  8
0
  6
CONTINUOUS
 62
     1
 10
332.285533906
 20
86.5
 11
332.5
 21
86.285533906
  0
CIRCLE
  8
0
  6
CONTINUOUS
 62
     1
 10
346.0
 20
152.287187079
 40
1.75
  0
LINE
  8
0
  6
CONTINUOUS
 62
     1
 10
346.318440768
 20
153.475624205
 11
345.681559232
 21
151.098749953
  0
LINE
  8
0
  6
CONTINUOUS
 62
     1
 10
347.188437126
 20
151.968746311
 11
344.811562874
 21
152.605627847
  0
CIRCLE
  8
0
  6
CONTINUOUS
 62
     1
 10
346.0
 20
207.712812921
 40
1.75
  0
LINE
  8
0
  6
CONTINUOUS
 62
     1
 10
344.811562874
 20
207.394372153
 11
347.188437126
 21
208.031253689
  0
LINE
  8
0
  6
CONTINUOUS
 62
     1
 10
345.681559232
 20
208.901250047
 11
346.318440768
 21
206.524375795
  0
CIRCLE
  8
0
  6
LTYPE1
 62
     2
 10
330.0
 20
180.0
 40
32.0
  0
LINE
  8
0
  6
LTYPE1
 62
     2
 10
347.461219631
 20
210.243719564
 11
344.51007609
 21
205.132189009
  0
LINE
  8
0
  6
LTYPE1
 62
     2
 10
347.461219631
 20
149.756280436
 11
344.51007609
 21
154.867810991
  0
LINE
  8
0
  6
LTYPE1
 62
     2
 10
287.25
 20
180.0
 11
372.75
 21
180.0
  0
ARC
  8
0
  6
CONTINUOUS
 62
     1
 10
330.0
 20
180.0
 40
36.9
 50
276.223153267
 51
83.776846733
  0
ARC
  8
0
  6
CONTINUOUS
 62
     1
 10
330.0
 20
180.0
 40
36.9
 50
96.223153267
 51
263.776846733
  0
LINE
  8
0
  6
LTYPE3
 62
     2
 10
327.5
 20
183.25
 11
332.5
 21
183.25
  0
LINE
  8
0
  6
LTYPE3
 62
     2
 10
327.5
 20
176.75
 11
332.5
 21
176.75
  0
LINE
  8
0
  6
LTYPE1
 62
     2
 10
330.0
 20
74.5
 11
330.0
 21
231.0
  0
ARC
  8
0
  6
CONTINUOUS
 62
     1
 10
330.0
 20
189.75
 40
3.25
 50
0.0
 51
180.0
  0
ARC
  8
0
  6
CONTINUOUS
 62
     1
 10
330.0
 20
170.25
 40
3.25
 50
180.0
 51
0.0
  0
LINE
  8
0
  6
CONTINUOUS
 62
     1
 10
326.75
 20
189.75
 11
326.75
 21
170.25
  0
LINE
  8
0
  6
CONTINUOUS
 62
     1
 10
333.25
 20
189.75
 11
333.25
 21
170.25
  0
LINE
  8
0
  6
CONTINUOUS
 62
     1
 10
327.5
 20
191.826655966
 11
327.5
 21
168.173344034
  0
LINE
  8
0
  6
CONTINUOUS
 62
     1
 10
332.5
 20
191.826655966
 11
332.5
 21
168.173344034
  0
LINE
  8
5
  6
CONTINUOUS
 62
     2
 10
327.5
 20
167.173344034
 11
327.5
 21
156.0
  0
LINE
  8
5
  6
CONTINUOUS
 62
     2
 10
327.5
 20
157.0
 11
325.085185434
 21
157.647047613
  0
LINE
  8
5
  6
CONTINUOUS
 62
     2
 10
327.5
 20
157.0
 11
325.085185434
 21
156.352952387
  0
LINE
  8
5
  6
CONTINUOUS
 62
     2
 10
323.75
 20
157.0
 11
327.5
 21
157.0
  0
LINE
  8
5
  6
CONTINUOUS
 62
     2
 10
327.5
 20
157.0
 11
332.5
 21
157.0
  0
LINE
  8
5
  6
CONTINUOUS
 62
     2
 10
332.5
 20
157.0
 11
339.75
 21
157.0
  0
LINE
  8
5
  6
CONTINUOUS
 62
     2
 10
332.5
 20
157.0
 11
334.914814566
 21
156.352952387
  0
LINE
  8
5
  6
CONTINUOUS
 62
     2
 10
332.5
 20
157.0
 11
334.914814566
 21
157.647047613
  0
LINE
  8
5
  6
CONTINUOUS
 62
     2
 10
332.5
 20
167.173344034
 11
332.5
 21
156.0
  0
TEXT
  8
5
  6
CONTINUOUS
 62
     5
 10
336.25
 20
158.0
 30
0.1
 40
4.0
  1
５
 50
0.0
 41
0.875
 51
0.0
  7
KANJI0
  0
LINE
  8
5
  6
CONTINUOUS
 62
     2
 10
224.7
 20
119.45
 11
273.0
 21
119.45
  0
LINE
  8
5
  6
CONTINUOUS
 62
     2
 10
272.0
 20
119.45
 11
272.647047613
 21
121.864814566
  0
LINE
  8
5
  6
CONTINUOUS
 62
     2
 10
272.0
 20
119.45
 11
271.352952387
 21
121.864814566
  0
LINE
  8
5
  6
CONTINUOUS
 62
     2
 10
272.0
 20
119.45
 11
272.0
 21
143.75
  0
LINE
  8
5
  6
CONTINUOUS
 62
     2
 10
272.0
 20
143.75
 11
271.352952387
 21
141.335185434
  0
LINE
  8
5
  6
CONTINUOUS
 62
     2
 10
272.0
 20
143.75
 11
272.647047613
 21
141.335185434
  0
TEXT
  8
5
  6
CONTINUOUS
 62
     5
 10
271.0
 20
124.45
 30
0.1
 40
4.0
  1
２４．３
 50
90.0
 41
0.875
 51
0.0
  7
KANJI0
  0
LINE
  8
5
  6
CONTINUOUS
 62
     2
 10
206.7
 20
217.75
 11
191.5
 21
217.75
  0
LINE
  8
5
  6
CONTINUOUS
 62
     2
 10
192.5
 20
217.75
 11
191.852952387
 21
215.335185434
  0
LINE
  8
5
  6
CONTINUOUS
 62
     2
 10
192.5
 20
217.75
 11
193.147047613
 21
215.335185434
  0
LINE
  8
5
  6
CONTINUOUS
 62
     2
 10
192.5
 20
217.75
 11
192.5
 21
142.25
  0
LINE
  8
5
  6
CONTINUOUS
 62
     2
 10
192.5
 20
142.25
 11
193.147047613
 21
144.664814566
  0
LINE
  8
5
  6
CONTINUOUS
 62
     2
 10
192.5
 20
142.25
 11
191.852952387
 21
144.664814566
  0
LINE
  8
5
  6
CONTINUOUS
 62
     2
 10
206.7
 20
142.25
 11
191.5
 21
142.25
  0
TEXT
  8
5
  6
CONTINUOUS
 62
     5
 10
191.5
 20
171.05
 30
0.1
 40
4.0
  1
φ７５．５
 50
90.0
 41
0.875
 51
0.0
  7
KANJI0
  0
LINE
  8
5
  6
CONTINUOUS
 62
     2
 10
215.0
 20
124.95
 11
191.5
 21
124.95
  0
LINE
  8
5
  6
CONTINUOUS
 62
     2
 10
192.5
 20
124.95
 11
193.147047613
 21
127.364814566
  0
LINE
  8
5
  6
CONTINUOUS
 62
     2
 10
192.5
 20
124.95
 11
191.852952387
 21
127.364814566
  0
LINE
  8
5
  6
CONTINUOUS
 62
     2
 10
192.5
 20
124.95
 11
192.5
 21
142.25
  0
LINE
  8
5
  6
CONTINUOUS
 62
     2
 10
192.5
 20
142.25
 11
191.852952387
 21
139.835185434
  0
LINE
  8
5
  6
CONTINUOUS
 62
     2
 10
192.5
 20
142.25
 11
193.147047613
 21
139.835185434
  0
TEXT
  8
5
  6
CONTINUOUS
 62
     5
 10
191.5
 20
126.45
 30
0.1
 40
4.0
  1
１７．３
 50
90.0
 41
0.875
 51
0.0
  7
KANJI0
  0
TEXT
  8
6
  6
CONTINUOUS
 62
     5
 10
343.0
 20
23.0
 30
0.0
 40
4.0
  1
益子
 50
0.0
 41
0.875
 51
0.0
  7
KANJI5
  0
LINE
  8
7
  6
CONTINUOUS
 62
     2
 10
410.0
 20
198.5
 11
415.0
 21
198.5
  0
LINE
  8
7
  6
CONTINUOUS
 62
     2
 10
410.0
 20
248.5
 11
415.0
 21
248.5
  0
LINE
  8
7
  6
CONTINUOUS
 62
     2
 10
410.0
 20
98.5
 11
415.0
 21
98.5
  0
LINE
  8
7
  6
CONTINUOUS
 62
     2
 10
410.0
 20
48.5
 11
415.0
 21
48.5
  0
LINE
  8
7
  6
CONTINUOUS
 62
     2
 10
410.0
 20
75.0
 11
407.5
 21
75.0
  0
LINE
  8
7
  6
CONTINUOUS
 62
     2
 10
410.0
 20
83.0
 11
407.5
 21
83.0
  0
LINE
  8
7
  6
CONTINUOUS
 62
     2
 10
410.0
 20
91.0
 11
407.5
 21
91.0
  0
TEXT
  8
7
  6
CONTINUOUS
 62
     6
 10
411.5
 20
271.0
 30
0.0
 40
5.0
  1
Ａ
 50
0.0
 41
1.0
 51
0.0
  7
KANJI6
  0
TEXT
  8
7
  6
CONTINUOUS
 62
     6
 10
411.5
 20
221.0
 30
0.0
 40
5.0
  1
Ｂ
 50
0.0
 41
1.0
 51
0.0
  7
KANJI6
  0
TEXT
  8
7
  6
CONTINUOUS
 62
     6
 10
411.5
 20
171.0
 30
0.0
 40
5.0
  1
Ｃ
 50
0.0
 41
1.0
 51
0.0
  7
KANJI6
  0
TEXT
  8
7
  6
CONTINUOUS
 62
     6
 10
411.5
 20
121.0
 30
0.0
 40
5.0
  1
Ｄ
 50
0.0
 41
1.0
 51
0.0
  7
KANJI6
  0
TEXT
  8
7
  6
CONTINUOUS
 62
     6
 10
411.5
 20
71.0
 30
0.0
 40
5.0
  1
Ｅ
 50
0.0
 41
1.0
 51
0.0
  7
KANJI6
  0
TEXT
  8
7
  6
CONTINUOUS
 62
     6
 10
411.5
 20
21.0
 30
0.0
 40
5.0
  1
Ｆ
 50
0.0
 41
1.0
 51
0.0
  7
KANJI6
  0
LINE
  8
7
  6
CONTINUOUS
 62
     2
 10
25.0
 20
198.5
 11
20.0
 21
198.5
  0
LINE
  8
7
  6
CONTINUOUS
 62
     2
 10
25.0
 20
248.5
 11
20.0
 21
248.5
  0
LINE
  8
7
  6
CONTINUOUS
 62
     2
 10
25.0
 20
98.5
 11
20.0
 21
98.5
  0
LINE
  8
7
  6
CONTINUOUS
 62
     2
 10
25.0
 20
48.5
 11
20.0
 21
48.5
  0
TEXT
  8
7
  6
CONTINUOUS
 62
     6
 10
18.5
 20
271.0
 30
0.0
 40
5.0
  1
Ａ
 50
0.0
 41
1.0
 51
0.0
  7
KANJI6
  0
TEXT
  8
7
  6
CONTINUOUS
 62
     6
 10
18.5
 20
221.0
 30
0.0
 40
5.0
  1
Ｂ
 50
0.0
 41
1.0
 51
0.0
  7
KANJI6
  0
TEXT
  8
7
  6
CONTINUOUS
 62
     6
 10
18.5
 20
171.0
 30
0.0
 40
5.0
  1
Ｃ
 50
0.0
 41
1.0
 51
0.0
  7
KANJI6
  0
TEXT
  8
7
  6
CONTINUOUS
 62
     6
 10
18.5
 20
121.0
 30
0.0
 40
5.0
  1
Ｄ
 50
0.0
 41
1.0
 51
0.0
  7
KANJI6
  0
TEXT
  8
7
  6
CONTINUOUS
 62
     6
 10
18.5
 20
71.0
 30
0.0
 40
5.0
  1
Ｅ
 50
0.0
 41
1.0
 51
0.0
  7
KANJI6
  0
TEXT
  8
7
  6
CONTINUOUS
 62
     6
 10
18.5
 20
21.0
 30
0.0
 40
5.0
  1
Ｆ
 50
0.0
 41
1.0
 51
0.0
  7
KANJI6
  0
LINE
  8
7
  6
CONTINUOUS
 62
     2
 10
160.0
 20
287.0
 11
160.0
 21
292.0
  0
LINE
  8
7
  6
CONTINUOUS
 62
     2
 10
110.0
 20
292.0
 11
110.0
 21
287.0
  0
LINE
  8
7
  6
CONTINUOUS
 62
     2
 10
60.0
 20
292.0
 11
60.0
 21
287.0
  0
LINE
  8
7
  6
CONTINUOUS
 62
     2
 10
260.0
 20
292.0
 11
260.0
 21
287.0
  0
LINE
  8
7
  6
CONTINUOUS
 62
     2
 10
310.0
 20
292.0
 11
310.0
 21
287.0
  0
TEXT
  8
7
  6
CONTINUOUS
 62
     6
 10
32.0
 20
288.5
 30
0.0
 40
5.0
  1
１
 50
0.0
 41
1.2
 51
0.0
  7
KANJI7
  0
TEXT
  8
7
  6
CONTINUOUS
 62
     6
 10
82.0
 20
288.5
 30
0.0
 40
5.0
  1
２
 50
0.0
 41
1.2
 51
0.0
  7
KANJI7
  0
TEXT
  8
7
  6
CONTINUOUS
 62
     6
 10
132.0
 20
288.5
 30
0.0
 40
5.0
  1
３
 50
0.0
 41
1.2
 51
0.0
  7
KANJI7
  0
TEXT
  8
7
  6
CONTINUOUS
 62
     6
 10
182.0
 20
288.5
 30
0.0
 40
5.0
  1
４
 50
0.0
 41
1.2
 51
0.0
  7
KANJI7
  0
TEXT
  8
7
  6
CONTINUOUS
 62
     6
 10
232.0
 20
288.5
 30
0.0
 40
5.0
  1
５
 50
0.0
 41
1.2
 51
0.0
  7
KANJI7
  0
TEXT
  8
7
  6
CONTINUOUS
 62
     6
 10
282.0
 20
288.5
 30
0.0
 40
5.0
  1
６
 50
0.0
 41
1.2
 51
0.0
  7
KANJI7
  0
TEXT
  8
7
  6
CONTINUOUS
 62
     6
 10
332.0
 20
288.5
 30
0.0
 40
5.0
  1
７
 50
0.0
 41
1.2
 51
0.0
  7
KANJI7
  0
TEXT
  8
7
  6
CONTINUOUS
 62
     6
 10
382.0
 20
288.5
 30
0.0
 40
5.0
  1
８
 50
0.0
 41
1.2
 51
0.0
  7
KANJI7
  0
LINE
  8
7
  6
CONTINUOUS
 62
     2
 10
110.0
 20
5.0
 11
110.0
 21
10.0
  0
LINE
  8
7
  6
CONTINUOUS
 62
     2
 10
60.0
 20
5.0
 11
60.0
 21
10.0
  0
TEXT
  8
7
  6
CONTINUOUS
 62
     6
 10
32.0
 20
3.5
 30
0.0
 40
5.0
  1
１
 50
0.0
 41
1.2
 51
0.0
  7
KANJI7
  0
TEXT
  8
7
  6
CONTINUOUS
 62
     6
 10
82.0
 20
3.5
 30
0.0
 40
5.0
  1
２
 50
0.0
 41
1.2
 51
0.0
  7
KANJI7
  0
TEXT
  8
7
  6
CONTINUOUS
 62
     6
 10
132.0
 20
3.5
 30
0.0
 40
5.0
  1
３
 50
0.0
 41
1.2
 51
0.0
  7
KANJI7
  0
LINE
  8
7
  6
CONTINUOUS
 62
     2
 10
360.0
 20
287.0
 11
360.0
 21
292.0
  0
LINE
  8
7
  6
CONTINUOUS
 62
     6
 10
25.0
 20
287.0
 11
25.0
 21
10.0
  0
LINE
  8
7
  6
CONTINUOUS
 62
     6
 10
210.0
 20
10.0
 11
210.0
 21
0.0
  0
LINE
  8
7
  6
CONTINUOUS
 62
     6
 10
160.0
 20
10.0
 11
160.0
 21
5.0
  0
LINE
  8
7
  6
CONTINUOUS
 62
     6
 10
170.0
 20
10.0
 11
170.0
 21
5.0
  0
LINE
  8
7
  6
CONTINUOUS
 62
     6
 10
180.0
 20
10.0
 11
180.0
 21
5.0
  0
LINE
  8
7
  6
CONTINUOUS
 62
     6
 10
190.0
 20
10.0
 11
190.0
 21
5.0
  0
LINE
  8
7
  6
CONTINUOUS
 62
     6
 10
200.0
 20
10.0
 11
200.0
 21
5.0
  0
LINE
  8
7
  6
CONTINUOUS
 62
     6
 10
25.0
 20
10.0
 11
410.0
 21
10.0
  0
LINE
  8
7
  6
CONTINUOUS
 62
     6
 10
260.0
 20
5.0
 11
260.0
 21
10.0
  0
LINE
  8
7
  6
CONTINUOUS
 62
     6
 10
250.0
 20
5.0
 11
250.0
 21
10.0
  0
LINE
  8
7
  6
CONTINUOUS
 62
     6
 10
240.0
 20
5.0
 11
240.0
 21
10.0
  0
LINE
  8
7
  6
CONTINUOUS
 62
     6
 10
230.0
 20
5.0
 11
230.0
 21
10.0
  0
LINE
  8
7
  6
CONTINUOUS
 62
     6
 10
220.0
 20
5.0
 11
220.0
 21
10.0
  0
LINE
  8
7
  6
CONTINUOUS
 62
     6
 10
160.0
 20
5.0
 11
260.0
 21
5.0
  0
LINE
  8
7
  6
CONTINUOUS
 62
     6
 10
25.0
 20
148.5
 11
0.0
 21
148.5
  0
LINE
  8
7
  6
CONTINUOUS
 62
     6
 10
210.0
 20
287.0
 11
210.0
 21
297.0
  0
LINE
  8
7
  6
CONTINUOUS
 62
     6
 10
410.0
 20
287.0
 11
25.0
 21
287.0
  0
LINE
  8
7
  6
CONTINUOUS
 62
     6
 10
410.0
 20
148.5
 11
420.0
 21
148.5
  0
LINE
  8
7
  6
CONTINUOUS
 62
     6
 10
410.0
 20
10.0
 11
410.0
 21
287.0
  0
TEXT
  8
7
  6
CONTINUOUS
 62
     6
 10
285.0
 20
3.5
 30
0.0
 40
5.0
  1
６
 50
0.0
 41
1.2
 51
0.0
  7
KANJI7
  0
TEXT
  8
7
  6
CONTINUOUS
 62
     6
 10
335.0
 20
3.5
 30
0.0
 40
5.0
  1
７
 50
0.0
 41
1.2
 51
0.0
  7
KANJI7
  0
TEXT
  8
7
  6
CONTINUOUS
 62
     6
 10
385.0
 20
3.5
 30
0.0
 40
5.0
  1
８
 50
0.0
 41
1.2
 51
0.0
  7
KANJI7
  0
LINE
  8
7
  6
CONTINUOUS
 62
     2
 10
310.0
 20
5.0
 11
310.0
 21
10.0
  0
LINE
  8
7
  6
CONTINUOUS
 62
     2
 10
360.0
 20
5.0
 11
360.0
 21
10.0
  0
LINE
  8
7
  6
CONTINUOUS
 62
     2
 10
241.0
 20
67.0
 11
241.0
 21
10.0
  0
LINE
  8
7
  6
CONTINUOUS
 62
     2
 10
248.0
 20
67.0
 11
248.0
 21
10.0
  0
LINE
  8
7
  6
CONTINUOUS
 62
     2
 10
255.0
 20
67.0
 11
255.0
 21
10.0
  0
LINE
  8
7
  6
CONTINUOUS
 62
     2
 10
262.0
 20
67.0
 11
262.0
 21
10.0
  0
LINE
  8
7
  6
CONTINUOUS
 62
     2
 10
323.0
 20
43.0
 11
323.0
 21
21.0
  0
LINE
  8
7
  6
CONTINUOUS
 62
     2
 10
339.0
 20
43.0
 11
339.0
 21
21.0
  0
LINE
  8
7
  6
CONTINUOUS
 62
     2
 10
299.0
 20
43.0
 11
299.0
 21
32.0
  0
LINE
  8
7
  6
CONTINUOUS
 62
     2
 10
269.0
 20
67.0
 11
269.0
 21
10.0
  0
LINE
  8
7
  6
CONTINUOUS
 62
     2
 10
291.0
 20
32.0
 11
291.0
 21
10.0
  0
LINE
  8
7
  6
CONTINUOUS
 62
     2
 10
307.0
 20
32.0
 11
307.0
 21
10.0
  0
LINE
  8
7
  6
CONTINUOUS
 62
     2
 10
355.0
 20
43.0
 11
355.0
 21
10.0
  0
LINE
  8
7
  6
LTYPE4
 62
     2
 10
313.0
 20
13.5
 11
317.0
 21
13.5
  0
LINE
  8
7
  6
LTYPE4
 62
     2
 10
317.0
 20
13.5
 11
317.0
 21
17.5
  0
LINE
  8
7
  6
LTYPE4
 62
     2
 10
317.0
 20
17.5
 11
313.0
 21
17.5
  0
LINE
  8
7
  6
LTYPE4
 62
     2
 10
313.0
 20
17.5
 11
313.0
 21
13.5
  0
TEXT
  8
7
  6
CONTINUOUS
 62
     4
 10
356.0
 20
47.0
 30
-0.5
 40
3.0
  1
１セット分
 50
0.0
 41
0.666666667
 51
0.0
  7
KANJI8
  0
TEXT
  8
7
  6
CONTINUOUS
 62
     4
 10
345.0
 20
47.0
 30
0.0
 40
3.0
  1
１台分
 50
0.0
 41
1.0
 51
0.0
  7
KANJI9
  0
TEXT
  8
7
  6
CONTINUOUS
 62
     4
 10
347.0
 20
44.0
 30
0.0
 40
3.0
  1
個数
 50
0.0
 41
1.0
 51
0.0
  7
KANJI9
  0
TEXT
  8
7
  6
CONTINUOUS
 62
     4
 10
357.0
 20
44.0
 30
0.0
 40
3.0
  1
個数
 50
0.0
 41
1.0
 51
0.0
  7
KANJI9
  0
TEXT
  8
7
  6
CONTINUOUS
 62
     4
 10
366.5
 20
45.0
 30
0.0
 40
4.0
  1
総数
 50
0.0
 41
0.875
 51
0.0
  7
KANJI5
  0
TEXT
  8
7
  6
CONTINUOUS
 62
     4
 10
273.15
 20
52.5
 30
0.3
 40
2.5
  1
氏名
 50
90.0
 41
1.0
 51
0.0
  7
KANJI10
  0
TEXT
  8
7
  6
CONTINUOUS
 62
     4
 10
273.15
 20
40.425
 30
1.0
 40
2.5
  1
年月日
 50
90.0
 41
1.0
 51
0.0
  7
KANJI11
  0
TEXT
  8
7
  6
CONTINUOUS
 62
     4
 10
273.15
 20
60.375
 30
0.3
 40
2.5
  1
承認
 50
90.0
 41
1.0
 51
0.0
  7
KANJI10
  0
TEXT
  8
7
  6
CONTINUOUS
 62
     4
 10
276.0
 20
39.5
 30
0.0
 40
2.5
  1
熱処理
 50
0.0
 41
1.0
 51
0.0
  7
KANJI12
  0
TEXT
  8
7
  6
CONTINUOUS
 62
     4
 10
300.0
 20
39.5
 30
0.0
 40
2.5
  1
表面処理
 50
0.0
 41
1.0
 51
0.0
  7
KANJI12
  0
TEXT
  8
7
  6
CONTINUOUS
 62
     4
 10
324.0
 20
39.5
 30
0.0
 40
2.5
  1
台数
 50
0.0
 41
1.0
 51
0.0
  7
KANJI12
  0
TEXT
  8
7
  6
CONTINUOUS
 62
     4
 10
340.0
 20
39.5
 30
0.0
 40
2.5
  1
作成日付
 50
0.0
 41
1.0
 51
0.0
  7
KANJI12
  0
TEXT
  8
7
  6
CONTINUOUS
 62
     4
 10
356.0
 20
39.5
 30
0.0
 40
2.5
  1
名称
 50
0.0
 41
1.0
 51
0.0
  7
KANJI12
  0
TEXT
  8
7
  6
CONTINUOUS
 62
     4
 10
276.0
 20
28.5
 30
0.0
 40
2.5
  1
尺度
 50
0.0
 41
1.0
 51
0.0
  7
KANJI12
  0
TEXT
  8
7
  6
CONTINUOUS
 62
     4
 10
292.0
 20
28.5
 30
0.0
 40
2.5
  1
承認
 50
0.0
 41
1.0
 51
0.0
  7
KANJI12
  0
TEXT
  8
7
  6
CONTINUOUS
 62
     4
 10
308.0
 20
28.5
 30
0.0
 40
2.5
  1
検図
 50
0.0
 41
1.0
 51
0.0
  7
KANJI12
  0
TEXT
  8
7
  6
CONTINUOUS
 62
     4
 10
324.0
 20
28.5
 30
0.0
 40
2.5
  1
設計
 50
0.0
 41
1.0
 51
0.0
  7
KANJI12
  0
TEXT
  8
7
  6
CONTINUOUS
 62
     4
 10
340.0
 20
28.5
 30
0.0
 40
2.5
  1
製図
 50
0.0
 41
1.0
 51
0.0
  7
KANJI12
  0
TEXT
  8
7
  6
CONTINUOUS
 62
     4
 10
356.0
 20
28.5
 30
0.0
 40
2.5
  1
機名
 50
0.0
 41
1.0
 51
0.0
  7
KANJI12
  0
TEXT
  8
7
  6
CONTINUOUS
 62
     4
 10
273.15
 20
10.875
 30
0.3
 40
2.5
  1
記号
 50
90.0
 41
1.0
 51
0.0
  7
KANJI10
  0
TEXT
  8
7
  6
CONTINUOUS
 62
     4
 10
356.0
 20
17.5
 30
0.0
 40
2.5
  1
図面番号
 50
0.0
 41
1.0
 51
0.0
  7
KANJI12
  0
TEXT
  8
7
  6
CONTINUOUS
 62
     4
 10
319.0
 20
14.25
 30
0.0
 40
2.5
  1
株式会社
 50
0.0
 41
1.0
 51
0.0
  7
KANJI12
  0
TEXT
  8
7
  6
CONTINUOUS
 62
     4
 10
331.0
 20
13.5
 30
0.0
 40
4.0
  1
昭和測器
 50
0.0
 41
1.125
 51
0.0
  7
KANJI13
  0
TEXT
  8
7
  6
CONTINUOUS
 62
     4
 10
273.15
 20
18.375
 30
0.3
 40
2.5
  1
来歴・改訂記事
 50
90.0
 41
1.0
 51
0.0
  7
KANJI10
  0
TEXT
  8
7
  6
CONTINUOUS
 62
     1
 10
278.0
 20
15.5
 30
0.0
 40
5.0
  1
第３
 50
0.0
 41
1.0
 51
0.0
  7
KANJI6
  0
TEXT
  8
7
  6
CONTINUOUS
 62
     1
 10
278.0
 20
10.5
 30
0.0
 40
5.0
  1
角法
 50
0.0
 41
1.0
 51
0.0
  7
KANJI6
  0
LINE
  8
7
  6
CONTINUOUS
 62
     2
 10
234.0
 20
67.0
 11
234.0
 21
10.0
  0
LINE
  8
7
  6
CONTINUOUS
 62
     2
 10
233.0
 20
17.0
 11
275.0
 21
17.0
  0
TEXT
  8
7
  6
CONTINUOUS
 62
     4
 10
326.0
 20
45.0
 30
0.0
 40
4.0
  1
材　　質
 50
0.0
 41
0.875
 51
0.0
  7
KANJI5
  0
TEXT
  8
7
  6
CONTINUOUS
 62
     4
 10
383.25
 20
45.0
 30
0.0
 40
4.0
  1
摘　　　要
 50
0.0
 41
0.875
 51
0.0
  7
KANJI5
  0
TEXT
  8
7
  6
CONTINUOUS
 62
     4
 10
276.5
 20
45.0
 30
0.0
 40
4.0
  1
番号
 50
0.0
 41
0.875
 51
0.0
  7
KANJI5
  0
TEXT
  8
7
  6
CONTINUOUS
 62
     4
 10
294.25
 20
45.0
 30
0.0
 40
4.0
  1
部　品　名
 50
0.0
 41
0.875
 51
0.0
  7
KANJI5
  0
CIRCLE
  8
7
  6
CONTINUOUS
 62
     6
 10
283.0
 20
26.0
 40
0.2
  0
CIRCLE
  8
7
  6
CONTINUOUS
 62
     6
 10
283.0
 20
23.5
 40
0.2
  0
TEXT
  8
7
  6
CONTINUOUS
 62
     6
 10
293.725
 20
12.025
 30
-1.0
 40
7.0
  1
Ａ３
 50
0.0
 41
0.857142857
 51
0.0
  7
KANJI14
  0
LINE
  8
7
  6
CONTINUOUS
 62
     2
 10
233.0
 20
67.0
 11
275.0
 21
67.0
  0
LINE
  8
7
  6
CONTINUOUS
 62
     2
 10
233.0
 20
59.0
 11
275.0
 21
59.0
  0
LINE
  8
7
  6
CONTINUOUS
 62
     2
 10
285.0
 20
51.0
 11
285.0
 21
43.0
  0
LINE
  8
7
  6
CONTINUOUS
 62
     2
 10
285.0
 20
67.0
 11
285.0
 21
51.0
  0
LINE
  8
7
  6
CONTINUOUS
 62
     2
 10
321.0
 20
51.0
 11
321.0
 21
43.0
  0
LINE
  8
7
  6
CONTINUOUS
 62
     2
 10
321.0
 20
67.0
 11
321.0
 21
51.0
  0
LINE
  8
7
  6
CONTINUOUS
 62
     2
 10
345.0
 20
51.0
 11
345.0
 21
43.0
  0
LINE
  8
7
  6
CONTINUOUS
 62
     2
 10
345.0
 20
67.0
 11
345.0
 21
51.0
  0
LINE
  8
7
  6
CONTINUOUS
 62
     2
 10
355.0
 20
51.0
 11
355.0
 21
43.0
  0
LINE
  8
7
  6
CONTINUOUS
 62
     2
 10
355.0
 20
67.0
 11
355.0
 21
51.0
  0
LINE
  8
7
  6
CONTINUOUS
 62
     2
 10
365.0
 20
51.0
 11
365.0
 21
43.0
  0
LINE
  8
7
  6
CONTINUOUS
 62
     2
 10
365.0
 20
67.0
 11
365.0
 21
51.0
  0
LINE
  8
7
  6
CONTINUOUS
 62
     2
 10
375.0
 20
51.0
 11
375.0
 21
43.0
  0
LINE
  8
7
  6
CONTINUOUS
 62
     2
 10
375.0
 20
67.0
 11
375.0
 21
51.0
  0
LINE
  8
7
  6
CONTINUOUS
 62
     2
 10
275.0
 20
51.0
 11
275.0
 21
10.0
  0
LINE
  8
7
  6
CONTINUOUS
 62
     2
 10
275.0
 20
67.0
 11
275.0
 21
51.0
  0
LINE
  8
7
  6
CONTINUOUS
 62
     2
 10
233.0
 20
39.0
 11
275.0
 21
39.0
  0
LINE
  8
7
  6
CONTINUOUS
 62
     2
 10
233.0
 20
51.0
 11
275.0
 21
51.0
  0
LINE
  8
7
  6
LTYPE5
 62
     2
 10
400.0
 20
21.0
 11
400.0
 21
10.0
  0
LINE
  8
7
  6
CONTINUOUS
 62
     2
 10
275.0
 20
67.0
 11
410.0
 21
67.0
  0
LINE
  8
7
  6
CONTINUOUS
 62
     2
 10
275.0
 20
59.0
 11
410.0
 21
59.0
  0
LINE
  8
7
  6
CONTINUOUS
 62
     2
 10
275.0
 20
51.0
 11
410.0
 21
51.0
  0
LINE
  8
7
  6
CONTINUOUS
 62
     2
 10
275.0
 20
43.0
 11
410.0
 21
43.0
  0
LINE
  8
7
  6
CONTINUOUS
 62
     2
 10
275.0
 20
32.0
 11
410.0
 21
32.0
  0
LINE
  8
7
  6
CONTINUOUS
 62
     2
 10
275.0
 20
21.0
 11
410.0
 21
21.0
  0
TEXT
  8
6
  6
CONTINUOUS
 62
     5
 10
278.0
 20
23.0
 30
0.0
 40
4.0
  1
１
 50
0.0
 41
0.875
 51
0.0
  7
KANJI5
  0
TEXT
  8
6
  6
CONTINUOUS
 62
     5
 10
284.5
 20
23.0
 30
0.0
 40
4.0
  1
１
 50
0.0
 41
0.875
 51
0.0
  7
KANJI5
  0
TEXT
  8
6
  6
CONTINUOUS
 62
     5
 10
340.5
 20
36.0
 30
-0.5
 40
3.0
  1
２０１７．
 50
0.0
 41
0.833333333
 51
0.0
  7
KANJI15
  0
TEXT
  8
6
  6
CONTINUOUS
 62
     5
 10
343.0
 20
33.0
 30
-0.5
 40
3.0
  1
０７．１３
 50
0.0
 41
0.833333333
 51
0.0
  7
KANJI15
  0
TEXT
  8
6
  6
CONTINUOUS
 62
     5
 10
377.4
 20
34.0
 30
0.1
 40
4.0
  1
外観図
 50
0.0
 41
0.875
 51
0.0
  7
KANJI0
  0
TEXT
  8
6
  6
CONTINUOUS
 62
     5
 10
361.2
 20
23.0
 30
0.1
 40
4.0
  1
ＴＣＬ－３０ＦＡ
 50
0.0
 41
0.875
 51
0.0
  7
KANJI0
  0
TEXT
  8
6
  6
CONTINUOUS
 62
     5
 10
363.15
 20
12.0
 30
0.1
 40
4.0
  1
Ｋ－０１６７－Ａ４
 50
0.0
 41
0.875
 51
0.0
  7
KANJI0
  0
ENDSEC
  0
EOF
