  0
SECTION
  2
HEADER
  9
$EXTMIN
 10
0.0
 20
0.0
 30
0.0
  9
$EXTMAX
 10
420.0
 20
297.0
 30
0.0
  9
$LIMMIN
 10
0.0
 20
0.0
  9
$LIMMAX
 10
420.0
 20
297.0
  9
$LTSCALE
 40
1.0
  9
$PDMODE
 70
     0
  0
ENDSEC
  0
SECTION
  2
TABLES
  0
TABLE
  2
LTYPE
 70
     6
  0
LTYPE
  2
CONTINUOUS
 70
    64
  3
Solid line
 72
    65
 73
     0
 40
0.0
  0
LTYPE
  2
LTYPE1
 70
    64
  3
CENTER
 72
    65
 73
     4
 40
5.0
 49
3.5
 49
-0.5
 49
0.5
 49
-0.5
  0
LTYPE
  2
LTYPE2
 70
    64
  3
CENTER
 72
    65
 73
     4
 40
10.0
 49
7.0
 49
-1.0
 49
1.0
 49
-1.0
  0
LTYPE
  2
LTYPE3
 70
    64
  3
HIDDEN
 72
    65
 73
     2
 40
1.5
 49
0.9
 49
-0.6
  0
LTYPE
  2
LTYPE4
 70
    64
  3
PHANTOM
 72
    65
 73
     6
 40
10.0
 49
7.5
 49
-0.5
 49
0.5
 49
-0.5
 49
0.5
 49
-0.5
  0
LTYPE
  2
LTYPE5
 70
    64
  3
HIDDEN
 72
    65
 73
     2
 40
2.0
 49
1.2
 49
-0.8
  0
ENDTAB
  0
TABLE
  2
LAYER
 70
   128
  0
LAYER
  2
0
 70
     0
 62
     7
  6
CONTINUOUS
  0
LAYER
  2
2
 70
     0
 62
     7
  6
CONTINUOUS
  0
LAYER
  2
3
 70
     0
 62
     7
  6
CONTINUOUS
  0
LAYER
  2
4
 70
     0
 62
     7
  6
CONTINUOUS
  0
LAYER
  2
5
 70
     0
 62
     7
  6
CONTINUOUS
  0
LAYER
  2
6
 70
     0
 62
     7
  6
CONTINUOUS
  0
LAYER
  2
7
 70
     0
 62
     7
  6
CONTINUOUS
  0
LAYER
  2
8
 70
     0
 62
     7
  6
CONTINUOUS
  0
LAYER
  2
9
 70
     0
 62
     7
  6
CONTINUOUS
  0
LAYER
  2
10
 70
     0
 62
     7
  6
CONTINUOUS
  0
LAYER
  2
11
 70
     0
 62
     7
  6
CONTINUOUS
  0
LAYER
  2
12
 70
     0
 62
     7
  6
CONTINUOUS
  0
LAYER
  2
13
 70
     0
 62
     7
  6
CONTINUOUS
  0
LAYER
  2
14
 70
     0
 62
     7
  6
CONTINUOUS
  0
LAYER
  2
15
 70
     0
 62
     7
  6
CONTINUOUS
  0
LAYER
  2
16
 70
     0
 62
     7
  6
CONTINUOUS
  0
LAYER
  2
17
 70
     0
 62
     7
  6
CONTINUOUS
  0
LAYER
  2
18
 70
     0
 62
     7
  6
CONTINUOUS
  0
LAYER
  2
19
 70
     0
 62
     7
  6
CONTINUOUS
  0
LAYER
  2
20
 70
     0
 62
     7
  6
CONTINUOUS
  0
LAYER
  2
21
 70
     0
 62
     7
  6
CONTINUOUS
  0
LAYER
  2
22
 70
     0
 62
     7
  6
CONTINUOUS
  0
LAYER
  2
23
 70
     0
 62
     7
  6
CONTINUOUS
  0
LAYER
  2
24
 70
     0
 62
     7
  6
CONTINUOUS
  0
LAYER
  2
25
 70
     0
 62
     7
  6
CONTINUOUS
  0
LAYER
  2
26
 70
     0
 62
     7
  6
CONTINUOUS
  0
LAYER
  2
27
 70
     0
 62
     7
  6
CONTINUOUS
  0
LAYER
  2
28
 70
     0
 62
     7
  6
CONTINUOUS
  0
LAYER
  2
29
 70
     0
 62
     7
  6
CONTINUOUS
  0
LAYER
  2
30
 70
     0
 62
     7
  6
CONTINUOUS
  0
LAYER
  2
31
 70
     0
 62
     7
  6
CONTINUOUS
  0
LAYER
  2
32
 70
     0
 62
     7
  6
CONTINUOUS
  0
LAYER
  2
33
 70
     0
 62
     7
  6
CONTINUOUS
  0
LAYER
  2
34
 70
     0
 62
     7
  6
CONTINUOUS
  0
LAYER
  2
35
 70
     0
 62
     7
  6
CONTINUOUS
  0
LAYER
  2
36
 70
     0
 62
     7
  6
CONTINUOUS
  0
LAYER
  2
37
 70
     0
 62
     7
  6
CONTINUOUS
  0
LAYER
  2
38
 70
     0
 62
     7
  6
CONTINUOUS
  0
LAYER
  2
39
 70
     0
 62
     7
  6
CONTINUOUS
  0
LAYER
  2
40
 70
     0
 62
     7
  6
CONTINUOUS
  0
LAYER
  2
41
 70
     0
 62
     7
  6
CONTINUOUS
  0
LAYER
  2
42
 70
     0
 62
     7
  6
CONTINUOUS
  0
LAYER
  2
43
 70
     0
 62
     7
  6
CONTINUOUS
  0
LAYER
  2
44
 70
     0
 62
     7
  6
CONTINUOUS
  0
LAYER
  2
45
 70
     0
 62
     7
  6
CONTINUOUS
  0
LAYER
  2
46
 70
     0
 62
     7
  6
CONTINUOUS
  0
LAYER
  2
47
 70
     0
 62
     7
  6
CONTINUOUS
  0
LAYER
  2
48
 70
     0
 62
     7
  6
CONTINUOUS
  0
LAYER
  2
49
 70
     0
 62
     7
  6
CONTINUOUS
  0
LAYER
  2
50
 70
     0
 62
     7
  6
CONTINUOUS
  0
LAYER
  2
51
 70
     0
 62
     7
  6
CONTINUOUS
  0
LAYER
  2
52
 70
     0
 62
     7
  6
CONTINUOUS
  0
LAYER
  2
53
 70
     0
 62
     7
  6
CONTINUOUS
  0
LAYER
  2
54
 70
     0
 62
     7
  6
CONTINUOUS
  0
LAYER
  2
55
 70
     0
 62
     7
  6
CONTINUOUS
  0
LAYER
  2
56
 70
     0
 62
     7
  6
CONTINUOUS
  0
LAYER
  2
57
 70
     0
 62
     7
  6
CONTINUOUS
  0
LAYER
  2
58
 70
     0
 62
     7
  6
CONTINUOUS
  0
LAYER
  2
59
 70
     0
 62
     7
  6
CONTINUOUS
  0
LAYER
  2
60
 70
     0
 62
     7
  6
CONTINUOUS
  0
LAYER
  2
61
 70
     0
 62
     7
  6
CONTINUOUS
  0
LAYER
  2
62
 70
     0
 62
     7
  6
CONTINUOUS
  0
LAYER
  2
63
 70
     0
 62
     7
  6
CONTINUOUS
  0
LAYER
  2
64
 70
     0
 62
     7
  6
CONTINUOUS
  0
LAYER
  2
65
 70
     0
 62
     7
  6
CONTINUOUS
  0
LAYER
  2
66
 70
     0
 62
     7
  6
CONTINUOUS
  0
LAYER
  2
67
 70
     0
 62
     7
  6
CONTINUOUS
  0
LAYER
  2
68
 70
     0
 62
     7
  6
CONTINUOUS
  0
LAYER
  2
69
 70
     0
 62
     7
  6
CONTINUOUS
  0
LAYER
  2
70
 70
     0
 62
     7
  6
CONTINUOUS
  0
LAYER
  2
71
 70
     0
 62
     7
  6
CONTINUOUS
  0
LAYER
  2
72
 70
     0
 62
     7
  6
CONTINUOUS
  0
LAYER
  2
73
 70
     0
 62
     7
  6
CONTINUOUS
  0
LAYER
  2
74
 70
     0
 62
     7
  6
CONTINUOUS
  0
LAYER
  2
75
 70
     0
 62
     7
  6
CONTINUOUS
  0
LAYER
  2
76
 70
     0
 62
     7
  6
CONTINUOUS
  0
LAYER
  2
77
 70
     0
 62
     7
  6
CONTINUOUS
  0
LAYER
  2
78
 70
     0
 62
     7
  6
CONTINUOUS
  0
LAYER
  2
79
 70
     0
 62
     7
  6
CONTINUOUS
  0
LAYER
  2
80
 70
     0
 62
     7
  6
CONTINUOUS
  0
LAYER
  2
81
 70
     0
 62
     7
  6
CONTINUOUS
  0
LAYER
  2
82
 70
     0
 62
     7
  6
CONTINUOUS
  0
LAYER
  2
83
 70
     0
 62
     7
  6
CONTINUOUS
  0
LAYER
  2
84
 70
     0
 62
     7
  6
CONTINUOUS
  0
LAYER
  2
85
 70
     0
 62
     7
  6
CONTINUOUS
  0
LAYER
  2
86
 70
     0
 62
     7
  6
CONTINUOUS
  0
LAYER
  2
87
 70
     0
 62
     7
  6
CONTINUOUS
  0
LAYER
  2
88
 70
     0
 62
     7
  6
CONTINUOUS
  0
LAYER
  2
89
 70
     0
 62
     7
  6
CONTINUOUS
  0
LAYER
  2
90
 70
     0
 62
     7
  6
CONTINUOUS
  0
LAYER
  2
91
 70
     0
 62
     7
  6
CONTINUOUS
  0
LAYER
  2
92
 70
     0
 62
     7
  6
CONTINUOUS
  0
LAYER
  2
93
 70
     0
 62
     7
  6
CONTINUOUS
  0
LAYER
  2
94
 70
     0
 62
     7
  6
CONTINUOUS
  0
LAYER
  2
95
 70
     0
 62
     7
  6
CONTINUOUS
  0
LAYER
  2
96
 70
     0
 62
     7
  6
CONTINUOUS
  0
LAYER
  2
97
 70
     0
 62
     7
  6
CONTINUOUS
  0
LAYER
  2
98
 70
     0
 62
     7
  6
CONTINUOUS
  0
LAYER
  2
99
 70
     0
 62
     7
  6
CONTINUOUS
  0
LAYER
  2
100
 70
     0
 62
     7
  6
CONTINUOUS
  0
LAYER
  2
101
 70
     0
 62
     7
  6
CONTINUOUS
  0
LAYER
  2
102
 70
     0
 62
     7
  6
CONTINUOUS
  0
LAYER
  2
103
 70
     0
 62
     7
  6
CONTINUOUS
  0
LAYER
  2
104
 70
     0
 62
     7
  6
CONTINUOUS
  0
LAYER
  2
105
 70
     0
 62
     7
  6
CONTINUOUS
  0
LAYER
  2
106
 70
     0
 62
     7
  6
CONTINUOUS
  0
LAYER
  2
107
 70
     0
 62
     7
  6
CONTINUOUS
  0
LAYER
  2
108
 70
     0
 62
     7
  6
CONTINUOUS
  0
LAYER
  2
109
 70
     0
 62
     7
  6
CONTINUOUS
  0
LAYER
  2
110
 70
     0
 62
     7
  6
CONTINUOUS
  0
LAYER
  2
111
 70
     0
 62
     7
  6
CONTINUOUS
  0
LAYER
  2
112
 70
     0
 62
     7
  6
CONTINUOUS
  0
LAYER
  2
113
 70
     0
 62
     7
  6
CONTINUOUS
  0
LAYER
  2
114
 70
     0
 62
     7
  6
CONTINUOUS
  0
LAYER
  2
115
 70
     0
 62
     7
  6
CONTINUOUS
  0
LAYER
  2
116
 70
     0
 62
     7
  6
CONTINUOUS
  0
LAYER
  2
117
 70
     0
 62
     7
  6
CONTINUOUS
  0
LAYER
  2
118
 70
     0
 62
     7
  6
CONTINUOUS
  0
LAYER
  2
119
 70
     0
 62
     7
  6
CONTINUOUS
  0
LAYER
  2
120
 70
     0
 62
     7
  6
CONTINUOUS
  0
LAYER
  2
121
 70
     0
 62
     7
  6
CONTINUOUS
  0
LAYER
  2
122
 70
     0
 62
     7
  6
CONTINUOUS
  0
LAYER
  2
123
 70
     0
 62
     7
  6
CONTINUOUS
  0
LAYER
  2
124
 70
     0
 62
     7
  6
CONTINUOUS
  0
LAYER
  2
125
 70
     0
 62
     7
  6
CONTINUOUS
  0
LAYER
  2
126
 70
     0
 62
     7
  6
CONTINUOUS
  0
LAYER
  2
127
 70
     0
 62
     7
  6
CONTINUOUS
  0
LAYER
  2
128
 70
     0
 62
     7
  6
CONTINUOUS
  0
ENDTAB
  0
TABLE
  2
STYLE
 70
    17
  0
STYLE
  2
STANDARD
 70
     0
 40
0.0
 41
1.0
 50
0.0
 71
     0
 42
0.2
  3
txt
  4

  0
STYLE
  2
KANJI0
 70
     0
 40
3.0
 41
1.0
 50
0.0
 71
     0
 42
3.0
  3

  4
bigfont
  0
STYLE
  2
KANJI1
 70
     0
 40
1.5
 41
1.0
 50
0.0
 71
     0
 42
1.5
  3

  4
bigfont
  0
STYLE
  2
KANJI2
 70
     0
 40
1.0
 41
1.0
 50
0.0
 71
     0
 42
1.0
  3

  4
bigfont
  0
STYLE
  2
KANJI3
 70
     0
 40
4.0
 41
0.875
 50
0.0
 71
     0
 42
4.0
  3

  4
bigfont
  0
STYLE
  2
KANJI4
 70
     0
 40
2.4
 41
0.875
 50
0.0
 71
     0
 42
2.4
  3

  4
bigfont
  0
STYLE
  2
KANJI5
 70
     0
 40
4.0
 41
0.875
 50
0.0
 71
     0
 42
4.0
  3

  4
bigfont
  0
STYLE
  2
KANJI6
 70
     0
 40
4.0
 41
0.875
 50
0.0
 71
     0
 42
4.0
  3

  4
bigfont
  0
STYLE
  2
KANJI7
 70
     0
 40
5.0
 41
1.0
 50
0.0
 71
     0
 42
5.0
  3

  4
bigfont
  0
STYLE
  2
KANJI8
 70
     0
 40
5.0
 41
1.2
 50
0.0
 71
     0
 42
5.0
  3

  4
bigfont
  0
STYLE
  2
KANJI9
 70
     0
 40
3.0
 41
0.666666667
 50
0.0
 71
     0
 42
3.0
  3

  4
bigfont
  0
STYLE
  2
KANJI10
 70
     0
 40
2.5
 41
1.0
 50
0.0
 71
     0
 42
2.5
  3

  4
bigfont
  0
STYLE
  2
KANJI11
 70
     0
 40
2.5
 41
1.0
 50
0.0
 71
     0
 42
2.5
  3

  4
bigfont
  0
STYLE
  2
KANJI12
 70
     0
 40
2.5
 41
1.0
 50
0.0
 71
     0
 42
2.5
  3

  4
bigfont
  0
STYLE
  2
KANJI13
 70
     0
 40
4.0
 41
1.125
 50
0.0
 71
     0
 42
4.0
  3

  4
bigfont
  0
STYLE
  2
KANJI14
 70
     0
 40
7.0
 41
0.857142857
 50
0.0
 71
     0
 42
7.0
  3

  4
bigfont
  0
STYLE
  2
KANJI15
 70
     0
 40
3.0
 41
0.833333333
 50
0.0
 71
     0
 42
3.0
  3

  4
bigfont
  0
ENDTAB
  0
TABLE
  2
VIEW
 70
     0
  0
ENDTAB
  0
ENDSEC
  0
SECTION
  2
BLOCKS
  0
ENDSEC
  0
SECTION
  2
ENTITIES
  0
ARC
  8
4
  6
CONTINUOUS
 62
     1
 10
81.589627995
 20
203.410372005
 40
7.64273441
 50
117.412046226
 51
152.587953774
  0
ARC
  8
4
  6
CONTINUOUS
 62
     1
 10
80.080680087
 20
209.818299399
 40
2.044658199
 50
100.615752532
 51
169.384247468
  0
ARC
  8
4
  6
CONTINUOUS
 62
     1
 10
75.181700601
 20
204.919319913
 40
2.044658199
 50
100.615752532
 51
169.384247468
  0
LINE
  8
4
  6
CONTINUOUS
 62
     1
 10
73.356971542
 20
205.986174209
 11
73.172037264
 21
205.295990088
  0
LINE
  8
4
  6
CONTINUOUS
 62
     1
 10
79.013825791
 20
211.643028458
 11
79.704009912
 21
211.827962736
  0
LINE
  8
4
  6
CONTINUOUS
 62
     1
 10
73.356971542
 20
205.986174209
 11
79.013825791
 21
211.643028458
  0
LINE
  8
4
  6
CONTINUOUS
 62
     1
 10
77.869159811
 20
200.598867541
 11
73.172037264
 21
205.295990088
  0
LINE
  8
4
  6
CONTINUOUS
 62
     1
 10
84.401132459
 20
207.130840189
 11
79.704009912
 21
211.827962736
  0
LINE
  8
4
  6
CONTINUOUS
 62
     1
 10
77.869159811
 20
200.598867541
 11
84.401132459
 21
207.130840189
  0
LINE
  8
4
  6
CONTINUOUS
 62
     1
 10
79.502152973
 20
202.231860703
 11
74.805030426
 21
206.92898325
  0
LINE
  8
4
  6
CONTINUOUS
 62
     1
 10
82.768139297
 20
205.497847027
 11
78.07101675
 21
210.194969574
  0
LINE
  8
4
  6
CONTINUOUS
 62
     1
 10
83.610019869
 20
206.339727599
 11
84.094192606
 21
205.855554862
  0
LINE
  8
4
  6
CONTINUOUS
 62
     1
 10
78.660272401
 20
201.389980131
 11
79.144445138
 21
200.905807394
  0
LINE
  8
4
  6
CONTINUOUS
 62
     2
 10
83.079689783
 20
205.809397513
 11
83.513794621
 21
205.375292676
  0
LINE
  8
4
  6
CONTINUOUS
 62
     2
 10
79.190602487
 20
201.920310217
 11
79.624707324
 21
201.486205379
  0
LINE
  8
4
  6
LTYPE1
 62
     2
 10
58.507729137
 20
226.492270863
 11
85.024233431
 21
199.975766569
  0
LINE
  8
4
  6
CONTINUOUS
 62
     1
 10
74.771187802
 20
207.400390468
 11
60.629052178
 21
221.542526092
  0
LINE
  8
4
  6
CONTINUOUS
 62
     1
 10
77.599614926
 20
210.228817593
 11
63.457479303
 21
224.370953217
  0
ARC
  8
4
  6
CONTINUOUS
 62
     1
 10
61.866489045
 20
221.719302787
 40
1.25
 50
81.869897647
 51
188.130102353
  0
ARC
  8
4
  6
CONTINUOUS
 62
     1
 10
63.280702607
 20
223.13351635
 40
1.25
 50
81.869897645
 51
188.130102354
  0
ARC
  8
4
  6
CONTINUOUS
 62
     1
 10
62.220042436
 20
224.194176522
 40
1.25
 50
261.869897647
 51
8.130102353
  0
CIRCLE
  8
0
  6
CONTINUOUS
 62
     1
 10
105.0
 20
180.0
 40
33.25
  0
LINE
  8
0
  6
CONTINUOUS
 62
     1
 10
101.5
 20
215.0
 11
108.5
 21
215.0
  0
LINE
  8
0
  6
CONTINUOUS
 62
     1
 10
101.0
 20
214.5
 11
101.0
 21
213.008521627
  0
ARC
  8
0
  6
CONTINUOUS
 62
     1
 10
101.5
 20
214.5
 40
0.5
 50
90.0
 51
180.0
  0
LINE
  8
0
  6
CONTINUOUS
 62
     1
 10
109.0
 20
214.5
 11
109.0
 21
213.008521627
  0
ARC
  8
0
  6
CONTINUOUS
 62
     1
 10
108.5
 20
214.5
 40
0.5
 50
0.0
 51
90.0
  0
LINE
  8
0
  6
CONTINUOUS
 62
     1
 10
107.5
 20
121.75
 11
107.5
 21
99.0
  0
LINE
  8
0
  6
CONTINUOUS
 62
     1
 10
102.5
 20
121.75
 11
102.5
 21
99.0
  0
LINE
  8
0
  6
CONTINUOUS
 62
     1
 10
101.0
 20
146.991478373
 11
101.0
 21
126.75
  0
LINE
  8
0
  6
CONTINUOUS
 62
     1
 10
109.0
 20
146.991478373
 11
109.0
 21
126.75
  0
LINE
  8
0
  6
CONTINUOUS
 62
     1
 10
101.1
 20
122.05
 11
108.9
 21
122.05
  0
LINE
  8
0
  6
CONTINUOUS
 62
     1
 10
101.4
 20
121.75
 11
108.6
 21
121.75
  0
LINE
  8
0
  6
CONTINUOUS
 62
     1
 10
101.0
 20
126.75
 11
109.0
 21
126.75
  0
LINE
  8
0
  6
CONTINUOUS
 62
     1
 10
101.1
 20
126.75
 11
101.1
 21
122.05
  0
LINE
  8
0
  6
CONTINUOUS
 62
     1
 10
101.1
 20
122.05
 11
101.4
 21
121.75
  0
LINE
  8
0
  6
CONTINUOUS
 62
     1
 10
108.9
 20
126.75
 11
108.9
 21
122.05
  0
LINE
  8
0
  6
CONTINUOUS
 62
     1
 10
108.6
 20
121.75
 11
108.9
 21
122.05
  0
CIRCLE
  8
0
  6
CONTINUOUS
 62
     1
 10
105.0
 20
180.0
 40
15.5
  0
CIRCLE
  8
0
  6
CONTINUOUS
 62
     1
 10
105.0
 20
180.0
 40
29.0
  0
LINE
  8
0
  6
CONTINUOUS
 62
     1
 10
105.0
 20
209.0
 11
105.0
 21
204.25
  0
LINE
  8
0
  6
CONTINUOUS
 62
     1
 10
106.820925066
 20
208.942775124
 11
106.648251138
 21
206.198201621
  0
LINE
  8
0
  6
CONTINUOUS
 62
     1
 10
108.634663773
 20
208.771326338
 11
108.289997381
 21
206.04301091
  0
LINE
  8
0
  6
CONTINUOUS
 62
     1
 10
110.434058123
 20
208.486330271
 11
109.918759508
 21
205.785040332
  0
LINE
  8
0
  6
CONTINUOUS
 62
     1
 10
112.212006728
 20
208.088911673
 11
111.528109538
 21
205.42530798
  0
LINE
  8
0
  6
CONTINUOUS
 62
     1
 10
97.787993272
 20
208.088911673
 11
98.471890462
 21
205.42530798
  0
LINE
  8
0
  6
CONTINUOUS
 62
     1
 10
99.565941877
 20
208.486330271
 11
100.081240492
 21
205.785040332
  0
LINE
  8
0
  6
CONTINUOUS
 62
     1
 10
101.365336227
 20
208.771326338
 11
101.710002619
 21
206.04301091
  0
LINE
  8
0
  6
CONTINUOUS
 62
     1
 10
96.038507163
 20
207.580638973
 11
97.506337886
 21
203.06312052
  0
LINE
  8
0
  6
CONTINUOUS
 62
     1
 10
103.179074934
 20
208.942775124
 11
103.351748862
 21
206.198201621
  0
LINE
  8
0
  6
CONTINUOUS
 62
     1
 10
89.461022946
 20
204.48550984
 11
90.934546632
 21
202.163608044
  0
LINE
  8
0
  6
CONTINUOUS
 62
     1
 10
91.029143451
 20
205.412893721
 11
92.353966055
 21
203.003050351
  0
LINE
  8
0
  6
CONTINUOUS
 62
     1
 10
92.652400545
 20
206.239984522
 11
93.823293596
 21
203.751710127
  0
LINE
  8
0
  6
CONTINUOUS
 62
     1
 10
87.954227684
 20
203.461492837
 11
90.746207632
 21
199.618662114
  0
LINE
  8
0
  6
CONTINUOUS
 62
     1
 10
94.324387972
 20
206.963518091
 11
95.336730492
 21
204.406632755
  0
LINE
  8
0
  6
CONTINUOUS
 62
     1
 10
82.65511596
 20
198.485295703
 11
84.774027377
 21
196.732379731
  0
LINE
  8
0
  6
CONTINUOUS
 62
     1
 10
83.859909805
 20
199.851866072
 11
85.86457353
 21
197.969361531
  0
LINE
  8
0
  6
CONTINUOUS
 62
     1
 10
85.148133928
 20
201.140090195
 11
87.030638469
 21
199.13542647
  0
LINE
  8
0
  6
CONTINUOUS
 62
     1
 10
81.538507163
 20
197.045772316
 11
85.381337886
 21
194.253792368
  0
LINE
  8
0
  6
CONTINUOUS
 62
     1
 10
86.514704297
 20
202.34488404
 11
88.267620269
 21
200.225972623
  0
LINE
  8
0
  6
CONTINUOUS
 62
     1
 10
78.036481909
 20
190.675612028
 11
80.593367245
 21
189.663269508
  0
LINE
  8
0
  6
CONTINUOUS
 62
     1
 10
78.760015478
 20
192.347599455
 11
81.248289873
 21
191.176706404
  0
LINE
  8
0
  6
CONTINUOUS
 62
     1
 10
79.587106279
 20
193.970856549
 11
81.996949649
 21
192.646033945
  0
LINE
  8
0
  6
CONTINUOUS
 62
     1
 10
77.419361027
 20
188.961492837
 11
81.93687948
 21
187.493662114
  0
LINE
  8
0
  6
CONTINUOUS
 62
     1
 10
80.51449016
 20
195.538977054
 11
82.836391956
 21
194.065453368
  0
LINE
  8
0
  6
CONTINUOUS
 62
     1
 10
76.057224876
 20
181.820925066
 11
78.801798379
 21
181.648251138
  0
LINE
  8
0
  6
CONTINUOUS
 62
     1
 10
76.228673662
 20
183.634663773
 11
78.95698909
 21
183.289997381
  0
LINE
  8
0
  6
CONTINUOUS
 62
     1
 10
76.513669729
 20
185.434058123
 11
79.214959668
 21
184.918759508
  0
LINE
  8
0
  6
CONTINUOUS
 62
     1
 10
76.0
 20
180.0
 11
80.75
 21
180.0
  0
LINE
  8
0
  6
CONTINUOUS
 62
     1
 10
76.911088327
 20
187.212006728
 11
79.57469202
 21
186.528109538
  0
LINE
  8
0
  6
CONTINUOUS
 62
     1
 10
76.911088327
 20
172.787993272
 11
79.57469202
 21
173.471890462
  0
LINE
  8
0
  6
CONTINUOUS
 62
     1
 10
76.513669729
 20
174.565941877
 11
79.214959668
 21
175.081240492
  0
LINE
  8
0
  6
CONTINUOUS
 62
     1
 10
76.228673662
 20
176.365336227
 11
78.95698909
 21
176.710002619
  0
LINE
  8
0
  6
CONTINUOUS
 62
     1
 10
77.419361027
 20
171.038507163
 11
81.93687948
 21
172.506337886
  0
LINE
  8
0
  6
CONTINUOUS
 62
     1
 10
76.057224876
 20
178.179074934
 11
78.801798379
 21
178.351748862
  0
LINE
  8
0
  6
CONTINUOUS
 62
     1
 10
80.51449016
 20
164.461022946
 11
82.836391956
 21
165.934546632
  0
LINE
  8
0
  6
CONTINUOUS
 62
     1
 10
79.587106279
 20
166.029143451
 11
81.996949649
 21
167.353966055
  0
LINE
  8
0
  6
CONTINUOUS
 62
     1
 10
78.760015478
 20
167.652400545
 11
81.248289873
 21
168.823293596
  0
LINE
  8
0
  6
CONTINUOUS
 62
     1
 10
81.538507163
 20
162.954227684
 11
85.381337886
 21
165.746207632
  0
LINE
  8
0
  6
CONTINUOUS
 62
     1
 10
78.036481909
 20
169.324387972
 11
80.593367245
 21
170.336730492
  0
LINE
  8
0
  6
CONTINUOUS
 62
     1
 10
86.514704297
 20
157.65511596
 11
88.267620269
 21
159.774027377
  0
LINE
  8
0
  6
CONTINUOUS
 62
     1
 10
85.148133928
 20
158.859909805
 11
87.030638469
 21
160.86457353
  0
LINE
  8
0
  6
CONTINUOUS
 62
     1
 10
83.859909805
 20
160.148133928
 11
85.86457353
 21
162.030638469
  0
LINE
  8
0
  6
CONTINUOUS
 62
     1
 10
87.954227684
 20
156.538507163
 11
90.746207632
 21
160.381337886
  0
LINE
  8
0
  6
CONTINUOUS
 62
     1
 10
82.65511596
 20
161.514704297
 11
84.774027377
 21
163.267620269
  0
LINE
  8
0
  6
CONTINUOUS
 62
     1
 10
94.324387972
 20
153.036481909
 11
95.336730492
 21
155.593367245
  0
LINE
  8
0
  6
CONTINUOUS
 62
     1
 10
92.652400545
 20
153.760015478
 11
93.823293596
 21
156.248289873
  0
LINE
  8
0
  6
CONTINUOUS
 62
     1
 10
91.029143451
 20
154.587106279
 11
92.353966055
 21
156.996949649
  0
LINE
  8
0
  6
CONTINUOUS
 62
     1
 10
96.038507163
 20
152.419361027
 11
97.506337886
 21
156.93687948
  0
LINE
  8
0
  6
CONTINUOUS
 62
     1
 10
89.461022946
 20
155.51449016
 11
90.934546632
 21
157.836391956
  0
LINE
  8
0
  6
CONTINUOUS
 62
     1
 10
103.179074934
 20
151.057224876
 11
103.351748862
 21
153.801798379
  0
LINE
  8
0
  6
CONTINUOUS
 62
     1
 10
101.365336227
 20
151.228673662
 11
101.710002619
 21
153.95698909
  0
LINE
  8
0
  6
CONTINUOUS
 62
     1
 10
99.565941877
 20
151.513669729
 11
100.081240492
 21
154.214959668
  0
LINE
  8
0
  6
CONTINUOUS
 62
     1
 10
105.0
 20
151.0
 11
105.0
 21
155.75
  0
LINE
  8
0
  6
CONTINUOUS
 62
     1
 10
97.787993272
 20
151.911088327
 11
98.471890462
 21
154.57469202
  0
LINE
  8
0
  6
CONTINUOUS
 62
     1
 10
112.212006728
 20
151.911088327
 11
111.528109538
 21
154.57469202
  0
LINE
  8
0
  6
CONTINUOUS
 62
     1
 10
110.434058123
 20
151.513669729
 11
109.918759508
 21
154.214959668
  0
LINE
  8
0
  6
CONTINUOUS
 62
     1
 10
108.634663773
 20
151.228673662
 11
108.289997381
 21
153.95698909
  0
LINE
  8
0
  6
CONTINUOUS
 62
     1
 10
113.961492837
 20
152.419361027
 11
112.493662114
 21
156.93687948
  0
LINE
  8
0
  6
CONTINUOUS
 62
     1
 10
106.820925066
 20
151.057224876
 11
106.648251138
 21
153.801798379
  0
LINE
  8
0
  6
CONTINUOUS
 62
     1
 10
120.538977054
 20
155.51449016
 11
119.065453368
 21
157.836391956
  0
LINE
  8
0
  6
CONTINUOUS
 62
     1
 10
118.970856549
 20
154.587106279
 11
117.646033945
 21
156.996949649
  0
LINE
  8
0
  6
CONTINUOUS
 62
     1
 10
117.347599455
 20
153.760015478
 11
116.176706404
 21
156.248289873
  0
LINE
  8
0
  6
CONTINUOUS
 62
     1
 10
122.045772316
 20
156.538507163
 11
119.253792368
 21
160.381337886
  0
LINE
  8
0
  6
CONTINUOUS
 62
     1
 10
115.675612028
 20
153.036481909
 11
114.663269508
 21
155.593367245
  0
LINE
  8
0
  6
CONTINUOUS
 62
     1
 10
127.34488404
 20
161.514704297
 11
125.225972623
 21
163.267620269
  0
LINE
  8
0
  6
CONTINUOUS
 62
     1
 10
126.140090195
 20
160.148133928
 11
124.13542647
 21
162.030638469
  0
LINE
  8
0
  6
CONTINUOUS
 62
     1
 10
124.851866072
 20
158.859909805
 11
122.969361531
 21
160.86457353
  0
LINE
  8
0
  6
CONTINUOUS
 62
     1
 10
128.461492837
 20
162.954227684
 11
124.618662114
 21
165.746207632
  0
LINE
  8
0
  6
CONTINUOUS
 62
     1
 10
123.485295703
 20
157.65511596
 11
121.732379731
 21
159.774027377
  0
LINE
  8
0
  6
CONTINUOUS
 62
     1
 10
131.963518091
 20
169.324387972
 11
129.406632755
 21
170.336730492
  0
LINE
  8
0
  6
CONTINUOUS
 62
     1
 10
131.239984522
 20
167.652400545
 11
128.751710127
 21
168.823293596
  0
LINE
  8
0
  6
CONTINUOUS
 62
     1
 10
130.412893721
 20
166.029143451
 11
128.003050351
 21
167.353966055
  0
LINE
  8
0
  6
CONTINUOUS
 62
     1
 10
132.580638973
 20
171.038507163
 11
128.06312052
 21
172.506337886
  0
LINE
  8
0
  6
CONTINUOUS
 62
     1
 10
129.48550984
 20
164.461022946
 11
127.163608044
 21
165.934546632
  0
LINE
  8
0
  6
CONTINUOUS
 62
     1
 10
133.942775124
 20
178.179074934
 11
131.198201621
 21
178.351748862
  0
LINE
  8
0
  6
CONTINUOUS
 62
     1
 10
133.771326338
 20
176.365336227
 11
131.04301091
 21
176.710002619
  0
LINE
  8
0
  6
CONTINUOUS
 62
     1
 10
133.486330271
 20
174.565941877
 11
130.785040332
 21
175.081240492
  0
LINE
  8
0
  6
CONTINUOUS
 62
     1
 10
134.0
 20
180.0
 11
129.25
 21
180.0
  0
LINE
  8
0
  6
CONTINUOUS
 62
     1
 10
133.088911673
 20
172.787993272
 11
130.42530798
 21
173.471890462
  0
LINE
  8
0
  6
CONTINUOUS
 62
     1
 10
133.088911673
 20
187.212006728
 11
130.42530798
 21
186.528109538
  0
LINE
  8
0
  6
CONTINUOUS
 62
     1
 10
133.486330271
 20
185.434058123
 11
130.785040332
 21
184.918759508
  0
LINE
  8
0
  6
CONTINUOUS
 62
     1
 10
133.771326338
 20
183.634663773
 11
131.04301091
 21
183.289997381
  0
LINE
  8
0
  6
CONTINUOUS
 62
     1
 10
132.580638973
 20
188.961492837
 11
128.06312052
 21
187.493662114
  0
LINE
  8
0
  6
CONTINUOUS
 62
     1
 10
133.942775124
 20
181.820925066
 11
131.198201621
 21
181.648251138
  0
LINE
  8
0
  6
CONTINUOUS
 62
     1
 10
129.48550984
 20
195.538977054
 11
127.163608044
 21
194.065453368
  0
LINE
  8
0
  6
CONTINUOUS
 62
     1
 10
130.412893721
 20
193.970856549
 11
128.003050351
 21
192.646033945
  0
LINE
  8
0
  6
CONTINUOUS
 62
     1
 10
131.239984522
 20
192.347599455
 11
128.751710127
 21
191.176706404
  0
LINE
  8
0
  6
CONTINUOUS
 62
     1
 10
128.461492837
 20
197.045772316
 11
124.618662114
 21
194.253792368
  0
LINE
  8
0
  6
CONTINUOUS
 62
     1
 10
131.963518091
 20
190.675612028
 11
129.406632755
 21
189.663269508
  0
LINE
  8
0
  6
CONTINUOUS
 62
     1
 10
123.485295703
 20
202.34488404
 11
121.732379731
 21
200.225972623
  0
LINE
  8
0
  6
CONTINUOUS
 62
     1
 10
124.851866072
 20
201.140090195
 11
122.969361531
 21
199.13542647
  0
LINE
  8
0
  6
CONTINUOUS
 62
     1
 10
126.140090195
 20
199.851866072
 11
124.13542647
 21
197.969361531
  0
LINE
  8
0
  6
CONTINUOUS
 62
     1
 10
122.045772316
 20
203.461492837
 11
119.253792368
 21
199.618662114
  0
LINE
  8
0
  6
CONTINUOUS
 62
     1
 10
127.34488404
 20
198.485295703
 11
125.225972623
 21
196.732379731
  0
LINE
  8
0
  6
CONTINUOUS
 62
     1
 10
115.675612028
 20
206.963518091
 11
114.663269508
 21
204.406632755
  0
LINE
  8
0
  6
CONTINUOUS
 62
     1
 10
117.347599455
 20
206.239984522
 11
116.176706404
 21
203.751710127
  0
LINE
  8
0
  6
CONTINUOUS
 62
     1
 10
118.970856549
 20
205.412893721
 11
117.646033945
 21
203.003050351
  0
LINE
  8
0
  6
CONTINUOUS
 62
     1
 10
113.961492837
 20
207.580638973
 11
112.493662114
 21
203.06312052
  0
LINE
  8
0
  6
CONTINUOUS
 62
     1
 10
120.538977054
 20
204.48550984
 11
119.065453368
 21
202.163608044
  0
TEXT
  8
0
  6
CONTINUOUS
 62
     1
 10
103.500642756
 20
200.263384741
 30
0.0
 40
3.0
  1
０
 50
0.0
 41
1.0
 51
0.0
  7
KANJI0
  0
TEXT
  8
0
  6
CONTINUOUS
 62
     1
 10
104.250086988
 20
197.216767067
 30
0.0
 40
1.5
  1
０
 50
0.0
 41
1.0
 51
0.0
  7
KANJI1
  0
TEXT
  8
0
  6
CONTINUOUS
 62
     1
 10
114.530304004
 20
195.371820569
 30
0.0
 40
3.0
  1
１０
 50
0.0
 41
1.0
 51
0.0
  7
KANJI0
  0
TEXT
  8
0
  6
CONTINUOUS
 62
     1
 10
121.687070903
 20
185.211896
 30
0.0
 40
3.0
  1
２０
 50
0.0
 41
1.0
 51
0.0
  7
KANJI0
  0
TEXT
  8
0
  6
CONTINUOUS
 62
     1
 10
90.19605746
 20
195.740165794
 30
0.0
 40
3.0
  1
９０
 50
0.0
 41
1.0
 51
0.0
  7
KANJI0
  0
TEXT
  8
0
  6
CONTINUOUS
 62
     1
 10
121.532063833
 20
171.572071066
 30
0.0
 40
3.0
  1
３０
 50
0.0
 41
1.0
 51
0.0
  7
KANJI0
  0
TEXT
  8
0
  6
CONTINUOUS
 62
     1
 10
114.772112911
 20
161.900129474
 30
0.0
 40
3.0
  1
４０
 50
0.0
 41
1.0
 51
0.0
  7
KANJI0
  0
TEXT
  8
0
  6
CONTINUOUS
 62
     1
 10
102.082478694
 20
156.934782975
 30
0.0
 40
3.0
  1
５０
 50
0.0
 41
1.0
 51
0.0
  7
KANJI0
  0
TEXT
  8
0
  6
CONTINUOUS
 62
     1
 10
89.835315662
 20
161.4061852
 30
0.0
 40
3.0
  1
６０
 50
0.0
 41
1.0
 51
0.0
  7
KANJI0
  0
TEXT
  8
0
  6
CONTINUOUS
 62
     1
 10
82.256540019
 20
171.3092812
 30
0.0
 40
3.0
  1
７０
 50
0.0
 41
1.0
 51
0.0
  7
KANJI0
  0
TEXT
  8
0
  6
CONTINUOUS
 62
     1
 10
82.429019122
 20
185.705595491
 30
0.0
 40
3.0
  1
８０
 50
0.0
 41
1.0
 51
0.0
  7
KANJI0
  0
TEXT
  8
0
  6
CONTINUOUS
 62
     1
 10
92.193440545
 20
192.767329987
 30
0.0
 40
1.5
  1
１０
 50
0.0
 41
1.0
 51
0.0
  7
KANJI1
  0
TEXT
  8
0
  6
CONTINUOUS
 62
     1
 10
85.678680954
 20
183.286649595
 30
0.0
 40
1.5
  1
２０
 50
0.0
 41
1.0
 51
0.0
  7
KANJI1
  0
TEXT
  8
0
  6
CONTINUOUS
 62
     1
 10
114.89815119
 20
192.651306467
 30
0.0
 40
1.5
  1
９０
 50
0.0
 41
1.0
 51
0.0
  7
KANJI1
  0
TEXT
  8
0
  6
CONTINUOUS
 62
     1
 10
120.885719007
 20
182.587693935
 30
0.0
 40
1.5
  1
８０
 50
0.0
 41
1.0
 51
0.0
  7
KANJI1
  0
TEXT
  8
0
  6
CONTINUOUS
 62
     1
 10
120.606710557
 20
175.826225509
 30
0.0
 40
1.5
  1
７０
 50
0.0
 41
1.0
 51
0.0
  7
KANJI1
  0
TEXT
  8
0
  6
CONTINUOUS
 62
     1
 10
114.556404347
 20
165.552531542
 30
0.0
 40
1.5
  1
６０
 50
0.0
 41
1.0
 51
0.0
  7
KANJI1
  0
TEXT
  8
0
  6
CONTINUOUS
 62
     1
 10
103.486159549
 20
161.295715773
 30
0.0
 40
1.5
  1
５０
 50
0.0
 41
1.0
 51
0.0
  7
KANJI1
  0
TEXT
  8
0
  6
CONTINUOUS
 62
     1
 10
92.324078477
 20
165.541266917
 30
0.0
 40
1.5
  1
４０
 50
0.0
 41
1.0
 51
0.0
  7
KANJI1
  0
TEXT
  8
0
  6
CONTINUOUS
 62
     1
 10
86.558983281
 20
175.16613193
 30
0.0
 40
1.5
  1
３０
 50
0.0
 41
1.0
 51
0.0
  7
KANJI1
  0
TEXT
  8
0
  6
CONTINUOUS
 62
     1
 10
104.894520816
 20
170.508164759
 30
0.0
 40
1.0
  1
８
 50
0.0
 41
1.0
 51
0.0
  7
KANJI2
  0
TEXT
  8
0
  6
CONTINUOUS
 62
     1
 10
101.282048377
 20
166.003135878
 30
0.0
 40
1.0
  1
５
 50
0.0
 41
1.0
 51
0.0
  7
KANJI2
  0
TEXT
  8
0
  6
CONTINUOUS
 62
     1
 10
99.178556808
 20
166.477873864
 30
0.0
 40
1.0
  1
４
 50
0.0
 41
1.0
 51
0.0
  7
KANJI2
  0
TEXT
  8
0
  6
CONTINUOUS
 62
     1
 10
103.394437363
 20
166.600417635
 30
0.0
 40
1.0
  1
６
 50
0.0
 41
1.0
 51
0.0
  7
KANJI2
  0
TEXT
  8
0
  6
CONTINUOUS
 62
     1
 10
104.834333885
 20
168.204537374
 30
0.0
 40
1.0
  1
７
 50
0.0
 41
1.0
 51
0.0
  7
KANJI2
  0
LINE
  8
0
  6
CONTINUOUS
 62
     1
 10
106.317518452
 20
171.393859312
 11
105.841990194
 21
171.239350815
  0
LINE
  8
0
  6
CONTINUOUS
 62
     1
 10
106.317518452
 20
168.458197865
 11
105.841990194
 21
168.612706362
  0
LINE
  8
0
  6
CONTINUOUS
 62
     1
 10
104.591979948
 20
166.083197865
 11
104.298087322
 21
166.487706362
  0
LINE
  8
0
  6
CONTINUOUS
 62
     1
 10
101.8
 20
165.176028588
 11
101.8
 21
165.676028588
  0
TEXT
  8
0
  6
CONTINUOUS
 62
     1
 10
101.313623561
 20
172.953802517
 30
0.0
 40
1.0
  1
０
 50
0.0
 41
1.0
 51
0.0
  7
KANJI2
  0
TEXT
  8
0
  6
CONTINUOUS
 62
     1
 10
99.373509786
 20
172.278078448
 30
0.0
 40
1.0
  1
１
 50
0.0
 41
1.0
 51
0.0
  7
KANJI2
  0
TEXT
  8
0
  6
CONTINUOUS
 62
     1
 10
103.397123299
 20
172.227472537
 30
0.0
 40
1.0
  1
９
 50
0.0
 41
1.0
 51
0.0
  7
KANJI2
  0
LINE
  8
0
  6
CONTINUOUS
 62
     1
 10
104.591979948
 20
173.768859312
 11
104.298087322
 21
173.364350815
  0
LINE
  8
0
  6
CONTINUOUS
 62
     1
 10
101.8
 20
174.676028588
 11
101.8
 21
174.176028588
  0
TEXT
  8
0
  6
CONTINUOUS
 62
     1
 10
98.013227439
 20
170.475910442
 30
0.0
 40
1.0
  1
２
 50
0.0
 41
1.0
 51
0.0
  7
KANJI2
  0
LINE
  8
0
  6
CONTINUOUS
 62
     1
 10
99.008020052
 20
166.083197865
 11
99.301912678
 21
166.487706362
  0
LINE
  8
0
  6
CONTINUOUS
 62
     1
 10
99.008020052
 20
173.768859312
 11
99.301912678
 21
173.364350815
  0
TEXT
  8
0
  6
CONTINUOUS
 62
     1
 10
97.983984435
 20
168.213068692
 30
0.0
 40
1.0
  1
３
 50
0.0
 41
1.0
 51
0.0
  7
KANJI2
  0
LINE
  8
0
  6
CONTINUOUS
 62
     1
 10
97.282481548
 20
168.458197865
 11
97.758009806
 21
168.612706362
  0
LINE
  8
0
  6
CONTINUOUS
 62
     1
 10
97.282481548
 20
171.393859312
 11
97.758009806
 21
171.239350815
  0
CIRCLE
  8
0
  6
CONTINUOUS
 62
     1
 10
101.8
 20
169.926028588
 40
4.75
  0
CIRCLE
  8
0
  6
CONTINUOUS
 62
     1
 10
105.0
 20
180.0
 40
1.9
  0
CIRCLE
  8
0
  6
CONTINUOUS
 62
     1
 10
105.0
 20
180.0
 40
1.7
  0
CIRCLE
  8
0
  6
CONTINUOUS
 62
     1
 10
105.0
 20
180.0
 40
0.475
  0
LINE
  8
0
  6
CONTINUOUS
 62
     1
 10
89.129798188
 20
201.843458848
 11
89.210699888
 21
201.902237373
  0
LINE
  8
0
  6
CONTINUOUS
 62
     1
 10
103.619249874
 20
182.92122048
 11
89.210699888
 21
201.902237373
  0
ARC
  8
0
  6
CONTINUOUS
 62
     1
 10
106.046300857
 20
184.684576236
 40
3.0
 50
216.0
 51
248.215541568
  0
LINE
  8
0
  6
CONTINUOUS
 62
     1
 10
102.648429481
 20
182.215878177
 11
89.048896489
 21
201.784680323
  0
ARC
  8
0
  6
CONTINUOUS
 62
     1
 10
100.221378498
 20
180.45252242
 40
3.0
 50
3.784458432
 51
36.0
  0
LINE
  8
0
  6
CONTINUOUS
 62
     1
 10
89.129798188
 20
201.843458848
 11
89.048896489
 21
201.784680323
  0
CIRCLE
  8
0
  6
CONTINUOUS
 62
     1
 10
101.8
 20
169.926028588
 40
1.1
  0
CIRCLE
  8
0
  6
CONTINUOUS
 62
     1
 10
101.8
 20
169.926028588
 40
0.75
  0
LINE
  8
0
  6
CONTINUOUS
 62
     1
 10
101.944908358
 20
171.383397934
 11
101.9
 21
174.626028588
  0
LINE
  8
0
  6
CONTINUOUS
 62
     1
 10
101.655091642
 20
171.383397934
 11
101.7
 21
174.626028588
  0
CIRCLE
  8
0
  6
CONTINUOUS
 62
     1
 10
101.8
 20
169.926028588
 40
0.4
  0
ARC
  8
0
  6
CONTINUOUS
 62
     1
 10
102.444860413
 20
171.39032195
 40
0.5
 50
180.793459121
 51
246.231778702
  0
ARC
  8
0
  6
CONTINUOUS
 62
     1
 10
101.155139587
 20
171.39032195
 40
0.5
 50
293.768221298
 51
359.206540879
  0
LINE
  8
0
  6
CONTINUOUS
 62
     1
 10
101.9
 20
174.626028588
 11
101.7
 21
174.626028588
  0
LINE
  8
0
  6
CONTINUOUS
 62
     1
 10
101.5
 20
215.0
 11
108.5
 21
215.0
  0
LINE
  8
0
  6
CONTINUOUS
 62
     1
 10
102.0
 20
215.0
 11
108.0
 21
215.0
  0
LINE
  8
0
  6
CONTINUOUS
 62
     1
 10
101.5
 20
215.5
 11
108.5
 21
215.5
  0
ARC
  8
0
  6
CONTINUOUS
 62
     1
 10
105.0
 20
208.5
 40
12.5
 50
73.739795292
 51
106.260204708
  0
LINE
  8
0
  6
CONTINUOUS
 62
     1
 10
101.5
 20
220.5
 11
108.5
 21
220.5
  0
LINE
  8
0
  6
CONTINUOUS
 62
     1
 10
101.5
 20
215.5
 11
102.0
 21
215.0
  0
LINE
  8
0
  6
CONTINUOUS
 62
     1
 10
101.5
 20
220.5
 11
101.5
 21
215.5
  0
LINE
  8
0
  6
CONTINUOUS
 62
     1
 10
108.0
 20
215.0
 11
108.5
 21
215.5
  0
LINE
  8
0
  6
CONTINUOUS
 62
     1
 10
108.5
 20
220.5
 11
108.5
 21
215.5
  0
LINE
  8
0
  6
CONTINUOUS
 62
     1
 10
102.5
 20
99.0
 11
107.5
 21
99.0
  0
LINE
  8
0
  6
CONTINUOUS
 62
     1
 10
107.5
 20
98.5
 11
107.5
 21
96.0
  0
LINE
  8
0
  6
CONTINUOUS
 62
     1
 10
102.5
 20
98.5
 11
102.5
 21
96.0
  0
LINE
  8
0
  6
CONTINUOUS
 62
     1
 10
102.762177826
 20
96.0
 11
103.7
 21
92.5
  0
LINE
  8
0
  6
CONTINUOUS
 62
     1
 10
107.237822174
 20
96.0
 11
106.3
 21
92.5
  0
ARC
  8
0
  6
CONTINUOUS
 62
     1
 10
105.0
 20
92.65
 40
1.15
 50
187.494717454
 51
352.505282546
  0
LINE
  8
0
  6
CONTINUOUS
 62
     1
 10
105.0
 20
99.0
 11
102.75
 21
99.0
  0
LINE
  8
0
  6
CONTINUOUS
 62
     1
 10
102.75
 20
99.0
 11
102.75
 21
98.5
  0
LINE
  8
0
  6
CONTINUOUS
 62
     1
 10
105.0
 20
99.0
 11
107.25
 21
99.0
  0
LINE
  8
0
  6
CONTINUOUS
 62
     1
 10
107.25
 20
99.0
 11
107.25
 21
98.5
  0
LINE
  8
0
  6
CONTINUOUS
 62
     1
 10
102.5
 20
99.0
 11
107.5
 21
99.0
  0
CIRCLE
  8
0
  6
CONTINUOUS
 62
     1
 10
105.0
 20
180.0
 40
30.225
  0
CIRCLE
  8
0
  6
CONTINUOUS
 62
     1
 10
105.0
 20
180.0
 40
30.95
  0
CIRCLE
  8
0
  6
CONTINUOUS
 62
     1
 10
105.0
 20
180.0
 40
32.0
  0
LINE
  8
0
  6
CONTINUOUS
 62
     1
 10
102.5
 20
98.5
 11
107.5
 21
98.5
  0
LINE
  8
0
  6
CONTINUOUS
 62
     1
 10
102.5
 20
96.0
 11
107.5
 21
96.0
  0
LINE
  8
0
  6
CONTINUOUS
 62
     1
 10
103.7
 20
92.5
 11
106.3
 21
92.5
  0
LINE
  8
0
  6
CONTINUOUS
 62
     1
 10
102.196699141
 20
220.5
 11
101.5
 21
219.803300859
  0
LINE
  8
0
  6
CONTINUOUS
 62
     1
 10
101.5
 20
218.035533906
 11
103.964466094
 21
220.5
  0
LINE
  8
0
  6
CONTINUOUS
 62
     1
 10
105.732233047
 20
220.5
 11
101.5
 21
216.267766953
  0
LINE
  8
0
  6
CONTINUOUS
 62
     1
 10
102.5
 20
215.5
 11
107.5
 21
220.5
  0
LINE
  8
0
  6
CONTINUOUS
 62
     1
 10
108.5
 20
219.732233047
 11
104.267766953
 21
215.5
  0
LINE
  8
0
  6
CONTINUOUS
 62
     1
 10
106.035533906
 20
215.5
 11
108.5
 21
217.964466094
  0
LINE
  8
0
  6
CONTINUOUS
 62
     1
 10
108.5
 20
216.196699141
 11
107.803300859
 21
215.5
  0
LINE
  8
0
  6
CONTINUOUS
 62
     1
 10
101.5
 20
216.196699141
 11
102.196699141
 21
215.5
  0
LINE
  8
0
  6
CONTINUOUS
 62
     1
 10
103.964466094
 20
215.5
 11
101.5
 21
217.964466094
  0
LINE
  8
0
  6
CONTINUOUS
 62
     1
 10
101.5
 20
219.732233047
 11
105.732233047
 21
215.5
  0
LINE
  8
0
  6
CONTINUOUS
 62
     1
 10
107.5
 20
215.5
 11
102.5
 21
220.5
  0
LINE
  8
0
  6
CONTINUOUS
 62
     1
 10
104.267766953
 20
220.5
 11
108.5
 21
216.267766953
  0
LINE
  8
0
  6
CONTINUOUS
 62
     1
 10
108.5
 20
218.035533906
 11
106.035533906
 21
220.5
  0
LINE
  8
0
  6
CONTINUOUS
 62
     1
 10
107.803300859
 20
220.5
 11
108.5
 21
219.803300859
  0
LINE
  8
0
  6
CONTINUOUS
 62
     1
 10
102.714466094
 20
98.5
 11
102.5
 21
98.285533906
  0
LINE
  8
0
  6
CONTINUOUS
 62
     1
 10
102.5
 20
96.517766953
 11
104.482233047
 21
98.5
  0
LINE
  8
0
  6
CONTINUOUS
 62
     1
 10
106.25
 20
98.5
 11
103.75
 21
96.0
  0
LINE
  8
0
  6
CONTINUOUS
 62
     1
 10
105.517766953
 20
96.0
 11
107.5
 21
97.982233047
  0
LINE
  8
0
  6
CONTINUOUS
 62
     1
 10
107.5
 20
96.214466094
 11
107.285533906
 21
96.0
  0
LINE
  8
0
  6
CONTINUOUS
 62
     1
 10
102.5
 20
96.214466094
 11
102.714466094
 21
96.0
  0
LINE
  8
0
  6
CONTINUOUS
 62
     1
 10
104.482233047
 20
96.0
 11
102.5
 21
97.982233047
  0
LINE
  8
0
  6
CONTINUOUS
 62
     1
 10
103.75
 20
98.5
 11
106.25
 21
96.0
  0
LINE
  8
0
  6
CONTINUOUS
 62
     1
 10
107.5
 20
96.517766953
 11
105.517766953
 21
98.5
  0
LINE
  8
0
  6
CONTINUOUS
 62
     1
 10
107.285533906
 20
98.5
 11
107.5
 21
98.285533906
  0
LINE
  8
0
  6
LTYPE2
 62
     2
 10
66.75
 20
180.0
 11
143.25
 21
180.0
  0
LINE
  8
0
  6
LTYPE2
 62
     2
 10
105.0
 20
86.5
 11
105.0
 21
226.0
  0
LINE
  8
0
  6
CONTINUOUS
 62
     1
 10
227.5
 20
211.25
 11
227.5
 21
148.75
  0
LINE
  8
0
  6
CONTINUOUS
 62
     1
 10
213.05
 20
211.25
 11
227.5
 21
211.25
  0
LINE
  8
0
  6
CONTINUOUS
 62
     1
 10
213.05
 20
148.75
 11
227.5
 21
148.75
  0
LINE
  8
0
  6
CONTINUOUS
 62
     1
 10
208.8
 20
213.25
 11
212.1
 21
213.25
  0
LINE
  8
0
  6
CONTINUOUS
 62
     1
 10
216.4
 20
121.75
 11
223.6
 21
121.75
  0
LINE
  8
0
  6
CONTINUOUS
 62
     1
 10
224.0
 20
148.75
 11
224.0
 21
126.75
  0
LINE
  8
0
  6
CONTINUOUS
 62
     1
 10
216.0
 20
148.75
 11
216.0
 21
126.75
  0
LINE
  8
0
  6
CONTINUOUS
 62
     1
 10
216.0
 20
126.75
 11
224.0
 21
126.75
  0
LINE
  8
0
  6
CONTINUOUS
 62
     1
 10
223.9
 20
126.75
 11
223.9
 21
122.05
  0
LINE
  8
0
  6
CONTINUOUS
 62
     1
 10
216.1
 20
126.75
 11
216.1
 21
122.05
  0
LINE
  8
0
  6
CONTINUOUS
 62
     1
 10
216.1
 20
122.05
 11
216.4
 21
121.75
  0
LINE
  8
0
  6
CONTINUOUS
 62
     1
 10
223.6
 20
121.75
 11
223.9
 21
122.05
  0
LINE
  8
0
  6
CONTINUOUS
 62
     1
 10
216.1
 20
122.05
 11
223.9
 21
122.05
  0
LINE
  8
0
  6
CONTINUOUS
 62
     1
 10
222.5
 20
121.75
 11
222.5
 21
99.0
  0
LINE
  8
0
  6
CONTINUOUS
 62
     1
 10
217.5
 20
121.75
 11
217.5
 21
99.0
  0
LINE
  8
0
  6
CONTINUOUS
 62
     1
 10
213.05
 20
211.9
 11
213.05
 21
148.1
  0
LINE
  8
0
  6
CONTINUOUS
 62
     1
 10
207.35
 20
210.95
 11
207.35
 21
149.05
  0
LINE
  8
0
  6
CONTINUOUS
 62
     1
 10
212.35
 20
211.9
 11
213.05
 21
211.9
  0
LINE
  8
0
  6
CONTINUOUS
 62
     1
 10
212.35
 20
213.0
 11
212.35
 21
211.9
  0
LINE
  8
0
  6
CONTINUOUS
 62
     1
 10
212.1
 20
213.25
 11
212.35
 21
213.0
  0
LINE
  8
0
  6
CONTINUOUS
 62
     1
 10
208.55
 20
213.0
 11
208.55
 21
147.0
  0
LINE
  8
0
  6
CONTINUOUS
 62
     1
 10
208.55
 20
213.0
 11
208.8
 21
213.25
  0
LINE
  8
0
  6
CONTINUOUS
 62
     1
 10
207.35
 20
210.95
 11
208.55
 21
212.0
  0
LINE
  8
0
  6
CONTINUOUS
 62
     1
 10
208.8
 20
146.75
 11
212.1
 21
146.75
  0
LINE
  8
0
  6
CONTINUOUS
 62
     1
 10
207.35
 20
149.05
 11
208.55
 21
148.0
  0
LINE
  8
0
  6
CONTINUOUS
 62
     1
 10
208.55
 20
147.0
 11
208.8
 21
146.75
  0
LINE
  8
0
  6
CONTINUOUS
 62
     1
 10
212.35
 20
148.1
 11
213.05
 21
148.1
  0
LINE
  8
0
  6
CONTINUOUS
 62
     1
 10
212.35
 20
147.0
 11
212.35
 21
148.1
  0
LINE
  8
0
  6
CONTINUOUS
 62
     1
 10
212.1
 20
146.75
 11
212.35
 21
147.0
  0
LINE
  8
0
  6
CONTINUOUS
 62
     1
 10
212.35
 20
211.9
 11
212.35
 21
148.1
  0
ARC
  8
0
  6
CONTINUOUS
 62
     1
 10
453.330574324
 20
180.0
 40
247.830574324
 50
172.994863817
 51
187.005136183
  0
LINE
  8
0
  6
CONTINUOUS
 62
     1
 10
208.55
 20
212.25
 11
212.35
 21
212.25
  0
LINE
  8
0
  6
CONTINUOUS
 62
     1
 10
208.55
 20
211.05
 11
212.35
 21
211.05
  0
LINE
  8
0
  6
CONTINUOUS
 62
     1
 10
208.55
 20
209.85
 11
212.35
 21
209.85
  0
LINE
  8
0
  6
CONTINUOUS
 62
     1
 10
208.55
 20
208.45
 11
212.35
 21
208.45
  0
LINE
  8
0
  6
CONTINUOUS
 62
     1
 10
208.55
 20
207.05
 11
212.35
 21
207.05
  0
LINE
  8
0
  6
CONTINUOUS
 62
     1
 10
208.55
 20
181.4
 11
212.35
 21
181.4
  0
LINE
  8
0
  6
CONTINUOUS
 62
     1
 10
208.55
 20
182.8
 11
212.35
 21
182.8
  0
LINE
  8
0
  6
CONTINUOUS
 62
     1
 10
208.55
 20
178.6
 11
212.35
 21
178.6
  0
LINE
  8
0
  6
CONTINUOUS
 62
     1
 10
208.55
 20
177.2
 11
212.35
 21
177.2
  0
LINE
  8
0
  6
CONTINUOUS
 62
     1
 10
208.55
 20
180.0
 11
212.35
 21
180.0
  0
LINE
  8
0
  6
CONTINUOUS
 62
     1
 10
208.55
 20
152.95
 11
212.35
 21
152.95
  0
LINE
  8
0
  6
CONTINUOUS
 62
     1
 10
208.55
 20
151.55
 11
212.35
 21
151.55
  0
LINE
  8
0
  6
CONTINUOUS
 62
     1
 10
208.55
 20
150.15
 11
212.35
 21
150.15
  0
LINE
  8
0
  6
CONTINUOUS
 62
     1
 10
208.55
 20
148.95
 11
212.35
 21
148.95
  0
LINE
  8
0
  6
CONTINUOUS
 62
     1
 10
208.55
 20
147.75
 11
212.35
 21
147.75
  0
LINE
  8
0
  6
CONTINUOUS
 62
     1
 10
224.0
 20
214.5
 11
224.0
 21
211.25
  0
LINE
  8
0
  6
CONTINUOUS
 62
     1
 10
216.0
 20
214.5
 11
216.0
 21
211.25
  0
LINE
  8
0
  6
CONTINUOUS
 62
     1
 10
216.5
 20
215.0
 11
223.5
 21
215.0
  0
ARC
  8
0
  6
CONTINUOUS
 62
     1
 10
216.5
 20
214.5
 40
0.5
 50
90.0
 51
180.0
  0
ARC
  8
0
  6
CONTINUOUS
 62
     1
 10
223.5
 20
214.5
 40
0.5
 50
0.0
 51
90.0
  0
LINE
  8
0
  6
CONTINUOUS
 62
     1
 10
223.5
 20
215.0
 11
216.5
 21
215.0
  0
LINE
  8
0
  6
CONTINUOUS
 62
     1
 10
223.0
 20
215.0
 11
217.0
 21
215.0
  0
LINE
  8
0
  6
CONTINUOUS
 62
     1
 10
223.5
 20
215.5
 11
216.5
 21
215.5
  0
ARC
  8
0
  6
CONTINUOUS
 62
     1
 10
220.0
 20
208.5
 40
12.5
 50
73.739795292
 51
106.260204708
  0
LINE
  8
0
  6
CONTINUOUS
 62
     1
 10
223.5
 20
220.5
 11
216.5
 21
220.5
  0
LINE
  8
0
  6
CONTINUOUS
 62
     1
 10
223.5
 20
215.5
 11
223.0
 21
215.0
  0
LINE
  8
0
  6
CONTINUOUS
 62
     1
 10
223.5
 20
220.5
 11
223.5
 21
215.5
  0
LINE
  8
0
  6
CONTINUOUS
 62
     1
 10
223.5
 20
220.488925882
 11
223.493606355
 21
220.5
  0
LINE
  8
0
  6
CONTINUOUS
 62
     1
 10
217.0
 20
215.0
 11
216.5
 21
215.5
  0
LINE
  8
0
  6
CONTINUOUS
 62
     1
 10
216.5
 20
220.5
 11
216.5
 21
215.5
  0
LINE
  8
0
  6
CONTINUOUS
 62
     1
 10
222.5
 20
99.0
 11
217.5
 21
99.0
  0
LINE
  8
0
  6
CONTINUOUS
 62
     1
 10
217.5
 20
98.5
 11
217.5
 21
96.0
  0
LINE
  8
0
  6
CONTINUOUS
 62
     1
 10
222.5
 20
98.5
 11
222.5
 21
96.0
  0
LINE
  8
0
  6
CONTINUOUS
 62
     1
 10
222.237822174
 20
96.0
 11
221.3
 21
92.5
  0
LINE
  8
0
  6
CONTINUOUS
 62
     1
 10
217.762177826
 20
96.0
 11
218.7
 21
92.5
  0
ARC
  8
0
  6
CONTINUOUS
 62
     1
 10
220.0
 20
92.65
 40
1.15
 50
187.494717454
 51
352.505282546
  0
LINE
  8
0
  6
CONTINUOUS
 62
     1
 10
220.0
 20
99.0
 11
222.25
 21
99.0
  0
LINE
  8
0
  6
CONTINUOUS
 62
     1
 10
222.25
 20
99.0
 11
222.25
 21
98.5
  0
LINE
  8
0
  6
CONTINUOUS
 62
     1
 10
220.0
 20
99.0
 11
217.75
 21
99.0
  0
LINE
  8
0
  6
CONTINUOUS
 62
     1
 10
217.75
 20
99.0
 11
217.75
 21
98.5
  0
LINE
  8
0
  6
CONTINUOUS
 62
     1
 10
217.5
 20
98.5
 11
222.5
 21
98.5
  0
LINE
  8
0
  6
CONTINUOUS
 62
     1
 10
217.5
 20
96.0
 11
222.5
 21
96.0
  0
LINE
  8
0
  6
CONTINUOUS
 62
     1
 10
221.3
 20
92.5
 11
218.7
 21
92.5
  0
LINE
  8
0
  6
CONTINUOUS
 62
     1
 10
217.196699141
 20
220.5
 11
216.5
 21
219.803300859
  0
LINE
  8
0
  6
CONTINUOUS
 62
     1
 10
216.5
 20
218.035533906
 11
218.964466094
 21
220.5
  0
LINE
  8
0
  6
CONTINUOUS
 62
     1
 10
220.732233047
 20
220.5
 11
216.5
 21
216.267766953
  0
LINE
  8
0
  6
CONTINUOUS
 62
     1
 10
217.5
 20
215.5
 11
222.5
 21
220.5
  0
LINE
  8
0
  6
CONTINUOUS
 62
     1
 10
223.5
 20
219.732233047
 11
219.267766953
 21
215.5
  0
LINE
  8
0
  6
CONTINUOUS
 62
     1
 10
221.035533906
 20
215.5
 11
223.5
 21
217.964466094
  0
LINE
  8
0
  6
CONTINUOUS
 62
     1
 10
223.5
 20
216.196699141
 11
222.803300859
 21
215.5
  0
LINE
  8
0
  6
CONTINUOUS
 62
     1
 10
216.5
 20
216.196699141
 11
217.196699141
 21
215.5
  0
LINE
  8
0
  6
CONTINUOUS
 62
     1
 10
218.964466094
 20
215.5
 11
216.5
 21
217.964466094
  0
LINE
  8
0
  6
CONTINUOUS
 62
     1
 10
216.5
 20
219.732233047
 11
220.732233047
 21
215.5
  0
LINE
  8
0
  6
CONTINUOUS
 62
     1
 10
222.5
 20
215.5
 11
217.5
 21
220.5
  0
LINE
  8
0
  6
CONTINUOUS
 62
     1
 10
219.267766953
 20
220.5
 11
223.5
 21
216.267766953
  0
LINE
  8
0
  6
CONTINUOUS
 62
     1
 10
223.5
 20
218.035533906
 11
221.035533906
 21
220.5
  0
LINE
  8
0
  6
CONTINUOUS
 62
     1
 10
222.803300859
 20
220.5
 11
223.5
 21
219.803300859
  0
LINE
  8
0
  6
CONTINUOUS
 62
     1
 10
217.714466094
 20
98.5
 11
217.5
 21
98.285533906
  0
LINE
  8
0
  6
CONTINUOUS
 62
     1
 10
217.5
 20
96.517766953
 11
219.482233047
 21
98.5
  0
LINE
  8
0
  6
CONTINUOUS
 62
     1
 10
221.25
 20
98.5
 11
218.75
 21
96.0
  0
LINE
  8
0
  6
CONTINUOUS
 62
     1
 10
220.517766953
 20
96.0
 11
222.5
 21
97.982233047
  0
LINE
  8
0
  6
CONTINUOUS
 62
     1
 10
222.5
 20
96.214466094
 11
222.285533906
 21
96.0
  0
LINE
  8
0
  6
CONTINUOUS
 62
     1
 10
217.5
 20
96.214466094
 11
217.714466094
 21
96.0
  0
LINE
  8
0
  6
CONTINUOUS
 62
     1
 10
219.482233047
 20
96.0
 11
217.5
 21
97.982233047
  0
LINE
  8
0
  6
CONTINUOUS
 62
     1
 10
218.75
 20
98.5
 11
221.25
 21
96.0
  0
LINE
  8
0
  6
CONTINUOUS
 62
     1
 10
222.5
 20
96.517766953
 11
220.517766953
 21
98.5
  0
LINE
  8
0
  6
CONTINUOUS
 62
     1
 10
222.285533906
 20
98.5
 11
222.5
 21
98.285533906
  0
LINE
  8
0
  6
LTYPE2
 62
     2
 10
200.5
 20
180.0
 11
258.0
 21
180.0
  0
LINE
  8
0
  6
LTYPE2
 62
     2
 10
220.0
 20
226.0
 11
220.0
 21
86.5
  0
CIRCLE
  8
0
  6
CONTINUOUS
 62
     1
 10
244.0
 20
180.0
 40
3.25
  0
ARC
  8
0
  6
CONTINUOUS
 62
     1
 10
244.0
 20
180.0
 40
8.0
 50
270.0
 51
90.0
  0
LINE
  8
0
  6
CONTINUOUS
 62
     1
 10
227.5
 20
150.5
 11
230.0
 21
150.5
  0
LINE
  8
0
  6
CONTINUOUS
 62
     1
 10
230.0
 20
150.5
 11
230.0
 21
209.5
  0
LINE
  8
0
  6
CONTINUOUS
 62
     1
 10
230.0
 20
150.5
 11
231.514607315
 21
150.5
  0
ARC
  8
0
  6
CONTINUOUS
 62
     1
 10
231.337077298
 20
150.592103709
 40
0.2
 50
332.579426719
 51
355.464042969
  0
LINE
  8
0
  6
CONTINUOUS
 62
     1
 10
227.5
 20
209.5
 11
230.0
 21
209.5
  0
LINE
  8
0
  6
CONTINUOUS
 62
     1
 10
230.0
 20
209.5
 11
231.514607315
 21
209.5
  0
ARC
  8
0
  6
CONTINUOUS
 62
     1
 10
231.337077298
 20
209.407896291
 40
0.2
 50
4.535957031
 51
27.420573281
  0
LINE
  8
0
  6
LTYPE2
 62
     2
 10
244.0
 20
185.0
 11
244.0
 21
175.0
  0
ARC
  8
4
  6
CONTINUOUS
 62
     1
 10
348.410372005
 20
203.410372005
 40
7.64273441
 50
27.412046226
 51
62.587953774
  0
ARC
  8
4
  6
CONTINUOUS
 62
     1
 10
349.919319913
 20
209.818299399
 40
2.044658199
 50
10.615752532
 51
79.384247468
  0
ARC
  8
4
  6
CONTINUOUS
 62
     1
 10
354.818299399
 20
204.919319913
 40
2.044658199
 50
10.615752532
 51
79.384247468
  0
LINE
  8
4
  6
CONTINUOUS
 62
     1
 10
356.643028458
 20
205.986174209
 11
356.827962736
 21
205.295990088
  0
LINE
  8
4
  6
CONTINUOUS
 62
     1
 10
350.986174209
 20
211.643028458
 11
350.295990088
 21
211.827962736
  0
LINE
  8
4
  6
CONTINUOUS
 62
     1
 10
356.643028458
 20
205.986174209
 11
350.986174209
 21
211.643028458
  0
LINE
  8
4
  6
CONTINUOUS
 62
     1
 10
352.130840189
 20
200.598867541
 11
356.827962736
 21
205.295990088
  0
LINE
  8
4
  6
CONTINUOUS
 62
     1
 10
345.598867541
 20
207.130840189
 11
350.295990088
 21
211.827962736
  0
LINE
  8
4
  6
CONTINUOUS
 62
     1
 10
352.130840189
 20
200.598867541
 11
345.598867541
 21
207.130840189
  0
LINE
  8
4
  6
CONTINUOUS
 62
     1
 10
350.716626626
 20
199.184653979
 11
344.184653979
 21
205.716626626
  0
LINE
  8
4
  6
CONTINUOUS
 62
     1
 10
350.497847027
 20
202.231860703
 11
355.194969574
 21
206.92898325
  0
LINE
  8
4
  6
CONTINUOUS
 62
     1
 10
347.231860703
 20
205.497847027
 11
351.92898325
 21
210.194969574
  0
LINE
  8
4
  6
CONTINUOUS
 62
     1
 10
351.339727599
 20
201.389980131
 11
350.809397513
 21
200.859650045
  0
LINE
  8
4
  6
CONTINUOUS
 62
     1
 10
350.809397513
 20
200.859650045
 11
345.859650045
 21
205.809397513
  0
LINE
  8
4
  6
CONTINUOUS
 62
     1
 10
346.389980131
 20
206.339727599
 11
345.859650045
 21
205.809397513
  0
LINE
  8
4
  6
CONTINUOUS
 62
     1
 10
345.506096654
 20
204.395183951
 11
346.389980131
 21
205.279067427
  0
LINE
  8
4
  6
CONTINUOUS
 62
     1
 10
349.395183951
 20
200.506096654
 11
350.279067427
 21
201.389980131
  0
LINE
  8
4
  6
CONTINUOUS
 62
     2
 10
350.809397513
 20
201.920310217
 11
350.279067427
 21
201.389980131
  0
LINE
  8
4
  6
CONTINUOUS
 62
     2
 10
346.920310217
 20
205.809397513
 11
346.389980131
 21
205.279067427
  0
LINE
  8
4
  6
LTYPE1
 62
     2
 10
371.492270863
 20
226.492270863
 11
343.561553006
 21
198.561553006
  0
LINE
  8
4
  6
CONTINUOUS
 62
     1
 10
343.588408734
 20
205.120381381
 11
344.184653979
 21
205.716626626
  0
LINE
  8
4
  6
CONTINUOUS
 62
     1
 10
345.403671362
 20
203.669657686
 11
345.817647141
 21
204.083633465
  0
LINE
  8
4
  6
CONTINUOUS
 62
     1
 10
348.669657686
 20
200.403671362
 11
349.083633465
 21
200.817647141
  0
LINE
  8
4
  6
CONTINUOUS
 62
     1
 10
350.120381381
 20
198.588408734
 11
350.716626626
 21
199.184653979
  0
LINE
  8
4
  6
CONTINUOUS
 62
     1
 10
352.400390468
 20
210.228812198
 11
366.542526092
 21
224.370947822
  0
LINE
  8
4
  6
CONTINUOUS
 62
     1
 10
355.228817593
 20
207.400385074
 11
369.370953217
 21
221.542520697
  0
ARC
  8
4
  6
CONTINUOUS
 62
     1
 10
366.719302787
 20
223.133510955
 40
1.25
 50
351.869897647
 51
98.130102353
  0
ARC
  8
4
  6
CONTINUOUS
 62
     1
 10
368.13351635
 20
221.719297393
 40
1.25
 50
351.869897645
 51
98.130102354
  0
ARC
  8
4
  6
CONTINUOUS
 62
     1
 10
369.194176522
 20
222.779957564
 40
1.25
 50
171.869897647
 51
278.130102353
  0
ARC
  8
0
  6
CONTINUOUS
 62
     1
 10
325.0
 20
180.0
 40
33.25
 50
96.909460136
 51
263.090539864
  0
LINE
  8
0
  6
CONTINUOUS
 62
     1
 10
321.5
 20
215.0
 11
328.5
 21
215.0
  0
ARC
  8
0
  6
CONTINUOUS
 62
     1
 10
321.5
 20
214.5
 40
0.5
 50
90.0
 51
180.0
  0
LINE
  8
0
  6
CONTINUOUS
 62
     1
 10
321.0
 20
214.5
 11
321.0
 21
210.992942745
  0
ARC
  8
0
  6
CONTINUOUS
 62
     1
 10
328.5
 20
214.5
 40
0.5
 50
0.0
 51
90.0
  0
LINE
  8
0
  6
CONTINUOUS
 62
     1
 10
329.0
 20
214.5
 11
329.0
 21
210.992942745
  0
CIRCLE
  8
0
  6
CONTINUOUS
 62
     1
 10
325.0
 20
180.0
 40
31.25
  0
LINE
  8
0
  6
CONTINUOUS
 62
     1
 10
327.5
 20
191.326655966
 11
327.5
 21
168.673344034
  0
LINE
  8
0
  6
CONTINUOUS
 62
     1
 10
322.5
 20
191.326655966
 11
322.5
 21
168.673344034
  0
CIRCLE
  8
0
  6
CONTINUOUS
 62
     1
 10
297.25
 20
180.0
 40
1.75
  0
LINE
  8
0
  6
CONTINUOUS
 62
     1
 10
296.380003642
 20
179.130003642
 11
298.119996358
 21
180.869996358
  0
LINE
  8
0
  6
CONTINUOUS
 62
     1
 10
298.119996358
 20
179.130003642
 11
296.380003642
 21
180.869996358
  0
LINE
  8
0
  6
CONTINUOUS
 62
     1
 10
328.25
 20
189.25
 11
328.25
 21
170.75
  0
LINE
  8
0
  6
CONTINUOUS
 62
     1
 10
321.75
 20
189.25
 11
321.75
 21
170.75
  0
ARC
  8
0
  6
CONTINUOUS
 62
     1
 10
325.0
 20
189.25
 40
3.25
 50
0.0
 51
180.0
  0
ARC
  8
0
  6
CONTINUOUS
 62
     1
 10
325.0
 20
170.75
 40
3.25
 50
180.0
 51
0.0
  0
LINE
  8
0
  6
CONTINUOUS
 62
     1
 10
325.0
 20
99.0
 11
322.75
 21
99.0
  0
LINE
  8
0
  6
CONTINUOUS
 62
     1
 10
327.5
 20
99.0
 11
322.5
 21
99.0
  0
LINE
  8
0
  6
CONTINUOUS
 62
     1
 10
325.0
 20
99.0
 11
327.25
 21
99.0
  0
LINE
  8
0
  6
CONTINUOUS
 62
     1
 10
327.5
 20
121.75
 11
327.5
 21
99.0
  0
LINE
  8
0
  6
CONTINUOUS
 62
     1
 10
322.5
 20
121.75
 11
322.5
 21
99.0
  0
LINE
  8
0
  6
CONTINUOUS
 62
     1
 10
328.9
 20
122.05
 11
321.1
 21
122.05
  0
LINE
  8
0
  6
CONTINUOUS
 62
     1
 10
329.0
 20
126.75
 11
321.0
 21
126.75
  0
LINE
  8
0
  6
CONTINUOUS
 62
     1
 10
328.6
 20
121.75
 11
321.4
 21
121.75
  0
LINE
  8
0
  6
CONTINUOUS
 62
     1
 10
321.4
 20
121.75
 11
321.1
 21
122.05
  0
LINE
  8
0
  6
CONTINUOUS
 62
     1
 10
321.1
 20
126.75
 11
321.1
 21
122.05
  0
LINE
  8
0
  6
CONTINUOUS
 62
     1
 10
328.9
 20
122.05
 11
328.6
 21
121.75
  0
LINE
  8
0
  6
CONTINUOUS
 62
     1
 10
328.9
 20
126.75
 11
328.9
 21
122.05
  0
LINE
  8
0
  6
CONTINUOUS
 62
     1
 10
322.5
 20
99.0
 11
327.5
 21
99.0
  0
LINE
  8
0
  6
CONTINUOUS
 62
     1
 10
321.5
 20
215.0
 11
328.5
 21
215.0
  0
LINE
  8
0
  6
CONTINUOUS
 62
     1
 10
322.0
 20
215.0
 11
328.0
 21
215.0
  0
LINE
  8
0
  6
CONTINUOUS
 62
     1
 10
321.5
 20
215.5
 11
328.5
 21
215.5
  0
ARC
  8
0
  6
CONTINUOUS
 62
     1
 10
325.0
 20
208.5
 40
12.5
 50
73.739795292
 51
106.260204708
  0
LINE
  8
0
  6
CONTINUOUS
 62
     1
 10
321.5
 20
220.5
 11
328.5
 21
220.5
  0
LINE
  8
0
  6
CONTINUOUS
 62
     1
 10
321.5
 20
215.5
 11
322.0
 21
215.0
  0
LINE
  8
0
  6
CONTINUOUS
 62
     1
 10
321.5
 20
220.5
 11
321.5
 21
215.5
  0
LINE
  8
0
  6
CONTINUOUS
 62
     1
 10
321.5
 20
220.488925882
 11
321.506393645
 21
220.5
  0
LINE
  8
0
  6
CONTINUOUS
 62
     1
 10
328.0
 20
215.0
 11
328.5
 21
215.5
  0
LINE
  8
0
  6
CONTINUOUS
 62
     1
 10
328.5
 20
220.5
 11
328.5
 21
215.5
  0
LINE
  8
0
  6
CONTINUOUS
 62
     1
 10
327.5
 20
98.5
 11
327.5
 21
96.0
  0
LINE
  8
0
  6
CONTINUOUS
 62
     1
 10
322.5
 20
98.5
 11
322.5
 21
96.0
  0
LINE
  8
0
  6
CONTINUOUS
 62
     1
 10
322.762177826
 20
96.0
 11
323.7
 21
92.5
  0
LINE
  8
0
  6
CONTINUOUS
 62
     1
 10
327.237822174
 20
96.0
 11
326.3
 21
92.5
  0
ARC
  8
0
  6
CONTINUOUS
 62
     1
 10
325.0
 20
92.65
 40
1.15
 50
187.494717454
 51
352.505282546
  0
LINE
  8
0
  6
CONTINUOUS
 62
     1
 10
325.0
 20
99.0
 11
322.75
 21
99.0
  0
LINE
  8
0
  6
CONTINUOUS
 62
     1
 10
322.75
 20
99.0
 11
322.75
 21
98.5
  0
LINE
  8
0
  6
CONTINUOUS
 62
     1
 10
325.0
 20
99.0
 11
327.25
 21
99.0
  0
LINE
  8
0
  6
CONTINUOUS
 62
     1
 10
327.25
 20
99.0
 11
327.25
 21
98.5
  0
LINE
  8
0
  6
CONTINUOUS
 62
     1
 10
327.5
 20
98.5
 11
322.5
 21
98.5
  0
LINE
  8
0
  6
CONTINUOUS
 62
     1
 10
322.5
 20
96.0
 11
327.5
 21
96.0
  0
LINE
  8
0
  6
CONTINUOUS
 62
     1
 10
323.7
 20
92.5
 11
326.3
 21
92.5
  0
LINE
  8
0
  6
CONTINUOUS
 62
     1
 10
327.803300859
 20
220.5
 11
328.5
 21
219.803300859
  0
LINE
  8
0
  6
CONTINUOUS
 62
     1
 10
328.5
 20
218.035533906
 11
326.035533906
 21
220.5
  0
LINE
  8
0
  6
CONTINUOUS
 62
     1
 10
324.267766953
 20
220.5
 11
328.5
 21
216.267766953
  0
LINE
  8
0
  6
CONTINUOUS
 62
     1
 10
327.5
 20
215.5
 11
322.5
 21
220.5
  0
LINE
  8
0
  6
CONTINUOUS
 62
     1
 10
321.5
 20
219.732233047
 11
325.732233047
 21
215.5
  0
LINE
  8
0
  6
CONTINUOUS
 62
     1
 10
323.964466094
 20
215.5
 11
321.5
 21
217.964466094
  0
LINE
  8
0
  6
CONTINUOUS
 62
     1
 10
321.5
 20
216.196699141
 11
322.196699141
 21
215.5
  0
LINE
  8
0
  6
CONTINUOUS
 62
     1
 10
328.5
 20
216.196699141
 11
327.803300859
 21
215.5
  0
LINE
  8
0
  6
CONTINUOUS
 62
     1
 10
326.035533906
 20
215.5
 11
328.5
 21
217.964466094
  0
LINE
  8
0
  6
CONTINUOUS
 62
     1
 10
328.5
 20
219.732233047
 11
324.267766953
 21
215.5
  0
LINE
  8
0
  6
CONTINUOUS
 62
     1
 10
322.5
 20
215.5
 11
327.5
 21
220.5
  0
LINE
  8
0
  6
CONTINUOUS
 62
     1
 10
325.732233047
 20
220.5
 11
321.5
 21
216.267766953
  0
LINE
  8
0
  6
CONTINUOUS
 62
     1
 10
321.5
 20
218.035533906
 11
323.964466094
 21
220.5
  0
LINE
  8
0
  6
CONTINUOUS
 62
     1
 10
322.196699141
 20
220.5
 11
321.5
 21
219.803300859
  0
LINE
  8
0
  6
CONTINUOUS
 62
     1
 10
327.285533906
 20
98.5
 11
327.5
 21
98.285533906
  0
LINE
  8
0
  6
CONTINUOUS
 62
     1
 10
327.5
 20
96.517766953
 11
325.517766953
 21
98.5
  0
LINE
  8
0
  6
CONTINUOUS
 62
     1
 10
323.75
 20
98.5
 11
326.25
 21
96.0
  0
LINE
  8
0
  6
CONTINUOUS
 62
     1
 10
324.482233047
 20
96.0
 11
322.5
 21
97.982233047
  0
LINE
  8
0
  6
CONTINUOUS
 62
     1
 10
322.5
 20
96.214466094
 11
322.714466094
 21
96.0
  0
LINE
  8
0
  6
CONTINUOUS
 62
     1
 10
327.5
 20
96.214466094
 11
327.285533906
 21
96.0
  0
LINE
  8
0
  6
CONTINUOUS
 62
     1
 10
325.517766953
 20
96.0
 11
327.5
 21
97.982233047
  0
LINE
  8
0
  6
CONTINUOUS
 62
     1
 10
326.25
 20
98.5
 11
323.75
 21
96.0
  0
LINE
  8
0
  6
CONTINUOUS
 62
     1
 10
322.5
 20
96.517766953
 11
324.482233047
 21
98.5
  0
LINE
  8
0
  6
CONTINUOUS
 62
     1
 10
322.714466094
 20
98.5
 11
322.5
 21
98.285533906
  0
LINE
  8
0
  6
LTYPE2
 62
     2
 10
363.25
 20
180.0
 11
286.75
 21
180.0
  0
LINE
  8
0
  6
LTYPE2
 62
     2
 10
325.0
 20
86.5
 11
325.0
 21
226.0
  0
ARC
  8
0
  6
CONTINUOUS
 62
     1
 10
325.0
 20
180.0
 40
33.25
 50
51.042328419
 51
83.090539864
  0
ARC
  8
0
  6
CONTINUOUS
 62
     1
 10
325.0
 20
180.0
 40
33.25
 50
276.909460136
 51
38.957671581
  0
CIRCLE
  8
0
  6
CONTINUOUS
 62
     1
 10
325.0
 20
180.0
 40
29.7
  0
LINE
  8
0
  6
CONTINUOUS
 62
     1
 10
329.0
 20
149.007057255
 11
329.0
 21
126.75
  0
LINE
  8
0
  6
CONTINUOUS
 62
     1
 10
321.0
 20
149.007057255
 11
321.0
 21
126.75
  0
ARC
  8
0
  6
CONTINUOUS
 62
     1
 10
325.0
 20
180.0
 40
31.9
 50
97.203385153
 51
262.796614847
  0
ARC
  8
0
  6
CONTINUOUS
 62
     1
 10
325.0
 20
180.0
 40
31.9
 50
53.32512084
 51
82.796614847
  0
ARC
  8
0
  6
CONTINUOUS
 62
     1
 10
325.0
 20
180.0
 40
31.9
 50
277.203385153
 51
36.67487916
  0
LINE
  8
0
  6
LTYPE3
 62
     2
 10
322.5
 20
176.75
 11
327.5
 21
176.75
  0
LINE
  8
0
  6
LTYPE3
 62
     2
 10
322.5
 20
183.25
 11
327.5
 21
183.25
  0
CIRCLE
  8
0
  6
LTYPE2
 62
     2
 10
325.0
 20
180.0
 40
27.75
  0
CIRCLE
  8
0
  6
CONTINUOUS
 62
     1
 10
338.875
 20
155.967795045
 40
1.75
  0
LINE
  8
0
  6
CONTINUOUS
 62
     1
 10
339.193440768
 20
157.156232171
 11
338.556559232
 21
154.779357919
  0
LINE
  8
0
  6
CONTINUOUS
 62
     1
 10
340.063437126
 20
155.649354277
 11
337.686562874
 21
156.286235813
  0
LINE
  8
0
  6
LTYPE2
 62
     2
 10
340.336219631
 20
153.436888402
 11
337.38507609
 21
158.548418957
  0
CIRCLE
  8
0
  6
CONTINUOUS
 62
     1
 10
338.875
 20
204.032204955
 40
1.75
  0
LINE
  8
0
  6
CONTINUOUS
 62
     1
 10
337.686562874
 20
203.713764187
 11
340.063437126
 21
204.350645723
  0
LINE
  8
0
  6
CONTINUOUS
 62
     1
 10
338.556559232
 20
205.220642081
 11
339.193440768
 21
202.843767829
  0
LINE
  8
0
  6
LTYPE2
 62
     2
 10
340.336219631
 20
206.563111598
 11
337.38507609
 21
201.451581043
  0
LINE
  8
5
  6
CONTINUOUS
 62
     2
 10
106.0
 20
221.0
 11
154.25
 21
221.0
  0
LINE
  8
5
  6
CONTINUOUS
 62
     2
 10
153.25
 20
221.0
 11
152.602952387
 21
218.585185434
  0
LINE
  8
5
  6
CONTINUOUS
 62
     2
 10
153.25
 20
221.0
 11
153.897047613
 21
218.585185434
  0
LINE
  8
5
  6
CONTINUOUS
 62
     2
 10
153.25
 20
221.0
 11
153.25
 21
180.0
  0
LINE
  8
5
  6
CONTINUOUS
 62
     2
 10
153.25
 20
180.0
 11
153.897047613
 21
182.414814566
  0
LINE
  8
5
  6
CONTINUOUS
 62
     2
 10
153.25
 20
180.0
 11
152.602952387
 21
182.414814566
  0
LINE
  8
5
  6
CONTINUOUS
 62
     2
 10
143.25
 20
180.0
 11
154.25
 21
180.0
  0
TEXT
  8
5
  6
CONTINUOUS
 62
     5
 10
152.25
 20
196.95
 30
0.1
 40
4.0
  1
４１
 50
90.0
 41
0.875
 51
0.0
  7
KANJI3
  0
LINE
  8
5
  6
CONTINUOUS
 62
     2
 10
153.25
 20
180.0
 11
152.602952387
 21
177.585185434
  0
LINE
  8
5
  6
CONTINUOUS
 62
     2
 10
153.25
 20
180.0
 11
153.897047613
 21
177.585185434
  0
LINE
  8
5
  6
CONTINUOUS
 62
     2
 10
153.25
 20
180.0
 11
153.25
 21
91.5
  0
LINE
  8
5
  6
CONTINUOUS
 62
     2
 10
153.25
 20
91.5
 11
153.897047613
 21
93.914814566
  0
LINE
  8
5
  6
CONTINUOUS
 62
     2
 10
153.25
 20
91.5
 11
152.602952387
 21
93.914814566
  0
LINE
  8
5
  6
CONTINUOUS
 62
     2
 10
106.0
 20
91.5
 11
154.25
 21
91.5
  0
TEXT
  8
5
  6
CONTINUOUS
 62
     5
 10
152.25
 20
128.6
 30
0.1
 40
4.0
  1
８８．５
 50
90.0
 41
0.875
 51
0.0
  7
KANJI3
  0
LINE
  8
5
  6
CONTINUOUS
 62
     2
 10
154.25
 20
91.5
 11
164.25
 21
91.5
  0
LINE
  8
5
  6
CONTINUOUS
 62
     2
 10
163.25
 20
91.5
 11
163.897047613
 21
93.914814566
  0
LINE
  8
5
  6
CONTINUOUS
 62
     2
 10
163.25
 20
91.5
 11
162.602952387
 21
93.914814566
  0
LINE
  8
5
  6
CONTINUOUS
 62
     2
 10
163.25
 20
91.5
 11
163.25
 21
221.0
  0
LINE
  8
5
  6
CONTINUOUS
 62
     2
 10
163.25
 20
221.0
 11
162.602952387
 21
218.585185434
  0
LINE
  8
5
  6
CONTINUOUS
 62
     2
 10
163.25
 20
221.0
 11
163.897047613
 21
218.585185434
  0
LINE
  8
5
  6
CONTINUOUS
 62
     2
 10
154.25
 20
221.0
 11
164.25
 21
221.0
  0
TEXT
  8
5
  6
CONTINUOUS
 62
     5
 10
162.25
 20
147.3
 30
0.1
 40
4.0
  1
１２９．５
 50
90.0
 41
0.875
 51
0.0
  7
KANJI3
  0
LINE
  8
5
  6
CONTINUOUS
 62
     2
 10
216.0
 20
131.75
 11
218.414814566
 21
131.102952387
  0
LINE
  8
5
  6
CONTINUOUS
 62
     2
 10
216.0
 20
131.75
 11
218.414814566
 21
132.397047613
  0
LINE
  8
5
  6
CONTINUOUS
 62
     2
 10
216.0
 20
131.75
 11
240.74
 21
131.75
  0
LINE
  8
5
  6
CONTINUOUS
 62
     2
 10
224.0
 20
131.75
 11
221.585185434
 21
132.397047613
  0
LINE
  8
5
  6
CONTINUOUS
 62
     2
 10
224.0
 20
131.75
 11
221.585185434
 21
131.102952387
  0
TEXT
  8
5
  6
CONTINUOUS
 62
     5
 10
226.5
 20
132.75
 30
0.1
 40
4.0
  1
８
 50
0.0
 41
0.875
 51
0.0
  7
KANJI3
  0
TEXT
  8
5
  6
CONTINUOUS
 62
     5
 10
230.1
 20
132.75
 30
0.06
 40
2.4
  1
－０．０３
 50
0.0
 41
0.875
 51
0.0
  7
KANJI4
  0
TEXT
  8
5
  6
CONTINUOUS
 62
     5
 10
230.1
 20
135.15
 30
0.06
 40
2.4
  1
　０
 50
0.0
 41
0.875
 51
0.0
  7
KANJI4
  0
LINE
  8
5
  6
CONTINUOUS
 62
     2
 10
220.0
 20
226.0
 11
220.0
 21
232.0
  0
LINE
  8
5
  6
CONTINUOUS
 62
     2
 10
220.0
 20
231.0
 11
222.414814566
 21
230.352952387
  0
LINE
  8
5
  6
CONTINUOUS
 62
     2
 10
220.0
 20
231.0
 11
222.414814566
 21
231.647047613
  0
LINE
  8
5
  6
CONTINUOUS
 62
     2
 10
220.0
 20
231.0
 11
227.5
 21
231.0
  0
LINE
  8
5
  6
CONTINUOUS
 62
     2
 10
227.5
 20
231.0
 11
225.085185434
 21
231.647047613
  0
LINE
  8
5
  6
CONTINUOUS
 62
     2
 10
227.5
 20
231.0
 11
225.085185434
 21
230.352952387
  0
LINE
  8
5
  6
CONTINUOUS
 62
     2
 10
227.5
 20
212.25
 11
227.5
 21
232.0
  0
TEXT
  8
5
  6
CONTINUOUS
 62
     5
 10
220.15
 20
232.0
 30
0.1
 40
4.0
  1
７．５
 50
0.0
 41
0.875
 51
0.0
  7
KANJI3
  0
LINE
  8
5
  6
CONTINUOUS
 62
     2
 10
205.5
 20
181.0
 11
205.5
 21
242.0
  0
LINE
  8
5
  6
CONTINUOUS
 62
     2
 10
205.5
 20
241.0
 11
207.914814566
 21
240.352952387
  0
LINE
  8
5
  6
CONTINUOUS
 62
     2
 10
205.5
 20
241.0
 11
207.914814566
 21
241.647047613
  0
LINE
  8
5
  6
CONTINUOUS
 62
     2
 10
205.5
 20
241.0
 11
220.0
 21
241.0
  0
LINE
  8
5
  6
CONTINUOUS
 62
     2
 10
220.0
 20
241.0
 11
217.585185434
 21
241.647047613
  0
LINE
  8
5
  6
CONTINUOUS
 62
     2
 10
220.0
 20
241.0
 11
217.585185434
 21
240.352952387
  0
LINE
  8
5
  6
CONTINUOUS
 62
     2
 10
220.0
 20
232.0
 11
220.0
 21
242.0
  0
TEXT
  8
5
  6
CONTINUOUS
 62
     5
 10
205.6
 20
242.0
 30
0.1
 40
4.0
  1
１４．５
 50
0.0
 41
0.875
 51
0.0
  7
KANJI3
  0
LINE
  8
5
  6
CONTINUOUS
 62
     2
 10
220.0
 20
241.0
 11
222.414814566
 21
240.352952387
  0
LINE
  8
5
  6
CONTINUOUS
 62
     2
 10
220.0
 20
241.0
 11
222.414814566
 21
241.647047613
  0
LINE
  8
5
  6
CONTINUOUS
 62
     2
 10
220.0
 20
241.0
 11
244.0
 21
241.0
  0
LINE
  8
5
  6
CONTINUOUS
 62
     2
 10
244.0
 20
241.0
 11
241.585185434
 21
241.647047613
  0
LINE
  8
5
  6
CONTINUOUS
 62
     2
 10
244.0
 20
241.0
 11
241.585185434
 21
240.352952387
  0
LINE
  8
5
  6
CONTINUOUS
 62
     2
 10
244.0
 20
185.0
 11
244.0
 21
242.0
  0
TEXT
  8
5
  6
CONTINUOUS
 62
     5
 10
228.45
 20
242.0
 30
0.1
 40
4.0
  1
２４
 50
0.0
 41
0.875
 51
0.0
  7
KANJI3
  0
LINE
  8
5
  6
CONTINUOUS
 62
     2
 10
249.656854249
 20
174.343145751
 11
250.906854249
 21
172.178082241
  0
LINE
  8
5
  6
CONTINUOUS
 62
     2
 10
249.656854249
 20
174.343145751
 11
251.821917759
 21
173.093145751
  0
LINE
  8
5
  6
CONTINUOUS
 62
     2
 10
244.0
 20
180.0
 11
259.020458146
 21
164.979541854
  0
TEXT
  8
5
  6
CONTINUOUS
 62
     5
 10
254.707106781
 20
170.707106781
 30
0.1
 40
4.0
  1
Ｒ８
 50
315.0
 41
0.875
 51
0.0
  7
KANJI3
  0
LINE
  8
5
  6
CONTINUOUS
 62
     2
 10
228.5
 20
211.25
 11
274.0
 21
211.25
  0
LINE
  8
5
  6
CONTINUOUS
 62
     2
 10
273.0
 20
211.25
 11
272.352952387
 21
208.835185434
  0
LINE
  8
5
  6
CONTINUOUS
 62
     2
 10
273.0
 20
211.25
 11
273.647047613
 21
208.835185434
  0
LINE
  8
5
  6
CONTINUOUS
 62
     2
 10
273.0
 20
211.25
 11
273.0
 21
148.75
  0
LINE
  8
5
  6
CONTINUOUS
 62
     2
 10
273.0
 20
148.75
 11
273.647047613
 21
151.164814566
  0
LINE
  8
5
  6
CONTINUOUS
 62
     2
 10
273.0
 20
148.75
 11
272.352952387
 21
151.164814566
  0
LINE
  8
5
  6
CONTINUOUS
 62
     2
 10
228.5
 20
148.75
 11
274.0
 21
148.75
  0
TEXT
  8
5
  6
CONTINUOUS
 62
     5
 10
272.0
 20
171.05
 30
0.1
 40
4.0
  1
φ６２．５
 50
90.0
 41
0.875
 51
0.0
  7
KANJI3
  0
ARC
  8
0
  6
CONTINUOUS
 62
     1
 10
-40.067312759
 20
185.524185798
 40
272.653244678
 50
358.839059514
 51
5.028737862
  0
ARC
  8
0
  6
CONTINUOUS
 62
     1
 10
237.0
 20
192.150796687
 40
3.5
 50
180.0
 51
264.805571092
  0
ARC
  8
0
  6
CONTINUOUS
 62
     1
 10
233.0
 20
192.292893219
 40
0.5
 50
0.0
 51
45.0
  0
ARC
  8
0
  6
CONTINUOUS
 62
     1
 10
232.962199976
 20
193.744906805
 40
0.5
 50
181.724613416
 51
225.0
  0
LINE
  8
0
  6
CONTINUOUS
 62
     1
 10
236.683124889
 20
188.665170465
 11
244.0
 21
188.0
  0
LINE
  8
0
  6
CONTINUOUS
 62
     1
 10
233.353553391
 20
192.646446609
 11
232.608646586
 21
193.391353414
  0
ARC
  8
0
  6
CONTINUOUS
 62
     1
 10
-40.067312759
 20
174.475814202
 40
272.653244678
 50
354.971262138
 51
1.160940486
  0
ARC
  8
0
  6
CONTINUOUS
 62
     1
 10
237.0
 20
167.849203313
 40
3.5
 50
95.194428908
 51
180.0
  0
ARC
  8
0
  6
CONTINUOUS
 62
     1
 10
233.0
 20
167.707106781
 40
0.5
 50
315.0
 51
0.0
  0
ARC
  8
0
  6
CONTINUOUS
 62
     1
 10
232.962199976
 20
166.255093195
 40
0.5
 50
135.0
 51
178.275386584
  0
LINE
  8
0
  6
CONTINUOUS
 62
     1
 10
233.353553391
 20
167.353553391
 11
232.608646586
 21
166.608646586
  0
LINE
  8
0
  6
CONTINUOUS
 62
     1
 10
236.683124889
 20
171.334829535
 11
244.0
 21
172.0
  0
LINE
  8
0
  6
CONTINUOUS
 62
     1
 10
233.5
 20
192.292893219
 11
233.5
 21
167.707106781
  0
LINE
  8
5
  6
CONTINUOUS
 62
     2
 10
244.0
 20
200.0
 11
241.585185434
 21
200.647047613
  0
LINE
  8
5
  6
CONTINUOUS
 62
     2
 10
244.0
 20
200.0
 11
233.5
 21
200.0
  0
LINE
  8
5
  6
CONTINUOUS
 62
     2
 10
233.5
 20
200.0
 11
235.914814566
 21
199.352952387
  0
LINE
  8
5
  6
CONTINUOUS
 62
     2
 10
233.5
 20
200.0
 11
235.914814566
 21
200.647047613
  0
LINE
  8
5
  6
CONTINUOUS
 62
     2
 10
233.5
 20
193.150796687
 11
233.5
 21
201.0
  0
TEXT
  8
5
  6
CONTINUOUS
 62
     5
 10
232.475
 20
201.0
 30
-0.3
 40
4.0
  1
１０．５
 50
0.0
 41
0.875
 51
0.0
  7
KANJI5
  0
LINE
  8
5
  6
CONTINUOUS
 62
     2
 10
244.0
 20
200.0
 11
241.585185434
 21
199.352952387
  0
LINE
  8
5
  6
CONTINUOUS
 62
     2
 10
244.788240781
 20
183.152963125
 11
246.00164773
 21
185.338745268
  0
LINE
  8
5
  6
CONTINUOUS
 62
     2
 10
244.788240781
 20
183.152963125
 11
244.746190953
 21
185.652609463
  0
LINE
  8
5
  6
CONTINUOUS
 62
     2
 10
244.788240781
 20
183.152963125
 11
254.0
 21
220.0
  0
LINE
  8
5
  6
CONTINUOUS
 62
     2
 10
254.0
 20
220.0
 11
279.1
 21
220.0
  0
TEXT
  8
5
  6
CONTINUOUS
 62
     5
 10
254.0
 20
221.0
 30
0.1
 40
4.0
  1
φ６．５取付穴
 50
0.0
 41
0.875
 51
0.0
  7
KANJI3
  0
LINE
  8
5
  6
CONTINUOUS
 62
     2
 10
322.5
 20
167.673344034
 11
322.5
 21
156.5
  0
LINE
  8
5
  6
CONTINUOUS
 62
     2
 10
322.5
 20
157.5
 11
320.085185434
 21
158.147047613
  0
LINE
  8
5
  6
CONTINUOUS
 62
     2
 10
322.5
 20
157.5
 11
320.085185434
 21
156.852952387
  0
LINE
  8
5
  6
CONTINUOUS
 62
     2
 10
318.75
 20
157.5
 11
322.5
 21
157.5
  0
LINE
  8
5
  6
CONTINUOUS
 62
     2
 10
322.5
 20
157.5
 11
327.5
 21
157.5
  0
LINE
  8
5
  6
CONTINUOUS
 62
     2
 10
327.5
 20
157.5
 11
334.75
 21
157.5
  0
LINE
  8
5
  6
CONTINUOUS
 62
     2
 10
327.5
 20
157.5
 11
329.914814566
 21
156.852952387
  0
LINE
  8
5
  6
CONTINUOUS
 62
     2
 10
327.5
 20
157.5
 11
329.914814566
 21
158.147047613
  0
LINE
  8
5
  6
CONTINUOUS
 62
     2
 10
327.5
 20
167.673344034
 11
327.5
 21
156.5
  0
TEXT
  8
5
  6
CONTINUOUS
 62
     5
 10
331.25
 20
158.5
 30
0.1
 40
4.0
  1
５
 50
0.0
 41
0.875
 51
0.0
  7
KANJI3
  0
LINE
  8
5
  6
CONTINUOUS
 62
     2
 10
207.8
 20
146.75
 11
194.5
 21
146.75
  0
LINE
  8
5
  6
CONTINUOUS
 62
     2
 10
195.5
 20
146.75
 11
194.852952387
 21
144.335185434
  0
LINE
  8
5
  6
CONTINUOUS
 62
     2
 10
195.5
 20
146.75
 11
196.147047613
 21
144.335185434
  0
LINE
  8
5
  6
CONTINUOUS
 62
     2
 10
195.5
 20
146.75
 11
195.5
 21
126.75
  0
LINE
  8
5
  6
CONTINUOUS
 62
     2
 10
195.5
 20
126.75
 11
196.147047613
 21
129.164814566
  0
LINE
  8
5
  6
CONTINUOUS
 62
     2
 10
195.5
 20
126.75
 11
194.852952387
 21
129.164814566
  0
LINE
  8
5
  6
CONTINUOUS
 62
     2
 10
215.0
 20
126.75
 11
194.5
 21
126.75
  0
TEXT
  8
5
  6
CONTINUOUS
 62
     5
 10
194.5
 20
133.2
 30
0.1
 40
4.0
  1
２０
 50
90.0
 41
0.875
 51
0.0
  7
KANJI3
  0
LINE
  8
5
  6
CONTINUOUS
 62
     2
 10
207.8
 20
213.25
 11
194.5
 21
213.25
  0
LINE
  8
5
  6
CONTINUOUS
 62
     2
 10
195.5
 20
213.25
 11
194.852952387
 21
210.835185434
  0
LINE
  8
5
  6
CONTINUOUS
 62
     2
 10
195.5
 20
213.25
 11
196.147047613
 21
210.835185434
  0
LINE
  8
5
  6
CONTINUOUS
 62
     2
 10
195.5
 20
213.25
 11
195.5
 21
146.75
  0
LINE
  8
5
  6
CONTINUOUS
 62
     2
 10
195.5
 20
146.75
 11
196.147047613
 21
149.164814566
  0
LINE
  8
5
  6
CONTINUOUS
 62
     2
 10
195.5
 20
146.75
 11
194.852952387
 21
149.164814566
  0
TEXT
  8
5
  6
CONTINUOUS
 62
     5
 10
194.5
 20
172.85
 30
0.1
 40
4.0
  1
６６．５
 50
90.0
 41
0.875
 51
0.0
  7
KANJI3
  0
LINE
  8
5
  6
CONTINUOUS
 62
     2
 10
194.5
 20
146.75
 11
194.5
 21
146.75
  0
LINE
  8
5
  6
CONTINUOUS
 62
     2
 10
224.6
 20
121.75
 11
274.0
 21
121.75
  0
LINE
  8
5
  6
CONTINUOUS
 62
     2
 10
273.0
 20
121.75
 11
273.647047613
 21
124.164814566
  0
LINE
  8
5
  6
CONTINUOUS
 62
     2
 10
273.0
 20
121.75
 11
272.352952387
 21
124.164814566
  0
LINE
  8
5
  6
CONTINUOUS
 62
     2
 10
273.0
 20
121.75
 11
273.0
 21
148.75
  0
LINE
  8
5
  6
CONTINUOUS
 62
     2
 10
273.0
 20
148.75
 11
272.352952387
 21
146.335185434
  0
LINE
  8
5
  6
CONTINUOUS
 62
     2
 10
273.0
 20
148.75
 11
273.647047613
 21
146.335185434
  0
TEXT
  8
5
  6
CONTINUOUS
 62
     5
 10
272.0
 20
131.7
 30
0.1
 40
4.0
  1
２７
 50
90.0
 41
0.875
 51
0.0
  7
KANJI3
  0
TEXT
  8
6
  6
CONTINUOUS
 62
     5
 10
343.0
 20
23.0
 30
0.0
 40
4.0
  1
益子
 50
0.0
 41
0.875
 51
0.0
  7
KANJI6
  0
LINE
  8
7
  6
CONTINUOUS
 62
     2
 10
410.0
 20
198.5
 11
415.0
 21
198.5
  0
LINE
  8
7
  6
CONTINUOUS
 62
     2
 10
410.0
 20
248.5
 11
415.0
 21
248.5
  0
LINE
  8
7
  6
CONTINUOUS
 62
     2
 10
410.0
 20
98.5
 11
415.0
 21
98.5
  0
LINE
  8
7
  6
CONTINUOUS
 62
     2
 10
410.0
 20
48.5
 11
415.0
 21
48.5
  0
LINE
  8
7
  6
CONTINUOUS
 62
     2
 10
410.0
 20
75.0
 11
407.5
 21
75.0
  0
LINE
  8
7
  6
CONTINUOUS
 62
     2
 10
410.0
 20
83.0
 11
407.5
 21
83.0
  0
LINE
  8
7
  6
CONTINUOUS
 62
     2
 10
410.0
 20
91.0
 11
407.5
 21
91.0
  0
TEXT
  8
7
  6
CONTINUOUS
 62
     6
 10
411.5
 20
271.0
 30
0.0
 40
5.0
  1
Ａ
 50
0.0
 41
1.0
 51
0.0
  7
KANJI7
  0
TEXT
  8
7
  6
CONTINUOUS
 62
     6
 10
411.5
 20
221.0
 30
0.0
 40
5.0
  1
Ｂ
 50
0.0
 41
1.0
 51
0.0
  7
KANJI7
  0
TEXT
  8
7
  6
CONTINUOUS
 62
     6
 10
411.5
 20
171.0
 30
0.0
 40
5.0
  1
Ｃ
 50
0.0
 41
1.0
 51
0.0
  7
KANJI7
  0
TEXT
  8
7
  6
CONTINUOUS
 62
     6
 10
411.5
 20
121.0
 30
0.0
 40
5.0
  1
Ｄ
 50
0.0
 41
1.0
 51
0.0
  7
KANJI7
  0
TEXT
  8
7
  6
CONTINUOUS
 62
     6
 10
411.5
 20
71.0
 30
0.0
 40
5.0
  1
Ｅ
 50
0.0
 41
1.0
 51
0.0
  7
KANJI7
  0
TEXT
  8
7
  6
CONTINUOUS
 62
     6
 10
411.5
 20
21.0
 30
0.0
 40
5.0
  1
Ｆ
 50
0.0
 41
1.0
 51
0.0
  7
KANJI7
  0
LINE
  8
7
  6
CONTINUOUS
 62
     2
 10
25.0
 20
198.5
 11
20.0
 21
198.5
  0
LINE
  8
7
  6
CONTINUOUS
 62
     2
 10
25.0
 20
248.5
 11
20.0
 21
248.5
  0
LINE
  8
7
  6
CONTINUOUS
 62
     2
 10
25.0
 20
98.5
 11
20.0
 21
98.5
  0
LINE
  8
7
  6
CONTINUOUS
 62
     2
 10
25.0
 20
48.5
 11
20.0
 21
48.5
  0
TEXT
  8
7
  6
CONTINUOUS
 62
     6
 10
18.5
 20
271.0
 30
0.0
 40
5.0
  1
Ａ
 50
0.0
 41
1.0
 51
0.0
  7
KANJI7
  0
TEXT
  8
7
  6
CONTINUOUS
 62
     6
 10
18.5
 20
221.0
 30
0.0
 40
5.0
  1
Ｂ
 50
0.0
 41
1.0
 51
0.0
  7
KANJI7
  0
TEXT
  8
7
  6
CONTINUOUS
 62
     6
 10
18.5
 20
171.0
 30
0.0
 40
5.0
  1
Ｃ
 50
0.0
 41
1.0
 51
0.0
  7
KANJI7
  0
TEXT
  8
7
  6
CONTINUOUS
 62
     6
 10
18.5
 20
121.0
 30
0.0
 40
5.0
  1
Ｄ
 50
0.0
 41
1.0
 51
0.0
  7
KANJI7
  0
TEXT
  8
7
  6
CONTINUOUS
 62
     6
 10
18.5
 20
71.0
 30
0.0
 40
5.0
  1
Ｅ
 50
0.0
 41
1.0
 51
0.0
  7
KANJI7
  0
TEXT
  8
7
  6
CONTINUOUS
 62
     6
 10
18.5
 20
21.0
 30
0.0
 40
5.0
  1
Ｆ
 50
0.0
 41
1.0
 51
0.0
  7
KANJI7
  0
LINE
  8
7
  6
CONTINUOUS
 62
     2
 10
160.0
 20
287.0
 11
160.0
 21
292.0
  0
LINE
  8
7
  6
CONTINUOUS
 62
     2
 10
110.0
 20
292.0
 11
110.0
 21
287.0
  0
LINE
  8
7
  6
CONTINUOUS
 62
     2
 10
60.0
 20
292.0
 11
60.0
 21
287.0
  0
LINE
  8
7
  6
CONTINUOUS
 62
     2
 10
260.0
 20
292.0
 11
260.0
 21
287.0
  0
LINE
  8
7
  6
CONTINUOUS
 62
     2
 10
310.0
 20
292.0
 11
310.0
 21
287.0
  0
TEXT
  8
7
  6
CONTINUOUS
 62
     6
 10
32.0
 20
288.5
 30
0.0
 40
5.0
  1
１
 50
0.0
 41
1.2
 51
0.0
  7
KANJI8
  0
TEXT
  8
7
  6
CONTINUOUS
 62
     6
 10
82.0
 20
288.5
 30
0.0
 40
5.0
  1
２
 50
0.0
 41
1.2
 51
0.0
  7
KANJI8
  0
TEXT
  8
7
  6
CONTINUOUS
 62
     6
 10
132.0
 20
288.5
 30
0.0
 40
5.0
  1
３
 50
0.0
 41
1.2
 51
0.0
  7
KANJI8
  0
TEXT
  8
7
  6
CONTINUOUS
 62
     6
 10
182.0
 20
288.5
 30
0.0
 40
5.0
  1
４
 50
0.0
 41
1.2
 51
0.0
  7
KANJI8
  0
TEXT
  8
7
  6
CONTINUOUS
 62
     6
 10
232.0
 20
288.5
 30
0.0
 40
5.0
  1
５
 50
0.0
 41
1.2
 51
0.0
  7
KANJI8
  0
TEXT
  8
7
  6
CONTINUOUS
 62
     6
 10
282.0
 20
288.5
 30
0.0
 40
5.0
  1
６
 50
0.0
 41
1.2
 51
0.0
  7
KANJI8
  0
TEXT
  8
7
  6
CONTINUOUS
 62
     6
 10
332.0
 20
288.5
 30
0.0
 40
5.0
  1
７
 50
0.0
 41
1.2
 51
0.0
  7
KANJI8
  0
TEXT
  8
7
  6
CONTINUOUS
 62
     6
 10
382.0
 20
288.5
 30
0.0
 40
5.0
  1
８
 50
0.0
 41
1.2
 51
0.0
  7
KANJI8
  0
LINE
  8
7
  6
CONTINUOUS
 62
     2
 10
110.0
 20
5.0
 11
110.0
 21
10.0
  0
LINE
  8
7
  6
CONTINUOUS
 62
     2
 10
60.0
 20
5.0
 11
60.0
 21
10.0
  0
TEXT
  8
7
  6
CONTINUOUS
 62
     6
 10
32.0
 20
3.5
 30
0.0
 40
5.0
  1
１
 50
0.0
 41
1.2
 51
0.0
  7
KANJI8
  0
TEXT
  8
7
  6
CONTINUOUS
 62
     6
 10
82.0
 20
3.5
 30
0.0
 40
5.0
  1
２
 50
0.0
 41
1.2
 51
0.0
  7
KANJI8
  0
TEXT
  8
7
  6
CONTINUOUS
 62
     6
 10
132.0
 20
3.5
 30
0.0
 40
5.0
  1
３
 50
0.0
 41
1.2
 51
0.0
  7
KANJI8
  0
LINE
  8
7
  6
CONTINUOUS
 62
     2
 10
360.0
 20
287.0
 11
360.0
 21
292.0
  0
LINE
  8
7
  6
CONTINUOUS
 62
     6
 10
25.0
 20
287.0
 11
25.0
 21
10.0
  0
LINE
  8
7
  6
CONTINUOUS
 62
     6
 10
210.0
 20
10.0
 11
210.0
 21
0.0
  0
LINE
  8
7
  6
CONTINUOUS
 62
     6
 10
160.0
 20
10.0
 11
160.0
 21
5.0
  0
LINE
  8
7
  6
CONTINUOUS
 62
     6
 10
170.0
 20
10.0
 11
170.0
 21
5.0
  0
LINE
  8
7
  6
CONTINUOUS
 62
     6
 10
180.0
 20
10.0
 11
180.0
 21
5.0
  0
LINE
  8
7
  6
CONTINUOUS
 62
     6
 10
190.0
 20
10.0
 11
190.0
 21
5.0
  0
LINE
  8
7
  6
CONTINUOUS
 62
     6
 10
200.0
 20
10.0
 11
200.0
 21
5.0
  0
LINE
  8
7
  6
CONTINUOUS
 62
     6
 10
25.0
 20
10.0
 11
410.0
 21
10.0
  0
LINE
  8
7
  6
CONTINUOUS
 62
     6
 10
260.0
 20
5.0
 11
260.0
 21
10.0
  0
LINE
  8
7
  6
CONTINUOUS
 62
     6
 10
250.0
 20
5.0
 11
250.0
 21
10.0
  0
LINE
  8
7
  6
CONTINUOUS
 62
     6
 10
240.0
 20
5.0
 11
240.0
 21
10.0
  0
LINE
  8
7
  6
CONTINUOUS
 62
     6
 10
230.0
 20
5.0
 11
230.0
 21
10.0
  0
LINE
  8
7
  6
CONTINUOUS
 62
     6
 10
220.0
 20
5.0
 11
220.0
 21
10.0
  0
LINE
  8
7
  6
CONTINUOUS
 62
     6
 10
160.0
 20
5.0
 11
260.0
 21
5.0
  0
LINE
  8
7
  6
CONTINUOUS
 62
     6
 10
25.0
 20
148.5
 11
0.0
 21
148.5
  0
LINE
  8
7
  6
CONTINUOUS
 62
     6
 10
210.0
 20
287.0
 11
210.0
 21
297.0
  0
LINE
  8
7
  6
CONTINUOUS
 62
     6
 10
410.0
 20
287.0
 11
25.0
 21
287.0
  0
LINE
  8
7
  6
CONTINUOUS
 62
     6
 10
410.0
 20
148.5
 11
420.0
 21
148.5
  0
LINE
  8
7
  6
CONTINUOUS
 62
     6
 10
410.0
 20
10.0
 11
410.0
 21
287.0
  0
TEXT
  8
7
  6
CONTINUOUS
 62
     6
 10
285.0
 20
3.5
 30
0.0
 40
5.0
  1
６
 50
0.0
 41
1.2
 51
0.0
  7
KANJI8
  0
TEXT
  8
7
  6
CONTINUOUS
 62
     6
 10
335.0
 20
3.5
 30
0.0
 40
5.0
  1
７
 50
0.0
 41
1.2
 51
0.0
  7
KANJI8
  0
TEXT
  8
7
  6
CONTINUOUS
 62
     6
 10
385.0
 20
3.5
 30
0.0
 40
5.0
  1
８
 50
0.0
 41
1.2
 51
0.0
  7
KANJI8
  0
LINE
  8
7
  6
CONTINUOUS
 62
     2
 10
310.0
 20
5.0
 11
310.0
 21
10.0
  0
LINE
  8
7
  6
CONTINUOUS
 62
     2
 10
360.0
 20
5.0
 11
360.0
 21
10.0
  0
LINE
  8
7
  6
CONTINUOUS
 62
     2
 10
241.0
 20
67.0
 11
241.0
 21
10.0
  0
LINE
  8
7
  6
CONTINUOUS
 62
     2
 10
248.0
 20
67.0
 11
248.0
 21
10.0
  0
LINE
  8
7
  6
CONTINUOUS
 62
     2
 10
255.0
 20
67.0
 11
255.0
 21
10.0
  0
LINE
  8
7
  6
CONTINUOUS
 62
     2
 10
262.0
 20
67.0
 11
262.0
 21
10.0
  0
LINE
  8
7
  6
CONTINUOUS
 62
     2
 10
323.0
 20
43.0
 11
323.0
 21
21.0
  0
LINE
  8
7
  6
CONTINUOUS
 62
     2
 10
339.0
 20
43.0
 11
339.0
 21
21.0
  0
LINE
  8
7
  6
CONTINUOUS
 62
     2
 10
299.0
 20
43.0
 11
299.0
 21
32.0
  0
LINE
  8
7
  6
CONTINUOUS
 62
     2
 10
269.0
 20
67.0
 11
269.0
 21
10.0
  0
LINE
  8
7
  6
CONTINUOUS
 62
     2
 10
291.0
 20
32.0
 11
291.0
 21
10.0
  0
LINE
  8
7
  6
CONTINUOUS
 62
     2
 10
307.0
 20
32.0
 11
307.0
 21
10.0
  0
LINE
  8
7
  6
CONTINUOUS
 62
     2
 10
355.0
 20
43.0
 11
355.0
 21
10.0
  0
LINE
  8
7
  6
LTYPE4
 62
     2
 10
313.0
 20
13.5
 11
317.0
 21
13.5
  0
LINE
  8
7
  6
LTYPE4
 62
     2
 10
317.0
 20
13.5
 11
317.0
 21
17.5
  0
LINE
  8
7
  6
LTYPE4
 62
     2
 10
317.0
 20
17.5
 11
313.0
 21
17.5
  0
LINE
  8
7
  6
LTYPE4
 62
     2
 10
313.0
 20
17.5
 11
313.0
 21
13.5
  0
TEXT
  8
7
  6
CONTINUOUS
 62
     4
 10
356.0
 20
47.0
 30
-0.5
 40
3.0
  1
１セット分
 50
0.0
 41
0.666666667
 51
0.0
  7
KANJI9
  0
TEXT
  8
7
  6
CONTINUOUS
 62
     4
 10
345.0
 20
47.0
 30
0.0
 40
3.0
  1
１台分
 50
0.0
 41
1.0
 51
0.0
  7
KANJI0
  0
TEXT
  8
7
  6
CONTINUOUS
 62
     4
 10
347.0
 20
44.0
 30
0.0
 40
3.0
  1
個数
 50
0.0
 41
1.0
 51
0.0
  7
KANJI0
  0
TEXT
  8
7
  6
CONTINUOUS
 62
     4
 10
357.0
 20
44.0
 30
0.0
 40
3.0
  1
個数
 50
0.0
 41
1.0
 51
0.0
  7
KANJI0
  0
TEXT
  8
7
  6
CONTINUOUS
 62
     4
 10
366.5
 20
45.0
 30
0.0
 40
4.0
  1
総数
 50
0.0
 41
0.875
 51
0.0
  7
KANJI6
  0
TEXT
  8
7
  6
CONTINUOUS
 62
     4
 10
273.15
 20
52.5
 30
0.3
 40
2.5
  1
氏名
 50
90.0
 41
1.0
 51
0.0
  7
KANJI10
  0
TEXT
  8
7
  6
CONTINUOUS
 62
     4
 10
273.15
 20
40.425
 30
1.0
 40
2.5
  1
年月日
 50
90.0
 41
1.0
 51
0.0
  7
KANJI11
  0
TEXT
  8
7
  6
CONTINUOUS
 62
     4
 10
273.15
 20
60.375
 30
0.3
 40
2.5
  1
承認
 50
90.0
 41
1.0
 51
0.0
  7
KANJI10
  0
TEXT
  8
7
  6
CONTINUOUS
 62
     4
 10
276.0
 20
39.5
 30
0.0
 40
2.5
  1
熱処理
 50
0.0
 41
1.0
 51
0.0
  7
KANJI12
  0
TEXT
  8
7
  6
CONTINUOUS
 62
     4
 10
300.0
 20
39.5
 30
0.0
 40
2.5
  1
表面処理
 50
0.0
 41
1.0
 51
0.0
  7
KANJI12
  0
TEXT
  8
7
  6
CONTINUOUS
 62
     4
 10
324.0
 20
39.5
 30
0.0
 40
2.5
  1
台数
 50
0.0
 41
1.0
 51
0.0
  7
KANJI12
  0
TEXT
  8
7
  6
CONTINUOUS
 62
     4
 10
340.0
 20
39.5
 30
0.0
 40
2.5
  1
作成日付
 50
0.0
 41
1.0
 51
0.0
  7
KANJI12
  0
TEXT
  8
7
  6
CONTINUOUS
 62
     4
 10
356.0
 20
39.5
 30
0.0
 40
2.5
  1
名称
 50
0.0
 41
1.0
 51
0.0
  7
KANJI12
  0
TEXT
  8
7
  6
CONTINUOUS
 62
     4
 10
276.0
 20
28.5
 30
0.0
 40
2.5
  1
尺度
 50
0.0
 41
1.0
 51
0.0
  7
KANJI12
  0
TEXT
  8
7
  6
CONTINUOUS
 62
     4
 10
292.0
 20
28.5
 30
0.0
 40
2.5
  1
承認
 50
0.0
 41
1.0
 51
0.0
  7
KANJI12
  0
TEXT
  8
7
  6
CONTINUOUS
 62
     4
 10
308.0
 20
28.5
 30
0.0
 40
2.5
  1
検図
 50
0.0
 41
1.0
 51
0.0
  7
KANJI12
  0
TEXT
  8
7
  6
CONTINUOUS
 62
     4
 10
324.0
 20
28.5
 30
0.0
 40
2.5
  1
設計
 50
0.0
 41
1.0
 51
0.0
  7
KANJI12
  0
TEXT
  8
7
  6
CONTINUOUS
 62
     4
 10
340.0
 20
28.5
 30
0.0
 40
2.5
  1
製図
 50
0.0
 41
1.0
 51
0.0
  7
KANJI12
  0
TEXT
  8
7
  6
CONTINUOUS
 62
     4
 10
356.0
 20
28.5
 30
0.0
 40
2.5
  1
機名
 50
0.0
 41
1.0
 51
0.0
  7
KANJI12
  0
TEXT
  8
7
  6
CONTINUOUS
 62
     4
 10
273.15
 20
10.875
 30
0.3
 40
2.5
  1
記号
 50
90.0
 41
1.0
 51
0.0
  7
KANJI10
  0
TEXT
  8
7
  6
CONTINUOUS
 62
     4
 10
356.0
 20
17.5
 30
0.0
 40
2.5
  1
図面番号
 50
0.0
 41
1.0
 51
0.0
  7
KANJI12
  0
TEXT
  8
7
  6
CONTINUOUS
 62
     4
 10
319.0
 20
14.25
 30
0.0
 40
2.5
  1
株式会社
 50
0.0
 41
1.0
 51
0.0
  7
KANJI12
  0
TEXT
  8
7
  6
CONTINUOUS
 62
     4
 10
331.0
 20
13.5
 30
0.0
 40
4.0
  1
昭和測器
 50
0.0
 41
1.125
 51
0.0
  7
KANJI13
  0
TEXT
  8
7
  6
CONTINUOUS
 62
     4
 10
273.15
 20
18.375
 30
0.3
 40
2.5
  1
来歴・改訂記事
 50
90.0
 41
1.0
 51
0.0
  7
KANJI10
  0
TEXT
  8
7
  6
CONTINUOUS
 62
     1
 10
278.0
 20
15.5
 30
0.0
 40
5.0
  1
第３
 50
0.0
 41
1.0
 51
0.0
  7
KANJI7
  0
TEXT
  8
7
  6
CONTINUOUS
 62
     1
 10
278.0
 20
10.5
 30
0.0
 40
5.0
  1
角法
 50
0.0
 41
1.0
 51
0.0
  7
KANJI7
  0
LINE
  8
7
  6
CONTINUOUS
 62
     2
 10
234.0
 20
67.0
 11
234.0
 21
10.0
  0
LINE
  8
7
  6
CONTINUOUS
 62
     2
 10
233.0
 20
17.0
 11
275.0
 21
17.0
  0
TEXT
  8
7
  6
CONTINUOUS
 62
     4
 10
326.0
 20
45.0
 30
0.0
 40
4.0
  1
材　　質
 50
0.0
 41
0.875
 51
0.0
  7
KANJI6
  0
TEXT
  8
7
  6
CONTINUOUS
 62
     4
 10
383.25
 20
45.0
 30
0.0
 40
4.0
  1
摘　　　要
 50
0.0
 41
0.875
 51
0.0
  7
KANJI6
  0
TEXT
  8
7
  6
CONTINUOUS
 62
     4
 10
276.5
 20
45.0
 30
0.0
 40
4.0
  1
番号
 50
0.0
 41
0.875
 51
0.0
  7
KANJI6
  0
TEXT
  8
7
  6
CONTINUOUS
 62
     4
 10
294.25
 20
45.0
 30
0.0
 40
4.0
  1
部　品　名
 50
0.0
 41
0.875
 51
0.0
  7
KANJI6
  0
CIRCLE
  8
7
  6
CONTINUOUS
 62
     6
 10
283.0
 20
26.0
 40
0.2
  0
CIRCLE
  8
7
  6
CONTINUOUS
 62
     6
 10
283.0
 20
23.5
 40
0.2
  0
TEXT
  8
7
  6
CONTINUOUS
 62
     6
 10
293.725
 20
12.025
 30
-1.0
 40
7.0
  1
Ａ３
 50
0.0
 41
0.857142857
 51
0.0
  7
KANJI14
  0
LINE
  8
7
  6
CONTINUOUS
 62
     2
 10
233.0
 20
67.0
 11
275.0
 21
67.0
  0
LINE
  8
7
  6
CONTINUOUS
 62
     2
 10
233.0
 20
59.0
 11
275.0
 21
59.0
  0
LINE
  8
7
  6
CONTINUOUS
 62
     2
 10
285.0
 20
51.0
 11
285.0
 21
43.0
  0
LINE
  8
7
  6
CONTINUOUS
 62
     2
 10
285.0
 20
67.0
 11
285.0
 21
51.0
  0
LINE
  8
7
  6
CONTINUOUS
 62
     2
 10
321.0
 20
51.0
 11
321.0
 21
43.0
  0
LINE
  8
7
  6
CONTINUOUS
 62
     2
 10
321.0
 20
67.0
 11
321.0
 21
51.0
  0
LINE
  8
7
  6
CONTINUOUS
 62
     2
 10
345.0
 20
51.0
 11
345.0
 21
43.0
  0
LINE
  8
7
  6
CONTINUOUS
 62
     2
 10
345.0
 20
67.0
 11
345.0
 21
51.0
  0
LINE
  8
7
  6
CONTINUOUS
 62
     2
 10
355.0
 20
51.0
 11
355.0
 21
43.0
  0
LINE
  8
7
  6
CONTINUOUS
 62
     2
 10
355.0
 20
67.0
 11
355.0
 21
51.0
  0
LINE
  8
7
  6
CONTINUOUS
 62
     2
 10
365.0
 20
51.0
 11
365.0
 21
43.0
  0
LINE
  8
7
  6
CONTINUOUS
 62
     2
 10
365.0
 20
67.0
 11
365.0
 21
51.0
  0
LINE
  8
7
  6
CONTINUOUS
 62
     2
 10
375.0
 20
51.0
 11
375.0
 21
43.0
  0
LINE
  8
7
  6
CONTINUOUS
 62
     2
 10
375.0
 20
67.0
 11
375.0
 21
51.0
  0
LINE
  8
7
  6
CONTINUOUS
 62
     2
 10
275.0
 20
51.0
 11
275.0
 21
10.0
  0
LINE
  8
7
  6
CONTINUOUS
 62
     2
 10
275.0
 20
67.0
 11
275.0
 21
51.0
  0
LINE
  8
7
  6
CONTINUOUS
 62
     2
 10
233.0
 20
39.0
 11
275.0
 21
39.0
  0
LINE
  8
7
  6
CONTINUOUS
 62
     2
 10
233.0
 20
51.0
 11
275.0
 21
51.0
  0
LINE
  8
7
  6
LTYPE5
 62
     2
 10
400.0
 20
21.0
 11
400.0
 21
10.0
  0
LINE
  8
7
  6
CONTINUOUS
 62
     2
 10
275.0
 20
67.0
 11
410.0
 21
67.0
  0
LINE
  8
7
  6
CONTINUOUS
 62
     2
 10
275.0
 20
59.0
 11
410.0
 21
59.0
  0
LINE
  8
7
  6
CONTINUOUS
 62
     2
 10
275.0
 20
51.0
 11
410.0
 21
51.0
  0
LINE
  8
7
  6
CONTINUOUS
 62
     2
 10
275.0
 20
43.0
 11
410.0
 21
43.0
  0
LINE
  8
7
  6
CONTINUOUS
 62
     2
 10
275.0
 20
32.0
 11
410.0
 21
32.0
  0
LINE
  8
7
  6
CONTINUOUS
 62
     2
 10
275.0
 20
21.0
 11
410.0
 21
21.0
  0
TEXT
  8
6
  6
CONTINUOUS
 62
     5
 10
278.0
 20
23.0
 30
0.0
 40
4.0
  1
１
 50
0.0
 41
0.875
 51
0.0
  7
KANJI6
  0
TEXT
  8
6
  6
CONTINUOUS
 62
     5
 10
284.5
 20
23.0
 30
0.0
 40
4.0
  1
１
 50
0.0
 41
0.875
 51
0.0
  7
KANJI6
  0
TEXT
  8
6
  6
CONTINUOUS
 62
     5
 10
340.5
 20
36.0
 30
-0.5
 40
3.0
  1
２０１７．
 50
0.0
 41
0.833333333
 51
0.0
  7
KANJI15
  0
TEXT
  8
6
  6
CONTINUOUS
 62
     5
 10
343.0
 20
33.0
 30
-0.5
 40
3.0
  1
０７．１３
 50
0.0
 41
0.833333333
 51
0.0
  7
KANJI15
  0
TEXT
  8
6
  6
CONTINUOUS
 62
     5
 10
377.4
 20
34.0
 30
0.1
 40
4.0
  1
外観図
 50
0.0
 41
0.875
 51
0.0
  7
KANJI3
  0
TEXT
  8
6
  6
CONTINUOUS
 62
     5
 10
361.2
 20
23.0
 30
0.1
 40
4.0
  1
ＴＣＬ－２０ＦＡ
 50
0.0
 41
0.875
 51
0.0
  7
KANJI3
  0
TEXT
  8
6
  6
CONTINUOUS
 62
     5
 10
363.15
 20
12.0
 30
0.1
 40
4.0
  1
Ｋ－０１６７－Ａ３
 50
0.0
 41
0.875
 51
0.0
  7
KANJI3
  0
ENDSEC
  0
EOF
