  0
SECTION
  2
HEADER
  9
$EXTMIN
 10
0.0
 20
0.0
 30
0.0
  9
$EXTMAX
 10
420.0
 20
297.0
 30
0.0
  9
$LIMMIN
 10
0.0
 20
0.0
  9
$LIMMAX
 10
420.0
 20
297.0
  9
$LTSCALE
 40
1.0
  9
$PDMODE
 70
     0
  0
ENDSEC
  0
SECTION
  2
TABLES
  0
TABLE
  2
LTYPE
 70
     6
  0
LTYPE
  2
CONTINUOUS
 70
    64
  3
Solid line
 72
    65
 73
     0
 40
0.0
  0
LTYPE
  2
LTYPE1
 70
    64
  3
CENTER
 72
    65
 73
     4
 40
10.0
 49
7.0
 49
-1.0
 49
1.0
 49
-1.0
  0
LTYPE
  2
LTYPE2
 70
    64
  3
CENTER
 72
    65
 73
     4
 40
5.0
 49
3.5
 49
-0.5
 49
0.5
 49
-0.5
  0
LTYPE
  2
LTYPE3
 70
    64
  3
HIDDEN
 72
    65
 73
     2
 40
1.5
 49
0.9
 49
-0.6
  0
LTYPE
  2
LTYPE4
 70
    64
  3
PHANTOM
 72
    65
 73
     6
 40
10.0
 49
7.5
 49
-0.5
 49
0.5
 49
-0.5
 49
0.5
 49
-0.5
  0
LTYPE
  2
LTYPE5
 70
    64
  3
HIDDEN
 72
    65
 73
     2
 40
2.0
 49
1.2
 49
-0.8
  0
ENDTAB
  0
TABLE
  2
LAYER
 70
   128
  0
LAYER
  2
0
 70
     0
 62
     7
  6
CONTINUOUS
  0
LAYER
  2
2
 70
     0
 62
     7
  6
CONTINUOUS
  0
LAYER
  2
3
 70
     0
 62
     7
  6
CONTINUOUS
  0
LAYER
  2
4
 70
     0
 62
     7
  6
CONTINUOUS
  0
LAYER
  2
5
 70
     0
 62
     7
  6
CONTINUOUS
  0
LAYER
  2
6
 70
     0
 62
     7
  6
CONTINUOUS
  0
LAYER
  2
7
 70
     0
 62
     7
  6
CONTINUOUS
  0
LAYER
  2
8
 70
     0
 62
     7
  6
CONTINUOUS
  0
LAYER
  2
9
 70
     0
 62
     7
  6
CONTINUOUS
  0
LAYER
  2
10
 70
     0
 62
     7
  6
CONTINUOUS
  0
LAYER
  2
11
 70
     0
 62
     7
  6
CONTINUOUS
  0
LAYER
  2
12
 70
     0
 62
     7
  6
CONTINUOUS
  0
LAYER
  2
13
 70
     0
 62
     7
  6
CONTINUOUS
  0
LAYER
  2
14
 70
     0
 62
     7
  6
CONTINUOUS
  0
LAYER
  2
15
 70
     0
 62
     7
  6
CONTINUOUS
  0
LAYER
  2
16
 70
     0
 62
     7
  6
CONTINUOUS
  0
LAYER
  2
17
 70
     0
 62
     7
  6
CONTINUOUS
  0
LAYER
  2
18
 70
     0
 62
     7
  6
CONTINUOUS
  0
LAYER
  2
19
 70
     0
 62
     7
  6
CONTINUOUS
  0
LAYER
  2
20
 70
     0
 62
     7
  6
CONTINUOUS
  0
LAYER
  2
21
 70
     0
 62
     7
  6
CONTINUOUS
  0
LAYER
  2
22
 70
     0
 62
     7
  6
CONTINUOUS
  0
LAYER
  2
23
 70
     0
 62
     7
  6
CONTINUOUS
  0
LAYER
  2
24
 70
     0
 62
     7
  6
CONTINUOUS
  0
LAYER
  2
25
 70
     0
 62
     7
  6
CONTINUOUS
  0
LAYER
  2
26
 70
     0
 62
     7
  6
CONTINUOUS
  0
LAYER
  2
27
 70
     0
 62
     7
  6
CONTINUOUS
  0
LAYER
  2
28
 70
     0
 62
     7
  6
CONTINUOUS
  0
LAYER
  2
29
 70
     0
 62
     7
  6
CONTINUOUS
  0
LAYER
  2
30
 70
     0
 62
     7
  6
CONTINUOUS
  0
LAYER
  2
31
 70
     0
 62
     7
  6
CONTINUOUS
  0
LAYER
  2
32
 70
     0
 62
     7
  6
CONTINUOUS
  0
LAYER
  2
33
 70
     0
 62
     7
  6
CONTINUOUS
  0
LAYER
  2
34
 70
     0
 62
     7
  6
CONTINUOUS
  0
LAYER
  2
35
 70
     0
 62
     7
  6
CONTINUOUS
  0
LAYER
  2
36
 70
     0
 62
     7
  6
CONTINUOUS
  0
LAYER
  2
37
 70
     0
 62
     7
  6
CONTINUOUS
  0
LAYER
  2
38
 70
     0
 62
     7
  6
CONTINUOUS
  0
LAYER
  2
39
 70
     0
 62
     7
  6
CONTINUOUS
  0
LAYER
  2
40
 70
     0
 62
     7
  6
CONTINUOUS
  0
LAYER
  2
41
 70
     0
 62
     7
  6
CONTINUOUS
  0
LAYER
  2
42
 70
     0
 62
     7
  6
CONTINUOUS
  0
LAYER
  2
43
 70
     0
 62
     7
  6
CONTINUOUS
  0
LAYER
  2
44
 70
     0
 62
     7
  6
CONTINUOUS
  0
LAYER
  2
45
 70
     0
 62
     7
  6
CONTINUOUS
  0
LAYER
  2
46
 70
     0
 62
     7
  6
CONTINUOUS
  0
LAYER
  2
47
 70
     0
 62
     7
  6
CONTINUOUS
  0
LAYER
  2
48
 70
     0
 62
     7
  6
CONTINUOUS
  0
LAYER
  2
49
 70
     0
 62
     7
  6
CONTINUOUS
  0
LAYER
  2
50
 70
     0
 62
     7
  6
CONTINUOUS
  0
LAYER
  2
51
 70
     0
 62
     7
  6
CONTINUOUS
  0
LAYER
  2
52
 70
     0
 62
     7
  6
CONTINUOUS
  0
LAYER
  2
53
 70
     0
 62
     7
  6
CONTINUOUS
  0
LAYER
  2
54
 70
     0
 62
     7
  6
CONTINUOUS
  0
LAYER
  2
55
 70
     0
 62
     7
  6
CONTINUOUS
  0
LAYER
  2
56
 70
     0
 62
     7
  6
CONTINUOUS
  0
LAYER
  2
57
 70
     0
 62
     7
  6
CONTINUOUS
  0
LAYER
  2
58
 70
     0
 62
     7
  6
CONTINUOUS
  0
LAYER
  2
59
 70
     0
 62
     7
  6
CONTINUOUS
  0
LAYER
  2
60
 70
     0
 62
     7
  6
CONTINUOUS
  0
LAYER
  2
61
 70
     0
 62
     7
  6
CONTINUOUS
  0
LAYER
  2
62
 70
     0
 62
     7
  6
CONTINUOUS
  0
LAYER
  2
63
 70
     0
 62
     7
  6
CONTINUOUS
  0
LAYER
  2
64
 70
     0
 62
     7
  6
CONTINUOUS
  0
LAYER
  2
65
 70
     0
 62
     7
  6
CONTINUOUS
  0
LAYER
  2
66
 70
     0
 62
     7
  6
CONTINUOUS
  0
LAYER
  2
67
 70
     0
 62
     7
  6
CONTINUOUS
  0
LAYER
  2
68
 70
     0
 62
     7
  6
CONTINUOUS
  0
LAYER
  2
69
 70
     0
 62
     7
  6
CONTINUOUS
  0
LAYER
  2
70
 70
     0
 62
     7
  6
CONTINUOUS
  0
LAYER
  2
71
 70
     0
 62
     7
  6
CONTINUOUS
  0
LAYER
  2
72
 70
     0
 62
     7
  6
CONTINUOUS
  0
LAYER
  2
73
 70
     0
 62
     7
  6
CONTINUOUS
  0
LAYER
  2
74
 70
     0
 62
     7
  6
CONTINUOUS
  0
LAYER
  2
75
 70
     0
 62
     7
  6
CONTINUOUS
  0
LAYER
  2
76
 70
     0
 62
     7
  6
CONTINUOUS
  0
LAYER
  2
77
 70
     0
 62
     7
  6
CONTINUOUS
  0
LAYER
  2
78
 70
     0
 62
     7
  6
CONTINUOUS
  0
LAYER
  2
79
 70
     0
 62
     7
  6
CONTINUOUS
  0
LAYER
  2
80
 70
     0
 62
     7
  6
CONTINUOUS
  0
LAYER
  2
81
 70
     0
 62
     7
  6
CONTINUOUS
  0
LAYER
  2
82
 70
     0
 62
     7
  6
CONTINUOUS
  0
LAYER
  2
83
 70
     0
 62
     7
  6
CONTINUOUS
  0
LAYER
  2
84
 70
     0
 62
     7
  6
CONTINUOUS
  0
LAYER
  2
85
 70
     0
 62
     7
  6
CONTINUOUS
  0
LAYER
  2
86
 70
     0
 62
     7
  6
CONTINUOUS
  0
LAYER
  2
87
 70
     0
 62
     7
  6
CONTINUOUS
  0
LAYER
  2
88
 70
     0
 62
     7
  6
CONTINUOUS
  0
LAYER
  2
89
 70
     0
 62
     7
  6
CONTINUOUS
  0
LAYER
  2
90
 70
     0
 62
     7
  6
CONTINUOUS
  0
LAYER
  2
91
 70
     0
 62
     7
  6
CONTINUOUS
  0
LAYER
  2
92
 70
     0
 62
     7
  6
CONTINUOUS
  0
LAYER
  2
93
 70
     0
 62
     7
  6
CONTINUOUS
  0
LAYER
  2
94
 70
     0
 62
     7
  6
CONTINUOUS
  0
LAYER
  2
95
 70
     0
 62
     7
  6
CONTINUOUS
  0
LAYER
  2
96
 70
     0
 62
     7
  6
CONTINUOUS
  0
LAYER
  2
97
 70
     0
 62
     7
  6
CONTINUOUS
  0
LAYER
  2
98
 70
     0
 62
     7
  6
CONTINUOUS
  0
LAYER
  2
99
 70
     0
 62
     7
  6
CONTINUOUS
  0
LAYER
  2
100
 70
     0
 62
     7
  6
CONTINUOUS
  0
LAYER
  2
101
 70
     0
 62
     7
  6
CONTINUOUS
  0
LAYER
  2
102
 70
     0
 62
     7
  6
CONTINUOUS
  0
LAYER
  2
103
 70
     0
 62
     7
  6
CONTINUOUS
  0
LAYER
  2
104
 70
     0
 62
     7
  6
CONTINUOUS
  0
LAYER
  2
105
 70
     0
 62
     7
  6
CONTINUOUS
  0
LAYER
  2
106
 70
     0
 62
     7
  6
CONTINUOUS
  0
LAYER
  2
107
 70
     0
 62
     7
  6
CONTINUOUS
  0
LAYER
  2
108
 70
     0
 62
     7
  6
CONTINUOUS
  0
LAYER
  2
109
 70
     0
 62
     7
  6
CONTINUOUS
  0
LAYER
  2
110
 70
     0
 62
     7
  6
CONTINUOUS
  0
LAYER
  2
111
 70
     0
 62
     7
  6
CONTINUOUS
  0
LAYER
  2
112
 70
     0
 62
     7
  6
CONTINUOUS
  0
LAYER
  2
113
 70
     0
 62
     7
  6
CONTINUOUS
  0
LAYER
  2
114
 70
     0
 62
     7
  6
CONTINUOUS
  0
LAYER
  2
115
 70
     0
 62
     7
  6
CONTINUOUS
  0
LAYER
  2
116
 70
     0
 62
     7
  6
CONTINUOUS
  0
LAYER
  2
117
 70
     0
 62
     7
  6
CONTINUOUS
  0
LAYER
  2
118
 70
     0
 62
     7
  6
CONTINUOUS
  0
LAYER
  2
119
 70
     0
 62
     7
  6
CONTINUOUS
  0
LAYER
  2
120
 70
     0
 62
     7
  6
CONTINUOUS
  0
LAYER
  2
121
 70
     0
 62
     7
  6
CONTINUOUS
  0
LAYER
  2
122
 70
     0
 62
     7
  6
CONTINUOUS
  0
LAYER
  2
123
 70
     0
 62
     7
  6
CONTINUOUS
  0
LAYER
  2
124
 70
     0
 62
     7
  6
CONTINUOUS
  0
LAYER
  2
125
 70
     0
 62
     7
  6
CONTINUOUS
  0
LAYER
  2
126
 70
     0
 62
     7
  6
CONTINUOUS
  0
LAYER
  2
127
 70
     0
 62
     7
  6
CONTINUOUS
  0
LAYER
  2
128
 70
     0
 62
     7
  6
CONTINUOUS
  0
ENDTAB
  0
TABLE
  2
STYLE
 70
    15
  0
STYLE
  2
STANDARD
 70
     0
 40
0.0
 41
1.0
 50
0.0
 71
     0
 42
0.2
  3
txt
  4

  0
STYLE
  2
KANJI0
 70
     0
 40
2.5
 41
1.0
 50
0.0
 71
     0
 42
2.5
  3

  4
bigfont
  0
STYLE
  2
KANJI1
 70
     0
 40
1.0
 41
1.0
 50
0.0
 71
     0
 42
1.0
  3

  4
bigfont
  0
STYLE
  2
KANJI2
 70
     0
 40
4.0
 41
0.875
 50
0.0
 71
     0
 42
4.0
  3

  4
bigfont
  0
STYLE
  2
KANJI3
 70
     0
 40
2.4
 41
0.875
 50
0.0
 71
     0
 42
2.4
  3

  4
bigfont
  0
STYLE
  2
KANJI4
 70
     0
 40
4.0
 41
0.875
 50
0.0
 71
     0
 42
4.0
  3

  4
bigfont
  0
STYLE
  2
KANJI5
 70
     0
 40
5.0
 41
1.0
 50
0.0
 71
     0
 42
5.0
  3

  4
bigfont
  0
STYLE
  2
KANJI6
 70
     0
 40
5.0
 41
1.2
 50
0.0
 71
     0
 42
5.0
  3

  4
bigfont
  0
STYLE
  2
KANJI7
 70
     0
 40
3.0
 41
0.666666667
 50
0.0
 71
     0
 42
3.0
  3

  4
bigfont
  0
STYLE
  2
KANJI8
 70
     0
 40
3.0
 41
1.0
 50
0.0
 71
     0
 42
3.0
  3

  4
bigfont
  0
STYLE
  2
KANJI9
 70
     0
 40
2.5
 41
1.0
 50
0.0
 71
     0
 42
2.5
  3

  4
bigfont
  0
STYLE
  2
KANJI10
 70
     0
 40
2.5
 41
1.0
 50
0.0
 71
     0
 42
2.5
  3

  4
bigfont
  0
STYLE
  2
KANJI11
 70
     0
 40
4.0
 41
1.125
 50
0.0
 71
     0
 42
4.0
  3

  4
bigfont
  0
STYLE
  2
KANJI12
 70
     0
 40
7.0
 41
0.857142857
 50
0.0
 71
     0
 42
7.0
  3

  4
bigfont
  0
STYLE
  2
KANJI13
 70
     0
 40
3.0
 41
0.833333333
 50
0.0
 71
     0
 42
3.0
  3

  4
bigfont
  0
ENDTAB
  0
TABLE
  2
VIEW
 70
     0
  0
ENDTAB
  0
ENDSEC
  0
SECTION
  2
BLOCKS
  0
ENDSEC
  0
SECTION
  2
ENTITIES
  0
CIRCLE
  8
0
  6
CONTINUOUS
 62
     1
 10
105.0
 20
160.0
 40
15.5
  0
CIRCLE
  8
0
  6
CONTINUOUS
 62
     1
 10
105.0
 20
160.0
 40
23.0
  0
CIRCLE
  8
0
  6
CONTINUOUS
 62
     1
 10
105.0
 20
160.0
 40
26.4
  0
LINE
  8
0
  6
CONTINUOUS
 62
     1
 10
103.555818051
 20
182.954614754
 11
103.68139909
 21
180.958561297
  0
LINE
  8
0
  6
CONTINUOUS
 62
     1
 10
102.117335628
 20
182.81863813
 11
102.368002095
 21
180.834408728
  0
LINE
  8
0
  6
CONTINUOUS
 62
     1
 10
100.690229765
 20
182.592606767
 11
101.064992394
 21
180.628032265
  0
LINE
  8
0
  6
CONTINUOUS
 62
     1
 10
99.280132595
 20
182.277412706
 11
99.77751237
 21
180.340246384
  0
LINE
  8
0
  6
CONTINUOUS
 62
     1
 10
97.892609129
 20
181.874299875
 11
98.819660113
 21
179.021130326
  0
LINE
  8
0
  6
CONTINUOUS
 62
     1
 10
96.533135288
 20
181.384859175
 11
97.269384394
 21
179.525306204
  0
LINE
  8
0
  6
CONTINUOUS
 62
     1
 10
95.207076294
 20
180.811022207
 11
96.058634877
 21
179.001368102
  0
LINE
  8
0
  6
CONTINUOUS
 62
     1
 10
93.919665496
 20
180.155053641
 11
94.883172844
 21
178.402440281
  0
LINE
  8
0
  6
CONTINUOUS
 62
     1
 10
92.675983715
 20
179.419542287
 11
93.747637305
 21
177.730886436
  0
LINE
  8
0
  6
CONTINUOUS
 62
     1
 10
91.480939197
 20
178.607390871
 11
93.244294954
 21
176.180339887
  0
LINE
  8
0
  6
CONTINUOUS
 62
     1
 10
90.339248236
 20
177.721804584
 11
91.614096215
 21
176.180778098
  0
LINE
  8
0
  6
CONTINUOUS
 62
     1
 10
89.255416564
 20
176.766278431
 11
90.624510775
 21
175.308341176
  0
LINE
  8
0
  6
CONTINUOUS
 62
     1
 10
88.233721569
 20
175.744583436
 11
89.691658824
 21
174.375489225
  0
LINE
  8
0
  6
CONTINUOUS
 62
     1
 10
87.278195416
 20
174.660751764
 11
88.819221902
 21
173.385903785
  0
LINE
  8
0
  6
CONTINUOUS
 62
     1
 10
86.392609129
 20
173.519060803
 11
88.819660113
 21
171.755705046
  0
LINE
  8
0
  6
CONTINUOUS
 62
     1
 10
85.580457713
 20
172.324016285
 11
87.269113564
 21
171.252362695
  0
LINE
  8
0
  6
CONTINUOUS
 62
     1
 10
84.844946359
 20
171.080334504
 11
86.597559719
 21
170.116827156
  0
LINE
  8
0
  6
CONTINUOUS
 62
     1
 10
84.188977793
 20
169.792923706
 11
85.998631898
 21
168.941365123
  0
LINE
  8
0
  6
CONTINUOUS
 62
     1
 10
83.615140825
 20
168.466864712
 11
85.474693796
 21
167.730615606
  0
LINE
  8
0
  6
CONTINUOUS
 62
     1
 10
83.125700125
 20
167.107390871
 11
85.978869674
 21
166.180339887
  0
LINE
  8
0
  6
CONTINUOUS
 62
     1
 10
82.722587294
 20
165.719867405
 11
84.659753616
 21
165.22248763
  0
LINE
  8
0
  6
CONTINUOUS
 62
     1
 10
82.407393233
 20
164.309770235
 11
84.371967735
 21
163.935007606
  0
LINE
  8
0
  6
CONTINUOUS
 62
     1
 10
82.18136187
 20
162.882664372
 11
84.165591272
 21
162.631997905
  0
LINE
  8
0
  6
CONTINUOUS
 62
     1
 10
82.045385246
 20
161.444181949
 11
84.041438703
 21
161.31860091
  0
LINE
  8
0
  6
CONTINUOUS
 62
     1
 10
82.045385246
 20
158.555818051
 11
84.041438703
 21
158.68139909
  0
LINE
  8
0
  6
CONTINUOUS
 62
     1
 10
82.18136187
 20
157.117335628
 11
84.165591272
 21
157.368002095
  0
LINE
  8
0
  6
CONTINUOUS
 62
     1
 10
82.407393233
 20
155.690229765
 11
84.371967735
 21
156.064992394
  0
LINE
  8
0
  6
CONTINUOUS
 62
     1
 10
82.722587294
 20
154.280132595
 11
84.659753616
 21
154.77751237
  0
LINE
  8
0
  6
CONTINUOUS
 62
     1
 10
83.125700125
 20
152.892609129
 11
85.978869674
 21
153.819660113
  0
LINE
  8
0
  6
CONTINUOUS
 62
     1
 10
83.615140825
 20
151.533135288
 11
85.474693796
 21
152.269384394
  0
LINE
  8
0
  6
CONTINUOUS
 62
     1
 10
84.188977793
 20
150.207076294
 11
85.998631898
 21
151.058634877
  0
LINE
  8
0
  6
CONTINUOUS
 62
     1
 10
84.844946359
 20
148.919665496
 11
86.597559719
 21
149.883172844
  0
LINE
  8
0
  6
CONTINUOUS
 62
     1
 10
85.580457713
 20
147.675983715
 11
87.269113564
 21
148.747637305
  0
LINE
  8
0
  6
CONTINUOUS
 62
     1
 10
86.392609129
 20
146.480939197
 11
88.819660113
 21
148.244294954
  0
LINE
  8
0
  6
CONTINUOUS
 62
     1
 10
87.278195416
 20
145.339248236
 11
88.819221902
 21
146.614096215
  0
LINE
  8
0
  6
CONTINUOUS
 62
     1
 10
88.233721569
 20
144.255416564
 11
89.691658824
 21
145.624510775
  0
LINE
  8
0
  6
CONTINUOUS
 62
     1
 10
89.255416564
 20
143.233721569
 11
90.624510775
 21
144.691658824
  0
LINE
  8
0
  6
CONTINUOUS
 62
     1
 10
90.339248236
 20
142.278195416
 11
91.614096215
 21
143.819221902
  0
LINE
  8
0
  6
CONTINUOUS
 62
     1
 10
91.480939197
 20
141.392609129
 11
93.244294954
 21
143.819660113
  0
LINE
  8
0
  6
CONTINUOUS
 62
     1
 10
92.675983715
 20
140.580457713
 11
93.747637305
 21
142.269113564
  0
LINE
  8
0
  6
CONTINUOUS
 62
     1
 10
93.919665496
 20
139.844946359
 11
94.883172844
 21
141.597559719
  0
LINE
  8
0
  6
CONTINUOUS
 62
     1
 10
95.207076294
 20
139.188977793
 11
96.058634877
 21
140.998631898
  0
LINE
  8
0
  6
CONTINUOUS
 62
     1
 10
96.533135288
 20
138.615140825
 11
97.269384394
 21
140.474693796
  0
LINE
  8
0
  6
CONTINUOUS
 62
     1
 10
97.892609129
 20
138.125700125
 11
98.819660113
 21
140.978869674
  0
LINE
  8
0
  6
CONTINUOUS
 62
     1
 10
99.280132595
 20
137.722587294
 11
99.77751237
 21
139.659753616
  0
LINE
  8
0
  6
CONTINUOUS
 62
     1
 10
100.690229765
 20
137.407393233
 11
101.064992394
 21
139.371967735
  0
LINE
  8
0
  6
CONTINUOUS
 62
     1
 10
102.117335628
 20
137.18136187
 11
102.368002095
 21
139.165591272
  0
LINE
  8
0
  6
CONTINUOUS
 62
     1
 10
103.555818051
 20
137.045385246
 11
103.68139909
 21
139.041438703
  0
LINE
  8
0
  6
CONTINUOUS
 62
     1
 10
106.444181949
 20
137.045385246
 11
106.31860091
 21
139.041438703
  0
LINE
  8
0
  6
CONTINUOUS
 62
     1
 10
107.882664372
 20
137.18136187
 11
107.631997905
 21
139.165591272
  0
LINE
  8
0
  6
CONTINUOUS
 62
     1
 10
109.309770235
 20
137.407393233
 11
108.935007606
 21
139.371967735
  0
LINE
  8
0
  6
CONTINUOUS
 62
     1
 10
110.719867405
 20
137.722587294
 11
110.22248763
 21
139.659753616
  0
LINE
  8
0
  6
CONTINUOUS
 62
     1
 10
112.107390871
 20
138.125700125
 11
111.180339887
 21
140.978869674
  0
LINE
  8
0
  6
CONTINUOUS
 62
     1
 10
113.466864712
 20
138.615140825
 11
112.730615606
 21
140.474693796
  0
LINE
  8
0
  6
CONTINUOUS
 62
     1
 10
114.792923706
 20
139.188977793
 11
113.941365123
 21
140.998631898
  0
LINE
  8
0
  6
CONTINUOUS
 62
     1
 10
116.080334504
 20
139.844946359
 11
115.116827156
 21
141.597559719
  0
LINE
  8
0
  6
CONTINUOUS
 62
     1
 10
117.324016285
 20
140.580457713
 11
116.252362695
 21
142.269113564
  0
LINE
  8
0
  6
CONTINUOUS
 62
     1
 10
118.519060803
 20
141.392609129
 11
116.755705046
 21
143.819660113
  0
LINE
  8
0
  6
CONTINUOUS
 62
     1
 10
119.660751764
 20
142.278195416
 11
118.385903785
 21
143.819221902
  0
LINE
  8
0
  6
CONTINUOUS
 62
     1
 10
120.744583436
 20
143.233721569
 11
119.375489225
 21
144.691658824
  0
LINE
  8
0
  6
CONTINUOUS
 62
     1
 10
121.766278431
 20
144.255416564
 11
120.308341176
 21
145.624510775
  0
LINE
  8
0
  6
CONTINUOUS
 62
     1
 10
122.721804584
 20
145.339248236
 11
121.180778098
 21
146.614096215
  0
LINE
  8
0
  6
CONTINUOUS
 62
     1
 10
123.607390871
 20
146.480939197
 11
121.180339887
 21
148.244294954
  0
LINE
  8
0
  6
CONTINUOUS
 62
     1
 10
124.419542287
 20
147.675983715
 11
122.730886436
 21
148.747637305
  0
LINE
  8
0
  6
CONTINUOUS
 62
     1
 10
125.155053641
 20
148.919665496
 11
123.402440281
 21
149.883172844
  0
LINE
  8
0
  6
CONTINUOUS
 62
     1
 10
125.811022207
 20
150.207076294
 11
124.001368102
 21
151.058634877
  0
LINE
  8
0
  6
CONTINUOUS
 62
     1
 10
126.384859175
 20
151.533135288
 11
124.525306204
 21
152.269384394
  0
LINE
  8
0
  6
CONTINUOUS
 62
     1
 10
126.874299875
 20
152.892609129
 11
124.021130326
 21
153.819660113
  0
LINE
  8
0
  6
CONTINUOUS
 62
     1
 10
127.277412706
 20
154.280132595
 11
125.340246384
 21
154.77751237
  0
LINE
  8
0
  6
CONTINUOUS
 62
     1
 10
127.592606767
 20
155.690229765
 11
125.628032265
 21
156.064992394
  0
LINE
  8
0
  6
CONTINUOUS
 62
     1
 10
127.81863813
 20
157.117335628
 11
125.834408728
 21
157.368002095
  0
LINE
  8
0
  6
CONTINUOUS
 62
     1
 10
127.954614754
 20
158.555818051
 11
125.958561297
 21
158.68139909
  0
LINE
  8
0
  6
CONTINUOUS
 62
     1
 10
127.954614754
 20
161.444181949
 11
125.958561297
 21
161.31860091
  0
LINE
  8
0
  6
CONTINUOUS
 62
     1
 10
127.81863813
 20
162.882664372
 11
125.834408728
 21
162.631997905
  0
LINE
  8
0
  6
CONTINUOUS
 62
     1
 10
127.592606767
 20
164.309770235
 11
125.628032265
 21
163.935007606
  0
LINE
  8
0
  6
CONTINUOUS
 62
     1
 10
127.277412706
 20
165.719867405
 11
125.340246384
 21
165.22248763
  0
LINE
  8
0
  6
CONTINUOUS
 62
     1
 10
126.874299875
 20
167.107390871
 11
124.021130326
 21
166.180339887
  0
LINE
  8
0
  6
CONTINUOUS
 62
     1
 10
126.384859175
 20
168.466864712
 11
124.525306204
 21
167.730615606
  0
LINE
  8
0
  6
CONTINUOUS
 62
     1
 10
125.811022207
 20
169.792923706
 11
124.001368102
 21
168.941365123
  0
LINE
  8
0
  6
CONTINUOUS
 62
     1
 10
125.155053641
 20
171.080334504
 11
123.402440281
 21
170.116827156
  0
LINE
  8
0
  6
CONTINUOUS
 62
     1
 10
124.419542287
 20
172.324016285
 11
122.730886436
 21
171.252362695
  0
LINE
  8
0
  6
CONTINUOUS
 62
     1
 10
123.607390871
 20
173.519060803
 11
121.180339887
 21
171.755705046
  0
LINE
  8
0
  6
CONTINUOUS
 62
     1
 10
122.721804584
 20
174.660751764
 11
121.180778098
 21
173.385903785
  0
LINE
  8
0
  6
CONTINUOUS
 62
     1
 10
121.766278431
 20
175.744583436
 11
120.308341176
 21
174.375489225
  0
LINE
  8
0
  6
CONTINUOUS
 62
     1
 10
120.744583436
 20
176.766278431
 11
119.375489225
 21
175.308341176
  0
LINE
  8
0
  6
CONTINUOUS
 62
     1
 10
119.660751764
 20
177.721804584
 11
118.385903785
 21
176.180778098
  0
LINE
  8
0
  6
CONTINUOUS
 62
     1
 10
118.519060803
 20
178.607390871
 11
116.755705046
 21
176.180339887
  0
LINE
  8
0
  6
CONTINUOUS
 62
     1
 10
117.324016285
 20
179.419542287
 11
116.252362695
 21
177.730886436
  0
LINE
  8
0
  6
CONTINUOUS
 62
     1
 10
116.080334504
 20
180.155053641
 11
115.116827156
 21
178.402440281
  0
LINE
  8
0
  6
CONTINUOUS
 62
     1
 10
114.792923706
 20
180.811022207
 11
113.941365123
 21
179.001368102
  0
LINE
  8
0
  6
CONTINUOUS
 62
     1
 10
113.466864712
 20
181.384859175
 11
112.730615606
 21
179.525306204
  0
LINE
  8
0
  6
CONTINUOUS
 62
     1
 10
112.107390871
 20
181.874299875
 11
111.180339887
 21
179.021130326
  0
LINE
  8
0
  6
CONTINUOUS
 62
     1
 10
110.719867405
 20
182.277412706
 11
110.22248763
 21
180.340246384
  0
LINE
  8
0
  6
CONTINUOUS
 62
     1
 10
109.309770235
 20
182.592606767
 11
108.935007606
 21
180.628032265
  0
LINE
  8
0
  6
CONTINUOUS
 62
     1
 10
107.882664372
 20
182.81863813
 11
107.631997905
 21
180.834408728
  0
LINE
  8
0
  6
CONTINUOUS
 62
     1
 10
106.444181949
 20
182.954614754
 11
106.31860091
 21
180.958561297
  0
LINE
  8
0
  6
CONTINUOUS
 62
     1
 10
125.0
 20
160.0
 11
128.0
 21
160.0
  0
LINE
  8
0
  6
CONTINUOUS
 62
     1
 10
105.0
 20
140.0
 11
105.0
 21
137.0
  0
LINE
  8
0
  6
CONTINUOUS
 62
     1
 10
82.0
 20
160.0
 11
85.0
 21
160.0
  0
LINE
  8
0
  6
CONTINUOUS
 62
     1
 10
105.0
 20
183.0
 11
105.0
 21
180.0
  0
TEXT
  8
0
  6
CONTINUOUS
 62
     1
 10
103.81947943
 20
177.134821484
 30
0.0
 40
2.5
  1
０
 50
0.0
 41
1.0
 51
0.0
  7
KANJI0
  0
TEXT
  8
0
  6
CONTINUOUS
 62
     1
 10
113.493923114
 20
173.323649073
 30
0.0
 40
2.5
  1
１０
 50
0.0
 41
1.0
 51
0.0
  7
KANJI0
  0
TEXT
  8
0
  6
CONTINUOUS
 62
     1
 10
119.502822598
 20
164.90671406
 30
0.0
 40
2.5
  1
２０
 50
0.0
 41
1.0
 51
0.0
  7
KANJI0
  0
TEXT
  8
0
  6
CONTINUOUS
 62
     1
 10
119.338781697
 20
152.880970858
 30
0.0
 40
2.5
  1
３０
 50
0.0
 41
1.0
 51
0.0
  7
KANJI0
  0
TEXT
  8
0
  6
CONTINUOUS
 62
     1
 10
113.839510528
 20
144.434430771
 30
0.0
 40
2.5
  1
４０
 50
0.0
 41
1.0
 51
0.0
  7
KANJI0
  0
TEXT
  8
0
  6
CONTINUOUS
 62
     1
 10
102.639451504
 20
140.232993238
 30
0.0
 40
2.5
  1
５０
 50
0.0
 41
1.0
 51
0.0
  7
KANJI0
  0
TEXT
  8
0
  6
CONTINUOUS
 62
     1
 10
91.533121624
 20
144.208035473
 30
0.0
 40
2.5
  1
６０
 50
0.0
 41
1.0
 51
0.0
  7
KANJI0
  0
TEXT
  8
0
  6
CONTINUOUS
 62
     1
 10
85.614326336
 20
152.774856114
 30
0.0
 40
2.5
  1
７０
 50
0.0
 41
1.0
 51
0.0
  7
KANJI0
  0
TEXT
  8
0
  6
CONTINUOUS
 62
     1
 10
85.720008691
 20
165.067025572
 30
0.0
 40
2.5
  1
８０
 50
0.0
 41
1.0
 51
0.0
  7
KANJI0
  0
TEXT
  8
0
  6
CONTINUOUS
 62
     1
 10
92.426061739
 20
173.874674657
 30
0.0
 40
2.5
  1
９０
 50
0.0
 41
1.0
 51
0.0
  7
KANJI0
  0
LINE
  8
0
  6
CONTINUOUS
 62
     1
 10
108.4
 20
115.0
 11
101.6
 21
115.0
  0
LINE
  8
0
  6
CONTINUOUS
 62
     1
 10
107.25
 20
104.0
 11
102.75
 21
104.0
  0
LINE
  8
0
  6
CONTINUOUS
 62
     1
 10
101.0
 20
133.904789712
 11
101.0
 21
119.5
  0
LINE
  8
0
  6
CONTINUOUS
 62
     1
 10
109.0
 20
133.904789712
 11
109.0
 21
119.5
  0
LINE
  8
0
  6
CONTINUOUS
 62
     1
 10
103.0
 20
115.0
 11
103.0
 21
104.0
  0
LINE
  8
0
  6
CONTINUOUS
 62
     1
 10
107.0
 20
115.0
 11
107.0
 21
104.0
  0
ARC
  8
0
  6
CONTINUOUS
 62
     1
 10
105.0
 20
194.155
 40
7.345
 50
59.751985383
 51
120.248014617
  0
TEXT
  8
0
  6
CONTINUOUS
 62
     1
 10
104.494223691
 20
175.777375517
 30
0.0
 40
1.0
  1
０
 50
0.0
 41
1.0
 51
0.0
  7
KANJI1
  0
TEXT
  8
0
  6
CONTINUOUS
 62
     1
 10
114.920580865
 20
172.148407905
 30
0.0
 40
1.0
  1
９０
 50
0.0
 41
1.0
 51
0.0
  7
KANJI1
  0
TEXT
  8
0
  6
CONTINUOUS
 62
     1
 10
120.30985903
 20
163.401542315
 30
0.0
 40
1.0
  1
８０
 50
0.0
 41
1.0
 51
0.0
  7
KANJI1
  0
TEXT
  8
0
  6
CONTINUOUS
 62
     1
 10
120.485084873
 20
156.074615218
 30
0.0
 40
1.0
  1
７０
 50
0.0
 41
1.0
 51
0.0
  7
KANJI1
  0
TEXT
  8
0
  6
CONTINUOUS
 62
     1
 10
115.541952255
 20
147.555278094
 30
0.0
 40
1.0
  1
６０
 50
0.0
 41
1.0
 51
0.0
  7
KANJI1
  0
TEXT
  8
0
  6
CONTINUOUS
 62
     1
 10
104.083687183
 20
143.100099581
 30
0.0
 40
1.0
  1
５０
 50
0.0
 41
1.0
 51
0.0
  7
KANJI1
  0
TEXT
  8
0
  6
CONTINUOUS
 62
     1
 10
92.548421829
 20
147.392852032
 30
0.0
 40
1.0
  1
４０
 50
0.0
 41
1.0
 51
0.0
  7
KANJI1
  0
TEXT
  8
0
  6
CONTINUOUS
 62
     1
 10
87.730588838
 20
155.826772199
 30
0.0
 40
1.0
  1
３０
 50
0.0
 41
1.0
 51
0.0
  7
KANJI1
  0
TEXT
  8
0
  6
CONTINUOUS
 62
     1
 10
88.041484781
 20
163.896377963
 30
0.0
 40
1.0
  1
２０
 50
0.0
 41
1.0
 51
0.0
  7
KANJI1
  0
TEXT
  8
0
  6
CONTINUOUS
 62
     1
 10
94.30936006
 20
172.739159732
 30
0.0
 40
1.0
  1
１０
 50
0.0
 41
1.0
 51
0.0
  7
KANJI1
  0
LINE
  8
0
  6
CONTINUOUS
 62
     1
 10
109.0
 20
119.5
 11
101.0
 21
119.5
  0
LINE
  8
0
  6
CONTINUOUS
 62
     1
 10
108.6
 20
117.0
 11
101.4
 21
117.0
  0
LINE
  8
0
  6
CONTINUOUS
 62
     1
 10
108.85
 20
118.0
 11
101.15
 21
118.0
  0
LINE
  8
0
  6
CONTINUOUS
 62
     1
 10
108.6
 20
117.0
 11
108.6
 21
115.2
  0
LINE
  8
0
  6
CONTINUOUS
 62
     1
 10
101.4
 20
115.2
 11
101.4
 21
117.0
  0
LINE
  8
0
  6
CONTINUOUS
 62
     1
 10
101.4
 20
115.2
 11
101.6
 21
115.0
  0
LINE
  8
0
  6
CONTINUOUS
 62
     1
 10
108.6
 20
115.2
 11
108.4
 21
115.0
  0
LINE
  8
0
  6
CONTINUOUS
 62
     1
 10
108.85
 20
119.5
 11
108.85
 21
118.0
  0
LINE
  8
0
  6
CONTINUOUS
 62
     1
 10
101.15
 20
119.5
 11
101.15
 21
118.0
  0
ARC
  8
0
  6
CONTINUOUS
 62
     1
 10
101.275
 20
117.5
 40
0.515388203
 50
284.036243468
 51
104.036243468
  0
ARC
  8
0
  6
CONTINUOUS
 62
     1
 10
108.725
 20
117.5
 40
0.515388203
 50
75.963756532
 51
255.963756532
  0
POINT
  8
0
  6
CONTINUOUS
 62
     1
 10
105.0
 20
201.5
  0
POINT
  8
0
  6
CONTINUOUS
 62
     1
 10
105.0
 20
160.0
  0
POINT
  8
0
  6
CONTINUOUS
 62
     1
 10
105.0
 20
160.0
  0
POINT
  8
0
  6
CONTINUOUS
 62
     1
 10
109.0
 20
124.782469418
  0
POINT
  8
0
  6
CONTINUOUS
 62
     1
 10
101.0
 20
124.620383077
  0
POINT
  8
0
  6
CONTINUOUS
 62
     1
 10
101.0
 20
125.349772296
  0
POINT
  8
0
  6
CONTINUOUS
 62
     1
 10
103.0
 20
108.735899783
  0
POINT
  8
0
  6
CONTINUOUS
 62
     1
 10
107.0
 20
108.654856385
  0
POINT
  8
0
  6
CONTINUOUS
 62
     1
 10
107.0
 20
108.087553508
  0
CIRCLE
  8
0
  6
CONTINUOUS
 62
     1
 10
105.0
 20
160.0
 40
1.9
  0
CIRCLE
  8
0
  6
CONTINUOUS
 62
     1
 10
105.0
 20
160.0
 40
1.5
  0
POINT
  8
0
  6
CONTINUOUS
 62
     1
 10
105.0
 20
160.0
  0
POINT
  8
0
  6
CONTINUOUS
 62
     1
 10
105.0
 20
160.0
  0
CIRCLE
  8
0
  6
CONTINUOUS
 62
     1
 10
105.0
 20
160.0
 40
0.475
  0
ARC
  8
0
  6
CONTINUOUS
 62
     1
 10
100.266115707
 20
160.390946934
 40
3.0
 50
6.527720823
 51
36.0
  0
LINE
  8
0
  6
CONTINUOUS
 62
     1
 10
91.99591292
 20
177.745473204
 11
102.693166691
 21
162.154302691
  0
ARC
  8
0
  6
CONTINUOUS
 62
     1
 10
106.091038067
 20
164.62300075
 40
3.0
 50
216.0
 51
245.472279177
  0
LINE
  8
0
  6
CONTINUOUS
 62
     1
 10
92.06872445
 20
177.798373876
 11
91.99591292
 21
177.745473204
  0
LINE
  8
0
  6
CONTINUOUS
 62
     1
 10
92.06872445
 20
177.798373876
 11
92.141535979
 21
177.851274549
  0
LINE
  8
0
  6
CONTINUOUS
 62
     1
 10
92.141535979
 20
177.851274549
 11
103.663987084
 21
162.859644993
  0
POINT
  8
0
  6
CONTINUOUS
 62
     1
 10
82.0
 20
160.0
  0
POINT
  8
0
  6
CONTINUOUS
 62
     1
 10
128.0
 20
160.0
  0
LINE
  8
0
  6
CONTINUOUS
 62
     1
 10
108.7
 20
200.5
 11
108.7
 21
194.0
  0
LINE
  8
0
  6
CONTINUOUS
 62
     1
 10
101.3
 20
200.5
 11
101.3
 21
194.0
  0
LINE
  8
0
  6
CONTINUOUS
 62
     1
 10
109.0
 20
194.0
 11
101.0
 21
194.0
  0
LINE
  8
0
  6
CONTINUOUS
 62
     1
 10
109.0
 20
188.0
 11
101.0
 21
188.0
  0
LINE
  8
0
  6
CONTINUOUS
 62
     1
 10
101.0
 20
194.0
 11
101.0
 21
188.0
  0
LINE
  8
0
  6
CONTINUOUS
 62
     1
 10
109.0
 20
194.0
 11
109.0
 21
188.0
  0
LINE
  8
0
  6
CONTINUOUS
 62
     1
 10
108.7
 20
200.5
 11
101.3
 21
200.5
  0
POINT
  8
0
  6
CONTINUOUS
 62
     1
 10
105.0
 20
201.5
  0
POINT
  8
0
  6
CONTINUOUS
 62
     1
 10
105.0
 20
201.5
  0
LINE
  8
0
  6
CONTINUOUS
 62
     1
 10
101.3
 20
188.0
 11
101.3
 21
186.139433812
  0
LINE
  8
0
  6
CONTINUOUS
 62
     1
 10
108.7
 20
188.0
 11
108.7
 21
186.139433812
  0
LINE
  8
0
  6
CONTINUOUS
 62
     1
 10
107.5
 20
103.8
 11
107.5
 21
100.7
  0
LINE
  8
0
  6
CONTINUOUS
 62
     1
 10
102.5
 20
103.8
 11
102.5
 21
100.7
  0
LINE
  8
0
  6
CONTINUOUS
 62
     1
 10
102.75
 20
100.5
 11
103.7
 21
96.0
  0
LINE
  8
0
  6
CONTINUOUS
 62
     1
 10
102.75
 20
100.5
 11
107.25
 21
100.5
  0
LINE
  8
0
  6
CONTINUOUS
 62
     1
 10
102.5
 20
100.7
 11
107.5
 21
100.7
  0
LINE
  8
0
  6
CONTINUOUS
 62
     1
 10
102.5
 20
100.7
 11
102.75
 21
100.5
  0
POINT
  8
0
  6
CONTINUOUS
 62
     1
 10
105.0
 20
95.0
  0
LINE
  8
0
  6
CONTINUOUS
 62
     1
 10
107.25
 20
100.5
 11
106.3
 21
96.0
  0
LINE
  8
0
  6
CONTINUOUS
 62
     1
 10
107.5
 20
100.7
 11
107.25
 21
100.5
  0
LINE
  8
0
  6
CONTINUOUS
 62
     1
 10
103.7
 20
96.0
 11
106.3
 21
96.0
  0
ARC
  8
0
  6
CONTINUOUS
 62
     1
 10
105.0
 20
96.15
 40
1.15
 50
187.494717454
 51
352.505282546
  0
LINE
  8
0
  6
CONTINUOUS
 62
     1
 10
102.5
 20
103.8
 11
107.5
 21
103.8
  0
LINE
  8
0
  6
CONTINUOUS
 62
     1
 10
102.75
 20
104.0
 11
102.5
 21
103.8
  0
POINT
  8
0
  6
CONTINUOUS
 62
     1
 10
102.75
 20
104.0
  0
LINE
  8
0
  6
CONTINUOUS
 62
     1
 10
107.25
 20
104.0
 11
107.5
 21
103.8
  0
POINT
  8
0
  6
CONTINUOUS
 62
     1
 10
107.25
 20
104.0
  0
LINE
  8
0
  6
LTYPE1
 62
     2
 10
73.6
 20
160.0
 11
136.4
 21
160.0
  0
LINE
  8
0
  6
LTYPE1
 62
     2
 10
105.0
 20
90.0
 11
105.0
 21
206.5
  0
LINE
  8
0
  6
CONTINUOUS
 62
     1
 10
101.0
 20
192.303300859
 11
102.696699141
 21
194.0
  0
LINE
  8
0
  6
CONTINUOUS
 62
     1
 10
104.464466094
 20
194.0
 11
101.0
 21
190.535533906
  0
LINE
  8
0
  6
CONTINUOUS
 62
     1
 10
101.0
 20
188.767766953
 11
106.232233047
 21
194.0
  0
LINE
  8
0
  6
CONTINUOUS
 62
     1
 10
108.0
 20
194.0
 11
102.0
 21
188.0
  0
LINE
  8
0
  6
CONTINUOUS
 62
     1
 10
103.767766953
 20
188.0
 11
109.0
 21
193.232233047
  0
LINE
  8
0
  6
CONTINUOUS
 62
     1
 10
109.0
 20
191.464466094
 11
105.535533906
 21
188.0
  0
LINE
  8
0
  6
CONTINUOUS
 62
     1
 10
107.303300859
 20
188.0
 11
109.0
 21
189.696699141
  0
LINE
  8
0
  6
CONTINUOUS
 62
     1
 10
102.696699141
 20
188.0
 11
101.0
 21
189.696699141
  0
LINE
  8
0
  6
CONTINUOUS
 62
     1
 10
101.0
 20
191.464466094
 11
104.464466094
 21
188.0
  0
LINE
  8
0
  6
CONTINUOUS
 62
     1
 10
106.232233047
 20
188.0
 11
101.0
 21
193.232233047
  0
LINE
  8
0
  6
CONTINUOUS
 62
     1
 10
102.0
 20
194.0
 11
108.0
 21
188.0
  0
LINE
  8
0
  6
CONTINUOUS
 62
     1
 10
109.0
 20
188.767766953
 11
103.767766953
 21
194.0
  0
LINE
  8
0
  6
CONTINUOUS
 62
     1
 10
105.535533906
 20
194.0
 11
109.0
 21
190.535533906
  0
LINE
  8
0
  6
CONTINUOUS
 62
     1
 10
109.0
 20
192.303300859
 11
107.303300859
 21
194.0
  0
LINE
  8
0
  6
CONTINUOUS
 62
     1
 10
103.014466094
 20
103.8
 11
102.5
 21
103.285533906
  0
LINE
  8
0
  6
CONTINUOUS
 62
     1
 10
102.5
 20
101.517766953
 11
104.782233047
 21
103.8
  0
LINE
  8
0
  6
CONTINUOUS
 62
     1
 10
106.55
 20
103.8
 11
103.45
 21
100.7
  0
LINE
  8
0
  6
CONTINUOUS
 62
     1
 10
105.217766953
 20
100.7
 11
107.5
 21
102.982233047
  0
LINE
  8
0
  6
CONTINUOUS
 62
     1
 10
107.5
 20
101.214466094
 11
106.985533906
 21
100.7
  0
LINE
  8
0
  6
CONTINUOUS
 62
     1
 10
102.5
 20
101.214466094
 11
103.014466094
 21
100.7
  0
LINE
  8
0
  6
CONTINUOUS
 62
     1
 10
104.782233047
 20
100.7
 11
102.5
 21
102.982233047
  0
LINE
  8
0
  6
CONTINUOUS
 62
     1
 10
103.45
 20
103.8
 11
106.55
 21
100.7
  0
LINE
  8
0
  6
CONTINUOUS
 62
     1
 10
107.5
 20
101.517766953
 11
105.217766953
 21
103.8
  0
LINE
  8
0
  6
CONTINUOUS
 62
     1
 10
106.985533906
 20
103.8
 11
107.5
 21
103.285533906
  0
LINE
  8
0
  6
CONTINUOUS
 62
     1
 10
106.317518452
 20
148.458197865
 11
105.841990194
 21
148.612706362
  0
LINE
  8
0
  6
CONTINUOUS
 62
     1
 10
106.317518452
 20
151.393859312
 11
105.841990194
 21
151.239350815
  0
CIRCLE
  8
0
  6
CONTINUOUS
 62
     1
 10
101.8
 20
149.926028588
 40
4.75
  0
LINE
  8
0
  6
CONTINUOUS
 62
     1
 10
101.944908358
 20
151.383397934
 11
101.9
 21
154.626028588
  0
LINE
  8
0
  6
CONTINUOUS
 62
     1
 10
101.655091642
 20
151.383397934
 11
101.7
 21
154.626028588
  0
TEXT
  8
0
  6
CONTINUOUS
 62
     1
 10
97.983984435
 20
148.213068692
 30
0.0
 40
1.0
  1
３
 50
0.0
 41
1.0
 51
0.0
  7
KANJI1
  0
TEXT
  8
0
  6
CONTINUOUS
 62
     1
 10
98.013227439
 20
150.475910442
 30
0.0
 40
1.0
  1
２
 50
0.0
 41
1.0
 51
0.0
  7
KANJI1
  0
LINE
  8
0
  6
CONTINUOUS
 62
     1
 10
97.282481548
 20
151.393859312
 11
97.758009806
 21
151.239350815
  0
LINE
  8
0
  6
CONTINUOUS
 62
     1
 10
97.282481548
 20
148.458197865
 11
97.758009806
 21
148.612706362
  0
LINE
  8
0
  6
CONTINUOUS
 62
     1
 10
101.8
 20
145.176028588
 11
101.8
 21
145.676028588
  0
LINE
  8
0
  6
CONTINUOUS
 62
     1
 10
104.591979948
 20
146.083197865
 11
104.298087322
 21
146.487706362
  0
TEXT
  8
0
  6
CONTINUOUS
 62
     1
 10
103.394437363
 20
146.600417635
 30
0.0
 40
1.0
  1
６
 50
0.0
 41
1.0
 51
0.0
  7
KANJI1
  0
ARC
  8
0
  6
CONTINUOUS
 62
     1
 10
102.444860413
 20
151.39032195
 40
0.5
 50
180.793459121
 51
246.231778702
  0
ARC
  8
0
  6
CONTINUOUS
 62
     1
 10
101.155139587
 20
151.39032195
 40
0.5
 50
293.768221298
 51
359.206540879
  0
TEXT
  8
0
  6
CONTINUOUS
 62
     1
 10
101.282048377
 20
146.003135878
 30
0.0
 40
1.0
  1
５
 50
0.0
 41
1.0
 51
0.0
  7
KANJI1
  0
CIRCLE
  8
0
  6
CONTINUOUS
 62
     1
 10
101.8
 20
149.926028588
 40
0.75
  0
CIRCLE
  8
0
  6
CONTINUOUS
 62
     1
 10
101.8
 20
149.926028588
 40
0.4
  0
LINE
  8
0
  6
CONTINUOUS
 62
     1
 10
99.008020052
 20
146.083197865
 11
99.301912678
 21
146.487706362
  0
TEXT
  8
0
  6
CONTINUOUS
 62
     1
 10
99.178556808
 20
146.477873864
 30
0.0
 40
1.0
  1
４
 50
0.0
 41
1.0
 51
0.0
  7
KANJI1
  0
CIRCLE
  8
0
  6
CONTINUOUS
 62
     1
 10
101.8
 20
149.926028588
 40
1.1
  0
TEXT
  8
0
  6
CONTINUOUS
 62
     1
 10
104.834333885
 20
148.204537374
 30
0.0
 40
1.0
  1
７
 50
0.0
 41
1.0
 51
0.0
  7
KANJI1
  0
TEXT
  8
0
  6
CONTINUOUS
 62
     1
 10
104.894520816
 20
150.508164759
 30
0.0
 40
1.0
  1
８
 50
0.0
 41
1.0
 51
0.0
  7
KANJI1
  0
LINE
  8
0
  6
CONTINUOUS
 62
     1
 10
101.8
 20
154.676028588
 11
101.8
 21
154.176028588
  0
LINE
  8
0
  6
CONTINUOUS
 62
     1
 10
104.591979948
 20
153.768859312
 11
104.298087322
 21
153.364350815
  0
TEXT
  8
0
  6
CONTINUOUS
 62
     1
 10
103.397123299
 20
152.227472537
 30
0.0
 40
1.0
  1
９
 50
0.0
 41
1.0
 51
0.0
  7
KANJI1
  0
TEXT
  8
0
  6
CONTINUOUS
 62
     1
 10
101.313623561
 20
152.953802517
 30
0.0
 40
1.0
  1
０
 50
0.0
 41
1.0
 51
0.0
  7
KANJI1
  0
LINE
  8
0
  6
CONTINUOUS
 62
     1
 10
101.9
 20
154.626028588
 11
101.7
 21
154.626028588
  0
LINE
  8
0
  6
CONTINUOUS
 62
     1
 10
99.008020052
 20
153.768859312
 11
99.301912678
 21
153.364350815
  0
TEXT
  8
0
  6
CONTINUOUS
 62
     1
 10
99.373509786
 20
152.278078448
 30
0.0
 40
1.0
  1
１
 50
0.0
 41
1.0
 51
0.0
  7
KANJI1
  0
CIRCLE
  8
0
  6
CONTINUOUS
 62
     1
 10
105.0
 20
160.0
 40
25.0
  0
CIRCLE
  8
0
  6
CONTINUOUS
 62
     1
 10
105.0
 20
160.0
 40
25.5
  0
ARC
  8
4
  6
CONTINUOUS
 62
     1
 10
91.821367205
 20
182.826061575
 40
7.64273441
 50
102.412046226
 51
137.587953774
  0
ARC
  8
4
  6
CONTINUOUS
 62
     1
 10
92.022329099
 20
189.406188594
 40
2.044658199
 50
85.615752532
 51
154.384247468
  0
LINE
  8
4
  6
CONTINUOUS
 62
     1
 10
91.464101615
 20
191.444863729
 11
92.178632795
 21
191.444863729
  0
LINE
  8
4
  6
CONTINUOUS
 62
     1
 10
91.464101615
 20
191.444863729
 11
84.535898385
 21
187.444863729
  0
LINE
  8
4
  6
CONTINUOUS
 62
     1
 10
93.5
 20
184.537386441
 11
90.178632795
 21
190.29016319
  0
ARC
  8
4
  6
CONTINUOUS
 62
     1
 10
86.022329099
 20
185.942086979
 40
2.044658199
 50
85.615752532
 51
154.384247468
  0
LINE
  8
4
  6
CONTINUOUS
 62
     1
 10
84.535898385
 20
187.444863729
 11
84.178632795
 21
186.826061575
  0
LINE
  8
4
  6
CONTINUOUS
 62
     1
 10
87.5
 20
181.073284825
 11
84.178632795
 21
186.826061575
  0
LINE
  8
4
  6
CONTINUOUS
 62
     1
 10
89.5
 20
182.227985364
 11
86.178632795
 21
187.980762114
  0
LINE
  8
4
  6
CONTINUOUS
 62
     1
 10
95.5
 20
185.692086979
 11
92.178632795
 21
191.444863729
  0
LINE
  8
4
  6
CONTINUOUS
 62
     1
 10
95.5
 20
185.692086979
 11
87.5
 21
181.073284825
  0
LINE
  8
4
  6
CONTINUOUS
 62
     1
 10
94.531088913
 20
185.132685902
 11
94.906088913
 21
184.483166849
  0
LINE
  8
4
  6
CONTINUOUS
 62
     1
 10
88.468911087
 20
181.632685902
 11
88.843911087
 21
180.983166849
  0
LINE
  8
4
  6
CONTINUOUS
 62
     1
 10
89.441252889
 20
181.3280423
 11
88.843911087
 21
180.983166849
  0
LINE
  8
4
  6
CONTINUOUS
 62
     1
 10
94.906088913
 20
184.483166849
 11
94.308747111
 21
184.138291399
  0
LINE
  8
4
  6
CONTINUOUS
 62
     2
 10
93.88156986
 20
184.757685902
 11
94.253379772
 21
184.113692245
  0
LINE
  8
4
  6
CONTINUOUS
 62
     2
 10
89.11843014
 20
182.007685902
 11
89.490240051
 21
181.363692245
  0
LINE
  8
0
  6
CONTINUOUS
 62
     1
 10
89.732047504
 20
190.444861821
 11
79.732047504
 21
207.765369897
  0
LINE
  8
0
  6
CONTINUOUS
 62
     1
 10
86.267945889
 20
188.444861821
 11
76.267945889
 21
205.765369897
  0
ARC
  8
0
  6
CONTINUOUS
 62
     1
 10
77.5089779
 20
205.615854659
 40
1.25
 50
66.869897647
 51
173.130102353
  0
ARC
  8
0
  6
CONTINUOUS
 62
     1
 10
79.241028707
 20
206.615854659
 40
1.25
 50
66.869897645
 51
173.130102354
  0
ARC
  8
0
  6
CONTINUOUS
 62
     1
 10
78.491028707
 20
207.914892765
 40
1.25
 50
246.869897647
 51
353.130102353
  0
LINE
  8
4
  6
LTYPE2
 62
     2
 10
75.5
 20
211.095498823
 11
94.321367205
 21
178.495934556
  0
ARC
  8
0
  6
CONTINUOUS
 62
     1
 10
311.166666667
 20
160.0
 40
105.666666667
 50
166.314453175
 51
193.685546825
  0
LINE
  8
0
  6
CONTINUOUS
 62
     1
 10
208.5
 20
185.0
 11
208.5
 21
135.0
  0
LINE
  8
0
  6
CONTINUOUS
 62
     1
 10
209.7
 20
186.4
 11
209.7
 21
133.6
  0
LINE
  8
0
  6
CONTINUOUS
 62
     1
 10
213.5
 20
186.4
 11
213.5
 21
133.6
  0
LINE
  8
0
  6
CONTINUOUS
 62
     1
 10
215.0
 20
185.0
 11
215.0
 21
135.0
  0
LINE
  8
0
  6
CONTINUOUS
 62
     1
 10
226.5
 20
184.4
 11
226.5
 21
135.6
  0
LINE
  8
0
  6
CONTINUOUS
 62
     1
 10
209.7
 20
134.5
 11
208.5
 21
135.0
  0
LINE
  8
0
  6
CONTINUOUS
 62
     1
 10
215.0
 20
135.0
 11
213.5
 21
135.0
  0
LINE
  8
0
  6
CONTINUOUS
 62
     1
 10
209.7
 20
133.6
 11
213.5
 21
133.6
  0
LINE
  8
0
  6
CONTINUOUS
 62
     1
 10
209.7
 20
137.6
 11
213.5
 21
137.6
  0
LINE
  8
0
  6
CONTINUOUS
 62
     1
 10
209.7
 20
136.6
 11
213.5
 21
136.6
  0
LINE
  8
0
  6
CONTINUOUS
 62
     1
 10
209.7
 20
135.6
 11
213.5
 21
135.6
  0
LINE
  8
0
  6
CONTINUOUS
 62
     1
 10
209.7
 20
134.6
 11
213.5
 21
134.6
  0
ARC
  8
0
  6
CONTINUOUS
 62
     1
 10
220.0
 20
194.155
 40
7.345
 50
59.751985383
 51
120.248014617
  0
LINE
  8
0
  6
CONTINUOUS
 62
     1
 10
209.7
 20
185.5
 11
208.5
 21
185.0
  0
LINE
  8
0
  6
CONTINUOUS
 62
     1
 10
209.7
 20
138.6
 11
213.5
 21
138.6
  0
LINE
  8
0
  6
CONTINUOUS
 62
     1
 10
213.5
 20
158.0
 11
209.7
 21
158.0
  0
LINE
  8
0
  6
CONTINUOUS
 62
     1
 10
213.5
 20
159.0
 11
209.7
 21
159.0
  0
LINE
  8
0
  6
CONTINUOUS
 62
     1
 10
213.5
 20
160.0
 11
209.7
 21
160.0
  0
LINE
  8
0
  6
CONTINUOUS
 62
     1
 10
213.5
 20
161.0
 11
209.7
 21
161.0
  0
LINE
  8
0
  6
CONTINUOUS
 62
     1
 10
213.5
 20
163.0
 11
209.7
 21
163.0
  0
LINE
  8
0
  6
CONTINUOUS
 62
     1
 10
213.5
 20
162.0
 11
209.7
 21
162.0
  0
LINE
  8
0
  6
CONTINUOUS
 62
     1
 10
209.7
 20
181.4
 11
213.5
 21
181.4
  0
LINE
  8
0
  6
CONTINUOUS
 62
     1
 10
209.7
 20
182.4
 11
213.5
 21
182.4
  0
LINE
  8
0
  6
CONTINUOUS
 62
     1
 10
209.7
 20
183.4
 11
213.5
 21
183.4
  0
LINE
  8
0
  6
CONTINUOUS
 62
     1
 10
209.7
 20
184.4
 11
213.5
 21
184.4
  0
LINE
  8
0
  6
CONTINUOUS
 62
     1
 10
215.0
 20
185.0
 11
213.5
 21
185.0
  0
LINE
  8
0
  6
CONTINUOUS
 62
     1
 10
209.7
 20
185.4
 11
213.5
 21
185.4
  0
LINE
  8
0
  6
CONTINUOUS
 62
     1
 10
209.7
 20
186.4
 11
213.5
 21
186.4
  0
LINE
  8
0
  6
CONTINUOUS
 62
     1
 10
222.0
 20
115.0
 11
222.0
 21
104.0
  0
LINE
  8
0
  6
CONTINUOUS
 62
     1
 10
218.0
 20
115.0
 11
218.0
 21
104.0
  0
LINE
  8
0
  6
CONTINUOUS
 62
     1
 10
224.0
 20
135.6
 11
224.0
 21
119.5
  0
LINE
  8
0
  6
CONTINUOUS
 62
     1
 10
216.0
 20
135.6
 11
216.0
 21
119.5
  0
LINE
  8
0
  6
CONTINUOUS
 62
     1
 10
216.4
 20
117.0
 11
216.4
 21
115.2
  0
LINE
  8
0
  6
CONTINUOUS
 62
     1
 10
223.6
 20
115.2
 11
223.6
 21
117.0
  0
LINE
  8
0
  6
CONTINUOUS
 62
     1
 10
216.6
 20
115.0
 11
223.4
 21
115.0
  0
LINE
  8
0
  6
CONTINUOUS
 62
     1
 10
216.4
 20
115.2
 11
216.6
 21
115.0
  0
LINE
  8
0
  6
CONTINUOUS
 62
     1
 10
223.6
 20
115.2
 11
223.4
 21
115.0
  0
LINE
  8
0
  6
CONTINUOUS
 62
     1
 10
216.15
 20
118.0
 11
223.85
 21
118.0
  0
LINE
  8
0
  6
CONTINUOUS
 62
     1
 10
216.4
 20
117.0
 11
223.6
 21
117.0
  0
LINE
  8
0
  6
CONTINUOUS
 62
     1
 10
216.0
 20
119.5
 11
224.0
 21
119.5
  0
ARC
  8
0
  6
CONTINUOUS
 62
     1
 10
216.275
 20
117.5
 40
0.515388203
 50
284.036243468
 51
104.036243468
  0
LINE
  8
0
  6
CONTINUOUS
 62
     1
 10
216.15
 20
119.5
 11
216.15
 21
118.0
  0
ARC
  8
0
  6
CONTINUOUS
 62
     1
 10
223.725
 20
117.5
 40
0.515388203
 50
75.963756532
 51
255.963756532
  0
LINE
  8
0
  6
CONTINUOUS
 62
     1
 10
223.85
 20
119.5
 11
223.85
 21
118.0
  0
POINT
  8
0
  6
CONTINUOUS
 62
     1
 10
216.0
 20
119.5
  0
POINT
  8
0
  6
CONTINUOUS
 62
     1
 10
216.6
 20
115.0
  0
LINE
  8
0
  6
CONTINUOUS
 62
     1
 10
215.0
 20
184.4
 11
226.5
 21
184.4
  0
LINE
  8
0
  6
CONTINUOUS
 62
     1
 10
215.0
 20
135.6
 11
226.5
 21
135.6
  0
POINT
  8
0
  6
CONTINUOUS
 62
     1
 10
226.5
 20
184.4
  0
POINT
  8
0
  6
CONTINUOUS
 62
     1
 10
226.5
 20
184.4
  0
POINT
  8
0
  6
CONTINUOUS
 62
     1
 10
226.5
 20
184.4
  0
POINT
  8
0
  6
CONTINUOUS
 62
     1
 10
226.5
 20
135.6
  0
POINT
  8
0
  6
CONTINUOUS
 62
     1
 10
220.0
 20
201.5
  0
POINT
  8
0
  6
CONTINUOUS
 62
     1
 10
209.7
 20
186.4
  0
POINT
  8
0
  6
CONTINUOUS
 62
     1
 10
209.7
 20
133.6
  0
POINT
  8
0
  6
CONTINUOUS
 62
     1
 10
209.7
 20
133.6
  0
LINE
  8
0
  6
CONTINUOUS
 62
     1
 10
216.3
 20
200.5
 11
216.3
 21
194.0
  0
LINE
  8
0
  6
CONTINUOUS
 62
     1
 10
223.7
 20
200.5
 11
223.7
 21
194.0
  0
LINE
  8
0
  6
CONTINUOUS
 62
     1
 10
216.3
 20
200.5
 11
223.7
 21
200.5
  0
POINT
  8
0
  6
CONTINUOUS
 62
     1
 10
220.0
 20
201.5
  0
LINE
  8
0
  6
CONTINUOUS
 62
     1
 10
221.3
 20
96.0
 11
218.7
 21
96.0
  0
ARC
  8
0
  6
CONTINUOUS
 62
     1
 10
220.0
 20
96.15
 40
1.15
 50
187.494717454
 51
352.505282546
  0
LINE
  8
0
  6
CONTINUOUS
 62
     1
 10
222.25
 20
100.5
 11
221.3
 21
96.0
  0
POINT
  8
0
  6
CONTINUOUS
 62
     1
 10
220.0
 20
95.0
  0
LINE
  8
0
  6
CONTINUOUS
 62
     1
 10
217.75
 20
100.5
 11
218.7
 21
96.0
  0
LINE
  8
0
  6
CONTINUOUS
 62
     1
 10
224.0
 20
194.0
 11
216.0
 21
194.0
  0
LINE
  8
0
  6
CONTINUOUS
 62
     1
 10
224.0
 20
188.0
 11
216.0
 21
188.0
  0
LINE
  8
0
  6
CONTINUOUS
 62
     1
 10
216.0
 20
194.0
 11
216.0
 21
188.0
  0
LINE
  8
0
  6
CONTINUOUS
 62
     1
 10
224.0
 20
194.0
 11
224.0
 21
188.0
  0
LINE
  8
0
  6
CONTINUOUS
 62
     1
 10
222.25
 20
104.0
 11
217.75
 21
104.0
  0
LINE
  8
0
  6
CONTINUOUS
 62
     1
 10
222.5
 20
103.8
 11
222.5
 21
100.7
  0
LINE
  8
0
  6
CONTINUOUS
 62
     1
 10
217.5
 20
103.8
 11
217.5
 21
100.7
  0
LINE
  8
0
  6
CONTINUOUS
 62
     1
 10
217.75
 20
100.5
 11
222.25
 21
100.5
  0
LINE
  8
0
  6
CONTINUOUS
 62
     1
 10
217.5
 20
100.7
 11
222.5
 21
100.7
  0
LINE
  8
0
  6
CONTINUOUS
 62
     1
 10
217.5
 20
100.7
 11
217.75
 21
100.5
  0
LINE
  8
0
  6
CONTINUOUS
 62
     1
 10
222.5
 20
100.7
 11
222.25
 21
100.5
  0
LINE
  8
0
  6
CONTINUOUS
 62
     1
 10
217.5
 20
103.8
 11
222.5
 21
103.8
  0
LINE
  8
0
  6
CONTINUOUS
 62
     1
 10
217.75
 20
104.0
 11
217.5
 21
103.8
  0
POINT
  8
0
  6
CONTINUOUS
 62
     1
 10
217.75
 20
104.0
  0
LINE
  8
0
  6
CONTINUOUS
 62
     1
 10
222.25
 20
104.0
 11
222.5
 21
103.8
  0
POINT
  8
0
  6
CONTINUOUS
 62
     1
 10
222.25
 20
104.0
  0
LINE
  8
0
  6
LTYPE1
 62
     2
 10
220.0
 20
208.259639929
 11
220.0
 21
90.0
  0
LINE
  8
0
  6
CONTINUOUS
 62
     1
 10
232.0
 20
183.3
 11
232.0
 21
136.7
  0
POINT
  8
0
  6
CONTINUOUS
 62
     1
 10
232.0
 20
183.3
  0
CIRCLE
  8
0
  6
CONTINUOUS
 62
     1
 10
245.0
 20
160.0
 40
3.25
  0
ARC
  8
0
  6
CONTINUOUS
 62
     1
 10
-38.945
 20
160.0
 40
271.945
 50
355.084923704
 51
4.915076296
  0
LINE
  8
0
  6
CONTINUOUS
 62
     1
 10
232.0
 20
183.3
 11
230.0
 21
183.3
  0
LINE
  8
0
  6
CONTINUOUS
 62
     1
 10
232.0
 20
136.7
 11
230.0
 21
136.7
  0
LINE
  8
0
  6
CONTINUOUS
 62
     1
 10
230.0
 20
183.3
 11
230.0
 21
136.7
  0
LINE
  8
0
  6
CONTINUOUS
 62
     1
 10
230.0
 20
183.3
 11
226.5
 21
183.3
  0
LINE
  8
0
  6
CONTINUOUS
 62
     1
 10
230.0
 20
136.7
 11
226.5
 21
136.7
  0
LINE
  8
0
  6
LTYPE1
 62
     2
 10
200.5
 20
160.0
 11
257.0
 21
160.0
  0
LINE
  8
0
  6
CONTINUOUS
 62
     1
 10
216.0
 20
192.303300859
 11
217.696699141
 21
194.0
  0
LINE
  8
0
  6
CONTINUOUS
 62
     1
 10
219.464466094
 20
194.0
 11
216.0
 21
190.535533906
  0
LINE
  8
0
  6
CONTINUOUS
 62
     1
 10
216.0
 20
188.767766953
 11
221.232233047
 21
194.0
  0
LINE
  8
0
  6
CONTINUOUS
 62
     1
 10
223.0
 20
194.0
 11
217.0
 21
188.0
  0
LINE
  8
0
  6
CONTINUOUS
 62
     1
 10
218.767766953
 20
188.0
 11
224.0
 21
193.232233047
  0
LINE
  8
0
  6
CONTINUOUS
 62
     1
 10
224.0
 20
191.464466094
 11
220.535533906
 21
188.0
  0
LINE
  8
0
  6
CONTINUOUS
 62
     1
 10
222.303300859
 20
188.0
 11
224.0
 21
189.696699141
  0
LINE
  8
0
  6
CONTINUOUS
 62
     1
 10
217.696699141
 20
188.0
 11
216.0
 21
189.696699141
  0
LINE
  8
0
  6
CONTINUOUS
 62
     1
 10
216.0
 20
191.464466094
 11
219.464466094
 21
188.0
  0
LINE
  8
0
  6
CONTINUOUS
 62
     1
 10
221.232233047
 20
188.0
 11
216.0
 21
193.232233047
  0
LINE
  8
0
  6
CONTINUOUS
 62
     1
 10
217.0
 20
194.0
 11
223.0
 21
188.0
  0
LINE
  8
0
  6
CONTINUOUS
 62
     1
 10
224.0
 20
188.767766953
 11
218.767766953
 21
194.0
  0
LINE
  8
0
  6
CONTINUOUS
 62
     1
 10
220.535533906
 20
194.0
 11
224.0
 21
190.535533906
  0
LINE
  8
0
  6
CONTINUOUS
 62
     1
 10
224.0
 20
192.303300859
 11
222.303300859
 21
194.0
  0
LINE
  8
0
  6
CONTINUOUS
 62
     1
 10
218.014466094
 20
103.8
 11
217.5
 21
103.285533906
  0
LINE
  8
0
  6
CONTINUOUS
 62
     1
 10
217.5
 20
101.517766953
 11
219.782233047
 21
103.8
  0
LINE
  8
0
  6
CONTINUOUS
 62
     1
 10
221.55
 20
103.8
 11
218.45
 21
100.7
  0
LINE
  8
0
  6
CONTINUOUS
 62
     1
 10
220.217766953
 20
100.7
 11
222.5
 21
102.982233047
  0
LINE
  8
0
  6
CONTINUOUS
 62
     1
 10
222.5
 20
101.214466094
 11
221.985533906
 21
100.7
  0
LINE
  8
0
  6
CONTINUOUS
 62
     1
 10
217.5
 20
101.214466094
 11
218.014466094
 21
100.7
  0
LINE
  8
0
  6
CONTINUOUS
 62
     1
 10
219.782233047
 20
100.7
 11
217.5
 21
102.982233047
  0
LINE
  8
0
  6
CONTINUOUS
 62
     1
 10
218.45
 20
103.8
 11
221.55
 21
100.7
  0
LINE
  8
0
  6
CONTINUOUS
 62
     1
 10
222.5
 20
101.517766953
 11
220.217766953
 21
103.8
  0
LINE
  8
0
  6
CONTINUOUS
 62
     1
 10
221.985533906
 20
103.8
 11
222.5
 21
103.285533906
  0
ARC
  8
0
  6
CONTINUOUS
 62
     1
 10
245.0
 20
160.0
 40
8.0
 50
270.0
 51
90.0
  0
ARC
  8
0
  6
CONTINUOUS
 62
     1
 10
234.334926129
 20
169.5
 40
1.5
 50
181.990965137
 51
270.0
  0
LINE
  8
0
  6
CONTINUOUS
 62
     1
 10
245.0
 20
168.0
 11
234.334926129
 21
168.0
  0
LINE
  8
0
  6
CONTINUOUS
 62
     1
 10
245.0
 20
152.0
 11
234.334926129
 21
152.0
  0
LINE
  8
0
  6
CONTINUOUS
 62
     1
 10
234.334926129
 20
167.599342077
 11
245.0
 21
167.599342077
  0
LINE
  8
0
  6
CONTINUOUS
 62
     1
 10
245.0
 20
152.400657923
 11
234.334926129
 21
152.400657923
  0
ARC
  8
0
  6
CONTINUOUS
 62
     1
 10
245.0
 20
160.0
 40
7.599342077
 50
270.0
 51
90.0
  0
LINE
  8
0
  6
CONTINUOUS
 62
     1
 10
234.0
 20
167.637211957
 11
234.0
 21
160.0
  0
ARC
  8
0
  6
CONTINUOUS
 62
     1
 10
234.334926129
 20
169.099342077
 40
1.5
 50
257.098003264
 51
270.0
  0
ARC
  8
0
  6
CONTINUOUS
 62
     1
 10
234.334926129
 20
150.5
 40
1.5
 50
90.0
 51
178.009034863
  0
ARC
  8
0
  6
CONTINUOUS
 62
     1
 10
234.334926129
 20
150.900657923
 40
1.5
 50
90.0
 51
102.901996736
  0
LINE
  8
0
  6
CONTINUOUS
 62
     1
 10
234.0
 20
152.362788043
 11
234.0
 21
160.0
  0
LINE
  8
0
  6
CONTINUOUS
 62
     1
 10
223.7
 20
188.0
 11
223.7
 21
184.4
  0
LINE
  8
0
  6
CONTINUOUS
 62
     1
 10
216.3
 20
188.0
 11
216.3
 21
184.4
  0
LINE
  8
0
  6
LTYPE1
 62
     2
 10
245.0
 20
165.0
 11
245.0
 21
155.0
  0
CIRCLE
  8
0
  6
CONTINUOUS
 62
     1
 10
325.0
 20
160.0
 40
24.5
  0
CIRCLE
  8
0
  6
CONTINUOUS
 62
     1
 10
325.0
 20
160.0
 40
8.0
  0
LINE
  8
0
  6
CONTINUOUS
 62
     1
 10
322.5
 20
152.400657923
 11
322.5
 21
167.599342077
  0
ARC
  8
0
  6
CONTINUOUS
 62
     1
 10
325.0
 20
160.0
 40
26.4
 50
98.056613868
 51
261.285257981
  0
ARC
  8
0
  6
CONTINUOUS
 62
     1
 10
325.0
 20
194.155
 40
7.345
 50
59.751985383
 51
120.248014617
  0
POINT
  8
0
  6
CONTINUOUS
 62
     1
 10
325.0
 20
201.5
  0
POINT
  8
0
  6
CONTINUOUS
 62
     1
 10
325.0
 20
168.0
  0
POINT
  8
0
  6
CONTINUOUS
 62
     1
 10
325.0
 20
152.0
  0
POINT
  8
0
  6
CONTINUOUS
 62
     1
 10
322.5
 20
152.400657923
  0
POINT
  8
0
  6
CONTINUOUS
 62
     1
 10
327.5
 20
152.400657923
  0
LINE
  8
0
  6
CONTINUOUS
 62
     1
 10
328.7
 20
200.5
 11
328.7
 21
194.0
  0
LINE
  8
0
  6
CONTINUOUS
 62
     1
 10
321.3
 20
200.5
 11
321.3
 21
194.0
  0
LINE
  8
0
  6
CONTINUOUS
 62
     1
 10
321.3
 20
188.0
 11
321.3
 21
186.139433812
  0
LINE
  8
0
  6
CONTINUOUS
 62
     1
 10
328.7
 20
188.0
 11
328.7
 21
186.139433812
  0
LINE
  8
0
  6
CONTINUOUS
 62
     1
 10
321.3
 20
200.5
 11
328.7
 21
200.5
  0
POINT
  8
0
  6
CONTINUOUS
 62
     1
 10
325.0
 20
201.5
  0
LINE
  8
0
  6
LTYPE1
 62
     2
 10
356.4
 20
160.0
 11
293.6
 21
160.0
  0
LINE
  8
0
  6
LTYPE1
 62
     2
 10
325.0
 20
90.0
 11
325.0
 21
206.5
  0
LINE
  8
0
  6
CONTINUOUS
 62
     1
 10
321.0
 20
194.0
 11
329.0
 21
194.0
  0
LINE
  8
0
  6
CONTINUOUS
 62
     1
 10
321.0
 20
188.0
 11
329.0
 21
188.0
  0
LINE
  8
0
  6
CONTINUOUS
 62
     1
 10
329.0
 20
194.0
 11
329.0
 21
188.0
  0
LINE
  8
0
  6
CONTINUOUS
 62
     1
 10
321.0
 20
194.0
 11
321.0
 21
188.0
  0
LINE
  8
0
  6
CONTINUOUS
 62
     1
 10
323.0
 20
115.0
 11
323.0
 21
104.0
  0
LINE
  8
0
  6
CONTINUOUS
 62
     1
 10
327.0
 20
115.0
 11
327.0
 21
104.0
  0
LINE
  8
0
  6
CONTINUOUS
 62
     1
 10
328.6
 20
117.0
 11
328.6
 21
115.2
  0
LINE
  8
0
  6
CONTINUOUS
 62
     1
 10
321.4
 20
115.2
 11
321.4
 21
117.0
  0
LINE
  8
0
  6
CONTINUOUS
 62
     1
 10
328.4
 20
115.0
 11
321.6
 21
115.0
  0
LINE
  8
0
  6
CONTINUOUS
 62
     1
 10
328.6
 20
115.2
 11
328.4
 21
115.0
  0
LINE
  8
0
  6
CONTINUOUS
 62
     1
 10
321.4
 20
115.2
 11
321.6
 21
115.0
  0
LINE
  8
0
  6
CONTINUOUS
 62
     1
 10
328.85
 20
118.0
 11
321.15
 21
118.0
  0
LINE
  8
0
  6
CONTINUOUS
 62
     1
 10
328.6
 20
117.0
 11
321.4
 21
117.0
  0
LINE
  8
0
  6
CONTINUOUS
 62
     1
 10
329.0
 20
119.5
 11
321.0
 21
119.5
  0
ARC
  8
0
  6
CONTINUOUS
 62
     1
 10
328.725
 20
117.5
 40
0.515388203
 50
75.963756532
 51
255.963756532
  0
LINE
  8
0
  6
CONTINUOUS
 62
     1
 10
328.85
 20
119.5
 11
328.85
 21
118.0
  0
ARC
  8
0
  6
CONTINUOUS
 62
     1
 10
321.275
 20
117.5
 40
0.515388203
 50
284.036243468
 51
104.036243468
  0
LINE
  8
0
  6
CONTINUOUS
 62
     1
 10
321.15
 20
119.5
 11
321.15
 21
118.0
  0
POINT
  8
0
  6
CONTINUOUS
 62
     1
 10
329.0
 20
119.5
  0
POINT
  8
0
  6
CONTINUOUS
 62
     1
 10
328.4
 20
115.0
  0
LINE
  8
0
  6
CONTINUOUS
 62
     1
 10
323.7
 20
96.0
 11
326.3
 21
96.0
  0
ARC
  8
0
  6
CONTINUOUS
 62
     1
 10
325.0
 20
96.15
 40
1.15
 50
187.494717454
 51
352.505282546
  0
LINE
  8
0
  6
CONTINUOUS
 62
     1
 10
322.75
 20
100.5
 11
323.7
 21
96.0
  0
POINT
  8
0
  6
CONTINUOUS
 62
     1
 10
325.0
 20
95.0
  0
LINE
  8
0
  6
CONTINUOUS
 62
     1
 10
327.25
 20
100.5
 11
326.3
 21
96.0
  0
LINE
  8
0
  6
CONTINUOUS
 62
     1
 10
322.75
 20
104.0
 11
327.25
 21
104.0
  0
LINE
  8
0
  6
CONTINUOUS
 62
     1
 10
322.5
 20
103.8
 11
322.5
 21
100.7
  0
LINE
  8
0
  6
CONTINUOUS
 62
     1
 10
327.5
 20
103.8
 11
327.5
 21
100.7
  0
LINE
  8
0
  6
CONTINUOUS
 62
     1
 10
327.25
 20
100.5
 11
322.75
 21
100.5
  0
LINE
  8
0
  6
CONTINUOUS
 62
     1
 10
327.5
 20
100.7
 11
322.5
 21
100.7
  0
LINE
  8
0
  6
CONTINUOUS
 62
     1
 10
327.5
 20
100.7
 11
327.25
 21
100.5
  0
LINE
  8
0
  6
CONTINUOUS
 62
     1
 10
322.5
 20
100.7
 11
322.75
 21
100.5
  0
LINE
  8
0
  6
CONTINUOUS
 62
     1
 10
327.5
 20
103.8
 11
322.5
 21
103.8
  0
LINE
  8
0
  6
CONTINUOUS
 62
     1
 10
327.25
 20
104.0
 11
327.5
 21
103.8
  0
POINT
  8
0
  6
CONTINUOUS
 62
     1
 10
327.25
 20
104.0
  0
LINE
  8
0
  6
CONTINUOUS
 62
     1
 10
322.75
 20
104.0
 11
322.5
 21
103.8
  0
POINT
  8
0
  6
CONTINUOUS
 62
     1
 10
322.75
 20
104.0
  0
LINE
  8
0
  6
CONTINUOUS
 62
     1
 10
321.0
 20
135.828736069
 11
321.0
 21
119.5
  0
LINE
  8
0
  6
CONTINUOUS
 62
     1
 10
329.0
 20
135.828736069
 11
329.0
 21
119.5
  0
CIRCLE
  8
0
  6
CONTINUOUS
 62
     1
 10
325.0
 20
160.0
 40
23.1
  0
ARC
  8
0
  6
CONTINUOUS
 62
     1
 10
325.0
 20
160.0
 40
26.4
 50
278.714742019
 51
53.889353751
  0
ARC
  8
0
  6
CONTINUOUS
 62
     1
 10
325.0
 20
160.0
 40
26.4
 50
66.110646249
 51
81.943386132
  0
CIRCLE
  8
0
  6
LTYPE1
 62
     2
 10
325.0
 20
160.0
 40
21.142492757
  0
ARC
  8
4
  6
CONTINUOUS
 62
     1
 10
338.178632795
 20
182.826061575
 40
7.64273441
 50
42.412046226
 51
77.587953774
  0
ARC
  8
4
  6
CONTINUOUS
 62
     1
 10
337.977670901
 20
189.406188594
 40
2.044658199
 50
25.615752532
 51
94.384247468
  0
LINE
  8
4
  6
CONTINUOUS
 62
     1
 10
338.535898385
 20
191.444863729
 11
337.821367205
 21
191.444863729
  0
LINE
  8
4
  6
CONTINUOUS
 62
     1
 10
338.535898385
 20
191.444863729
 11
345.464101615
 21
187.444863729
  0
LINE
  8
4
  6
CONTINUOUS
 62
     1
 10
336.5
 20
184.537386441
 11
339.821367205
 21
190.29016319
  0
ARC
  8
4
  6
CONTINUOUS
 62
     1
 10
343.977670901
 20
185.942086979
 40
2.044658199
 50
25.615752532
 51
94.384247468
  0
LINE
  8
4
  6
CONTINUOUS
 62
     1
 10
345.464101615
 20
187.444863729
 11
345.821367205
 21
186.826061575
  0
LINE
  8
4
  6
CONTINUOUS
 62
     1
 10
342.5
 20
181.073284825
 11
345.821367205
 21
186.826061575
  0
LINE
  8
4
  6
CONTINUOUS
 62
     1
 10
340.5
 20
182.227985364
 11
343.821367205
 21
187.980762114
  0
LINE
  8
4
  6
CONTINUOUS
 62
     1
 10
334.5
 20
185.692086979
 11
337.821367205
 21
191.444863729
  0
LINE
  8
4
  6
CONTINUOUS
 62
     1
 10
334.5
 20
185.692086979
 11
342.5
 21
181.073284825
  0
LINE
  8
4
  6
CONTINUOUS
 62
     1
 10
335.468911087
 20
185.132685902
 11
335.093911087
 21
184.483166849
  0
LINE
  8
4
  6
CONTINUOUS
 62
     2
 10
336.11843014
 20
184.757685902
 11
335.74343014
 21
184.108166849
  0
LINE
  8
4
  6
CONTINUOUS
 62
     1
 10
335.093911087
 20
184.483166849
 11
341.156088913
 21
180.983166849
  0
LINE
  8
4
  6
CONTINUOUS
 62
     1
 10
341.531088913
 20
181.632685902
 11
341.156088913
 21
180.983166849
  0
LINE
  8
4
  6
CONTINUOUS
 62
     2
 10
340.88156986
 20
182.007685902
 11
340.50656986
 21
181.358166849
  0
LINE
  8
4
  6
CONTINUOUS
 62
     1
 10
333.5
 20
183.960036171
 11
341.5
 21
179.341234018
  0
LINE
  8
4
  6
CONTINUOUS
 62
     1
 10
339.88156986
 20
180.275635095
 11
340.50656986
 21
181.358166849
  0
LINE
  8
4
  6
CONTINUOUS
 62
     1
 10
339.195456804
 20
179.968450268
 11
339.5
 21
180.495934556
  0
LINE
  8
4
  6
CONTINUOUS
 62
     1
 10
341.030343581
 20
178.527765237
 11
341.5
 21
179.341234018
  0
LINE
  8
4
  6
CONTINUOUS
 62
     1
 10
333.030343581
 20
183.146567391
 11
333.5
 21
183.960036171
  0
LINE
  8
4
  6
CONTINUOUS
 62
     1
 10
335.11843014
 20
183.025635095
 11
335.74343014
 21
184.108166849
  0
LINE
  8
4
  6
CONTINUOUS
 62
     1
 10
335.195456804
 20
182.277851345
 11
335.5
 21
182.805335633
  0
LINE
  8
0
  6
CONTINUOUS
 62
     1
 10
327.5
 20
152.400657923
 11
327.5
 21
167.599342077
  0
LINE
  8
0
  6
LTYPE3
 62
     2
 10
322.5
 20
163.25
 11
327.5
 21
163.25
  0
LINE
  8
0
  6
LTYPE3
 62
     2
 10
322.5
 20
156.75
 11
327.5
 21
156.75
  0
LINE
  8
0
  6
CONTINUOUS
 62
     1
 10
326.985533906
 20
103.8
 11
327.5
 21
103.285533906
  0
LINE
  8
0
  6
CONTINUOUS
 62
     1
 10
327.5
 20
101.517766953
 11
325.217766953
 21
103.8
  0
LINE
  8
0
  6
CONTINUOUS
 62
     1
 10
323.45
 20
103.8
 11
326.55
 21
100.7
  0
LINE
  8
0
  6
CONTINUOUS
 62
     1
 10
324.782233047
 20
100.7
 11
322.5
 21
102.982233047
  0
LINE
  8
0
  6
CONTINUOUS
 62
     1
 10
322.5
 20
101.214466094
 11
323.014466094
 21
100.7
  0
LINE
  8
0
  6
CONTINUOUS
 62
     1
 10
327.5
 20
101.214466094
 11
326.985533906
 21
100.7
  0
LINE
  8
0
  6
CONTINUOUS
 62
     1
 10
325.217766953
 20
100.7
 11
327.5
 21
102.982233047
  0
LINE
  8
0
  6
CONTINUOUS
 62
     1
 10
326.55
 20
103.8
 11
323.45
 21
100.7
  0
LINE
  8
0
  6
CONTINUOUS
 62
     1
 10
322.5
 20
101.517766953
 11
324.782233047
 21
103.8
  0
LINE
  8
0
  6
CONTINUOUS
 62
     1
 10
323.014466094
 20
103.8
 11
322.5
 21
103.285533906
  0
LINE
  8
0
  6
CONTINUOUS
 62
     1
 10
329.0
 20
192.303300859
 11
327.303300859
 21
194.0
  0
LINE
  8
0
  6
CONTINUOUS
 62
     1
 10
325.535533906
 20
194.0
 11
329.0
 21
190.535533906
  0
LINE
  8
0
  6
CONTINUOUS
 62
     1
 10
329.0
 20
188.767766953
 11
323.767766953
 21
194.0
  0
LINE
  8
0
  6
CONTINUOUS
 62
     1
 10
322.0
 20
194.0
 11
328.0
 21
188.0
  0
LINE
  8
0
  6
CONTINUOUS
 62
     1
 10
326.232233047
 20
188.0
 11
321.0
 21
193.232233047
  0
LINE
  8
0
  6
CONTINUOUS
 62
     1
 10
321.0
 20
191.464466094
 11
324.464466094
 21
188.0
  0
LINE
  8
0
  6
CONTINUOUS
 62
     1
 10
322.696699141
 20
188.0
 11
321.0
 21
189.696699141
  0
LINE
  8
0
  6
CONTINUOUS
 62
     1
 10
327.303300859
 20
188.0
 11
329.0
 21
189.696699141
  0
LINE
  8
0
  6
CONTINUOUS
 62
     1
 10
329.0
 20
191.464466094
 11
325.535533906
 21
188.0
  0
LINE
  8
0
  6
CONTINUOUS
 62
     1
 10
323.767766953
 20
188.0
 11
329.0
 21
193.232233047
  0
LINE
  8
0
  6
CONTINUOUS
 62
     1
 10
328.0
 20
194.0
 11
322.0
 21
188.0
  0
LINE
  8
0
  6
CONTINUOUS
 62
     1
 10
321.0
 20
188.767766953
 11
326.232233047
 21
194.0
  0
LINE
  8
0
  6
CONTINUOUS
 62
     1
 10
324.464466094
 20
194.0
 11
321.0
 21
190.535533906
  0
LINE
  8
0
  6
CONTINUOUS
 62
     1
 10
321.0
 20
192.303300859
 11
322.696699141
 21
194.0
  0
ARC
  8
0
  6
CONTINUOUS
 62
     1
 10
325.0
 20
160.0
 40
25.0
 50
98.511041375
 51
49.353321173
  0
ARC
  8
0
  6
CONTINUOUS
 62
     1
 10
325.0
 20
160.0
 40
25.0
 50
70.646678827
 51
81.488958625
  0
LINE
  8
0
  6
CONTINUOUS
 62
     1
 10
328.7
 20
188.0
 11
328.7
 21
184.219000805
  0
LINE
  8
0
  6
CONTINUOUS
 62
     1
 10
321.3
 20
188.0
 11
321.3
 21
184.219000805
  0
LINE
  8
0
  6
CONTINUOUS
 62
     1
 10
340.267952496
 20
190.444861821
 11
350.267952496
 21
207.765369897
  0
LINE
  8
0
  6
CONTINUOUS
 62
     1
 10
343.732054111
 20
188.444861821
 11
353.732054111
 21
205.765369897
  0
ARC
  8
0
  6
CONTINUOUS
 62
     1
 10
350.7589779
 20
206.615850844
 40
1.25
 50
6.869897647
 51
113.130102353
  0
ARC
  8
0
  6
CONTINUOUS
 62
     1
 10
352.491028707
 20
205.615850844
 40
1.25
 50
6.869897645
 51
113.130102354
  0
ARC
  8
0
  6
CONTINUOUS
 62
     1
 10
353.241028707
 20
206.91488895
 40
1.25
 50
186.869897647
 51
293.130102353
  0
LINE
  8
4
  6
LTYPE2
 62
     2
 10
354.5
 20
211.095498823
 11
334.75
 21
176.887495374
  0
CIRCLE
  8
0
  6
CONTINUOUS
 62
     1
 10
310.05
 20
174.95
 40
2.0
  0
LINE
  8
0
  6
CONTINUOUS
 62
     1
 10
311.171435061
 20
174.95
 11
308.928564939
 21
174.95
  0
LINE
  8
0
  6
CONTINUOUS
 62
     1
 10
310.05
 20
176.071435061
 11
310.05
 21
173.828564939
  0
LINE
  8
0
  6
LTYPE1
 62
     2
 10
307.928679656
 20
177.071320344
 11
312.171320344
 21
172.828679656
  0
CIRCLE
  8
0
  6
CONTINUOUS
 62
     1
 10
310.05
 20
145.05
 40
2.0
  0
LINE
  8
0
  6
CONTINUOUS
 62
     1
 10
310.05
 20
146.171435061
 11
310.05
 21
143.928564939
  0
LINE
  8
0
  6
CONTINUOUS
 62
     1
 10
308.928564939
 20
145.05
 11
311.171435061
 21
145.05
  0
LINE
  8
0
  6
LTYPE1
 62
     2
 10
307.928679656
 20
142.928679656
 11
312.171320344
 21
147.171320344
  0
CIRCLE
  8
0
  6
CONTINUOUS
 62
     1
 10
339.95
 20
145.05
 40
2.0
  0
LINE
  8
0
  6
CONTINUOUS
 62
     1
 10
338.828564939
 20
145.05
 11
341.071435061
 21
145.05
  0
LINE
  8
0
  6
CONTINUOUS
 62
     1
 10
339.95
 20
143.928564939
 11
339.95
 21
146.171435061
  0
LINE
  8
0
  6
LTYPE1
 62
     2
 10
342.071320344
 20
142.928679656
 11
337.828679656
 21
147.171320344
  0
CIRCLE
  8
0
  6
CONTINUOUS
 62
     1
 10
339.95
 20
174.95
 40
2.0
  0
LINE
  8
0
  6
CONTINUOUS
 62
     1
 10
339.95
 20
173.828564939
 11
339.95
 21
176.071435061
  0
LINE
  8
0
  6
CONTINUOUS
 62
     1
 10
341.071435061
 20
174.95
 11
338.828564939
 21
174.95
  0
LINE
  8
0
  6
LTYPE1
 62
     2
 10
342.071320344
 20
177.071320344
 11
337.828679656
 21
172.828679656
  0
LINE
  8
5
  6
CONTINUOUS
 62
     2
 10
106.0
 20
201.5
 11
147.4
 21
201.5
  0
LINE
  8
5
  6
CONTINUOUS
 62
     2
 10
146.4
 20
201.5
 11
145.752952387
 21
199.085185434
  0
LINE
  8
5
  6
CONTINUOUS
 62
     2
 10
146.4
 20
201.5
 11
147.047047613
 21
199.085185434
  0
LINE
  8
5
  6
CONTINUOUS
 62
     2
 10
146.4
 20
201.5
 11
146.4
 21
160.0
  0
LINE
  8
5
  6
CONTINUOUS
 62
     2
 10
146.4
 20
160.0
 11
147.047047613
 21
162.414814566
  0
LINE
  8
5
  6
CONTINUOUS
 62
     2
 10
146.4
 20
160.0
 11
145.752952387
 21
162.414814566
  0
LINE
  8
5
  6
CONTINUOUS
 62
     2
 10
136.4
 20
160.0
 11
147.4
 21
160.0
  0
TEXT
  8
5
  6
CONTINUOUS
 62
     5
 10
145.4
 20
173.6
 30
0.1
 40
4.0
  1
４１．５
 50
90.0
 41
0.875
 51
0.0
  7
KANJI2
  0
LINE
  8
5
  6
CONTINUOUS
 62
     2
 10
146.4
 20
160.0
 11
145.752952387
 21
157.585185434
  0
LINE
  8
5
  6
CONTINUOUS
 62
     2
 10
146.4
 20
160.0
 11
147.047047613
 21
157.585185434
  0
LINE
  8
5
  6
CONTINUOUS
 62
     2
 10
146.4
 20
160.0
 11
146.4
 21
95.0
  0
LINE
  8
5
  6
CONTINUOUS
 62
     2
 10
146.4
 20
95.0
 11
147.047047613
 21
97.414814566
  0
LINE
  8
5
  6
CONTINUOUS
 62
     2
 10
146.4
 20
95.0
 11
145.752952387
 21
97.414814566
  0
LINE
  8
5
  6
CONTINUOUS
 62
     2
 10
106.0
 20
95.0
 11
147.4
 21
95.0
  0
TEXT
  8
5
  6
CONTINUOUS
 62
     5
 10
145.4
 20
123.95
 30
0.1
 40
4.0
  1
６５
 50
90.0
 41
0.875
 51
0.0
  7
KANJI2
  0
LINE
  8
5
  6
CONTINUOUS
 62
     2
 10
147.4
 20
201.5
 11
157.4
 21
201.5
  0
LINE
  8
5
  6
CONTINUOUS
 62
     2
 10
156.4
 20
201.5
 11
155.752952387
 21
199.085185434
  0
LINE
  8
5
  6
CONTINUOUS
 62
     2
 10
156.4
 20
201.5
 11
157.047047613
 21
199.085185434
  0
LINE
  8
5
  6
CONTINUOUS
 62
     2
 10
156.4
 20
201.5
 11
156.4
 21
95.0
  0
LINE
  8
5
  6
CONTINUOUS
 62
     2
 10
156.4
 20
95.0
 11
157.047047613
 21
97.414814566
  0
LINE
  8
5
  6
CONTINUOUS
 62
     2
 10
156.4
 20
95.0
 11
155.752952387
 21
97.414814566
  0
LINE
  8
5
  6
CONTINUOUS
 62
     2
 10
147.4
 20
95.0
 11
157.4
 21
95.0
  0
TEXT
  8
5
  6
CONTINUOUS
 62
     5
 10
155.4
 20
139.3
 30
0.1
 40
4.0
  1
１０６．５
 50
90.0
 41
0.875
 51
0.0
  7
KANJI2
  0
LINE
  8
5
  6
CONTINUOUS
 62
     2
 10
220.0
 20
208.259639929
 11
220.0
 21
219.259639929
  0
LINE
  8
5
  6
CONTINUOUS
 62
     2
 10
220.0
 20
218.259639929
 11
222.414814566
 21
217.612592316
  0
LINE
  8
5
  6
CONTINUOUS
 62
     2
 10
220.0
 20
218.259639929
 11
222.414814566
 21
218.906687542
  0
LINE
  8
5
  6
CONTINUOUS
 62
     2
 10
220.0
 20
218.259639929
 11
226.5
 21
218.259639929
  0
LINE
  8
5
  6
CONTINUOUS
 62
     2
 10
226.5
 20
218.259639929
 11
224.085185434
 21
218.906687542
  0
LINE
  8
5
  6
CONTINUOUS
 62
     2
 10
226.5
 20
218.259639929
 11
224.085185434
 21
217.612592316
  0
LINE
  8
5
  6
CONTINUOUS
 62
     2
 10
226.5
 20
185.5
 11
226.5
 21
219.259639929
  0
LINE
  8
5
  6
CONTINUOUS
 62
     2
 10
205.5
 20
161.0
 11
205.5
 21
229.259639929
  0
LINE
  8
5
  6
CONTINUOUS
 62
     2
 10
205.5
 20
228.259639929
 11
207.914814566
 21
227.612592316
  0
LINE
  8
5
  6
CONTINUOUS
 62
     2
 10
205.5
 20
228.259639929
 11
207.914814566
 21
228.906687542
  0
LINE
  8
5
  6
CONTINUOUS
 62
     2
 10
205.5
 20
228.259639929
 11
220.0
 21
228.259639929
  0
LINE
  8
5
  6
CONTINUOUS
 62
     2
 10
220.0
 20
228.259639929
 11
217.585185434
 21
228.906687542
  0
LINE
  8
5
  6
CONTINUOUS
 62
     2
 10
220.0
 20
228.259639929
 11
217.585185434
 21
227.612592316
  0
LINE
  8
5
  6
CONTINUOUS
 62
     2
 10
220.0
 20
219.259639929
 11
220.0
 21
229.259639929
  0
TEXT
  8
5
  6
CONTINUOUS
 62
     5
 10
205.6
 20
229.259639929
 30
0.1
 40
4.0
  1
１４．５
 50
0.0
 41
0.875
 51
0.0
  7
KANJI2
  0
LINE
  8
5
  6
CONTINUOUS
 62
     2
 10
220.0
 20
228.259639929
 11
222.414814566
 21
227.612592316
  0
LINE
  8
5
  6
CONTINUOUS
 62
     2
 10
220.0
 20
228.259639929
 11
222.414814566
 21
228.906687542
  0
LINE
  8
5
  6
CONTINUOUS
 62
     2
 10
220.0
 20
228.259639929
 11
245.0
 21
228.259639929
  0
LINE
  8
5
  6
CONTINUOUS
 62
     2
 10
245.0
 20
228.259639929
 11
242.585185434
 21
228.906687542
  0
LINE
  8
5
  6
CONTINUOUS
 62
     2
 10
245.0
 20
228.259639929
 11
242.585185434
 21
227.612592316
  0
LINE
  8
5
  6
CONTINUOUS
 62
     2
 10
245.0
 20
165.0
 11
245.0
 21
229.259639929
  0
TEXT
  8
5
  6
CONTINUOUS
 62
     5
 10
228.95
 20
229.259639929
 30
0.1
 40
4.0
  1
２５
 50
0.0
 41
0.875
 51
0.0
  7
KANJI2
  0
TEXT
  8
5
  6
CONTINUOUS
 62
     5
 10
220.15
 20
219.259639929
 30
0.1
 40
4.0
  1
６．５
 50
0.0
 41
0.875
 51
0.0
  7
KANJI2
  0
LINE
  8
5
  6
CONTINUOUS
 62
     2
 10
227.5
 20
184.5
 11
273.0
 21
184.5
  0
LINE
  8
5
  6
CONTINUOUS
 62
     2
 10
272.0
 20
184.5
 11
271.352952387
 21
182.085185434
  0
LINE
  8
5
  6
CONTINUOUS
 62
     2
 10
272.0
 20
184.5
 11
272.647047613
 21
182.085185434
  0
LINE
  8
5
  6
CONTINUOUS
 62
     2
 10
272.0
 20
184.5
 11
272.0
 21
135.5
  0
LINE
  8
5
  6
CONTINUOUS
 62
     2
 10
272.0
 20
135.5
 11
272.647047613
 21
137.914814566
  0
LINE
  8
5
  6
CONTINUOUS
 62
     2
 10
272.0
 20
135.5
 11
271.352952387
 21
137.914814566
  0
LINE
  8
5
  6
CONTINUOUS
 62
     2
 10
227.5
 20
135.5
 11
273.0
 21
135.5
  0
TEXT
  8
5
  6
CONTINUOUS
 62
     5
 10
271.0
 20
154.65
 30
0.1
 40
4.0
  1
φ４９
 50
90.0
 41
0.875
 51
0.0
  7
KANJI2
  0
LINE
  8
5
  6
CONTINUOUS
 62
     2
 10
246.28023772
 20
162.987221348
 11
247.826210378
 21
164.951901612
  0
LINE
  8
5
  6
CONTINUOUS
 62
     2
 10
246.28023772
 20
162.987221348
 11
246.636749183
 21
165.461670696
  0
LINE
  8
5
  6
CONTINUOUS
 62
     2
 10
246.28023772
 20
162.987221348
 11
260.0
 21
195.0
  0
LINE
  8
5
  6
CONTINUOUS
 62
     2
 10
260.0
 20
195.0
 11
285.1
 21
195.0
  0
TEXT
  8
5
  6
CONTINUOUS
 62
     5
 10
260.0
 20
196.0
 30
0.1
 40
4.0
  1
φ６．５取付穴
 50
0.0
 41
0.875
 51
0.0
  7
KANJI2
  0
LINE
  8
5
  6
CONTINUOUS
 62
     2
 10
250.656854249
 20
154.343145751
 11
251.906854249
 21
152.178082241
  0
LINE
  8
5
  6
CONTINUOUS
 62
     2
 10
250.656854249
 20
154.343145751
 11
252.821917759
 21
153.093145751
  0
LINE
  8
5
  6
CONTINUOUS
 62
     2
 10
245.0
 20
160.0
 11
260.020458146
 21
144.979541854
  0
TEXT
  8
5
  6
CONTINUOUS
 62
     5
 10
255.707106781
 20
150.707106781
 30
0.1
 40
4.0
  1
Ｒ８
 50
315.0
 41
0.875
 51
0.0
  7
KANJI2
  0
LINE
  8
5
  6
CONTINUOUS
 62
     2
 10
234.0
 20
168.637211957
 11
234.0
 21
175.5
  0
LINE
  8
5
  6
CONTINUOUS
 62
     2
 10
234.0
 20
174.5
 11
236.414814566
 21
173.852952387
  0
LINE
  8
5
  6
CONTINUOUS
 62
     2
 10
234.0
 20
174.5
 11
236.414814566
 21
175.147047613
  0
LINE
  8
5
  6
CONTINUOUS
 62
     2
 10
234.0
 20
174.5
 11
245.0
 21
174.5
  0
LINE
  8
5
  6
CONTINUOUS
 62
     2
 10
245.0
 20
174.5
 11
242.585185434
 21
175.147047613
  0
LINE
  8
5
  6
CONTINUOUS
 62
     2
 10
245.0
 20
174.5
 11
242.585185434
 21
173.852952387
  0
TEXT
  8
5
  6
CONTINUOUS
 62
     5
 10
235.95
 20
175.5
 30
0.1
 40
4.0
  1
１１
 50
0.0
 41
0.875
 51
0.0
  7
KANJI2
  0
LINE
  8
5
  6
CONTINUOUS
 62
     2
 10
224.0
 20
123.6
 11
221.585185434
 21
124.247047613
  0
LINE
  8
5
  6
CONTINUOUS
 62
     2
 10
224.0
 20
123.6
 11
221.585185434
 21
122.952952387
  0
LINE
  8
5
  6
CONTINUOUS
 62
     2
 10
240.74
 20
123.6
 11
216.0
 21
123.6
  0
LINE
  8
5
  6
CONTINUOUS
 62
     2
 10
216.0
 20
123.6
 11
218.414814566
 21
122.952952387
  0
LINE
  8
5
  6
CONTINUOUS
 62
     2
 10
216.0
 20
123.6
 11
218.414814566
 21
124.247047613
  0
TEXT
  8
5
  6
CONTINUOUS
 62
     5
 10
226.5
 20
124.6
 30
0.1
 40
4.0
  1
８
 50
0.0
 41
0.875
 51
0.0
  7
KANJI2
  0
TEXT
  8
5
  6
CONTINUOUS
 62
     5
 10
230.1
 20
124.6
 30
0.06
 40
2.4
  1
－０．０３
 50
0.0
 41
0.875
 51
0.0
  7
KANJI3
  0
TEXT
  8
5
  6
CONTINUOUS
 62
     5
 10
230.1
 20
127.0
 30
0.06
 40
2.4
  1
　０
 50
0.0
 41
0.875
 51
0.0
  7
KANJI3
  0
POLYLINE
  8
5
  6
CONTINUOUS
 62
     2
 66
     1
  0
VERTEX
  8
5
  6
CONTINUOUS
 62
     2
 10
322.5
 20
142.0
  0
VERTEX
  8
5
  6
CONTINUOUS
 62
     2
 10
327.5
 20
142.0
  0
VERTEX
  8
5
  6
CONTINUOUS
 62
     2
 10
329.914814566
 20
141.352952387
  0
SEQEND
  0
LINE
  8
5
  6
CONTINUOUS
 62
     2
 10
327.5
 20
142.0
 11
329.914814566
 21
142.647047613
  0
LINE
  8
5
  6
CONTINUOUS
 62
     2
 10
327.5
 20
151.400657923
 11
327.5
 21
141.0
  0
LINE
  8
5
  6
CONTINUOUS
 62
     2
 10
327.5
 20
142.0
 11
333.5
 21
142.0
  0
TEXT
  8
5
  6
CONTINUOUS
 62
     5
 10
330.0
 20
143.0
 30
0.1
 40
4.0
  1
５
 50
0.0
 41
0.875
 51
0.0
  7
KANJI2
  0
LINE
  8
5
  6
CONTINUOUS
 62
     2
 10
322.5
 20
151.400657923
 11
322.5
 21
141.0
  0
LINE
  8
5
  6
CONTINUOUS
 62
     2
 10
322.5
 20
142.0
 11
320.085185434
 21
142.647047613
  0
LINE
  8
5
  6
CONTINUOUS
 62
     2
 10
322.5
 20
142.0
 11
320.085185434
 21
141.352952387
  0
LINE
  8
5
  6
CONTINUOUS
 62
     2
 10
318.75
 20
142.0
 11
322.5
 21
142.0
  0
LINE
  8
5
  6
CONTINUOUS
 62
     2
 10
224.4
 20
115.0
 11
273.0
 21
115.0
  0
LINE
  8
5
  6
CONTINUOUS
 62
     2
 10
272.0
 20
115.0
 11
272.647047613
 21
117.414814566
  0
LINE
  8
5
  6
CONTINUOUS
 62
     2
 10
272.0
 20
115.0
 11
271.352952387
 21
117.414814566
  0
LINE
  8
5
  6
CONTINUOUS
 62
     2
 10
272.0
 20
115.0
 11
272.0
 21
135.5
  0
LINE
  8
5
  6
CONTINUOUS
 62
     2
 10
272.0
 20
135.5
 11
271.352952387
 21
133.085185434
  0
LINE
  8
5
  6
CONTINUOUS
 62
     2
 10
272.0
 20
135.5
 11
272.647047613
 21
133.085185434
  0
TEXT
  8
5
  6
CONTINUOUS
 62
     5
 10
271.0
 20
118.1
 30
0.1
 40
4.0
  1
２０．５
 50
90.0
 41
0.875
 51
0.0
  7
KANJI2
  0
LINE
  8
5
  6
CONTINUOUS
 62
     2
 10
195.5
 20
133.6
 11
194.852952387
 21
131.185185434
  0
LINE
  8
5
  6
CONTINUOUS
 62
     2
 10
195.5
 20
133.6
 11
196.147047613
 21
131.185185434
  0
LINE
  8
5
  6
CONTINUOUS
 62
     2
 10
195.5
 20
133.6
 11
195.5
 21
119.5
  0
LINE
  8
5
  6
CONTINUOUS
 62
     2
 10
195.5
 20
119.5
 11
196.147047613
 21
121.914814566
  0
LINE
  8
5
  6
CONTINUOUS
 62
     2
 10
195.5
 20
119.5
 11
194.852952387
 21
121.914814566
  0
LINE
  8
5
  6
CONTINUOUS
 62
     2
 10
215.0
 20
119.5
 11
194.5
 21
119.5
  0
TEXT
  8
5
  6
CONTINUOUS
 62
     5
 10
194.5
 20
119.4
 30
0.1
 40
4.0
  1
１４．１
 50
90.0
 41
0.875
 51
0.0
  7
KANJI2
  0
LINE
  8
5
  6
CONTINUOUS
 62
     2
 10
208.7
 20
186.4
 11
194.5
 21
186.4
  0
LINE
  8
5
  6
CONTINUOUS
 62
     2
 10
195.5
 20
186.4
 11
194.852952387
 21
183.985185434
  0
LINE
  8
5
  6
CONTINUOUS
 62
     2
 10
195.5
 20
186.4
 11
196.147047613
 21
183.985185434
  0
LINE
  8
5
  6
CONTINUOUS
 62
     2
 10
195.5
 20
186.4
 11
195.5
 21
133.6
  0
LINE
  8
5
  6
CONTINUOUS
 62
     2
 10
195.5
 20
133.6
 11
196.147047613
 21
136.014814566
  0
LINE
  8
5
  6
CONTINUOUS
 62
     2
 10
195.5
 20
133.6
 11
194.852952387
 21
136.014814566
  0
LINE
  8
5
  6
CONTINUOUS
 62
     2
 10
208.7
 20
133.6
 11
194.5
 21
133.6
  0
TEXT
  8
5
  6
CONTINUOUS
 62
     5
 10
194.5
 20
151.05
 30
0.1
 40
4.0
  1
φ５２．８
 50
90.0
 41
0.875
 51
0.0
  7
KANJI2
  0
TEXT
  8
6
  6
CONTINUOUS
 62
     5
 10
343.0
 20
23.0
 30
0.0
 40
4.0
  1
益子
 50
0.0
 41
0.875
 51
0.0
  7
KANJI4
  0
LINE
  8
7
  6
CONTINUOUS
 62
     2
 10
410.0
 20
198.5
 11
415.0
 21
198.5
  0
LINE
  8
7
  6
CONTINUOUS
 62
     2
 10
410.0
 20
248.5
 11
415.0
 21
248.5
  0
LINE
  8
7
  6
CONTINUOUS
 62
     2
 10
410.0
 20
98.5
 11
415.0
 21
98.5
  0
LINE
  8
7
  6
CONTINUOUS
 62
     2
 10
410.0
 20
48.5
 11
415.0
 21
48.5
  0
LINE
  8
7
  6
CONTINUOUS
 62
     2
 10
410.0
 20
75.0
 11
407.5
 21
75.0
  0
LINE
  8
7
  6
CONTINUOUS
 62
     2
 10
410.0
 20
83.0
 11
407.5
 21
83.0
  0
LINE
  8
7
  6
CONTINUOUS
 62
     2
 10
410.0
 20
91.0
 11
407.5
 21
91.0
  0
TEXT
  8
7
  6
CONTINUOUS
 62
     6
 10
411.5
 20
271.0
 30
0.0
 40
5.0
  1
Ａ
 50
0.0
 41
1.0
 51
0.0
  7
KANJI5
  0
TEXT
  8
7
  6
CONTINUOUS
 62
     6
 10
411.5
 20
221.0
 30
0.0
 40
5.0
  1
Ｂ
 50
0.0
 41
1.0
 51
0.0
  7
KANJI5
  0
TEXT
  8
7
  6
CONTINUOUS
 62
     6
 10
411.5
 20
171.0
 30
0.0
 40
5.0
  1
Ｃ
 50
0.0
 41
1.0
 51
0.0
  7
KANJI5
  0
TEXT
  8
7
  6
CONTINUOUS
 62
     6
 10
411.5
 20
121.0
 30
0.0
 40
5.0
  1
Ｄ
 50
0.0
 41
1.0
 51
0.0
  7
KANJI5
  0
TEXT
  8
7
  6
CONTINUOUS
 62
     6
 10
411.5
 20
71.0
 30
0.0
 40
5.0
  1
Ｅ
 50
0.0
 41
1.0
 51
0.0
  7
KANJI5
  0
TEXT
  8
7
  6
CONTINUOUS
 62
     6
 10
411.5
 20
21.0
 30
0.0
 40
5.0
  1
Ｆ
 50
0.0
 41
1.0
 51
0.0
  7
KANJI5
  0
LINE
  8
7
  6
CONTINUOUS
 62
     2
 10
25.0
 20
198.5
 11
20.0
 21
198.5
  0
LINE
  8
7
  6
CONTINUOUS
 62
     2
 10
25.0
 20
248.5
 11
20.0
 21
248.5
  0
LINE
  8
7
  6
CONTINUOUS
 62
     2
 10
25.0
 20
98.5
 11
20.0
 21
98.5
  0
LINE
  8
7
  6
CONTINUOUS
 62
     2
 10
25.0
 20
48.5
 11
20.0
 21
48.5
  0
TEXT
  8
7
  6
CONTINUOUS
 62
     6
 10
18.5
 20
271.0
 30
0.0
 40
5.0
  1
Ａ
 50
0.0
 41
1.0
 51
0.0
  7
KANJI5
  0
TEXT
  8
7
  6
CONTINUOUS
 62
     6
 10
18.5
 20
221.0
 30
0.0
 40
5.0
  1
Ｂ
 50
0.0
 41
1.0
 51
0.0
  7
KANJI5
  0
TEXT
  8
7
  6
CONTINUOUS
 62
     6
 10
18.5
 20
171.0
 30
0.0
 40
5.0
  1
Ｃ
 50
0.0
 41
1.0
 51
0.0
  7
KANJI5
  0
TEXT
  8
7
  6
CONTINUOUS
 62
     6
 10
18.5
 20
121.0
 30
0.0
 40
5.0
  1
Ｄ
 50
0.0
 41
1.0
 51
0.0
  7
KANJI5
  0
TEXT
  8
7
  6
CONTINUOUS
 62
     6
 10
18.5
 20
71.0
 30
0.0
 40
5.0
  1
Ｅ
 50
0.0
 41
1.0
 51
0.0
  7
KANJI5
  0
TEXT
  8
7
  6
CONTINUOUS
 62
     6
 10
18.5
 20
21.0
 30
0.0
 40
5.0
  1
Ｆ
 50
0.0
 41
1.0
 51
0.0
  7
KANJI5
  0
LINE
  8
7
  6
CONTINUOUS
 62
     2
 10
160.0
 20
287.0
 11
160.0
 21
292.0
  0
LINE
  8
7
  6
CONTINUOUS
 62
     2
 10
110.0
 20
292.0
 11
110.0
 21
287.0
  0
LINE
  8
7
  6
CONTINUOUS
 62
     2
 10
60.0
 20
292.0
 11
60.0
 21
287.0
  0
LINE
  8
7
  6
CONTINUOUS
 62
     2
 10
260.0
 20
292.0
 11
260.0
 21
287.0
  0
LINE
  8
7
  6
CONTINUOUS
 62
     2
 10
310.0
 20
292.0
 11
310.0
 21
287.0
  0
TEXT
  8
7
  6
CONTINUOUS
 62
     6
 10
32.0
 20
288.5
 30
0.0
 40
5.0
  1
１
 50
0.0
 41
1.2
 51
0.0
  7
KANJI6
  0
TEXT
  8
7
  6
CONTINUOUS
 62
     6
 10
82.0
 20
288.5
 30
0.0
 40
5.0
  1
２
 50
0.0
 41
1.2
 51
0.0
  7
KANJI6
  0
TEXT
  8
7
  6
CONTINUOUS
 62
     6
 10
132.0
 20
288.5
 30
0.0
 40
5.0
  1
３
 50
0.0
 41
1.2
 51
0.0
  7
KANJI6
  0
TEXT
  8
7
  6
CONTINUOUS
 62
     6
 10
182.0
 20
288.5
 30
0.0
 40
5.0
  1
４
 50
0.0
 41
1.2
 51
0.0
  7
KANJI6
  0
TEXT
  8
7
  6
CONTINUOUS
 62
     6
 10
232.0
 20
288.5
 30
0.0
 40
5.0
  1
５
 50
0.0
 41
1.2
 51
0.0
  7
KANJI6
  0
TEXT
  8
7
  6
CONTINUOUS
 62
     6
 10
282.0
 20
288.5
 30
0.0
 40
5.0
  1
６
 50
0.0
 41
1.2
 51
0.0
  7
KANJI6
  0
TEXT
  8
7
  6
CONTINUOUS
 62
     6
 10
332.0
 20
288.5
 30
0.0
 40
5.0
  1
７
 50
0.0
 41
1.2
 51
0.0
  7
KANJI6
  0
TEXT
  8
7
  6
CONTINUOUS
 62
     6
 10
382.0
 20
288.5
 30
0.0
 40
5.0
  1
８
 50
0.0
 41
1.2
 51
0.0
  7
KANJI6
  0
LINE
  8
7
  6
CONTINUOUS
 62
     2
 10
110.0
 20
5.0
 11
110.0
 21
10.0
  0
LINE
  8
7
  6
CONTINUOUS
 62
     2
 10
60.0
 20
5.0
 11
60.0
 21
10.0
  0
TEXT
  8
7
  6
CONTINUOUS
 62
     6
 10
32.0
 20
3.5
 30
0.0
 40
5.0
  1
１
 50
0.0
 41
1.2
 51
0.0
  7
KANJI6
  0
TEXT
  8
7
  6
CONTINUOUS
 62
     6
 10
82.0
 20
3.5
 30
0.0
 40
5.0
  1
２
 50
0.0
 41
1.2
 51
0.0
  7
KANJI6
  0
TEXT
  8
7
  6
CONTINUOUS
 62
     6
 10
132.0
 20
3.5
 30
0.0
 40
5.0
  1
３
 50
0.0
 41
1.2
 51
0.0
  7
KANJI6
  0
LINE
  8
7
  6
CONTINUOUS
 62
     2
 10
360.0
 20
287.0
 11
360.0
 21
292.0
  0
LINE
  8
7
  6
CONTINUOUS
 62
     6
 10
25.0
 20
287.0
 11
25.0
 21
10.0
  0
LINE
  8
7
  6
CONTINUOUS
 62
     6
 10
210.0
 20
10.0
 11
210.0
 21
0.0
  0
LINE
  8
7
  6
CONTINUOUS
 62
     6
 10
160.0
 20
10.0
 11
160.0
 21
5.0
  0
LINE
  8
7
  6
CONTINUOUS
 62
     6
 10
170.0
 20
10.0
 11
170.0
 21
5.0
  0
LINE
  8
7
  6
CONTINUOUS
 62
     6
 10
180.0
 20
10.0
 11
180.0
 21
5.0
  0
LINE
  8
7
  6
CONTINUOUS
 62
     6
 10
190.0
 20
10.0
 11
190.0
 21
5.0
  0
LINE
  8
7
  6
CONTINUOUS
 62
     6
 10
200.0
 20
10.0
 11
200.0
 21
5.0
  0
LINE
  8
7
  6
CONTINUOUS
 62
     6
 10
25.0
 20
10.0
 11
410.0
 21
10.0
  0
LINE
  8
7
  6
CONTINUOUS
 62
     6
 10
260.0
 20
5.0
 11
260.0
 21
10.0
  0
LINE
  8
7
  6
CONTINUOUS
 62
     6
 10
250.0
 20
5.0
 11
250.0
 21
10.0
  0
LINE
  8
7
  6
CONTINUOUS
 62
     6
 10
240.0
 20
5.0
 11
240.0
 21
10.0
  0
LINE
  8
7
  6
CONTINUOUS
 62
     6
 10
230.0
 20
5.0
 11
230.0
 21
10.0
  0
LINE
  8
7
  6
CONTINUOUS
 62
     6
 10
220.0
 20
5.0
 11
220.0
 21
10.0
  0
LINE
  8
7
  6
CONTINUOUS
 62
     6
 10
160.0
 20
5.0
 11
260.0
 21
5.0
  0
LINE
  8
7
  6
CONTINUOUS
 62
     6
 10
25.0
 20
148.5
 11
0.0
 21
148.5
  0
LINE
  8
7
  6
CONTINUOUS
 62
     6
 10
210.0
 20
287.0
 11
210.0
 21
297.0
  0
LINE
  8
7
  6
CONTINUOUS
 62
     6
 10
410.0
 20
287.0
 11
25.0
 21
287.0
  0
LINE
  8
7
  6
CONTINUOUS
 62
     6
 10
410.0
 20
148.5
 11
420.0
 21
148.5
  0
LINE
  8
7
  6
CONTINUOUS
 62
     6
 10
410.0
 20
10.0
 11
410.0
 21
287.0
  0
TEXT
  8
7
  6
CONTINUOUS
 62
     6
 10
285.0
 20
3.5
 30
0.0
 40
5.0
  1
６
 50
0.0
 41
1.2
 51
0.0
  7
KANJI6
  0
TEXT
  8
7
  6
CONTINUOUS
 62
     6
 10
335.0
 20
3.5
 30
0.0
 40
5.0
  1
７
 50
0.0
 41
1.2
 51
0.0
  7
KANJI6
  0
TEXT
  8
7
  6
CONTINUOUS
 62
     6
 10
385.0
 20
3.5
 30
0.0
 40
5.0
  1
８
 50
0.0
 41
1.2
 51
0.0
  7
KANJI6
  0
LINE
  8
7
  6
CONTINUOUS
 62
     2
 10
310.0
 20
5.0
 11
310.0
 21
10.0
  0
LINE
  8
7
  6
CONTINUOUS
 62
     2
 10
360.0
 20
5.0
 11
360.0
 21
10.0
  0
LINE
  8
7
  6
CONTINUOUS
 62
     2
 10
241.0
 20
67.0
 11
241.0
 21
10.0
  0
LINE
  8
7
  6
CONTINUOUS
 62
     2
 10
248.0
 20
67.0
 11
248.0
 21
10.0
  0
LINE
  8
7
  6
CONTINUOUS
 62
     2
 10
255.0
 20
67.0
 11
255.0
 21
10.0
  0
LINE
  8
7
  6
CONTINUOUS
 62
     2
 10
262.0
 20
67.0
 11
262.0
 21
10.0
  0
LINE
  8
7
  6
CONTINUOUS
 62
     2
 10
323.0
 20
43.0
 11
323.0
 21
21.0
  0
LINE
  8
7
  6
CONTINUOUS
 62
     2
 10
339.0
 20
43.0
 11
339.0
 21
21.0
  0
LINE
  8
7
  6
CONTINUOUS
 62
     2
 10
299.0
 20
43.0
 11
299.0
 21
32.0
  0
LINE
  8
7
  6
CONTINUOUS
 62
     2
 10
269.0
 20
67.0
 11
269.0
 21
10.0
  0
LINE
  8
7
  6
CONTINUOUS
 62
     2
 10
291.0
 20
32.0
 11
291.0
 21
10.0
  0
LINE
  8
7
  6
CONTINUOUS
 62
     2
 10
307.0
 20
32.0
 11
307.0
 21
10.0
  0
LINE
  8
7
  6
CONTINUOUS
 62
     2
 10
355.0
 20
43.0
 11
355.0
 21
10.0
  0
LINE
  8
7
  6
LTYPE4
 62
     2
 10
313.0
 20
13.5
 11
317.0
 21
13.5
  0
LINE
  8
7
  6
LTYPE4
 62
     2
 10
317.0
 20
13.5
 11
317.0
 21
17.5
  0
LINE
  8
7
  6
LTYPE4
 62
     2
 10
317.0
 20
17.5
 11
313.0
 21
17.5
  0
LINE
  8
7
  6
LTYPE4
 62
     2
 10
313.0
 20
17.5
 11
313.0
 21
13.5
  0
TEXT
  8
7
  6
CONTINUOUS
 62
     4
 10
356.0
 20
47.0
 30
-0.5
 40
3.0
  1
１セット分
 50
0.0
 41
0.666666667
 51
0.0
  7
KANJI7
  0
TEXT
  8
7
  6
CONTINUOUS
 62
     4
 10
345.0
 20
47.0
 30
0.0
 40
3.0
  1
１台分
 50
0.0
 41
1.0
 51
0.0
  7
KANJI8
  0
TEXT
  8
7
  6
CONTINUOUS
 62
     4
 10
347.0
 20
44.0
 30
0.0
 40
3.0
  1
個数
 50
0.0
 41
1.0
 51
0.0
  7
KANJI8
  0
TEXT
  8
7
  6
CONTINUOUS
 62
     4
 10
357.0
 20
44.0
 30
0.0
 40
3.0
  1
個数
 50
0.0
 41
1.0
 51
0.0
  7
KANJI8
  0
TEXT
  8
7
  6
CONTINUOUS
 62
     4
 10
366.5
 20
45.0
 30
0.0
 40
4.0
  1
総数
 50
0.0
 41
0.875
 51
0.0
  7
KANJI4
  0
TEXT
  8
7
  6
CONTINUOUS
 62
     4
 10
273.15
 20
52.5
 30
0.3
 40
2.5
  1
氏名
 50
90.0
 41
1.0
 51
0.0
  7
KANJI9
  0
TEXT
  8
7
  6
CONTINUOUS
 62
     4
 10
273.15
 20
40.425
 30
1.0
 40
2.5
  1
年月日
 50
90.0
 41
1.0
 51
0.0
  7
KANJI10
  0
TEXT
  8
7
  6
CONTINUOUS
 62
     4
 10
273.15
 20
60.375
 30
0.3
 40
2.5
  1
承認
 50
90.0
 41
1.0
 51
0.0
  7
KANJI9
  0
TEXT
  8
7
  6
CONTINUOUS
 62
     4
 10
276.0
 20
39.5
 30
0.0
 40
2.5
  1
熱処理
 50
0.0
 41
1.0
 51
0.0
  7
KANJI0
  0
TEXT
  8
7
  6
CONTINUOUS
 62
     4
 10
300.0
 20
39.5
 30
0.0
 40
2.5
  1
表面処理
 50
0.0
 41
1.0
 51
0.0
  7
KANJI0
  0
TEXT
  8
7
  6
CONTINUOUS
 62
     4
 10
324.0
 20
39.5
 30
0.0
 40
2.5
  1
台数
 50
0.0
 41
1.0
 51
0.0
  7
KANJI0
  0
TEXT
  8
7
  6
CONTINUOUS
 62
     4
 10
340.0
 20
39.5
 30
0.0
 40
2.5
  1
作成日付
 50
0.0
 41
1.0
 51
0.0
  7
KANJI0
  0
TEXT
  8
7
  6
CONTINUOUS
 62
     4
 10
356.0
 20
39.5
 30
0.0
 40
2.5
  1
名称
 50
0.0
 41
1.0
 51
0.0
  7
KANJI0
  0
TEXT
  8
7
  6
CONTINUOUS
 62
     4
 10
276.0
 20
28.5
 30
0.0
 40
2.5
  1
尺度
 50
0.0
 41
1.0
 51
0.0
  7
KANJI0
  0
TEXT
  8
7
  6
CONTINUOUS
 62
     4
 10
292.0
 20
28.5
 30
0.0
 40
2.5
  1
承認
 50
0.0
 41
1.0
 51
0.0
  7
KANJI0
  0
TEXT
  8
7
  6
CONTINUOUS
 62
     4
 10
308.0
 20
28.5
 30
0.0
 40
2.5
  1
検図
 50
0.0
 41
1.0
 51
0.0
  7
KANJI0
  0
TEXT
  8
7
  6
CONTINUOUS
 62
     4
 10
324.0
 20
28.5
 30
0.0
 40
2.5
  1
設計
 50
0.0
 41
1.0
 51
0.0
  7
KANJI0
  0
TEXT
  8
7
  6
CONTINUOUS
 62
     4
 10
340.0
 20
28.5
 30
0.0
 40
2.5
  1
製図
 50
0.0
 41
1.0
 51
0.0
  7
KANJI0
  0
TEXT
  8
7
  6
CONTINUOUS
 62
     4
 10
356.0
 20
28.5
 30
0.0
 40
2.5
  1
機名
 50
0.0
 41
1.0
 51
0.0
  7
KANJI0
  0
TEXT
  8
7
  6
CONTINUOUS
 62
     4
 10
273.15
 20
10.875
 30
0.3
 40
2.5
  1
記号
 50
90.0
 41
1.0
 51
0.0
  7
KANJI9
  0
TEXT
  8
7
  6
CONTINUOUS
 62
     4
 10
356.0
 20
17.5
 30
0.0
 40
2.5
  1
図面番号
 50
0.0
 41
1.0
 51
0.0
  7
KANJI0
  0
TEXT
  8
7
  6
CONTINUOUS
 62
     4
 10
319.0
 20
14.25
 30
0.0
 40
2.5
  1
株式会社
 50
0.0
 41
1.0
 51
0.0
  7
KANJI0
  0
TEXT
  8
7
  6
CONTINUOUS
 62
     4
 10
331.0
 20
13.5
 30
0.0
 40
4.0
  1
昭和測器
 50
0.0
 41
1.125
 51
0.0
  7
KANJI11
  0
TEXT
  8
7
  6
CONTINUOUS
 62
     4
 10
273.15
 20
18.375
 30
0.3
 40
2.5
  1
来歴・改訂記事
 50
90.0
 41
1.0
 51
0.0
  7
KANJI9
  0
TEXT
  8
7
  6
CONTINUOUS
 62
     1
 10
278.0
 20
15.5
 30
0.0
 40
5.0
  1
第３
 50
0.0
 41
1.0
 51
0.0
  7
KANJI5
  0
TEXT
  8
7
  6
CONTINUOUS
 62
     1
 10
278.0
 20
10.5
 30
0.0
 40
5.0
  1
角法
 50
0.0
 41
1.0
 51
0.0
  7
KANJI5
  0
LINE
  8
7
  6
CONTINUOUS
 62
     2
 10
234.0
 20
67.0
 11
234.0
 21
10.0
  0
LINE
  8
7
  6
CONTINUOUS
 62
     2
 10
233.0
 20
17.0
 11
275.0
 21
17.0
  0
TEXT
  8
7
  6
CONTINUOUS
 62
     4
 10
326.0
 20
45.0
 30
0.0
 40
4.0
  1
材　　質
 50
0.0
 41
0.875
 51
0.0
  7
KANJI4
  0
TEXT
  8
7
  6
CONTINUOUS
 62
     4
 10
383.25
 20
45.0
 30
0.0
 40
4.0
  1
摘　　　要
 50
0.0
 41
0.875
 51
0.0
  7
KANJI4
  0
TEXT
  8
7
  6
CONTINUOUS
 62
     4
 10
276.5
 20
45.0
 30
0.0
 40
4.0
  1
番号
 50
0.0
 41
0.875
 51
0.0
  7
KANJI4
  0
TEXT
  8
7
  6
CONTINUOUS
 62
     4
 10
294.25
 20
45.0
 30
0.0
 40
4.0
  1
部　品　名
 50
0.0
 41
0.875
 51
0.0
  7
KANJI4
  0
CIRCLE
  8
7
  6
CONTINUOUS
 62
     6
 10
283.0
 20
26.0
 40
0.2
  0
CIRCLE
  8
7
  6
CONTINUOUS
 62
     6
 10
283.0
 20
23.5
 40
0.2
  0
TEXT
  8
7
  6
CONTINUOUS
 62
     6
 10
293.725
 20
12.025
 30
-1.0
 40
7.0
  1
Ａ３
 50
0.0
 41
0.857142857
 51
0.0
  7
KANJI12
  0
LINE
  8
7
  6
CONTINUOUS
 62
     2
 10
233.0
 20
67.0
 11
275.0
 21
67.0
  0
LINE
  8
7
  6
CONTINUOUS
 62
     2
 10
233.0
 20
59.0
 11
275.0
 21
59.0
  0
LINE
  8
7
  6
CONTINUOUS
 62
     2
 10
285.0
 20
51.0
 11
285.0
 21
43.0
  0
LINE
  8
7
  6
CONTINUOUS
 62
     2
 10
285.0
 20
67.0
 11
285.0
 21
51.0
  0
LINE
  8
7
  6
CONTINUOUS
 62
     2
 10
321.0
 20
51.0
 11
321.0
 21
43.0
  0
LINE
  8
7
  6
CONTINUOUS
 62
     2
 10
321.0
 20
67.0
 11
321.0
 21
51.0
  0
LINE
  8
7
  6
CONTINUOUS
 62
     2
 10
345.0
 20
51.0
 11
345.0
 21
43.0
  0
LINE
  8
7
  6
CONTINUOUS
 62
     2
 10
345.0
 20
67.0
 11
345.0
 21
51.0
  0
LINE
  8
7
  6
CONTINUOUS
 62
     2
 10
355.0
 20
51.0
 11
355.0
 21
43.0
  0
LINE
  8
7
  6
CONTINUOUS
 62
     2
 10
355.0
 20
67.0
 11
355.0
 21
51.0
  0
LINE
  8
7
  6
CONTINUOUS
 62
     2
 10
365.0
 20
51.0
 11
365.0
 21
43.0
  0
LINE
  8
7
  6
CONTINUOUS
 62
     2
 10
365.0
 20
67.0
 11
365.0
 21
51.0
  0
LINE
  8
7
  6
CONTINUOUS
 62
     2
 10
375.0
 20
51.0
 11
375.0
 21
43.0
  0
LINE
  8
7
  6
CONTINUOUS
 62
     2
 10
375.0
 20
67.0
 11
375.0
 21
51.0
  0
LINE
  8
7
  6
CONTINUOUS
 62
     2
 10
275.0
 20
51.0
 11
275.0
 21
10.0
  0
LINE
  8
7
  6
CONTINUOUS
 62
     2
 10
275.0
 20
67.0
 11
275.0
 21
51.0
  0
LINE
  8
7
  6
CONTINUOUS
 62
     2
 10
233.0
 20
39.0
 11
275.0
 21
39.0
  0
LINE
  8
7
  6
CONTINUOUS
 62
     2
 10
233.0
 20
51.0
 11
275.0
 21
51.0
  0
LINE
  8
7
  6
LTYPE5
 62
     2
 10
400.0
 20
21.0
 11
400.0
 21
10.0
  0
LINE
  8
7
  6
CONTINUOUS
 62
     2
 10
275.0
 20
67.0
 11
410.0
 21
67.0
  0
LINE
  8
7
  6
CONTINUOUS
 62
     2
 10
275.0
 20
59.0
 11
410.0
 21
59.0
  0
LINE
  8
7
  6
CONTINUOUS
 62
     2
 10
275.0
 20
51.0
 11
410.0
 21
51.0
  0
LINE
  8
7
  6
CONTINUOUS
 62
     2
 10
275.0
 20
43.0
 11
410.0
 21
43.0
  0
LINE
  8
7
  6
CONTINUOUS
 62
     2
 10
275.0
 20
32.0
 11
410.0
 21
32.0
  0
LINE
  8
7
  6
CONTINUOUS
 62
     2
 10
275.0
 20
21.0
 11
410.0
 21
21.0
  0
TEXT
  8
6
  6
CONTINUOUS
 62
     5
 10
278.0
 20
23.0
 30
0.0
 40
4.0
  1
１
 50
0.0
 41
0.875
 51
0.0
  7
KANJI4
  0
TEXT
  8
6
  6
CONTINUOUS
 62
     5
 10
284.5
 20
23.0
 30
0.0
 40
4.0
  1
１
 50
0.0
 41
0.875
 51
0.0
  7
KANJI4
  0
TEXT
  8
6
  6
CONTINUOUS
 62
     5
 10
340.5
 20
36.0
 30
-0.5
 40
3.0
  1
２０１７．
 50
0.0
 41
0.833333333
 51
0.0
  7
KANJI13
  0
TEXT
  8
6
  6
CONTINUOUS
 62
     5
 10
343.0
 20
33.0
 30
-0.5
 40
3.0
  1
０７．１３
 50
0.0
 41
0.833333333
 51
0.0
  7
KANJI13
  0
TEXT
  8
6
  6
CONTINUOUS
 62
     5
 10
377.4
 20
34.0
 30
0.1
 40
4.0
  1
外観図
 50
0.0
 41
0.875
 51
0.0
  7
KANJI2
  0
TEXT
  8
6
  6
CONTINUOUS
 62
     5
 10
361.2
 20
23.0
 30
0.1
 40
4.0
  1
ＴＣＬ－１０ＦＡ
 50
0.0
 41
0.875
 51
0.0
  7
KANJI2
  0
TEXT
  8
6
  6
CONTINUOUS
 62
     5
 10
363.15
 20
12.0
 30
0.1
 40
4.0
  1
Ｋ－０１６７－Ａ２
 50
0.0
 41
0.875
 51
0.0
  7
KANJI2
  0
ENDSEC
  0
EOF
