  0
SECTION
  2
HEADER
  9
$EXTMIN
 10
0.0
 20
0.0
 30
0.0
  9
$EXTMAX
 10
210.0
 20
297.0
 30
0.0
  9
$LIMMIN
 10
0.0
 20
0.0
  9
$LIMMAX
 10
210.0
 20
297.0
  9
$LTSCALE
 40
1.0
  9
$PDMODE
 70
     0
  0
ENDSEC
  0
SECTION
  2
TABLES
  0
TABLE
  2
LTYPE
 70
     2
  0
LTYPE
  2
CONTINUOUS
 70
    64
  3
Solid line
 72
    65
 73
     0
 40
0.0
  0
LTYPE
  2
LTYPE1
 70
    64
  3
CENTER
 72
    65
 73
     4
 40
10.0
 49
7.0
 49
-1.0
 49
1.0
 49
-1.0
  0
ENDTAB
  0
TABLE
  2
LAYER
 70
   128
  0
LAYER
  2
0
 70
     0
 62
     7
  6
CONTINUOUS
  0
LAYER
  2
2
 70
     0
 62
     7
  6
CONTINUOUS
  0
LAYER
  2
3
 70
     0
 62
     7
  6
CONTINUOUS
  0
LAYER
  2
4
 70
     0
 62
     7
  6
CONTINUOUS
  0
LAYER
  2
5
 70
     0
 62
     7
  6
CONTINUOUS
  0
LAYER
  2
6
 70
     0
 62
     7
  6
CONTINUOUS
  0
LAYER
  2
7
 70
     0
 62
     7
  6
CONTINUOUS
  0
LAYER
  2
8
 70
     0
 62
     7
  6
CONTINUOUS
  0
LAYER
  2
9
 70
     0
 62
     7
  6
CONTINUOUS
  0
LAYER
  2
10
 70
     0
 62
     7
  6
CONTINUOUS
  0
LAYER
  2
11
 70
     0
 62
     7
  6
CONTINUOUS
  0
LAYER
  2
12
 70
     0
 62
     7
  6
CONTINUOUS
  0
LAYER
  2
13
 70
     0
 62
     7
  6
CONTINUOUS
  0
LAYER
  2
14
 70
     0
 62
     7
  6
CONTINUOUS
  0
LAYER
  2
15
 70
     0
 62
     7
  6
CONTINUOUS
  0
LAYER
  2
16
 70
     0
 62
     7
  6
CONTINUOUS
  0
LAYER
  2
17
 70
     0
 62
     7
  6
CONTINUOUS
  0
LAYER
  2
18
 70
     0
 62
     7
  6
CONTINUOUS
  0
LAYER
  2
19
 70
     0
 62
     7
  6
CONTINUOUS
  0
LAYER
  2
20
 70
     0
 62
     7
  6
CONTINUOUS
  0
LAYER
  2
21
 70
     0
 62
     7
  6
CONTINUOUS
  0
LAYER
  2
22
 70
     0
 62
     7
  6
CONTINUOUS
  0
LAYER
  2
23
 70
     0
 62
     7
  6
CONTINUOUS
  0
LAYER
  2
24
 70
     0
 62
     7
  6
CONTINUOUS
  0
LAYER
  2
25
 70
     0
 62
     7
  6
CONTINUOUS
  0
LAYER
  2
26
 70
     0
 62
     7
  6
CONTINUOUS
  0
LAYER
  2
27
 70
     0
 62
     7
  6
CONTINUOUS
  0
LAYER
  2
28
 70
     0
 62
     7
  6
CONTINUOUS
  0
LAYER
  2
29
 70
     0
 62
     7
  6
CONTINUOUS
  0
LAYER
  2
30
 70
     0
 62
     7
  6
CONTINUOUS
  0
LAYER
  2
31
 70
     0
 62
     7
  6
CONTINUOUS
  0
LAYER
  2
32
 70
     0
 62
     7
  6
CONTINUOUS
  0
LAYER
  2
33
 70
     0
 62
     7
  6
CONTINUOUS
  0
LAYER
  2
34
 70
     0
 62
     7
  6
CONTINUOUS
  0
LAYER
  2
35
 70
     0
 62
     7
  6
CONTINUOUS
  0
LAYER
  2
36
 70
     0
 62
     7
  6
CONTINUOUS
  0
LAYER
  2
37
 70
     0
 62
     7
  6
CONTINUOUS
  0
LAYER
  2
38
 70
     0
 62
     7
  6
CONTINUOUS
  0
LAYER
  2
39
 70
     0
 62
     7
  6
CONTINUOUS
  0
LAYER
  2
40
 70
     0
 62
     7
  6
CONTINUOUS
  0
LAYER
  2
41
 70
     0
 62
     7
  6
CONTINUOUS
  0
LAYER
  2
42
 70
     0
 62
     7
  6
CONTINUOUS
  0
LAYER
  2
43
 70
     0
 62
     7
  6
CONTINUOUS
  0
LAYER
  2
44
 70
     0
 62
     7
  6
CONTINUOUS
  0
LAYER
  2
45
 70
     0
 62
     7
  6
CONTINUOUS
  0
LAYER
  2
46
 70
     0
 62
     7
  6
CONTINUOUS
  0
LAYER
  2
47
 70
     0
 62
     7
  6
CONTINUOUS
  0
LAYER
  2
48
 70
     0
 62
     7
  6
CONTINUOUS
  0
LAYER
  2
49
 70
     0
 62
     7
  6
CONTINUOUS
  0
LAYER
  2
50
 70
     0
 62
     7
  6
CONTINUOUS
  0
LAYER
  2
51
 70
     0
 62
     7
  6
CONTINUOUS
  0
LAYER
  2
52
 70
     0
 62
     7
  6
CONTINUOUS
  0
LAYER
  2
53
 70
     0
 62
     7
  6
CONTINUOUS
  0
LAYER
  2
54
 70
     0
 62
     7
  6
CONTINUOUS
  0
LAYER
  2
55
 70
     0
 62
     7
  6
CONTINUOUS
  0
LAYER
  2
56
 70
     0
 62
     7
  6
CONTINUOUS
  0
LAYER
  2
57
 70
     0
 62
     7
  6
CONTINUOUS
  0
LAYER
  2
58
 70
     0
 62
     7
  6
CONTINUOUS
  0
LAYER
  2
59
 70
     0
 62
     7
  6
CONTINUOUS
  0
LAYER
  2
60
 70
     0
 62
     7
  6
CONTINUOUS
  0
LAYER
  2
61
 70
     0
 62
     7
  6
CONTINUOUS
  0
LAYER
  2
62
 70
     0
 62
     7
  6
CONTINUOUS
  0
LAYER
  2
63
 70
     0
 62
     7
  6
CONTINUOUS
  0
LAYER
  2
64
 70
     0
 62
     7
  6
CONTINUOUS
  0
LAYER
  2
65
 70
     0
 62
     7
  6
CONTINUOUS
  0
LAYER
  2
66
 70
     0
 62
     7
  6
CONTINUOUS
  0
LAYER
  2
67
 70
     0
 62
     7
  6
CONTINUOUS
  0
LAYER
  2
68
 70
     0
 62
     7
  6
CONTINUOUS
  0
LAYER
  2
69
 70
     0
 62
     7
  6
CONTINUOUS
  0
LAYER
  2
70
 70
     0
 62
     7
  6
CONTINUOUS
  0
LAYER
  2
71
 70
     0
 62
     7
  6
CONTINUOUS
  0
LAYER
  2
72
 70
     0
 62
     7
  6
CONTINUOUS
  0
LAYER
  2
73
 70
     0
 62
     7
  6
CONTINUOUS
  0
LAYER
  2
74
 70
     0
 62
     7
  6
CONTINUOUS
  0
LAYER
  2
75
 70
     0
 62
     7
  6
CONTINUOUS
  0
LAYER
  2
76
 70
     0
 62
     7
  6
CONTINUOUS
  0
LAYER
  2
77
 70
     0
 62
     7
  6
CONTINUOUS
  0
LAYER
  2
78
 70
     0
 62
     7
  6
CONTINUOUS
  0
LAYER
  2
79
 70
     0
 62
     7
  6
CONTINUOUS
  0
LAYER
  2
80
 70
     0
 62
     7
  6
CONTINUOUS
  0
LAYER
  2
81
 70
     0
 62
     7
  6
CONTINUOUS
  0
LAYER
  2
82
 70
     0
 62
     7
  6
CONTINUOUS
  0
LAYER
  2
83
 70
     0
 62
     7
  6
CONTINUOUS
  0
LAYER
  2
84
 70
     0
 62
     7
  6
CONTINUOUS
  0
LAYER
  2
85
 70
     0
 62
     7
  6
CONTINUOUS
  0
LAYER
  2
86
 70
     0
 62
     7
  6
CONTINUOUS
  0
LAYER
  2
87
 70
     0
 62
     7
  6
CONTINUOUS
  0
LAYER
  2
88
 70
     0
 62
     7
  6
CONTINUOUS
  0
LAYER
  2
89
 70
     0
 62
     7
  6
CONTINUOUS
  0
LAYER
  2
90
 70
     0
 62
     7
  6
CONTINUOUS
  0
LAYER
  2
91
 70
     0
 62
     7
  6
CONTINUOUS
  0
LAYER
  2
92
 70
     0
 62
     7
  6
CONTINUOUS
  0
LAYER
  2
93
 70
     0
 62
     7
  6
CONTINUOUS
  0
LAYER
  2
94
 70
     0
 62
     7
  6
CONTINUOUS
  0
LAYER
  2
95
 70
     0
 62
     7
  6
CONTINUOUS
  0
LAYER
  2
96
 70
     0
 62
     7
  6
CONTINUOUS
  0
LAYER
  2
97
 70
     0
 62
     7
  6
CONTINUOUS
  0
LAYER
  2
98
 70
     0
 62
     7
  6
CONTINUOUS
  0
LAYER
  2
99
 70
     0
 62
     7
  6
CONTINUOUS
  0
LAYER
  2
100
 70
     0
 62
     7
  6
CONTINUOUS
  0
LAYER
  2
101
 70
     0
 62
     7
  6
CONTINUOUS
  0
LAYER
  2
102
 70
     0
 62
     7
  6
CONTINUOUS
  0
LAYER
  2
103
 70
     0
 62
     7
  6
CONTINUOUS
  0
LAYER
  2
104
 70
     0
 62
     7
  6
CONTINUOUS
  0
LAYER
  2
105
 70
     0
 62
     7
  6
CONTINUOUS
  0
LAYER
  2
106
 70
     0
 62
     7
  6
CONTINUOUS
  0
LAYER
  2
107
 70
     0
 62
     7
  6
CONTINUOUS
  0
LAYER
  2
108
 70
     0
 62
     7
  6
CONTINUOUS
  0
LAYER
  2
109
 70
     0
 62
     7
  6
CONTINUOUS
  0
LAYER
  2
110
 70
     0
 62
     7
  6
CONTINUOUS
  0
LAYER
  2
111
 70
     0
 62
     7
  6
CONTINUOUS
  0
LAYER
  2
112
 70
     0
 62
     7
  6
CONTINUOUS
  0
LAYER
  2
113
 70
     0
 62
     7
  6
CONTINUOUS
  0
LAYER
  2
114
 70
     0
 62
     7
  6
CONTINUOUS
  0
LAYER
  2
115
 70
     0
 62
     7
  6
CONTINUOUS
  0
LAYER
  2
116
 70
     0
 62
     7
  6
CONTINUOUS
  0
LAYER
  2
117
 70
     0
 62
     7
  6
CONTINUOUS
  0
LAYER
  2
118
 70
     0
 62
     7
  6
CONTINUOUS
  0
LAYER
  2
119
 70
     0
 62
     7
  6
CONTINUOUS
  0
LAYER
  2
120
 70
     0
 62
     7
  6
CONTINUOUS
  0
LAYER
  2
121
 70
     0
 62
     7
  6
CONTINUOUS
  0
LAYER
  2
122
 70
     0
 62
     7
  6
CONTINUOUS
  0
LAYER
  2
123
 70
     0
 62
     7
  6
CONTINUOUS
  0
LAYER
  2
124
 70
     0
 62
     7
  6
CONTINUOUS
  0
LAYER
  2
125
 70
     0
 62
     7
  6
CONTINUOUS
  0
LAYER
  2
126
 70
     0
 62
     7
  6
CONTINUOUS
  0
LAYER
  2
127
 70
     0
 62
     7
  6
CONTINUOUS
  0
LAYER
  2
128
 70
     0
 62
     7
  6
CONTINUOUS
  0
ENDTAB
  0
TABLE
  2
STYLE
 70
     7
  0
STYLE
  2
STANDARD
 70
     0
 40
0.0
 41
1.0
 50
0.0
 71
     0
 42
0.2
  3
txt
  4

  0
STYLE
  2
KANJI0
 70
     0
 40
2.5
 41
1.0
 50
0.0
 71
     0
 42
2.5
  3

  4
bigfont
  0
STYLE
  2
KANJI1
 70
     0
 40
3.5
 41
1.0
 50
0.0
 71
     0
 42
3.5
  3

  4
bigfont
  0
STYLE
  2
KANJI2
 70
     0
 40
4.0
 41
0.875
 50
0.0
 71
     0
 42
4.0
  3

  4
bigfont
  0
STYLE
  2
KANJI3
 70
     0
 40
2.0
 41
0.875
 50
0.0
 71
     0
 42
2.0
  3

  4
bigfont
  0
STYLE
  2
KANJI4
 70
     0
 40
4.0
 41
0.875
 50
0.0
 71
     0
 42
4.0
  3

  4
bigfont
  0
STYLE
  2
KANJI5
 70
     0
 40
4.0
 41
0.875
 50
0.0
 71
     0
 42
4.0
  3

  4
bigfont
  0
ENDTAB
  0
TABLE
  2
VIEW
 70
     0
  0
ENDTAB
  0
ENDSEC
  0
SECTION
  2
BLOCKS
  0
ENDSEC
  0
SECTION
  2
ENTITIES
  0
LINE
  8
6
  6
CONTINUOUS
 62
     2
 10
181.0
 20
22.0
 11
181.0
 21
11.0
  0
TEXT
  8
6
  6
CONTINUOUS
 62
     4
 10
116.5
 20
18.0
 30
0.3
 40
2.5
  1
図番
 50
0.0
 41
1.0
 51
0.0
  7
KANJI0
  0
TEXT
  8
6
  6
CONTINUOUS
 62
     4
 10
116.5
 20
29.0
 30
0.3
 40
2.5
  1
名称
 50
0.0
 41
1.0
 51
0.0
  7
KANJI0
  0
LINE
  8
6
  6
CONTINUOUS
 62
     2
 10
115.5
 20
55.0
 11
115.5
 21
11.0
  0
TEXT
  8
6
  6
CONTINUOUS
 62
     4
 10
125.5
 20
51.0
 30
0.3
 40
2.5
  1
尺度
 50
0.0
 41
1.0
 51
0.0
  7
KANJI0
  0
LINE
  8
6
  6
CONTINUOUS
 62
     2
 10
138.0
 20
55.0
 11
138.0
 21
33.0
  0
LINE
  8
6
  6
CONTINUOUS
 62
     2
 10
138.0
 20
41.0
 11
115.5
 21
41.0
  0
LINE
  8
6
  6
CONTINUOUS
 62
     6
 10
19.5
 20
11.0
 11
198.0
 21
11.0
  0
LINE
  8
6
  6
CONTINUOUS
 62
     2
 10
115.5
 20
22.0
 11
198.0
 21
22.0
  0
LINE
  8
6
  6
CONTINUOUS
 62
     2
 10
115.5
 20
33.0
 11
198.0
 21
33.0
  0
LINE
  8
6
  6
CONTINUOUS
 62
     2
 10
198.0
 20
55.0
 11
115.5
 21
55.0
  0
LINE
  8
6
  6
CONTINUOUS
 62
     2
 10
115.5
 20
49.0
 11
198.0
 21
49.0
  0
LINE
  8
6
  6
CONTINUOUS
 62
     2
 10
158.0
 20
55.0
 11
158.0
 21
33.0
  0
LINE
  8
6
  6
CONTINUOUS
 62
     2
 10
178.0
 20
55.0
 11
178.0
 21
33.0
  0
TEXT
  8
6
  6
CONTINUOUS
 62
     4
 10
119.8
 20
35.5
 30
0.0
 40
3.5
  1
第三角法
 50
0.0
 41
1.0
 51
0.0
  7
KANJI1
  0
TEXT
  8
6
  6
CONTINUOUS
 62
     4
 10
145.4
 20
51.0
 30
0.3
 40
2.5
  1
承認
 50
0.0
 41
1.0
 51
0.0
  7
KANJI0
  0
TEXT
  8
6
  6
CONTINUOUS
 62
     4
 10
165.4
 20
51.0
 30
0.3
 40
2.5
  1
査閲
 50
0.0
 41
1.0
 51
0.0
  7
KANJI0
  0
TEXT
  8
6
  6
CONTINUOUS
 62
     4
 10
185.4
 20
51.0
 30
0.3
 40
2.5
  1
作成
 50
0.0
 41
1.0
 51
0.0
  7
KANJI0
  0
CIRCLE
  8
6
  6
CONTINUOUS
 62
     6
 10
128.0
 20
46.0
 40
0.2
  0
CIRCLE
  8
6
  6
CONTINUOUS
 62
     6
 10
128.0
 20
44.0
 40
0.2
  0
LINE
  8
6
  6
CONTINUOUS
 62
     6
 10
19.5
 20
282.0
 11
19.5
 21
11.0
  0
LINE
  8
6
  6
CONTINUOUS
 62
     2
 10
189.0
 20
282.0
 11
189.0
 21
270.0
  0
LINE
  8
6
  6
CONTINUOUS
 62
     2
 10
179.0
 20
282.0
 11
179.0
 21
270.0
  0
LINE
  8
6
  6
CONTINUOUS
 62
     2
 10
169.0
 20
282.0
 11
169.0
 21
270.0
  0
LINE
  8
6
  6
CONTINUOUS
 62
     2
 10
129.5
 20
282.0
 11
129.5
 21
270.0
  0
LINE
  8
6
  6
CONTINUOUS
 62
     2
 10
121.5
 20
282.0
 11
121.5
 21
270.0
  0
LINE
  8
6
  6
CONTINUOUS
 62
     2
 10
121.5
 20
276.0
 11
198.0
 21
276.0
  0
LINE
  8
6
  6
CONTINUOUS
 62
     2
 10
121.5
 20
270.0
 11
198.0
 21
270.0
  0
LINE
  8
6
  6
CONTINUOUS
 62
     6
 10
198.0
 20
282.0
 11
19.5
 21
282.0
  0
LINE
  8
6
  6
CONTINUOUS
 62
     6
 10
198.0
 20
11.0
 11
198.0
 21
282.0
  0
TEXT
  8
5
  6
CONTINUOUS
 62
     5
 10
122.5
 20
42.9
 30
0.0
 40
4.0
  1
１
 50
0.0
 41
0.875
 51
0.0
  7
KANJI2
  0
LINE
  8
4
  6
CONTINUOUS
 62
     1
 10
38.0
 20
51.5
 11
48.0
 21
61.5
  0
LINE
  8
4
  6
CONTINUOUS
 62
     1
 10
48.0
 20
61.5
 11
58.0
 21
51.5
  0
LINE
  8
4
  6
CONTINUOUS
 62
     1
 10
58.0
 20
51.5
 11
48.0
 21
41.5
  0
LINE
  8
4
  6
CONTINUOUS
 62
     1
 10
48.0
 20
41.5
 11
38.0
 21
51.5
  0
LINE
  8
4
  6
CONTINUOUS
 62
     1
 10
38.0
 20
51.5
 11
38.0
 21
31.5
  0
LINE
  8
4
  6
CONTINUOUS
 62
     2
 10
58.0
 20
69.5
 11
79.0
 21
69.5
  0
TEXT
  8
4
  6
CONTINUOUS
 62
     5
 10
58.0
 20
70.5
 30
0.0
 40
4.0
  1
ケーブル結線
 50
0.0
 41
0.875
 51
0.0
  7
KANJI2
  0
LINE
  8
4
  6
CONTINUOUS
 62
     1
 10
48.0
 20
61.5
 11
73.0
 21
61.5
  0
LINE
  8
4
  6
CONTINUOUS
 62
     1
 10
38.0
 20
31.5
 11
73.0
 21
31.5
  0
LINE
  8
4
  6
CONTINUOUS
 62
     1
 10
58.0
 20
51.5
 11
73.0
 21
51.5
  0
LINE
  8
4
  6
CONTINUOUS
 62
     1
 10
48.0
 20
41.5
 11
73.0
 21
41.5
  0
TEXT
  8
4
  6
CONTINUOUS
 62
     5
 10
75.0
 20
59.5
 30
0.0
 40
4.0
  1
赤：入力（＋）
 50
0.0
 41
0.875
 51
0.0
  7
KANJI2
  0
TEXT
  8
4
  6
CONTINUOUS
 62
     5
 10
75.0
 20
49.5
 30
0.0
 40
4.0
  1
青：出力（－）
 50
0.0
 41
0.875
 51
0.0
  7
KANJI2
  0
TEXT
  8
4
  6
CONTINUOUS
 62
     5
 10
75.0
 20
39.5
 30
0.0
 40
4.0
  1
白：入力（－）
 50
0.0
 41
0.875
 51
0.0
  7
KANJI2
  0
TEXT
  8
4
  6
CONTINUOUS
 62
     5
 10
75.0
 20
29.5
 30
0.0
 40
4.0
  1
緑：出力（＋）
 50
0.0
 41
0.875
 51
0.0
  7
KANJI2
  0
TEXT
  8
5
  6
CONTINUOUS
 62
     5
 10
130.5
 20
42.9
 30
0.0
 40
4.0
  1
１
 50
0.0
 41
0.875
 51
0.0
  7
KANJI2
  0
TEXT
  8
5
  6
CONTINUOUS
 62
     5
 10
126.5
 20
24.0
 30
0.0
 40
4.0
  1
９Ｅ０７－Ａ４－□ＭＳ
 50
0.0
 41
0.875
 51
0.0
  7
KANJI2
  0
TEXT
  8
5
  6
CONTINUOUS
 62
     5
 10
126.5
 20
13.0
 30
0.0
 40
4.0
  1
Ｕ－００１２－Ａ００６
 50
0.0
 41
0.875
 51
0.0
  7
KANJI2
  0
TEXT
  8
4
  6
CONTINUOUS
 62
     5
 10
181.1
 20
62.4
 30
0.0
 40
2.0
  1
２
 50
0.0
 41
0.875
 51
0.0
  7
KANJI3
  0
TEXT
  8
4
  6
CONTINUOUS
 62
     5
 10
138.0
 20
60.0
 30
0.0
 40
4.0
  1
１，２，５，１０　ｋｍ／ｓ
 50
0.0
 41
0.875
 51
0.0
  7
KANJI2
  0
LINE
  8
0
  6
CONTINUOUS
 62
     1
 10
55.5
 20
175.0
 11
55.5
 21
163.0
  0
LINE
  8
0
  6
CONTINUOUS
 62
     1
 10
55.5
 20
163.0
 11
54.5
 21
150.0
  0
LINE
  8
0
  6
CONTINUOUS
 62
     1
 10
54.5
 20
150.0
 11
49.5
 21
150.0
  0
LINE
  8
0
  6
CONTINUOUS
 62
     1
 10
49.5
 20
150.0
 11
48.5
 21
163.0
  0
LINE
  8
0
  6
CONTINUOUS
 62
     1
 10
48.5
 20
163.0
 11
48.5
 21
175.0
  0
LINE
  8
0
  6
CONTINUOUS
 62
     1
 10
54.5
 20
163.0
 11
49.5
 21
163.0
  0
LINE
  8
0
  6
CONTINUOUS
 62
     1
 10
53.6
 20
150.0
 11
53.6
 21
130.0
  0
LINE
  8
0
  6
CONTINUOUS
 62
     1
 10
50.4
 20
150.0
 11
50.4
 21
130.0
  0
LINE
  8
0
  6
LTYPE1
 62
     2
 10
52.0
 20
180.0
 11
52.0
 21
125.0
  0
ARC
  8
0
  6
CONTINUOUS
 62
     1
 10
51.2
 20
130.6
 40
1.0
 50
216.869897646
 51
323.130102354
  0
ARC
  8
0
  6
CONTINUOUS
 62
     1
 10
52.8
 20
130.6
 40
1.0
 50
216.869897645
 51
323.130102354
  0
ARC
  8
0
  6
CONTINUOUS
 62
     1
 10
51.2
 20
129.4
 40
1.0
 50
36.869897646
 51
143.130102354
  0
LINE
  8
0
  6
CONTINUOUS
 62
     1
 10
47.5
 20
175.0
 11
47.5
 21
205.0
  0
LINE
  8
0
  6
CONTINUOUS
 62
     1
 10
47.5
 20
205.0
 11
63.5
 21
205.0
  0
LINE
  8
0
  6
CONTINUOUS
 62
     1
 10
63.5
 20
175.0
 11
47.5
 21
175.0
  0
LINE
  8
0
  6
CONTINUOUS
 62
     1
 10
63.5
 20
205.0
 11
63.5
 21
175.0
  0
LINE
  8
0
  6
CONTINUOUS
 62
     1
 10
129.75
 20
175.0
 11
129.75
 21
163.0
  0
LINE
  8
0
  6
CONTINUOUS
 62
     1
 10
129.75
 20
163.0
 11
130.75
 21
150.0
  0
LINE
  8
0
  6
CONTINUOUS
 62
     1
 10
130.75
 20
150.0
 11
135.75
 21
150.0
  0
LINE
  8
0
  6
CONTINUOUS
 62
     1
 10
135.75
 20
150.0
 11
136.75
 21
163.0
  0
LINE
  8
0
  6
CONTINUOUS
 62
     1
 10
136.75
 20
163.0
 11
136.75
 21
175.0
  0
LINE
  8
0
  6
CONTINUOUS
 62
     1
 10
130.75
 20
163.0
 11
135.75
 21
163.0
  0
LINE
  8
0
  6
CONTINUOUS
 62
     1
 10
131.65
 20
150.0
 11
131.65
 21
130.0
  0
LINE
  8
0
  6
CONTINUOUS
 62
     1
 10
134.85
 20
150.0
 11
134.85
 21
130.0
  0
ARC
  8
0
  6
CONTINUOUS
 62
     1
 10
132.45
 20
130.6
 40
1.0
 50
216.869897646
 51
323.130102354
  0
ARC
  8
0
  6
CONTINUOUS
 62
     1
 10
134.05
 20
130.6
 40
1.0
 50
216.869897645
 51
323.130102354
  0
ARC
  8
0
  6
CONTINUOUS
 62
     1
 10
132.45
 20
129.4
 40
1.0
 50
36.869897646
 51
143.130102354
  0
LINE
  8
0
  6
CONTINUOUS
 62
     1
 10
142.0
 20
175.0
 11
142.0
 21
163.0
  0
LINE
  8
0
  6
CONTINUOUS
 62
     1
 10
142.0
 20
163.0
 11
143.0
 21
150.0
  0
LINE
  8
0
  6
CONTINUOUS
 62
     1
 10
143.0
 20
150.0
 11
148.0
 21
150.0
  0
LINE
  8
0
  6
CONTINUOUS
 62
     1
 10
148.0
 20
150.0
 11
149.0
 21
163.0
  0
LINE
  8
0
  6
CONTINUOUS
 62
     1
 10
149.0
 20
163.0
 11
149.0
 21
175.0
  0
LINE
  8
0
  6
CONTINUOUS
 62
     1
 10
143.0
 20
163.0
 11
148.0
 21
163.0
  0
LINE
  8
0
  6
CONTINUOUS
 62
     1
 10
143.9
 20
150.0
 11
143.9
 21
130.0
  0
LINE
  8
0
  6
CONTINUOUS
 62
     1
 10
147.1
 20
150.0
 11
147.1
 21
130.0
  0
ARC
  8
0
  6
CONTINUOUS
 62
     1
 10
144.7
 20
130.6
 40
1.0
 50
216.869897646
 51
323.130102354
  0
ARC
  8
0
  6
CONTINUOUS
 62
     1
 10
146.3
 20
130.6
 40
1.0
 50
216.869897645
 51
323.130102354
  0
ARC
  8
0
  6
CONTINUOUS
 62
     1
 10
144.7
 20
129.4
 40
1.0
 50
36.869897646
 51
143.130102354
  0
LINE
  8
0
  6
CONTINUOUS
 62
     1
 10
149.5
 20
175.0
 11
149.5
 21
205.0
  0
LINE
  8
0
  6
CONTINUOUS
 62
     1
 10
116.5
 20
175.0
 11
116.5
 21
163.0
  0
LINE
  8
0
  6
CONTINUOUS
 62
     1
 10
116.5
 20
163.0
 11
117.5
 21
150.0
  0
LINE
  8
0
  6
CONTINUOUS
 62
     1
 10
117.5
 20
150.0
 11
122.5
 21
150.0
  0
LINE
  8
0
  6
CONTINUOUS
 62
     1
 10
122.5
 20
150.0
 11
123.5
 21
163.0
  0
LINE
  8
0
  6
CONTINUOUS
 62
     1
 10
123.5
 20
163.0
 11
123.5
 21
175.0
  0
LINE
  8
0
  6
CONTINUOUS
 62
     1
 10
117.5
 20
163.0
 11
122.5
 21
163.0
  0
LINE
  8
0
  6
CONTINUOUS
 62
     1
 10
118.4
 20
150.0
 11
118.4
 21
130.0
  0
LINE
  8
0
  6
CONTINUOUS
 62
     1
 10
121.6
 20
150.0
 11
121.6
 21
130.0
  0
ARC
  8
0
  6
CONTINUOUS
 62
     1
 10
119.2
 20
130.6
 40
1.0
 50
216.869897646
 51
323.130102354
  0
ARC
  8
0
  6
CONTINUOUS
 62
     1
 10
120.8
 20
130.6
 40
1.0
 50
216.869897645
 51
323.130102354
  0
ARC
  8
0
  6
CONTINUOUS
 62
     1
 10
119.2
 20
129.4
 40
1.0
 50
36.869897646
 51
143.130102354
  0
LINE
  8
0
  6
CONTINUOUS
 62
     1
 10
109.5
 20
205.0
 11
109.5
 21
175.0
  0
LINE
  8
0
  6
CONTINUOUS
 62
     1
 10
149.5
 20
205.0
 11
109.5
 21
205.0
  0
LINE
  8
0
  6
CONTINUOUS
 62
     1
 10
109.5
 20
175.0
 11
149.5
 21
175.0
  0
CIRCLE
  8
0
  6
CONTINUOUS
 62
     1
 10
114.5
 20
180.0
 40
2.25
  0
LINE
  8
0
  6
LTYPE1
 62
     2
 10
118.5
 20
180.0
 11
110.5
 21
180.0
  0
LINE
  8
0
  6
LTYPE1
 62
     2
 10
114.5
 20
184.0
 11
114.5
 21
176.0
  0
CIRCLE
  8
0
  6
CONTINUOUS
 62
     1
 10
144.5
 20
200.0
 40
2.25
  0
LINE
  8
0
  6
LTYPE1
 62
     2
 10
148.5
 20
200.0
 11
140.5
 21
200.0
  0
LINE
  8
0
  6
LTYPE1
 62
     2
 10
144.5
 20
204.0
 11
144.5
 21
196.0
  0
LINE
  8
4
  6
CONTINUOUS
 62
     2
 10
147.75
 20
200.0
 11
165.5
 21
200.0
  0
LINE
  8
4
  6
CONTINUOUS
 62
     2
 10
164.5
 20
200.0
 11
163.852952387
 21
197.585185434
  0
LINE
  8
4
  6
CONTINUOUS
 62
     2
 10
164.5
 20
200.0
 11
165.147047613
 21
197.585185434
  0
LINE
  8
4
  6
CONTINUOUS
 62
     2
 10
164.5
 20
200.0
 11
164.5
 21
180.0
  0
LINE
  8
4
  6
CONTINUOUS
 62
     2
 10
164.5
 20
180.0
 11
165.147047613
 21
182.414814566
  0
LINE
  8
4
  6
CONTINUOUS
 62
     2
 10
164.5
 20
180.0
 11
163.852952387
 21
182.414814566
  0
LINE
  8
4
  6
CONTINUOUS
 62
     2
 10
117.75
 20
180.0
 11
165.5
 21
180.0
  0
TEXT
  8
4
  6
CONTINUOUS
 62
     5
 10
163.5
 20
186.45
 30
0.1
 40
4.0
  1
２０
 50
90.0
 41
0.875
 51
0.0
  7
KANJI4
  0
LINE
  8
4
  6
CONTINUOUS
 62
     2
 10
150.5
 20
175.0
 11
175.5
 21
175.0
  0
LINE
  8
4
  6
CONTINUOUS
 62
     2
 10
174.5
 20
175.0
 11
175.147047613
 21
177.414814566
  0
LINE
  8
4
  6
CONTINUOUS
 62
     2
 10
174.5
 20
175.0
 11
173.852952387
 21
177.414814566
  0
LINE
  8
4
  6
CONTINUOUS
 62
     2
 10
174.5
 20
175.0
 11
174.5
 21
205.0
  0
LINE
  8
4
  6
CONTINUOUS
 62
     2
 10
174.5
 20
205.0
 11
173.852952387
 21
202.585185434
  0
LINE
  8
4
  6
CONTINUOUS
 62
     2
 10
174.5
 20
205.0
 11
175.147047613
 21
202.585185434
  0
LINE
  8
4
  6
CONTINUOUS
 62
     2
 10
150.5
 20
205.0
 11
175.5
 21
205.0
  0
TEXT
  8
4
  6
CONTINUOUS
 62
     5
 10
173.5
 20
186.45
 30
0.1
 40
4.0
  1
３０
 50
90.0
 41
0.875
 51
0.0
  7
KANJI4
  0
LINE
  8
4
  6
CONTINUOUS
 62
     2
 10
114.5
 20
183.25
 11
114.5
 21
216.0
  0
LINE
  8
4
  6
CONTINUOUS
 62
     2
 10
114.5
 20
215.0
 11
116.914814566
 21
214.352952387
  0
LINE
  8
4
  6
CONTINUOUS
 62
     2
 10
114.5
 20
215.0
 11
116.914814566
 21
215.647047613
  0
LINE
  8
4
  6
CONTINUOUS
 62
     2
 10
114.5
 20
215.0
 11
144.5
 21
215.0
  0
LINE
  8
4
  6
CONTINUOUS
 62
     2
 10
144.5
 20
215.0
 11
142.085185434
 21
215.647047613
  0
LINE
  8
4
  6
CONTINUOUS
 62
     2
 10
144.5
 20
215.0
 11
142.085185434
 21
214.352952387
  0
LINE
  8
4
  6
CONTINUOUS
 62
     2
 10
144.5
 20
203.25
 11
144.5
 21
216.0
  0
TEXT
  8
4
  6
CONTINUOUS
 62
     5
 10
125.95
 20
216.0
 30
0.1
 40
4.0
  1
３０
 50
0.0
 41
0.875
 51
0.0
  7
KANJI4
  0
LINE
  8
4
  6
CONTINUOUS
 62
     2
 10
149.5
 20
206.0
 11
149.5
 21
226.0
  0
LINE
  8
4
  6
CONTINUOUS
 62
     2
 10
149.5
 20
225.0
 11
147.085185434
 21
225.647047613
  0
LINE
  8
4
  6
CONTINUOUS
 62
     2
 10
149.5
 20
225.0
 11
147.085185434
 21
224.352952387
  0
LINE
  8
4
  6
CONTINUOUS
 62
     2
 10
149.5
 20
225.0
 11
109.5
 21
225.0
  0
LINE
  8
4
  6
CONTINUOUS
 62
     2
 10
109.5
 20
225.0
 11
111.914814566
 21
224.352952387
  0
LINE
  8
4
  6
CONTINUOUS
 62
     2
 10
109.5
 20
225.0
 11
111.914814566
 21
225.647047613
  0
LINE
  8
4
  6
CONTINUOUS
 62
     2
 10
109.5
 20
206.0
 11
109.5
 21
226.0
  0
TEXT
  8
4
  6
CONTINUOUS
 62
     5
 10
125.95
 20
226.0
 30
0.1
 40
4.0
  1
４０
 50
0.0
 41
0.875
 51
0.0
  7
KANJI4
  0
LINE
  8
4
  6
CONTINUOUS
 62
     2
 10
63.5
 20
206.0
 11
63.5
 21
216.0
  0
LINE
  8
4
  6
CONTINUOUS
 62
     2
 10
63.5
 20
215.0
 11
61.085185434
 21
215.647047613
  0
LINE
  8
4
  6
CONTINUOUS
 62
     2
 10
63.5
 20
215.0
 11
61.085185434
 21
214.352952387
  0
LINE
  8
4
  6
CONTINUOUS
 62
     2
 10
63.5
 20
215.0
 11
47.5
 21
215.0
  0
LINE
  8
4
  6
CONTINUOUS
 62
     2
 10
47.5
 20
215.0
 11
49.914814566
 21
214.352952387
  0
LINE
  8
4
  6
CONTINUOUS
 62
     2
 10
47.5
 20
215.0
 11
49.914814566
 21
215.647047613
  0
LINE
  8
4
  6
CONTINUOUS
 62
     2
 10
47.5
 20
206.0
 11
47.5
 21
216.0
  0
TEXT
  8
4
  6
CONTINUOUS
 62
     5
 10
51.95
 20
216.0
 30
0.1
 40
4.0
  1
１６
 50
0.0
 41
0.875
 51
0.0
  7
KANJI4
  0
LINE
  8
4
  6
CONTINUOUS
 62
     2
 10
149.5
 20
174.0
 11
149.5
 21
114.0
  0
LINE
  8
4
  6
CONTINUOUS
 62
     2
 10
149.5
 20
115.0
 11
151.914814566
 21
114.352952387
  0
LINE
  8
4
  6
CONTINUOUS
 62
     2
 10
149.5
 20
115.0
 11
151.914814566
 21
115.647047613
  0
LINE
  8
4
  6
CONTINUOUS
 62
     2
 10
153.25
 20
115.0
 11
149.5
 21
115.0
  0
LINE
  8
4
  6
CONTINUOUS
 62
     2
 10
149.5
 20
115.0
 11
145.5
 21
115.0
  0
TEXT
  8
4
  6
CONTINUOUS
 62
     5
 10
145.75
 20
116.0
 30
0.1
 40
4.0
  1
４
 50
0.0
 41
0.875
 51
0.0
  7
KANJI4
  0
LINE
  8
4
  6
CONTINUOUS
 62
     2
 10
145.5
 20
125.0
 11
145.5
 21
114.0
  0
LINE
  8
4
  6
CONTINUOUS
 62
     2
 10
145.5
 20
115.0
 11
143.085185434
 21
115.647047613
  0
LINE
  8
4
  6
CONTINUOUS
 62
     2
 10
145.5
 20
115.0
 11
143.085185434
 21
114.352952387
  0
LINE
  8
4
  6
CONTINUOUS
 62
     2
 10
145.5
 20
115.0
 11
133.25
 21
115.0
  0
LINE
  8
4
  6
CONTINUOUS
 62
     2
 10
133.25
 20
115.0
 11
135.664814566
 21
114.352952387
  0
LINE
  8
4
  6
CONTINUOUS
 62
     2
 10
133.25
 20
115.0
 11
135.664814566
 21
115.647047613
  0
LINE
  8
4
  6
CONTINUOUS
 62
     2
 10
133.25
 20
125.0
 11
133.25
 21
114.0
  0
LINE
  8
4
  6
CONTINUOUS
 62
     2
 10
133.25
 20
115.0
 11
130.835185434
 21
115.647047613
  0
LINE
  8
4
  6
CONTINUOUS
 62
     2
 10
133.25
 20
115.0
 11
130.835185434
 21
114.352952387
  0
LINE
  8
4
  6
CONTINUOUS
 62
     2
 10
133.25
 20
115.0
 11
120.0
 21
115.0
  0
LINE
  8
4
  6
CONTINUOUS
 62
     2
 10
120.0
 20
115.0
 11
122.414814566
 21
114.352952387
  0
LINE
  8
4
  6
CONTINUOUS
 62
     2
 10
120.0
 20
115.0
 11
122.414814566
 21
115.647047613
  0
LINE
  8
4
  6
CONTINUOUS
 62
     2
 10
120.0
 20
125.0
 11
120.0
 21
114.0
  0
TEXT
  8
4
  6
CONTINUOUS
 62
     5
 10
119.5
 20
116.0
 30
-0.5
 40
4.0
  1
１３．２５
 50
0.0
 41
0.875
 51
0.0
  7
KANJI5
  0
TEXT
  8
4
  6
CONTINUOUS
 62
     5
 10
132.175
 20
116.0
 30
-0.5
 40
4.0
  1
１２．２５
 50
0.0
 41
0.875
 51
0.0
  7
KANJI5
  0
LINE
  8
4
  6
CONTINUOUS
 62
     2
 10
149.0
 20
150.0
 11
175.5
 21
150.0
  0
LINE
  8
4
  6
CONTINUOUS
 62
     2
 10
174.5
 20
150.0
 11
175.147047613
 21
152.414814566
  0
LINE
  8
4
  6
CONTINUOUS
 62
     2
 10
174.5
 20
150.0
 11
173.852952387
 21
152.414814566
  0
LINE
  8
4
  6
CONTINUOUS
 62
     2
 10
174.5
 20
150.0
 11
174.5
 21
175.0
  0
LINE
  8
4
  6
CONTINUOUS
 62
     2
 10
174.5
 20
175.0
 11
173.852952387
 21
172.585185434
  0
LINE
  8
4
  6
CONTINUOUS
 62
     2
 10
174.5
 20
175.0
 11
175.147047613
 21
172.585185434
  0
TEXT
  8
4
  6
CONTINUOUS
 62
     5
 10
173.5
 20
158.95
 30
0.1
 40
4.0
  1
２５
 50
90.0
 41
0.875
 51
0.0
  7
KANJI4
  0
LINE
  8
4
  6
CONTINUOUS
 62
     2
 10
145.50623059
 20
202.01246118
 11
147.164905473
 21
203.882968499
  0
LINE
  8
4
  6
CONTINUOUS
 62
     2
 10
145.50623059
 20
202.01246118
 11
146.007431516
 21
204.461705478
  0
LINE
  8
4
  6
CONTINUOUS
 62
     2
 10
145.50623059
 20
202.01246118
 11
154.5
 21
220.0
  0
LINE
  8
4
  6
CONTINUOUS
 62
     2
 10
154.5
 20
220.0
 11
176.0
 21
220.0
  0
TEXT
  8
4
  6
CONTINUOUS
 62
     5
 10
154.5
 20
221.0
 30
0.1
 40
4.0
  1
２－φ４．５
 50
0.0
 41
0.875
 51
0.0
  7
KANJI4
  0
LINE
  8
4
  6
CONTINUOUS
 62
     2
 10
73.5
 20
195.0
 11
74.276457135
 21
192.102222521
  0
LINE
  8
4
  6
CONTINUOUS
 62
     2
 10
73.5
 20
195.0
 11
72.723542865
 21
192.102222521
  0
LINE
  8
4
  6
CONTINUOUS
 62
     2
 10
73.5
 20
195.0
 11
73.5
 21
185.0
  0
LINE
  8
4
  6
CONTINUOUS
 62
     2
 10
73.5
 20
185.0
 11
72.723542865
 21
187.897777479
  0
LINE
  8
4
  6
CONTINUOUS
 62
     2
 10
73.5
 20
185.0
 11
74.276457135
 21
187.897777479
  0
TEXT
  8
4
  6
CONTINUOUS
 62
     5
 10
68.3
 20
180.2
 30
0.0
 40
4.0
  1
（－）
 50
0.0
 41
0.875
 51
0.0
  7
KANJI2
  0
TEXT
  8
4
  6
CONTINUOUS
 62
     5
 10
68.3
 20
196.2
 30
0.0
 40
4.0
  1
（＋）
 50
0.0
 41
0.875
 51
0.0
  7
KANJI2
  0
TEXT
  8
4
  6
CONTINUOUS
 62
     5
 10
76.5
 20
190.5
 30
0.0
 40
4.0
  1
感度方向
 50
0.0
 41
0.875
 51
0.0
  7
KANJI2
  0
TEXT
  8
4
  6
CONTINUOUS
 62
     5
 10
78.25
 20
186.0
 30
0.0
 40
4.0
  1
（Ｙ）
 50
0.0
 41
0.875
 51
0.0
  7
KANJI2
  0
LINE
  8
4
  6
CONTINUOUS
 62
     2
 10
118.5
 20
240.0
 11
121.397777479
 21
239.223542865
  0
LINE
  8
4
  6
CONTINUOUS
 62
     2
 10
118.5
 20
240.0
 11
121.397777479
 21
240.776457135
  0
LINE
  8
4
  6
CONTINUOUS
 62
     2
 10
118.5
 20
240.0
 11
140.5
 21
240.0
  0
LINE
  8
4
  6
CONTINUOUS
 62
     2
 10
140.5
 20
240.0
 11
137.602222521
 21
239.223542865
  0
LINE
  8
4
  6
CONTINUOUS
 62
     2
 10
140.5
 20
240.0
 11
137.602222521
 21
240.776457135
  0
TEXT
  8
4
  6
CONTINUOUS
 62
     5
 10
134.0
 20
235.0
 30
0.0
 40
4.0
  1
（＋）
 50
0.0
 41
0.875
 51
0.0
  7
KANJI2
  0
TEXT
  8
4
  6
CONTINUOUS
 62
     5
 10
114.5
 20
235.0
 30
0.0
 40
4.0
  1
（－）
 50
0.0
 41
0.875
 51
0.0
  7
KANJI2
  0
TEXT
  8
4
  6
CONTINUOUS
 62
     5
 10
118.75
 20
241.0
 30
0.0
 40
4.0
  1
負荷方向（Ｘ）
 50
0.0
 41
0.875
 51
0.0
  7
KANJI2
  0
LINE
  8
4
  6
CONTINUOUS
 62
     2
 10
44.5
 20
240.0
 11
47.397777479
 21
239.223542865
  0
LINE
  8
4
  6
CONTINUOUS
 62
     2
 10
44.5
 20
240.0
 11
47.397777479
 21
240.776457135
  0
LINE
  8
4
  6
CONTINUOUS
 62
     2
 10
44.5
 20
240.0
 11
66.5
 21
240.0
  0
LINE
  8
4
  6
CONTINUOUS
 62
     2
 10
66.5
 20
240.0
 11
63.602222521
 21
239.223542865
  0
LINE
  8
4
  6
CONTINUOUS
 62
     2
 10
66.5
 20
240.0
 11
63.602222521
 21
240.776457135
  0
TEXT
  8
4
  6
CONTINUOUS
 62
     5
 10
60.0
 20
235.0
 30
0.0
 40
4.0
  1
（＋）
 50
0.0
 41
0.875
 51
0.0
  7
KANJI2
  0
TEXT
  8
4
  6
CONTINUOUS
 62
     5
 10
40.5
 20
235.0
 30
0.0
 40
4.0
  1
（－）
 50
0.0
 41
0.875
 51
0.0
  7
KANJI2
  0
TEXT
  8
4
  6
CONTINUOUS
 62
     5
 10
44.75
 20
241.0
 30
0.0
 40
4.0
  1
負荷方向（Ｚ）
 50
0.0
 41
0.875
 51
0.0
  7
KANJI2
  0
LINE
  8
0
  6
LTYPE1
 62
     2
 10
120.0
 20
179.0
 11
120.0
 21
125.0
  0
LINE
  8
0
  6
LTYPE1
 62
     2
 10
133.25
 20
179.0
 11
133.25
 21
125.0
  0
LINE
  8
0
  6
LTYPE1
 62
     2
 10
145.5
 20
179.0
 11
145.5
 21
125.0
  0
LINE
  8
4
  6
CONTINUOUS
 62
     2
 10
52.0
 20
125.0
 11
52.0
 21
114.0
  0
LINE
  8
4
  6
CONTINUOUS
 62
     2
 10
52.0
 20
115.0
 11
54.414814566
 21
114.352952387
  0
LINE
  8
4
  6
CONTINUOUS
 62
     2
 10
52.0
 20
115.0
 11
54.414814566
 21
115.647047613
  0
LINE
  8
4
  6
CONTINUOUS
 62
     2
 10
66.45
 20
115.0
 11
52.0
 21
115.0
  0
LINE
  8
4
  6
CONTINUOUS
 62
     2
 10
52.0
 20
115.0
 11
47.5
 21
115.0
  0
LINE
  8
4
  6
CONTINUOUS
 62
     2
 10
47.5
 20
115.0
 11
43.75
 21
115.0
  0
LINE
  8
4
  6
CONTINUOUS
 62
     2
 10
47.5
 20
115.0
 11
45.085185434
 21
115.647047613
  0
LINE
  8
4
  6
CONTINUOUS
 62
     2
 10
47.5
 20
115.0
 11
45.085185434
 21
114.352952387
  0
LINE
  8
4
  6
CONTINUOUS
 62
     2
 10
47.5
 20
174.0
 11
47.5
 21
114.0
  0
TEXT
  8
4
  6
CONTINUOUS
 62
     5
 10
55.75
 20
116.0
 30
0.1
 40
4.0
  1
４．５
 50
0.0
 41
0.875
 51
0.0
  7
KANJI4
  0
ENDSEC
  0
EOF
