  0
SECTION
  2
HEADER
  9
$EXTMIN
 10
0.0
 20
0.0
 30
0.0
  9
$EXTMAX
 10
210.0
 20
297.0
 30
0.0
  9
$LIMMIN
 10
0.0
 20
0.0
  9
$LIMMAX
 10
210.0
 20
297.0
  9
$LTSCALE
 40
1.0
  9
$PDMODE
 70
     0
  0
ENDSEC
  0
SECTION
  2
TABLES
  0
TABLE
  2
LTYPE
 70
     2
  0
LTYPE
  2
CONTINUOUS
 70
    64
  3
Solid line
 72
    65
 73
     0
 40
0.0
  0
LTYPE
  2
LTYPE1
 70
    64
  3
CENTER
 72
    65
 73
     4
 40
10.0
 49
7.0
 49
-1.0
 49
1.0
 49
-1.0
  0
ENDTAB
  0
TABLE
  2
LAYER
 70
   128
  0
LAYER
  2
0
 70
     0
 62
     7
  6
CONTINUOUS
  0
LAYER
  2
2
 70
     0
 62
     7
  6
CONTINUOUS
  0
LAYER
  2
3
 70
     0
 62
     7
  6
CONTINUOUS
  0
LAYER
  2
4
 70
     0
 62
     7
  6
CONTINUOUS
  0
LAYER
  2
5
 70
     0
 62
     7
  6
CONTINUOUS
  0
LAYER
  2
6
 70
     0
 62
     7
  6
CONTINUOUS
  0
LAYER
  2
7
 70
     0
 62
     7
  6
CONTINUOUS
  0
LAYER
  2
8
 70
     0
 62
     7
  6
CONTINUOUS
  0
LAYER
  2
9
 70
     0
 62
     7
  6
CONTINUOUS
  0
LAYER
  2
10
 70
     0
 62
     7
  6
CONTINUOUS
  0
LAYER
  2
11
 70
     0
 62
     7
  6
CONTINUOUS
  0
LAYER
  2
12
 70
     0
 62
     7
  6
CONTINUOUS
  0
LAYER
  2
13
 70
     0
 62
     7
  6
CONTINUOUS
  0
LAYER
  2
14
 70
     0
 62
     7
  6
CONTINUOUS
  0
LAYER
  2
15
 70
     0
 62
     7
  6
CONTINUOUS
  0
LAYER
  2
16
 70
     0
 62
     7
  6
CONTINUOUS
  0
LAYER
  2
17
 70
     0
 62
     7
  6
CONTINUOUS
  0
LAYER
  2
18
 70
     0
 62
     7
  6
CONTINUOUS
  0
LAYER
  2
19
 70
     0
 62
     7
  6
CONTINUOUS
  0
LAYER
  2
20
 70
     0
 62
     7
  6
CONTINUOUS
  0
LAYER
  2
21
 70
     0
 62
     7
  6
CONTINUOUS
  0
LAYER
  2
22
 70
     0
 62
     7
  6
CONTINUOUS
  0
LAYER
  2
23
 70
     0
 62
     7
  6
CONTINUOUS
  0
LAYER
  2
24
 70
     0
 62
     7
  6
CONTINUOUS
  0
LAYER
  2
25
 70
     0
 62
     7
  6
CONTINUOUS
  0
LAYER
  2
26
 70
     0
 62
     7
  6
CONTINUOUS
  0
LAYER
  2
27
 70
     0
 62
     7
  6
CONTINUOUS
  0
LAYER
  2
28
 70
     0
 62
     7
  6
CONTINUOUS
  0
LAYER
  2
29
 70
     0
 62
     7
  6
CONTINUOUS
  0
LAYER
  2
30
 70
     0
 62
     7
  6
CONTINUOUS
  0
LAYER
  2
31
 70
     0
 62
     7
  6
CONTINUOUS
  0
LAYER
  2
32
 70
     0
 62
     7
  6
CONTINUOUS
  0
LAYER
  2
33
 70
     0
 62
     7
  6
CONTINUOUS
  0
LAYER
  2
34
 70
     0
 62
     7
  6
CONTINUOUS
  0
LAYER
  2
35
 70
     0
 62
     7
  6
CONTINUOUS
  0
LAYER
  2
36
 70
     0
 62
     7
  6
CONTINUOUS
  0
LAYER
  2
37
 70
     0
 62
     7
  6
CONTINUOUS
  0
LAYER
  2
38
 70
     0
 62
     7
  6
CONTINUOUS
  0
LAYER
  2
39
 70
     0
 62
     7
  6
CONTINUOUS
  0
LAYER
  2
40
 70
     0
 62
     7
  6
CONTINUOUS
  0
LAYER
  2
41
 70
     0
 62
     7
  6
CONTINUOUS
  0
LAYER
  2
42
 70
     0
 62
     7
  6
CONTINUOUS
  0
LAYER
  2
43
 70
     0
 62
     7
  6
CONTINUOUS
  0
LAYER
  2
44
 70
     0
 62
     7
  6
CONTINUOUS
  0
LAYER
  2
45
 70
     0
 62
     7
  6
CONTINUOUS
  0
LAYER
  2
46
 70
     0
 62
     7
  6
CONTINUOUS
  0
LAYER
  2
47
 70
     0
 62
     7
  6
CONTINUOUS
  0
LAYER
  2
48
 70
     0
 62
     7
  6
CONTINUOUS
  0
LAYER
  2
49
 70
     0
 62
     7
  6
CONTINUOUS
  0
LAYER
  2
50
 70
     0
 62
     7
  6
CONTINUOUS
  0
LAYER
  2
51
 70
     0
 62
     7
  6
CONTINUOUS
  0
LAYER
  2
52
 70
     0
 62
     7
  6
CONTINUOUS
  0
LAYER
  2
53
 70
     0
 62
     7
  6
CONTINUOUS
  0
LAYER
  2
54
 70
     0
 62
     7
  6
CONTINUOUS
  0
LAYER
  2
55
 70
     0
 62
     7
  6
CONTINUOUS
  0
LAYER
  2
56
 70
     0
 62
     7
  6
CONTINUOUS
  0
LAYER
  2
57
 70
     0
 62
     7
  6
CONTINUOUS
  0
LAYER
  2
58
 70
     0
 62
     7
  6
CONTINUOUS
  0
LAYER
  2
59
 70
     0
 62
     7
  6
CONTINUOUS
  0
LAYER
  2
60
 70
     0
 62
     7
  6
CONTINUOUS
  0
LAYER
  2
61
 70
     0
 62
     7
  6
CONTINUOUS
  0
LAYER
  2
62
 70
     0
 62
     7
  6
CONTINUOUS
  0
LAYER
  2
63
 70
     0
 62
     7
  6
CONTINUOUS
  0
LAYER
  2
64
 70
     0
 62
     7
  6
CONTINUOUS
  0
LAYER
  2
65
 70
     0
 62
     7
  6
CONTINUOUS
  0
LAYER
  2
66
 70
     0
 62
     7
  6
CONTINUOUS
  0
LAYER
  2
67
 70
     0
 62
     7
  6
CONTINUOUS
  0
LAYER
  2
68
 70
     0
 62
     7
  6
CONTINUOUS
  0
LAYER
  2
69
 70
     0
 62
     7
  6
CONTINUOUS
  0
LAYER
  2
70
 70
     0
 62
     7
  6
CONTINUOUS
  0
LAYER
  2
71
 70
     0
 62
     7
  6
CONTINUOUS
  0
LAYER
  2
72
 70
     0
 62
     7
  6
CONTINUOUS
  0
LAYER
  2
73
 70
     0
 62
     7
  6
CONTINUOUS
  0
LAYER
  2
74
 70
     0
 62
     7
  6
CONTINUOUS
  0
LAYER
  2
75
 70
     0
 62
     7
  6
CONTINUOUS
  0
LAYER
  2
76
 70
     0
 62
     7
  6
CONTINUOUS
  0
LAYER
  2
77
 70
     0
 62
     7
  6
CONTINUOUS
  0
LAYER
  2
78
 70
     0
 62
     7
  6
CONTINUOUS
  0
LAYER
  2
79
 70
     0
 62
     7
  6
CONTINUOUS
  0
LAYER
  2
80
 70
     0
 62
     7
  6
CONTINUOUS
  0
LAYER
  2
81
 70
     0
 62
     7
  6
CONTINUOUS
  0
LAYER
  2
82
 70
     0
 62
     7
  6
CONTINUOUS
  0
LAYER
  2
83
 70
     0
 62
     7
  6
CONTINUOUS
  0
LAYER
  2
84
 70
     0
 62
     7
  6
CONTINUOUS
  0
LAYER
  2
85
 70
     0
 62
     7
  6
CONTINUOUS
  0
LAYER
  2
86
 70
     0
 62
     7
  6
CONTINUOUS
  0
LAYER
  2
87
 70
     0
 62
     7
  6
CONTINUOUS
  0
LAYER
  2
88
 70
     0
 62
     7
  6
CONTINUOUS
  0
LAYER
  2
89
 70
     0
 62
     7
  6
CONTINUOUS
  0
LAYER
  2
90
 70
     0
 62
     7
  6
CONTINUOUS
  0
LAYER
  2
91
 70
     0
 62
     7
  6
CONTINUOUS
  0
LAYER
  2
92
 70
     0
 62
     7
  6
CONTINUOUS
  0
LAYER
  2
93
 70
     0
 62
     7
  6
CONTINUOUS
  0
LAYER
  2
94
 70
     0
 62
     7
  6
CONTINUOUS
  0
LAYER
  2
95
 70
     0
 62
     7
  6
CONTINUOUS
  0
LAYER
  2
96
 70
     0
 62
     7
  6
CONTINUOUS
  0
LAYER
  2
97
 70
     0
 62
     7
  6
CONTINUOUS
  0
LAYER
  2
98
 70
     0
 62
     7
  6
CONTINUOUS
  0
LAYER
  2
99
 70
     0
 62
     7
  6
CONTINUOUS
  0
LAYER
  2
100
 70
     0
 62
     7
  6
CONTINUOUS
  0
LAYER
  2
101
 70
     0
 62
     7
  6
CONTINUOUS
  0
LAYER
  2
102
 70
     0
 62
     7
  6
CONTINUOUS
  0
LAYER
  2
103
 70
     0
 62
     7
  6
CONTINUOUS
  0
LAYER
  2
104
 70
     0
 62
     7
  6
CONTINUOUS
  0
LAYER
  2
105
 70
     0
 62
     7
  6
CONTINUOUS
  0
LAYER
  2
106
 70
     0
 62
     7
  6
CONTINUOUS
  0
LAYER
  2
107
 70
     0
 62
     7
  6
CONTINUOUS
  0
LAYER
  2
108
 70
     0
 62
     7
  6
CONTINUOUS
  0
LAYER
  2
109
 70
     0
 62
     7
  6
CONTINUOUS
  0
LAYER
  2
110
 70
     0
 62
     7
  6
CONTINUOUS
  0
LAYER
  2
111
 70
     0
 62
     7
  6
CONTINUOUS
  0
LAYER
  2
112
 70
     0
 62
     7
  6
CONTINUOUS
  0
LAYER
  2
113
 70
     0
 62
     7
  6
CONTINUOUS
  0
LAYER
  2
114
 70
     0
 62
     7
  6
CONTINUOUS
  0
LAYER
  2
115
 70
     0
 62
     7
  6
CONTINUOUS
  0
LAYER
  2
116
 70
     0
 62
     7
  6
CONTINUOUS
  0
LAYER
  2
117
 70
     0
 62
     7
  6
CONTINUOUS
  0
LAYER
  2
118
 70
     0
 62
     7
  6
CONTINUOUS
  0
LAYER
  2
119
 70
     0
 62
     7
  6
CONTINUOUS
  0
LAYER
  2
120
 70
     0
 62
     7
  6
CONTINUOUS
  0
LAYER
  2
121
 70
     0
 62
     7
  6
CONTINUOUS
  0
LAYER
  2
122
 70
     0
 62
     7
  6
CONTINUOUS
  0
LAYER
  2
123
 70
     0
 62
     7
  6
CONTINUOUS
  0
LAYER
  2
124
 70
     0
 62
     7
  6
CONTINUOUS
  0
LAYER
  2
125
 70
     0
 62
     7
  6
CONTINUOUS
  0
LAYER
  2
126
 70
     0
 62
     7
  6
CONTINUOUS
  0
LAYER
  2
127
 70
     0
 62
     7
  6
CONTINUOUS
  0
LAYER
  2
128
 70
     0
 62
     7
  6
CONTINUOUS
  0
ENDTAB
  0
TABLE
  2
STYLE
 70
     6
  0
STYLE
  2
STANDARD
 70
     0
 40
0.0
 41
1.0
 50
0.0
 71
     0
 42
0.2
  3
txt
  4

  0
STYLE
  2
KANJI0
 70
     0
 40
2.5
 41
1.0
 50
0.0
 71
     0
 42
2.5
  3

  4
bigfont
  0
STYLE
  2
KANJI1
 70
     0
 40
3.5
 41
1.0
 50
0.0
 71
     0
 42
3.5
  3

  4
bigfont
  0
STYLE
  2
KANJI2
 70
     0
 40
4.0
 41
0.875
 50
0.0
 71
     0
 42
4.0
  3

  4
bigfont
  0
STYLE
  2
KANJI3
 70
     0
 40
2.0
 41
0.875
 50
0.0
 71
     0
 42
2.0
  3

  4
bigfont
  0
STYLE
  2
KANJI4
 70
     0
 40
4.0
 41
0.875
 50
0.0
 71
     0
 42
4.0
  3

  4
bigfont
  0
ENDTAB
  0
TABLE
  2
VIEW
 70
     0
  0
ENDTAB
  0
ENDSEC
  0
SECTION
  2
BLOCKS
  0
ENDSEC
  0
SECTION
  2
ENTITIES
  0
LINE
  8
6
  6
CONTINUOUS
 62
     2
 10
181.0
 20
22.0
 11
181.0
 21
11.0
  0
TEXT
  8
6
  6
CONTINUOUS
 62
     4
 10
116.5
 20
18.0
 30
0.3
 40
2.5
  1
図番
 50
0.0
 41
1.0
 51
0.0
  7
KANJI0
  0
TEXT
  8
6
  6
CONTINUOUS
 62
     4
 10
116.5
 20
29.0
 30
0.3
 40
2.5
  1
名称
 50
0.0
 41
1.0
 51
0.0
  7
KANJI0
  0
LINE
  8
6
  6
CONTINUOUS
 62
     2
 10
115.5
 20
55.0
 11
115.5
 21
11.0
  0
TEXT
  8
6
  6
CONTINUOUS
 62
     4
 10
125.5
 20
51.0
 30
0.3
 40
2.5
  1
尺度
 50
0.0
 41
1.0
 51
0.0
  7
KANJI0
  0
LINE
  8
6
  6
CONTINUOUS
 62
     2
 10
138.0
 20
55.0
 11
138.0
 21
33.0
  0
LINE
  8
6
  6
CONTINUOUS
 62
     2
 10
138.0
 20
41.0
 11
115.5
 21
41.0
  0
LINE
  8
6
  6
CONTINUOUS
 62
     6
 10
19.5
 20
11.0
 11
198.0
 21
11.0
  0
LINE
  8
6
  6
CONTINUOUS
 62
     2
 10
115.5
 20
22.0
 11
198.0
 21
22.0
  0
LINE
  8
6
  6
CONTINUOUS
 62
     2
 10
115.5
 20
33.0
 11
198.0
 21
33.0
  0
LINE
  8
6
  6
CONTINUOUS
 62
     2
 10
198.0
 20
55.0
 11
115.5
 21
55.0
  0
LINE
  8
6
  6
CONTINUOUS
 62
     2
 10
115.5
 20
49.0
 11
198.0
 21
49.0
  0
LINE
  8
6
  6
CONTINUOUS
 62
     2
 10
158.0
 20
55.0
 11
158.0
 21
33.0
  0
LINE
  8
6
  6
CONTINUOUS
 62
     2
 10
178.0
 20
55.0
 11
178.0
 21
33.0
  0
TEXT
  8
6
  6
CONTINUOUS
 62
     4
 10
119.8
 20
35.5
 30
0.0
 40
3.5
  1
第三角法
 50
0.0
 41
1.0
 51
0.0
  7
KANJI1
  0
TEXT
  8
6
  6
CONTINUOUS
 62
     4
 10
145.4
 20
51.0
 30
0.3
 40
2.5
  1
承認
 50
0.0
 41
1.0
 51
0.0
  7
KANJI0
  0
TEXT
  8
6
  6
CONTINUOUS
 62
     4
 10
165.4
 20
51.0
 30
0.3
 40
2.5
  1
査閲
 50
0.0
 41
1.0
 51
0.0
  7
KANJI0
  0
TEXT
  8
6
  6
CONTINUOUS
 62
     4
 10
185.4
 20
51.0
 30
0.3
 40
2.5
  1
作成
 50
0.0
 41
1.0
 51
0.0
  7
KANJI0
  0
CIRCLE
  8
6
  6
CONTINUOUS
 62
     6
 10
128.0
 20
46.0
 40
0.2
  0
CIRCLE
  8
6
  6
CONTINUOUS
 62
     6
 10
128.0
 20
44.0
 40
0.2
  0
LINE
  8
6
  6
CONTINUOUS
 62
     6
 10
19.5
 20
282.0
 11
19.5
 21
11.0
  0
LINE
  8
6
  6
CONTINUOUS
 62
     2
 10
189.0
 20
282.0
 11
189.0
 21
270.0
  0
LINE
  8
6
  6
CONTINUOUS
 62
     2
 10
179.0
 20
282.0
 11
179.0
 21
270.0
  0
LINE
  8
6
  6
CONTINUOUS
 62
     2
 10
169.0
 20
282.0
 11
169.0
 21
270.0
  0
LINE
  8
6
  6
CONTINUOUS
 62
     2
 10
129.5
 20
282.0
 11
129.5
 21
270.0
  0
LINE
  8
6
  6
CONTINUOUS
 62
     2
 10
121.5
 20
282.0
 11
121.5
 21
270.0
  0
LINE
  8
6
  6
CONTINUOUS
 62
     2
 10
121.5
 20
276.0
 11
198.0
 21
276.0
  0
LINE
  8
6
  6
CONTINUOUS
 62
     2
 10
121.5
 20
270.0
 11
198.0
 21
270.0
  0
LINE
  8
6
  6
CONTINUOUS
 62
     6
 10
198.0
 20
282.0
 11
19.5
 21
282.0
  0
LINE
  8
6
  6
CONTINUOUS
 62
     6
 10
198.0
 20
11.0
 11
198.0
 21
282.0
  0
TEXT
  8
5
  6
CONTINUOUS
 62
     5
 10
122.5
 20
42.9
 30
0.0
 40
4.0
  1
１
 50
0.0
 41
0.875
 51
0.0
  7
KANJI2
  0
LINE
  8
4
  6
CONTINUOUS
 62
     1
 10
38.0
 20
51.5
 11
48.0
 21
61.5
  0
LINE
  8
4
  6
CONTINUOUS
 62
     1
 10
48.0
 20
61.5
 11
58.0
 21
51.5
  0
LINE
  8
4
  6
CONTINUOUS
 62
     1
 10
58.0
 20
51.5
 11
48.0
 21
41.5
  0
LINE
  8
4
  6
CONTINUOUS
 62
     1
 10
48.0
 20
41.5
 11
38.0
 21
51.5
  0
LINE
  8
4
  6
CONTINUOUS
 62
     1
 10
38.0
 20
51.5
 11
38.0
 21
31.5
  0
LINE
  8
4
  6
CONTINUOUS
 62
     2
 10
58.0
 20
69.5
 11
79.0
 21
69.5
  0
TEXT
  8
4
  6
CONTINUOUS
 62
     5
 10
58.0
 20
70.5
 30
0.0
 40
4.0
  1
ケーブル結線
 50
0.0
 41
0.875
 51
0.0
  7
KANJI2
  0
LINE
  8
4
  6
CONTINUOUS
 62
     1
 10
48.0
 20
61.5
 11
73.0
 21
61.5
  0
LINE
  8
4
  6
CONTINUOUS
 62
     1
 10
38.0
 20
31.5
 11
73.0
 21
31.5
  0
LINE
  8
4
  6
CONTINUOUS
 62
     1
 10
58.0
 20
51.5
 11
73.0
 21
51.5
  0
LINE
  8
4
  6
CONTINUOUS
 62
     1
 10
48.0
 20
41.5
 11
73.0
 21
41.5
  0
TEXT
  8
4
  6
CONTINUOUS
 62
     5
 10
75.0
 20
59.5
 30
0.0
 40
4.0
  1
赤：入力（＋）
 50
0.0
 41
0.875
 51
0.0
  7
KANJI2
  0
TEXT
  8
4
  6
CONTINUOUS
 62
     5
 10
75.0
 20
49.5
 30
0.0
 40
4.0
  1
青：出力（－）
 50
0.0
 41
0.875
 51
0.0
  7
KANJI2
  0
TEXT
  8
4
  6
CONTINUOUS
 62
     5
 10
75.0
 20
39.5
 30
0.0
 40
4.0
  1
白：入力（－）
 50
0.0
 41
0.875
 51
0.0
  7
KANJI2
  0
TEXT
  8
4
  6
CONTINUOUS
 62
     5
 10
75.0
 20
29.5
 30
0.0
 40
4.0
  1
緑：出力（＋）
 50
0.0
 41
0.875
 51
0.0
  7
KANJI2
  0
TEXT
  8
5
  6
CONTINUOUS
 62
     5
 10
130.5
 20
42.9
 30
0.0
 40
4.0
  1
１
 50
0.0
 41
0.875
 51
0.0
  7
KANJI2
  0
TEXT
  8
4
  6
CONTINUOUS
 62
     5
 10
188.1
 20
62.4
 30
0.0
 40
2.0
  1
２
 50
0.0
 41
0.875
 51
0.0
  7
KANJI3
  0
TEXT
  8
4
  6
CONTINUOUS
 62
     5
 10
138.0
 20
60.0
 30
0.0
 40
4.0
  1
１００，２００，５００　ｍ／ｓ
 50
0.0
 41
0.875
 51
0.0
  7
KANJI2
  0
TEXT
  8
5
  6
CONTINUOUS
 62
     5
 10
126.5
 20
24.0
 30
0.0
 40
4.0
  1
９Ｅ０７－Ａ４－□ＭＳ
 50
0.0
 41
0.875
 51
0.0
  7
KANJI2
  0
TEXT
  8
5
  6
CONTINUOUS
 62
     5
 10
126.5
 20
13.0
 30
0.0
 40
4.0
  1
Ｕ－００１２－Ａ００５
 50
0.0
 41
0.875
 51
0.0
  7
KANJI2
  0
POLYLINE
  8
0
  6
CONTINUOUS
 62
     1
 66
     1
 70
     1
  0
VERTEX
  8
0
  6
CONTINUOUS
 62
     1
 10
107.5
 20
171.5
  0
VERTEX
  8
0
  6
CONTINUOUS
 62
     1
 10
151.5
 20
171.5
  0
VERTEX
  8
0
  6
CONTINUOUS
 62
     1
 10
151.5
 20
208.5
  0
VERTEX
  8
0
  6
CONTINUOUS
 62
     1
 10
107.5
 20
208.5
  0
SEQEND
  0
LINE
  8
0
  6
CONTINUOUS
 62
     1
 10
143.75
 20
171.5
 11
143.75
 21
159.5
  0
LINE
  8
0
  6
CONTINUOUS
 62
     1
 10
143.75
 20
159.5
 11
144.75
 21
146.5
  0
LINE
  8
0
  6
CONTINUOUS
 62
     1
 10
144.75
 20
146.5
 11
149.75
 21
146.5
  0
LINE
  8
0
  6
CONTINUOUS
 62
     1
 10
149.75
 20
146.5
 11
150.75
 21
159.5
  0
LINE
  8
0
  6
CONTINUOUS
 62
     1
 10
150.75
 20
159.5
 11
150.75
 21
171.5
  0
LINE
  8
0
  6
CONTINUOUS
 62
     1
 10
144.75
 20
159.5
 11
149.75
 21
159.5
  0
LINE
  8
0
  6
CONTINUOUS
 62
     1
 10
145.65
 20
146.5
 11
145.65
 21
126.5
  0
LINE
  8
0
  6
CONTINUOUS
 62
     1
 10
148.85
 20
146.5
 11
148.85
 21
126.5
  0
ARC
  8
0
  6
CONTINUOUS
 62
     1
 10
146.45
 20
127.1
 40
1.0
 50
216.869897646
 51
323.130102354
  0
ARC
  8
0
  6
CONTINUOUS
 62
     1
 10
148.05
 20
127.1
 40
1.0
 50
216.869897645
 51
323.130102354
  0
ARC
  8
0
  6
CONTINUOUS
 62
     1
 10
146.45
 20
125.9
 40
1.0
 50
36.869897646
 51
143.130102354
  0
LINE
  8
0
  6
LTYPE1
 62
     2
 10
147.25
 20
176.5
 11
147.25
 21
121.5
  0
LINE
  8
0
  6
CONTINUOUS
 62
     1
 10
128.75
 20
171.5
 11
128.75
 21
159.5
  0
LINE
  8
0
  6
CONTINUOUS
 62
     1
 10
128.75
 20
159.5
 11
129.75
 21
146.5
  0
LINE
  8
0
  6
CONTINUOUS
 62
     1
 10
129.75
 20
146.5
 11
134.75
 21
146.5
  0
LINE
  8
0
  6
CONTINUOUS
 62
     1
 10
134.75
 20
146.5
 11
135.75
 21
159.5
  0
LINE
  8
0
  6
CONTINUOUS
 62
     1
 10
135.75
 20
159.5
 11
135.75
 21
171.5
  0
LINE
  8
0
  6
CONTINUOUS
 62
     1
 10
129.75
 20
159.5
 11
134.75
 21
159.5
  0
LINE
  8
0
  6
CONTINUOUS
 62
     1
 10
130.65
 20
146.5
 11
130.65
 21
126.5
  0
LINE
  8
0
  6
CONTINUOUS
 62
     1
 10
133.85
 20
146.5
 11
133.85
 21
126.5
  0
ARC
  8
0
  6
CONTINUOUS
 62
     1
 10
131.45
 20
127.1
 40
1.0
 50
216.869897646
 51
323.130102354
  0
ARC
  8
0
  6
CONTINUOUS
 62
     1
 10
133.05
 20
127.1
 40
1.0
 50
216.869897645
 51
323.130102354
  0
ARC
  8
0
  6
CONTINUOUS
 62
     1
 10
131.45
 20
125.9
 40
1.0
 50
36.869897646
 51
143.130102354
  0
LINE
  8
0
  6
LTYPE1
 62
     2
 10
132.25
 20
176.5
 11
132.25
 21
121.5
  0
CIRCLE
  8
0
  6
CONTINUOUS
 62
     1
 10
111.5
 20
175.5
 40
2.25
  0
LINE
  8
0
  6
LTYPE1
 62
     2
 10
116.5
 20
175.5
 11
106.5
 21
175.5
  0
LINE
  8
0
  6
LTYPE1
 62
     2
 10
111.5
 20
180.5
 11
111.5
 21
170.5
  0
CIRCLE
  8
0
  6
CONTINUOUS
 62
     1
 10
147.5
 20
204.5
 40
2.25
  0
LINE
  8
0
  6
LTYPE1
 62
     2
 10
152.5
 20
204.5
 11
142.5
 21
204.5
  0
LINE
  8
0
  6
LTYPE1
 62
     2
 10
147.5
 20
209.5
 11
147.5
 21
199.5
  0
LINE
  8
4
  6
CONTINUOUS
 62
     2
 10
152.5
 20
204.5
 11
167.5
 21
204.5
  0
LINE
  8
4
  6
CONTINUOUS
 62
     2
 10
166.5
 20
204.5
 11
165.852952387
 21
202.085185434
  0
LINE
  8
4
  6
CONTINUOUS
 62
     2
 10
166.5
 20
204.5
 11
167.147047613
 21
202.085185434
  0
LINE
  8
4
  6
CONTINUOUS
 62
     2
 10
166.5
 20
204.5
 11
166.5
 21
175.5
  0
LINE
  8
4
  6
CONTINUOUS
 62
     2
 10
166.5
 20
175.5
 11
167.147047613
 21
177.914814566
  0
LINE
  8
4
  6
CONTINUOUS
 62
     2
 10
166.5
 20
175.5
 11
165.852952387
 21
177.914814566
  0
LINE
  8
4
  6
CONTINUOUS
 62
     2
 10
116.5
 20
175.5
 11
167.5
 21
175.5
  0
TEXT
  8
4
  6
CONTINUOUS
 62
     5
 10
165.5
 20
186.45
 30
0.1
 40
4.0
  1
２９
 50
90.0
 41
0.875
 51
0.0
  7
KANJI4
  0
LINE
  8
4
  6
CONTINUOUS
 62
     2
 10
152.5
 20
171.5
 11
177.5
 21
171.5
  0
LINE
  8
4
  6
CONTINUOUS
 62
     2
 10
176.5
 20
171.5
 11
177.147047613
 21
173.914814566
  0
LINE
  8
4
  6
CONTINUOUS
 62
     2
 10
176.5
 20
171.5
 11
175.852952387
 21
173.914814566
  0
LINE
  8
4
  6
CONTINUOUS
 62
     2
 10
176.5
 20
171.5
 11
176.5
 21
208.5
  0
LINE
  8
4
  6
CONTINUOUS
 62
     2
 10
176.5
 20
208.5
 11
175.852952387
 21
206.085185434
  0
LINE
  8
4
  6
CONTINUOUS
 62
     2
 10
176.5
 20
208.5
 11
177.147047613
 21
206.085185434
  0
LINE
  8
4
  6
CONTINUOUS
 62
     2
 10
152.5
 20
208.5
 11
177.5
 21
208.5
  0
TEXT
  8
4
  6
CONTINUOUS
 62
     5
 10
175.5
 20
186.45
 30
0.1
 40
4.0
  1
３７
 50
90.0
 41
0.875
 51
0.0
  7
KANJI4
  0
LINE
  8
4
  6
CONTINUOUS
 62
     2
 10
147.5
 20
209.5
 11
147.5
 21
219.5
  0
LINE
  8
4
  6
CONTINUOUS
 62
     2
 10
147.5
 20
218.5
 11
145.085185434
 21
219.147047613
  0
LINE
  8
4
  6
CONTINUOUS
 62
     2
 10
147.5
 20
218.5
 11
145.085185434
 21
217.852952387
  0
LINE
  8
4
  6
CONTINUOUS
 62
     2
 10
147.5
 20
218.5
 11
111.5
 21
218.5
  0
LINE
  8
4
  6
CONTINUOUS
 62
     2
 10
111.5
 20
218.5
 11
113.914814566
 21
217.852952387
  0
LINE
  8
4
  6
CONTINUOUS
 62
     2
 10
111.5
 20
218.5
 11
113.914814566
 21
219.147047613
  0
LINE
  8
4
  6
CONTINUOUS
 62
     2
 10
111.5
 20
180.5
 11
111.5
 21
219.5
  0
TEXT
  8
4
  6
CONTINUOUS
 62
     5
 10
125.95
 20
219.5
 30
0.1
 40
4.0
  1
３６
 50
0.0
 41
0.875
 51
0.0
  7
KANJI4
  0
LINE
  8
4
  6
CONTINUOUS
 62
     2
 10
151.5
 20
209.5
 11
151.5
 21
229.5
  0
LINE
  8
4
  6
CONTINUOUS
 62
     2
 10
151.5
 20
228.5
 11
149.085185434
 21
229.147047613
  0
LINE
  8
4
  6
CONTINUOUS
 62
     2
 10
151.5
 20
228.5
 11
149.085185434
 21
227.852952387
  0
LINE
  8
4
  6
CONTINUOUS
 62
     2
 10
151.5
 20
228.5
 11
107.5
 21
228.5
  0
LINE
  8
4
  6
CONTINUOUS
 62
     2
 10
107.5
 20
228.5
 11
109.914814566
 21
227.852952387
  0
LINE
  8
4
  6
CONTINUOUS
 62
     2
 10
107.5
 20
228.5
 11
109.914814566
 21
229.147047613
  0
LINE
  8
4
  6
CONTINUOUS
 62
     2
 10
107.5
 20
209.5
 11
107.5
 21
229.5
  0
TEXT
  8
4
  6
CONTINUOUS
 62
     5
 10
125.95
 20
229.5
 30
0.1
 40
4.0
  1
４４
 50
0.0
 41
0.875
 51
0.0
  7
KANJI4
  0
LINE
  8
4
  6
CONTINUOUS
 62
     2
 10
150.75
 20
146.5
 11
177.5
 21
146.5
  0
LINE
  8
4
  6
CONTINUOUS
 62
     2
 10
176.5
 20
146.5
 11
177.147047613
 21
148.914814566
  0
LINE
  8
4
  6
CONTINUOUS
 62
     2
 10
176.5
 20
146.5
 11
175.852952387
 21
148.914814566
  0
LINE
  8
4
  6
CONTINUOUS
 62
     2
 10
176.5
 20
146.5
 11
176.5
 21
171.5
  0
LINE
  8
4
  6
CONTINUOUS
 62
     2
 10
176.5
 20
171.5
 11
175.852952387
 21
169.085185434
  0
LINE
  8
4
  6
CONTINUOUS
 62
     2
 10
176.5
 20
171.5
 11
177.147047613
 21
169.085185434
  0
TEXT
  8
4
  6
CONTINUOUS
 62
     5
 10
175.5
 20
155.45
 30
0.1
 40
4.0
  1
２５
 50
90.0
 41
0.875
 51
0.0
  7
KANJI4
  0
LINE
  8
4
  6
CONTINUOUS
 62
     2
 10
132.25
 20
111.5
 11
134.664814566
 21
110.852952387
  0
LINE
  8
4
  6
CONTINUOUS
 62
     2
 10
132.25
 20
111.5
 11
134.664814566
 21
112.147047613
  0
LINE
  8
4
  6
CONTINUOUS
 62
     2
 10
132.25
 20
111.5
 11
147.25
 21
111.5
  0
LINE
  8
4
  6
CONTINUOUS
 62
     2
 10
147.25
 20
111.5
 11
144.835185434
 21
112.147047613
  0
LINE
  8
4
  6
CONTINUOUS
 62
     2
 10
147.25
 20
111.5
 11
144.835185434
 21
110.852952387
  0
LINE
  8
4
  6
CONTINUOUS
 62
     2
 10
147.25
 20
121.5
 11
147.25
 21
110.5
  0
TEXT
  8
4
  6
CONTINUOUS
 62
     5
 10
136.2
 20
112.5
 30
0.1
 40
4.0
  1
１５
 50
0.0
 41
0.875
 51
0.0
  7
KANJI4
  0
POLYLINE
  8
4
  6
CONTINUOUS
 62
     2
 66
     1
  0
VERTEX
  8
4
  6
CONTINUOUS
 62
     2
 10
147.25
 20
111.5
  0
VERTEX
  8
4
  6
CONTINUOUS
 62
     2
 10
151.5
 20
111.5
  0
VERTEX
  8
4
  6
CONTINUOUS
 62
     2
 10
169.55
 20
111.5
  0
SEQEND
  0
LINE
  8
4
  6
CONTINUOUS
 62
     2
 10
151.5
 20
111.5
 11
153.914814566
 21
110.852952387
  0
LINE
  8
4
  6
CONTINUOUS
 62
     2
 10
151.5
 20
111.5
 11
153.914814566
 21
112.147047613
  0
LINE
  8
4
  6
CONTINUOUS
 62
     2
 10
151.5
 20
170.5
 11
151.5
 21
110.5
  0
TEXT
  8
4
  6
CONTINUOUS
 62
     5
 10
155.25
 20
112.5
 30
0.1
 40
4.0
  1
４．２５
 50
0.0
 41
0.875
 51
0.0
  7
KANJI4
  0
LINE
  8
4
  6
CONTINUOUS
 62
     2
 10
148.50623059
 20
206.51246118
 11
150.164905473
 21
208.382968499
  0
LINE
  8
4
  6
CONTINUOUS
 62
     2
 10
148.50623059
 20
206.51246118
 11
149.007431516
 21
208.961705478
  0
LINE
  8
4
  6
CONTINUOUS
 62
     2
 10
148.50623059
 20
206.51246118
 11
157.5
 21
224.5
  0
LINE
  8
4
  6
CONTINUOUS
 62
     2
 10
157.5
 20
224.5
 11
179.0
 21
224.5
  0
TEXT
  8
4
  6
CONTINUOUS
 62
     5
 10
157.5
 20
225.5
 30
0.1
 40
4.0
  1
２－φ４．５
 50
0.0
 41
0.875
 51
0.0
  7
KANJI4
  0
LINE
  8
0
  6
CONTINUOUS
 62
     1
 10
112.75
 20
171.5
 11
112.75
 21
159.5
  0
LINE
  8
0
  6
CONTINUOUS
 62
     1
 10
112.75
 20
159.5
 11
113.75
 21
146.5
  0
LINE
  8
0
  6
CONTINUOUS
 62
     1
 10
113.75
 20
146.5
 11
118.75
 21
146.5
  0
LINE
  8
0
  6
CONTINUOUS
 62
     1
 10
118.75
 20
146.5
 11
119.75
 21
159.5
  0
LINE
  8
0
  6
CONTINUOUS
 62
     1
 10
119.75
 20
159.5
 11
119.75
 21
171.5
  0
LINE
  8
0
  6
CONTINUOUS
 62
     1
 10
113.75
 20
159.5
 11
118.75
 21
159.5
  0
LINE
  8
0
  6
CONTINUOUS
 62
     1
 10
114.65
 20
146.5
 11
114.65
 21
126.5
  0
LINE
  8
0
  6
CONTINUOUS
 62
     1
 10
117.85
 20
146.5
 11
117.85
 21
126.5
  0
ARC
  8
0
  6
CONTINUOUS
 62
     1
 10
115.45
 20
127.1
 40
1.0
 50
216.869897646
 51
323.130102354
  0
ARC
  8
0
  6
CONTINUOUS
 62
     1
 10
117.05
 20
127.1
 40
1.0
 50
216.869897645
 51
323.130102354
  0
ARC
  8
0
  6
CONTINUOUS
 62
     1
 10
115.45
 20
125.9
 40
1.0
 50
36.869897646
 51
143.130102354
  0
LINE
  8
0
  6
LTYPE1
 62
     2
 10
116.25
 20
176.5
 11
116.25
 21
121.5
  0
LINE
  8
4
  6
CONTINUOUS
 62
     2
 10
116.25
 20
121.5
 11
116.25
 21
110.5
  0
LINE
  8
4
  6
CONTINUOUS
 62
     2
 10
116.25
 20
111.5
 11
118.664814566
 21
110.852952387
  0
LINE
  8
4
  6
CONTINUOUS
 62
     2
 10
116.25
 20
111.5
 11
118.664814566
 21
112.147047613
  0
LINE
  8
4
  6
CONTINUOUS
 62
     2
 10
116.25
 20
111.5
 11
132.25
 21
111.5
  0
LINE
  8
4
  6
CONTINUOUS
 62
     2
 10
132.25
 20
111.5
 11
129.835185434
 21
112.147047613
  0
LINE
  8
4
  6
CONTINUOUS
 62
     2
 10
132.25
 20
111.5
 11
129.835185434
 21
110.852952387
  0
LINE
  8
4
  6
CONTINUOUS
 62
     2
 10
132.25
 20
121.5
 11
132.25
 21
110.5
  0
TEXT
  8
4
  6
CONTINUOUS
 62
     5
 10
120.7
 20
112.5
 30
0.1
 40
4.0
  1
１６
 50
0.0
 41
0.875
 51
0.0
  7
KANJI4
  0
POLYLINE
  8
0
  6
CONTINUOUS
 62
     1
 66
     1
 70
     1
  0
VERTEX
  8
0
  6
CONTINUOUS
 62
     1
 10
67.5
 20
171.5
  0
VERTEX
  8
0
  6
CONTINUOUS
 62
     1
 10
47.5
 20
171.5
  0
VERTEX
  8
0
  6
CONTINUOUS
 62
     1
 10
47.5
 20
208.5
  0
VERTEX
  8
0
  6
CONTINUOUS
 62
     1
 10
67.5
 20
208.5
  0
SEQEND
  0
LINE
  8
0
  6
CONTINUOUS
 62
     1
 10
55.5
 20
171.5
 11
55.5
 21
159.5
  0
LINE
  8
0
  6
CONTINUOUS
 62
     1
 10
55.5
 20
159.5
 11
54.5
 21
146.5
  0
LINE
  8
0
  6
CONTINUOUS
 62
     1
 10
54.5
 20
146.5
 11
49.5
 21
146.5
  0
LINE
  8
0
  6
CONTINUOUS
 62
     1
 10
49.5
 20
146.5
 11
48.5
 21
159.5
  0
LINE
  8
0
  6
CONTINUOUS
 62
     1
 10
48.5
 20
159.5
 11
48.5
 21
171.5
  0
LINE
  8
0
  6
CONTINUOUS
 62
     1
 10
54.5
 20
159.5
 11
49.5
 21
159.5
  0
LINE
  8
0
  6
CONTINUOUS
 62
     1
 10
53.6
 20
146.5
 11
53.6
 21
126.5
  0
LINE
  8
0
  6
CONTINUOUS
 62
     1
 10
50.4
 20
146.5
 11
50.4
 21
126.5
  0
LINE
  8
0
  6
LTYPE1
 62
     2
 10
52.0
 20
176.5
 11
52.0
 21
121.5
  0
LINE
  8
4
  6
CONTINUOUS
 62
     2
 10
47.5
 20
170.5
 11
47.5
 21
110.5
  0
LINE
  8
4
  6
CONTINUOUS
 62
     2
 10
47.5
 20
111.5
 11
45.085185434
 21
112.147047613
  0
LINE
  8
4
  6
CONTINUOUS
 62
     2
 10
47.5
 20
111.5
 11
45.085185434
 21
110.852952387
  0
LINE
  8
4
  6
CONTINUOUS
 62
     2
 10
43.75
 20
111.5
 11
47.5
 21
111.5
  0
LINE
  8
4
  6
CONTINUOUS
 62
     2
 10
47.5
 20
111.5
 11
52.0
 21
111.5
  0
LINE
  8
4
  6
CONTINUOUS
 62
     2
 10
52.0
 20
111.5
 11
66.45
 21
111.5
  0
LINE
  8
4
  6
CONTINUOUS
 62
     2
 10
52.0
 20
111.5
 11
54.414814566
 21
110.852952387
  0
LINE
  8
4
  6
CONTINUOUS
 62
     2
 10
52.0
 20
111.5
 11
54.414814566
 21
112.147047613
  0
LINE
  8
4
  6
CONTINUOUS
 62
     2
 10
52.0
 20
121.5
 11
52.0
 21
110.5
  0
TEXT
  8
4
  6
CONTINUOUS
 62
     5
 10
55.75
 20
112.5
 30
0.1
 40
4.0
  1
４．５
 50
0.0
 41
0.875
 51
0.0
  7
KANJI4
  0
LINE
  8
4
  6
CONTINUOUS
 62
     2
 10
67.5
 20
209.5
 11
67.5
 21
219.5
  0
LINE
  8
4
  6
CONTINUOUS
 62
     2
 10
67.5
 20
218.5
 11
65.085185434
 21
219.147047613
  0
LINE
  8
4
  6
CONTINUOUS
 62
     2
 10
67.5
 20
218.5
 11
65.085185434
 21
217.852952387
  0
LINE
  8
4
  6
CONTINUOUS
 62
     2
 10
67.5
 20
218.5
 11
47.5
 21
218.5
  0
LINE
  8
4
  6
CONTINUOUS
 62
     2
 10
47.5
 20
218.5
 11
49.914814566
 21
217.852952387
  0
LINE
  8
4
  6
CONTINUOUS
 62
     2
 10
47.5
 20
218.5
 11
49.914814566
 21
219.147047613
  0
LINE
  8
4
  6
CONTINUOUS
 62
     2
 10
47.5
 20
209.5
 11
47.5
 21
219.5
  0
TEXT
  8
4
  6
CONTINUOUS
 62
     5
 10
53.95
 20
219.5
 30
0.1
 40
4.0
  1
２０
 50
0.0
 41
0.875
 51
0.0
  7
KANJI4
  0
LINE
  8
4
  6
CONTINUOUS
 62
     2
 10
119.0
 20
243.5
 11
121.897777479
 21
242.723542865
  0
LINE
  8
4
  6
CONTINUOUS
 62
     2
 10
119.0
 20
243.5
 11
121.897777479
 21
244.276457135
  0
LINE
  8
4
  6
CONTINUOUS
 62
     2
 10
119.0
 20
243.5
 11
141.0
 21
243.5
  0
LINE
  8
4
  6
CONTINUOUS
 62
     2
 10
141.0
 20
243.5
 11
138.102222521
 21
242.723542865
  0
LINE
  8
4
  6
CONTINUOUS
 62
     2
 10
141.0
 20
243.5
 11
138.102222521
 21
244.276457135
  0
TEXT
  8
4
  6
CONTINUOUS
 62
     5
 10
134.5
 20
238.5
 30
0.0
 40
4.0
  1
（＋）
 50
0.0
 41
0.875
 51
0.0
  7
KANJI2
  0
TEXT
  8
4
  6
CONTINUOUS
 62
     5
 10
115.0
 20
238.5
 30
0.0
 40
4.0
  1
（－）
 50
0.0
 41
0.875
 51
0.0
  7
KANJI2
  0
TEXT
  8
4
  6
CONTINUOUS
 62
     5
 10
119.25
 20
244.5
 30
0.0
 40
4.0
  1
負荷方向（Ｘ）
 50
0.0
 41
0.875
 51
0.0
  7
KANJI2
  0
LINE
  8
4
  6
CONTINUOUS
 62
     2
 10
46.5
 20
243.5
 11
49.397777479
 21
242.723542865
  0
LINE
  8
4
  6
CONTINUOUS
 62
     2
 10
46.5
 20
243.5
 11
49.397777479
 21
244.276457135
  0
LINE
  8
4
  6
CONTINUOUS
 62
     2
 10
46.5
 20
243.5
 11
68.5
 21
243.5
  0
LINE
  8
4
  6
CONTINUOUS
 62
     2
 10
68.5
 20
243.5
 11
65.602222521
 21
242.723542865
  0
LINE
  8
4
  6
CONTINUOUS
 62
     2
 10
68.5
 20
243.5
 11
65.602222521
 21
244.276457135
  0
TEXT
  8
4
  6
CONTINUOUS
 62
     5
 10
62.0
 20
238.5
 30
0.0
 40
4.0
  1
（＋）
 50
0.0
 41
0.875
 51
0.0
  7
KANJI2
  0
TEXT
  8
4
  6
CONTINUOUS
 62
     5
 10
42.5
 20
238.5
 30
0.0
 40
4.0
  1
（－）
 50
0.0
 41
0.875
 51
0.0
  7
KANJI2
  0
TEXT
  8
4
  6
CONTINUOUS
 62
     5
 10
46.75
 20
244.5
 30
0.0
 40
4.0
  1
負荷方向（Ｚ）
 50
0.0
 41
0.875
 51
0.0
  7
KANJI2
  0
LINE
  8
4
  6
CONTINUOUS
 62
     2
 10
77.5
 20
195.0
 11
78.276457135
 21
192.102222521
  0
LINE
  8
4
  6
CONTINUOUS
 62
     2
 10
77.5
 20
195.0
 11
76.723542865
 21
192.102222521
  0
LINE
  8
4
  6
CONTINUOUS
 62
     2
 10
77.5
 20
195.0
 11
77.5
 21
185.0
  0
LINE
  8
4
  6
CONTINUOUS
 62
     2
 10
77.5
 20
185.0
 11
76.723542865
 21
187.897777479
  0
LINE
  8
4
  6
CONTINUOUS
 62
     2
 10
77.5
 20
185.0
 11
78.276457135
 21
187.897777479
  0
TEXT
  8
4
  6
CONTINUOUS
 62
     5
 10
72.3
 20
180.2
 30
0.0
 40
4.0
  1
（－）
 50
0.0
 41
0.875
 51
0.0
  7
KANJI2
  0
TEXT
  8
4
  6
CONTINUOUS
 62
     5
 10
72.3
 20
196.2
 30
0.0
 40
4.0
  1
（＋）
 50
0.0
 41
0.875
 51
0.0
  7
KANJI2
  0
TEXT
  8
4
  6
CONTINUOUS
 62
     5
 10
80.5
 20
190.5
 30
0.0
 40
4.0
  1
感度方向
 50
0.0
 41
0.875
 51
0.0
  7
KANJI2
  0
TEXT
  8
4
  6
CONTINUOUS
 62
     5
 10
82.25
 20
186.0
 30
0.0
 40
4.0
  1
（Ｙ）
 50
0.0
 41
0.875
 51
0.0
  7
KANJI2
  0
ARC
  8
0
  6
CONTINUOUS
 62
     1
 10
51.2
 20
127.1
 40
1.0
 50
216.869897646
 51
323.130102354
  0
ARC
  8
0
  6
CONTINUOUS
 62
     1
 10
52.8
 20
127.1
 40
1.0
 50
216.869897645
 51
323.130102354
  0
ARC
  8
0
  6
CONTINUOUS
 62
     1
 10
51.2
 20
125.9
 40
1.0
 50
36.869897646
 51
143.130102354
  0
ENDSEC
  0
EOF
