  0
SECTION
  2
HEADER
  9
$EXTMIN
 10
0.0
 20
0.0
 30
0.0
  9
$EXTMAX
 10
210.0
 20
297.0
 30
0.0
  9
$LIMMIN
 10
0.0
 20
0.0
  9
$LIMMAX
 10
210.0
 20
297.0
  9
$LTSCALE
 40
1.0
  9
$PDMODE
 70
     0
  0
ENDSEC
  0
SECTION
  2
TABLES
  0
TABLE
  2
LTYPE
 70
     2
  0
LTYPE
  2
CONTINUOUS
 70
    64
  3
Solid line
 72
    65
 73
     0
 40
0.0
  0
LTYPE
  2
LTYPE1
 70
    64
  3
CENTER
 72
    65
 73
     4
 40
10.0
 49
7.0
 49
-1.0
 49
1.0
 49
-1.0
  0
ENDTAB
  0
TABLE
  2
LAYER
 70
   128
  0
LAYER
  2
0
 70
     0
 62
     7
  6
CONTINUOUS
  0
LAYER
  2
2
 70
     0
 62
     7
  6
CONTINUOUS
  0
LAYER
  2
3
 70
     0
 62
     7
  6
CONTINUOUS
  0
LAYER
  2
4
 70
     0
 62
     7
  6
CONTINUOUS
  0
LAYER
  2
5
 70
     0
 62
     7
  6
CONTINUOUS
  0
LAYER
  2
6
 70
     0
 62
     7
  6
CONTINUOUS
  0
LAYER
  2
7
 70
     0
 62
     7
  6
CONTINUOUS
  0
LAYER
  2
8
 70
     0
 62
     7
  6
CONTINUOUS
  0
LAYER
  2
9
 70
     0
 62
     7
  6
CONTINUOUS
  0
LAYER
  2
10
 70
     0
 62
     7
  6
CONTINUOUS
  0
LAYER
  2
11
 70
     0
 62
     7
  6
CONTINUOUS
  0
LAYER
  2
12
 70
     0
 62
     7
  6
CONTINUOUS
  0
LAYER
  2
13
 70
     0
 62
     7
  6
CONTINUOUS
  0
LAYER
  2
14
 70
     0
 62
     7
  6
CONTINUOUS
  0
LAYER
  2
15
 70
     0
 62
     7
  6
CONTINUOUS
  0
LAYER
  2
16
 70
     0
 62
     7
  6
CONTINUOUS
  0
LAYER
  2
17
 70
     0
 62
     7
  6
CONTINUOUS
  0
LAYER
  2
18
 70
     0
 62
     7
  6
CONTINUOUS
  0
LAYER
  2
19
 70
     0
 62
     7
  6
CONTINUOUS
  0
LAYER
  2
20
 70
     0
 62
     7
  6
CONTINUOUS
  0
LAYER
  2
21
 70
     0
 62
     7
  6
CONTINUOUS
  0
LAYER
  2
22
 70
     0
 62
     7
  6
CONTINUOUS
  0
LAYER
  2
23
 70
     0
 62
     7
  6
CONTINUOUS
  0
LAYER
  2
24
 70
     0
 62
     7
  6
CONTINUOUS
  0
LAYER
  2
25
 70
     0
 62
     7
  6
CONTINUOUS
  0
LAYER
  2
26
 70
     0
 62
     7
  6
CONTINUOUS
  0
LAYER
  2
27
 70
     0
 62
     7
  6
CONTINUOUS
  0
LAYER
  2
28
 70
     0
 62
     7
  6
CONTINUOUS
  0
LAYER
  2
29
 70
     0
 62
     7
  6
CONTINUOUS
  0
LAYER
  2
30
 70
     0
 62
     7
  6
CONTINUOUS
  0
LAYER
  2
31
 70
     0
 62
     7
  6
CONTINUOUS
  0
LAYER
  2
32
 70
     0
 62
     7
  6
CONTINUOUS
  0
LAYER
  2
33
 70
     0
 62
     7
  6
CONTINUOUS
  0
LAYER
  2
34
 70
     0
 62
     7
  6
CONTINUOUS
  0
LAYER
  2
35
 70
     0
 62
     7
  6
CONTINUOUS
  0
LAYER
  2
36
 70
     0
 62
     7
  6
CONTINUOUS
  0
LAYER
  2
37
 70
     0
 62
     7
  6
CONTINUOUS
  0
LAYER
  2
38
 70
     0
 62
     7
  6
CONTINUOUS
  0
LAYER
  2
39
 70
     0
 62
     7
  6
CONTINUOUS
  0
LAYER
  2
40
 70
     0
 62
     7
  6
CONTINUOUS
  0
LAYER
  2
41
 70
     0
 62
     7
  6
CONTINUOUS
  0
LAYER
  2
42
 70
     0
 62
     7
  6
CONTINUOUS
  0
LAYER
  2
43
 70
     0
 62
     7
  6
CONTINUOUS
  0
LAYER
  2
44
 70
     0
 62
     7
  6
CONTINUOUS
  0
LAYER
  2
45
 70
     0
 62
     7
  6
CONTINUOUS
  0
LAYER
  2
46
 70
     0
 62
     7
  6
CONTINUOUS
  0
LAYER
  2
47
 70
     0
 62
     7
  6
CONTINUOUS
  0
LAYER
  2
48
 70
     0
 62
     7
  6
CONTINUOUS
  0
LAYER
  2
49
 70
     0
 62
     7
  6
CONTINUOUS
  0
LAYER
  2
50
 70
     0
 62
     7
  6
CONTINUOUS
  0
LAYER
  2
51
 70
     0
 62
     7
  6
CONTINUOUS
  0
LAYER
  2
52
 70
     0
 62
     7
  6
CONTINUOUS
  0
LAYER
  2
53
 70
     0
 62
     7
  6
CONTINUOUS
  0
LAYER
  2
54
 70
     0
 62
     7
  6
CONTINUOUS
  0
LAYER
  2
55
 70
     0
 62
     7
  6
CONTINUOUS
  0
LAYER
  2
56
 70
     0
 62
     7
  6
CONTINUOUS
  0
LAYER
  2
57
 70
     0
 62
     7
  6
CONTINUOUS
  0
LAYER
  2
58
 70
     0
 62
     7
  6
CONTINUOUS
  0
LAYER
  2
59
 70
     0
 62
     7
  6
CONTINUOUS
  0
LAYER
  2
60
 70
     0
 62
     7
  6
CONTINUOUS
  0
LAYER
  2
61
 70
     0
 62
     7
  6
CONTINUOUS
  0
LAYER
  2
62
 70
     0
 62
     7
  6
CONTINUOUS
  0
LAYER
  2
63
 70
     0
 62
     7
  6
CONTINUOUS
  0
LAYER
  2
64
 70
     0
 62
     7
  6
CONTINUOUS
  0
LAYER
  2
65
 70
     0
 62
     7
  6
CONTINUOUS
  0
LAYER
  2
66
 70
     0
 62
     7
  6
CONTINUOUS
  0
LAYER
  2
67
 70
     0
 62
     7
  6
CONTINUOUS
  0
LAYER
  2
68
 70
     0
 62
     7
  6
CONTINUOUS
  0
LAYER
  2
69
 70
     0
 62
     7
  6
CONTINUOUS
  0
LAYER
  2
70
 70
     0
 62
     7
  6
CONTINUOUS
  0
LAYER
  2
71
 70
     0
 62
     7
  6
CONTINUOUS
  0
LAYER
  2
72
 70
     0
 62
     7
  6
CONTINUOUS
  0
LAYER
  2
73
 70
     0
 62
     7
  6
CONTINUOUS
  0
LAYER
  2
74
 70
     0
 62
     7
  6
CONTINUOUS
  0
LAYER
  2
75
 70
     0
 62
     7
  6
CONTINUOUS
  0
LAYER
  2
76
 70
     0
 62
     7
  6
CONTINUOUS
  0
LAYER
  2
77
 70
     0
 62
     7
  6
CONTINUOUS
  0
LAYER
  2
78
 70
     0
 62
     7
  6
CONTINUOUS
  0
LAYER
  2
79
 70
     0
 62
     7
  6
CONTINUOUS
  0
LAYER
  2
80
 70
     0
 62
     7
  6
CONTINUOUS
  0
LAYER
  2
81
 70
     0
 62
     7
  6
CONTINUOUS
  0
LAYER
  2
82
 70
     0
 62
     7
  6
CONTINUOUS
  0
LAYER
  2
83
 70
     0
 62
     7
  6
CONTINUOUS
  0
LAYER
  2
84
 70
     0
 62
     7
  6
CONTINUOUS
  0
LAYER
  2
85
 70
     0
 62
     7
  6
CONTINUOUS
  0
LAYER
  2
86
 70
     0
 62
     7
  6
CONTINUOUS
  0
LAYER
  2
87
 70
     0
 62
     7
  6
CONTINUOUS
  0
LAYER
  2
88
 70
     0
 62
     7
  6
CONTINUOUS
  0
LAYER
  2
89
 70
     0
 62
     7
  6
CONTINUOUS
  0
LAYER
  2
90
 70
     0
 62
     7
  6
CONTINUOUS
  0
LAYER
  2
91
 70
     0
 62
     7
  6
CONTINUOUS
  0
LAYER
  2
92
 70
     0
 62
     7
  6
CONTINUOUS
  0
LAYER
  2
93
 70
     0
 62
     7
  6
CONTINUOUS
  0
LAYER
  2
94
 70
     0
 62
     7
  6
CONTINUOUS
  0
LAYER
  2
95
 70
     0
 62
     7
  6
CONTINUOUS
  0
LAYER
  2
96
 70
     0
 62
     7
  6
CONTINUOUS
  0
LAYER
  2
97
 70
     0
 62
     7
  6
CONTINUOUS
  0
LAYER
  2
98
 70
     0
 62
     7
  6
CONTINUOUS
  0
LAYER
  2
99
 70
     0
 62
     7
  6
CONTINUOUS
  0
LAYER
  2
100
 70
     0
 62
     7
  6
CONTINUOUS
  0
LAYER
  2
101
 70
     0
 62
     7
  6
CONTINUOUS
  0
LAYER
  2
102
 70
     0
 62
     7
  6
CONTINUOUS
  0
LAYER
  2
103
 70
     0
 62
     7
  6
CONTINUOUS
  0
LAYER
  2
104
 70
     0
 62
     7
  6
CONTINUOUS
  0
LAYER
  2
105
 70
     0
 62
     7
  6
CONTINUOUS
  0
LAYER
  2
106
 70
     0
 62
     7
  6
CONTINUOUS
  0
LAYER
  2
107
 70
     0
 62
     7
  6
CONTINUOUS
  0
LAYER
  2
108
 70
     0
 62
     7
  6
CONTINUOUS
  0
LAYER
  2
109
 70
     0
 62
     7
  6
CONTINUOUS
  0
LAYER
  2
110
 70
     0
 62
     7
  6
CONTINUOUS
  0
LAYER
  2
111
 70
     0
 62
     7
  6
CONTINUOUS
  0
LAYER
  2
112
 70
     0
 62
     7
  6
CONTINUOUS
  0
LAYER
  2
113
 70
     0
 62
     7
  6
CONTINUOUS
  0
LAYER
  2
114
 70
     0
 62
     7
  6
CONTINUOUS
  0
LAYER
  2
115
 70
     0
 62
     7
  6
CONTINUOUS
  0
LAYER
  2
116
 70
     0
 62
     7
  6
CONTINUOUS
  0
LAYER
  2
117
 70
     0
 62
     7
  6
CONTINUOUS
  0
LAYER
  2
118
 70
     0
 62
     7
  6
CONTINUOUS
  0
LAYER
  2
119
 70
     0
 62
     7
  6
CONTINUOUS
  0
LAYER
  2
120
 70
     0
 62
     7
  6
CONTINUOUS
  0
LAYER
  2
121
 70
     0
 62
     7
  6
CONTINUOUS
  0
LAYER
  2
122
 70
     0
 62
     7
  6
CONTINUOUS
  0
LAYER
  2
123
 70
     0
 62
     7
  6
CONTINUOUS
  0
LAYER
  2
124
 70
     0
 62
     7
  6
CONTINUOUS
  0
LAYER
  2
125
 70
     0
 62
     7
  6
CONTINUOUS
  0
LAYER
  2
126
 70
     0
 62
     7
  6
CONTINUOUS
  0
LAYER
  2
127
 70
     0
 62
     7
  6
CONTINUOUS
  0
LAYER
  2
128
 70
     0
 62
     7
  6
CONTINUOUS
  0
ENDTAB
  0
TABLE
  2
STYLE
 70
     6
  0
STYLE
  2
STANDARD
 70
     0
 40
0.0
 41
1.0
 50
0.0
 71
     0
 42
0.2
  3
txt
  4

  0
STYLE
  2
KANJI0
 70
     0
 40
2.5
 41
1.0
 50
0.0
 71
     0
 42
2.5
  3

  4
bigfont
  0
STYLE
  2
KANJI1
 70
     0
 40
3.5
 41
1.0
 50
0.0
 71
     0
 42
3.5
  3

  4
bigfont
  0
STYLE
  2
KANJI2
 70
     0
 40
4.0
 41
0.875
 50
0.0
 71
     0
 42
4.0
  3

  4
bigfont
  0
STYLE
  2
KANJI3
 70
     0
 40
4.0
 41
0.875
 50
0.0
 71
     0
 42
4.0
  3

  4
bigfont
  0
STYLE
  2
KANJI4
 70
     0
 40
2.0
 41
0.875
 50
0.0
 71
     0
 42
2.0
  3

  4
bigfont
  0
ENDTAB
  0
TABLE
  2
VIEW
 70
     0
  0
ENDTAB
  0
ENDSEC
  0
SECTION
  2
BLOCKS
  0
ENDSEC
  0
SECTION
  2
ENTITIES
  0
LINE
  8
6
  6
CONTINUOUS
 62
     2
 10
181.0
 20
22.0
 11
181.0
 21
11.0
  0
TEXT
  8
6
  6
CONTINUOUS
 62
     4
 10
116.5
 20
18.0
 30
0.3
 40
2.5
  1
図番
 50
0.0
 41
1.0
 51
0.0
  7
KANJI0
  0
TEXT
  8
6
  6
CONTINUOUS
 62
     4
 10
116.5
 20
29.0
 30
0.3
 40
2.5
  1
名称
 50
0.0
 41
1.0
 51
0.0
  7
KANJI0
  0
LINE
  8
6
  6
CONTINUOUS
 62
     2
 10
115.5
 20
55.0
 11
115.5
 21
11.0
  0
TEXT
  8
6
  6
CONTINUOUS
 62
     4
 10
125.5
 20
51.0
 30
0.3
 40
2.5
  1
尺度
 50
0.0
 41
1.0
 51
0.0
  7
KANJI0
  0
LINE
  8
6
  6
CONTINUOUS
 62
     2
 10
138.0
 20
55.0
 11
138.0
 21
33.0
  0
LINE
  8
6
  6
CONTINUOUS
 62
     2
 10
138.0
 20
41.0
 11
115.5
 21
41.0
  0
LINE
  8
6
  6
CONTINUOUS
 62
     6
 10
19.5
 20
11.0
 11
198.0
 21
11.0
  0
LINE
  8
6
  6
CONTINUOUS
 62
     2
 10
115.5
 20
22.0
 11
198.0
 21
22.0
  0
LINE
  8
6
  6
CONTINUOUS
 62
     2
 10
115.5
 20
33.0
 11
198.0
 21
33.0
  0
LINE
  8
6
  6
CONTINUOUS
 62
     2
 10
198.0
 20
55.0
 11
115.5
 21
55.0
  0
LINE
  8
6
  6
CONTINUOUS
 62
     2
 10
115.5
 20
49.0
 11
198.0
 21
49.0
  0
LINE
  8
6
  6
CONTINUOUS
 62
     2
 10
158.0
 20
55.0
 11
158.0
 21
33.0
  0
LINE
  8
6
  6
CONTINUOUS
 62
     2
 10
178.0
 20
55.0
 11
178.0
 21
33.0
  0
TEXT
  8
6
  6
CONTINUOUS
 62
     4
 10
119.8
 20
35.5
 30
0.0
 40
3.5
  1
第三角法
 50
0.0
 41
1.0
 51
0.0
  7
KANJI1
  0
TEXT
  8
6
  6
CONTINUOUS
 62
     4
 10
145.4
 20
51.0
 30
0.3
 40
2.5
  1
承認
 50
0.0
 41
1.0
 51
0.0
  7
KANJI0
  0
TEXT
  8
6
  6
CONTINUOUS
 62
     4
 10
165.4
 20
51.0
 30
0.3
 40
2.5
  1
査閲
 50
0.0
 41
1.0
 51
0.0
  7
KANJI0
  0
TEXT
  8
6
  6
CONTINUOUS
 62
     4
 10
185.4
 20
51.0
 30
0.3
 40
2.5
  1
作成
 50
0.0
 41
1.0
 51
0.0
  7
KANJI0
  0
CIRCLE
  8
6
  6
CONTINUOUS
 62
     6
 10
128.0
 20
46.0
 40
0.2
  0
CIRCLE
  8
6
  6
CONTINUOUS
 62
     6
 10
128.0
 20
44.0
 40
0.2
  0
LINE
  8
6
  6
CONTINUOUS
 62
     6
 10
19.5
 20
282.0
 11
19.5
 21
11.0
  0
LINE
  8
6
  6
CONTINUOUS
 62
     2
 10
189.0
 20
282.0
 11
189.0
 21
270.0
  0
LINE
  8
6
  6
CONTINUOUS
 62
     2
 10
179.0
 20
282.0
 11
179.0
 21
270.0
  0
LINE
  8
6
  6
CONTINUOUS
 62
     2
 10
169.0
 20
282.0
 11
169.0
 21
270.0
  0
LINE
  8
6
  6
CONTINUOUS
 62
     2
 10
129.5
 20
282.0
 11
129.5
 21
270.0
  0
LINE
  8
6
  6
CONTINUOUS
 62
     2
 10
121.5
 20
282.0
 11
121.5
 21
270.0
  0
LINE
  8
6
  6
CONTINUOUS
 62
     2
 10
121.5
 20
276.0
 11
198.0
 21
276.0
  0
LINE
  8
6
  6
CONTINUOUS
 62
     2
 10
121.5
 20
270.0
 11
198.0
 21
270.0
  0
LINE
  8
6
  6
CONTINUOUS
 62
     6
 10
198.0
 20
282.0
 11
19.5
 21
282.0
  0
LINE
  8
6
  6
CONTINUOUS
 62
     6
 10
198.0
 20
11.0
 11
198.0
 21
282.0
  0
TEXT
  8
5
  6
CONTINUOUS
 62
     5
 10
122.5
 20
42.9
 30
0.0
 40
4.0
  1
１
 50
0.0
 41
0.875
 51
0.0
  7
KANJI2
  0
POINT
  8
13
  6
CONTINUOUS
 62
     4
 10
42.1
 20
54.5
  0
POLYLINE
  8
0
  6
CONTINUOUS
 62
     1
 66
     1
 70
     1
  0
VERTEX
  8
0
  6
CONTINUOUS
 62
     1
 10
31.5
 20
149.0
  0
VERTEX
  8
0
  6
CONTINUOUS
 62
     1
 10
60.0
 20
149.0
  0
VERTEX
  8
0
  6
CONTINUOUS
 62
     1
 10
60.0
 20
191.0
  0
VERTEX
  8
0
  6
CONTINUOUS
 62
     1
 10
31.5
 20
191.0
  0
SEQEND
  0
LINE
  8
0
  6
CONTINUOUS
 62
     1
 10
35.5
 20
191.0
 11
35.5
 21
149.0
  0
LINE
  8
0
  6
CONTINUOUS
 62
     1
 10
31.6
 20
149.0
 11
31.6
 21
137.0
  0
LINE
  8
0
  6
CONTINUOUS
 62
     1
 10
31.6
 20
137.0
 11
32.6
 21
124.0
  0
LINE
  8
0
  6
CONTINUOUS
 62
     1
 10
32.6
 20
124.0
 11
37.6
 21
124.0
  0
LINE
  8
0
  6
CONTINUOUS
 62
     1
 10
37.6
 20
124.0
 11
38.6
 21
137.0
  0
LINE
  8
0
  6
CONTINUOUS
 62
     1
 10
38.6
 20
137.0
 11
38.6
 21
149.0
  0
LINE
  8
0
  6
CONTINUOUS
 62
     1
 10
32.6
 20
137.0
 11
37.6
 21
137.0
  0
LINE
  8
4
  6
CONTINUOUS
 62
     2
 10
31.5
 20
192.0
 11
31.5
 21
202.0
  0
LINE
  8
4
  6
CONTINUOUS
 62
     2
 10
31.5
 20
201.0
 11
29.085185434
 21
201.647047613
  0
LINE
  8
4
  6
CONTINUOUS
 62
     2
 10
31.5
 20
201.0
 11
29.085185434
 21
200.352952387
  0
LINE
  8
4
  6
CONTINUOUS
 62
     2
 10
27.75
 20
201.0
 11
31.5
 21
201.0
  0
LINE
  8
4
  6
CONTINUOUS
 62
     2
 10
31.5
 20
201.0
 11
35.5
 21
201.0
  0
LINE
  8
4
  6
CONTINUOUS
 62
     2
 10
35.5
 20
201.0
 11
39.25
 21
201.0
  0
LINE
  8
4
  6
CONTINUOUS
 62
     2
 10
35.5
 20
201.0
 11
37.914814566
 21
200.352952387
  0
LINE
  8
4
  6
CONTINUOUS
 62
     2
 10
35.5
 20
201.0
 11
37.914814566
 21
201.647047613
  0
LINE
  8
4
  6
CONTINUOUS
 62
     2
 10
35.5
 20
192.0
 11
35.5
 21
202.0
  0
TEXT
  8
4
  6
CONTINUOUS
 62
     5
 10
31.75
 20
202.0
 30
0.1
 40
4.0
  1
４
 50
0.0
 41
0.875
 51
0.0
  7
KANJI3
  0
LINE
  8
4
  6
CONTINUOUS
 62
     2
 10
31.5
 20
202.0
 11
31.5
 21
212.0
  0
LINE
  8
4
  6
CONTINUOUS
 62
     2
 10
31.5
 20
211.0
 11
33.914814566
 21
210.352952387
  0
LINE
  8
4
  6
CONTINUOUS
 62
     2
 10
31.5
 20
211.0
 11
33.914814566
 21
211.647047613
  0
LINE
  8
4
  6
CONTINUOUS
 62
     2
 10
31.5
 20
211.0
 11
60.0
 21
211.0
  0
LINE
  8
4
  6
CONTINUOUS
 62
     2
 10
60.0
 20
211.0
 11
57.585185434
 21
211.647047613
  0
LINE
  8
4
  6
CONTINUOUS
 62
     2
 10
60.0
 20
211.0
 11
57.585185434
 21
210.352952387
  0
LINE
  8
4
  6
CONTINUOUS
 62
     2
 10
60.0
 20
192.0
 11
60.0
 21
212.0
  0
TEXT
  8
4
  6
CONTINUOUS
 62
     5
 10
38.6
 20
212.0
 30
0.1
 40
4.0
  1
２８．５
 50
0.0
 41
0.875
 51
0.0
  7
KANJI3
  0
LINE
  8
4
  6
CONTINUOUS
 62
     2
 10
34.75
 20
236.0
 11
37.647777479
 21
235.223542865
  0
LINE
  8
4
  6
CONTINUOUS
 62
     2
 10
34.75
 20
236.0
 11
37.647777479
 21
236.776457135
  0
LINE
  8
4
  6
CONTINUOUS
 62
     2
 10
34.75
 20
236.0
 11
56.75
 21
236.0
  0
LINE
  8
4
  6
CONTINUOUS
 62
     2
 10
56.75
 20
236.0
 11
53.852222521
 21
235.223542865
  0
LINE
  8
4
  6
CONTINUOUS
 62
     2
 10
56.75
 20
236.0
 11
53.852222521
 21
236.776457135
  0
TEXT
  8
4
  6
CONTINUOUS
 62
     5
 10
50.25
 20
231.0
 30
0.0
 40
4.0
  1
（＋）
 50
0.0
 41
0.875
 51
0.0
  7
KANJI2
  0
TEXT
  8
4
  6
CONTINUOUS
 62
     5
 10
30.75
 20
231.0
 30
0.0
 40
4.0
  1
（－）
 50
0.0
 41
0.875
 51
0.0
  7
KANJI2
  0
TEXT
  8
4
  6
CONTINUOUS
 62
     5
 10
35.0
 20
237.0
 30
0.0
 40
4.0
  1
負荷方向（Ｚ）
 50
0.0
 41
0.875
 51
0.0
  7
KANJI2
  0
LINE
  8
4
  6
CONTINUOUS
 62
     2
 10
70.0
 20
175.0
 11
70.776457135
 21
172.102222521
  0
LINE
  8
4
  6
CONTINUOUS
 62
     2
 10
70.0
 20
175.0
 11
69.223542865
 21
172.102222521
  0
LINE
  8
4
  6
CONTINUOUS
 62
     2
 10
70.0
 20
175.0
 11
70.0
 21
165.0
  0
LINE
  8
4
  6
CONTINUOUS
 62
     2
 10
70.0
 20
165.0
 11
69.223542865
 21
167.897777479
  0
LINE
  8
4
  6
CONTINUOUS
 62
     2
 10
70.0
 20
165.0
 11
70.776457135
 21
167.897777479
  0
TEXT
  8
4
  6
CONTINUOUS
 62
     5
 10
64.8
 20
160.2
 30
0.0
 40
4.0
  1
（－）
 50
0.0
 41
0.875
 51
0.0
  7
KANJI2
  0
TEXT
  8
4
  6
CONTINUOUS
 62
     5
 10
64.8
 20
176.2
 30
0.0
 40
4.0
  1
（＋）
 50
0.0
 41
0.875
 51
0.0
  7
KANJI2
  0
TEXT
  8
4
  6
CONTINUOUS
 62
     5
 10
73.0
 20
170.5
 30
0.0
 40
4.0
  1
感度方向
 50
0.0
 41
0.875
 51
0.0
  7
KANJI2
  0
POLYLINE
  8
0
  6
CONTINUOUS
 62
     1
 66
     1
 70
     1
  0
VERTEX
  8
0
  6
CONTINUOUS
 62
     1
 10
100.0
 20
149.0
  0
VERTEX
  8
0
  6
CONTINUOUS
 62
     1
 10
160.0
 20
149.0
  0
VERTEX
  8
0
  6
CONTINUOUS
 62
     1
 10
160.0
 20
191.0
  0
VERTEX
  8
0
  6
CONTINUOUS
 62
     1
 10
100.0
 20
191.0
  0
SEQEND
  0
LINE
  8
0
  6
CONTINUOUS
 62
     1
 10
107.0
 20
191.0
 11
107.0
 21
149.0
  0
LINE
  8
0
  6
CONTINUOUS
 62
     1
 10
153.0
 20
149.0
 11
153.0
 21
191.0
  0
CIRCLE
  8
0
  6
CONTINUOUS
 62
     1
 10
157.0
 20
181.0
 40
2.1
  0
LINE
  8
0
  6
LTYPE1
 62
     2
 10
162.0
 20
181.0
 11
152.0
 21
181.0
  0
LINE
  8
0
  6
LTYPE1
 62
     2
 10
157.0
 20
186.0
 11
157.0
 21
176.0
  0
CIRCLE
  8
0
  6
CONTINUOUS
 62
     1
 10
157.0
 20
159.0
 40
2.1
  0
LINE
  8
0
  6
LTYPE1
 62
     2
 10
162.0
 20
159.0
 11
152.0
 21
159.0
  0
LINE
  8
0
  6
LTYPE1
 62
     2
 10
157.0
 20
164.0
 11
157.0
 21
154.0
  0
CIRCLE
  8
0
  6
CONTINUOUS
 62
     1
 10
103.0
 20
159.0
 40
2.1
  0
LINE
  8
0
  6
LTYPE1
 62
     2
 10
108.0
 20
159.0
 11
98.0
 21
159.0
  0
LINE
  8
0
  6
LTYPE1
 62
     2
 10
103.0
 20
164.0
 11
103.0
 21
154.0
  0
CIRCLE
  8
0
  6
CONTINUOUS
 62
     1
 10
103.0
 20
181.0
 40
2.1
  0
LINE
  8
0
  6
LTYPE1
 62
     2
 10
108.0
 20
181.0
 11
98.0
 21
181.0
  0
LINE
  8
0
  6
LTYPE1
 62
     2
 10
103.0
 20
186.0
 11
103.0
 21
176.0
  0
LINE
  8
0
  6
CONTINUOUS
 62
     1
 10
111.5
 20
149.0
 11
111.5
 21
137.0
  0
LINE
  8
0
  6
CONTINUOUS
 62
     1
 10
111.5
 20
137.0
 11
112.5
 21
124.0
  0
LINE
  8
0
  6
CONTINUOUS
 62
     1
 10
112.5
 20
124.0
 11
117.5
 21
124.0
  0
LINE
  8
0
  6
CONTINUOUS
 62
     1
 10
117.5
 20
124.0
 11
118.5
 21
137.0
  0
LINE
  8
0
  6
CONTINUOUS
 62
     1
 10
118.5
 20
137.0
 11
118.5
 21
149.0
  0
LINE
  8
0
  6
CONTINUOUS
 62
     1
 10
112.5
 20
137.0
 11
117.5
 21
137.0
  0
LINE
  8
0
  6
CONTINUOUS
 62
     1
 10
121.5
 20
149.0
 11
121.5
 21
137.0
  0
LINE
  8
0
  6
CONTINUOUS
 62
     1
 10
121.5
 20
137.0
 11
122.5
 21
124.0
  0
LINE
  8
0
  6
CONTINUOUS
 62
     1
 10
122.5
 20
124.0
 11
127.5
 21
124.0
  0
LINE
  8
0
  6
CONTINUOUS
 62
     1
 10
127.5
 20
124.0
 11
128.5
 21
137.0
  0
LINE
  8
0
  6
CONTINUOUS
 62
     1
 10
128.5
 20
137.0
 11
128.5
 21
149.0
  0
LINE
  8
0
  6
CONTINUOUS
 62
     1
 10
122.5
 20
137.0
 11
127.5
 21
137.0
  0
LINE
  8
0
  6
CONTINUOUS
 62
     1
 10
131.5
 20
149.0
 11
131.5
 21
137.0
  0
LINE
  8
0
  6
CONTINUOUS
 62
     1
 10
131.5
 20
137.0
 11
132.5
 21
124.0
  0
LINE
  8
0
  6
CONTINUOUS
 62
     1
 10
132.5
 20
124.0
 11
137.5
 21
124.0
  0
LINE
  8
0
  6
CONTINUOUS
 62
     1
 10
137.5
 20
124.0
 11
138.5
 21
137.0
  0
LINE
  8
0
  6
CONTINUOUS
 62
     1
 10
138.5
 20
137.0
 11
138.5
 21
149.0
  0
LINE
  8
0
  6
CONTINUOUS
 62
     1
 10
132.5
 20
137.0
 11
137.5
 21
137.0
  0
LINE
  8
4
  6
CONTINUOUS
 62
     2
 10
107.0
 20
192.0
 11
107.0
 21
202.0
  0
LINE
  8
4
  6
CONTINUOUS
 62
     2
 10
107.0
 20
201.0
 11
109.414814566
 21
200.352952387
  0
LINE
  8
4
  6
CONTINUOUS
 62
     2
 10
107.0
 20
201.0
 11
109.414814566
 21
201.647047613
  0
LINE
  8
4
  6
CONTINUOUS
 62
     2
 10
107.0
 20
201.0
 11
153.0
 21
201.0
  0
LINE
  8
4
  6
CONTINUOUS
 62
     2
 10
153.0
 20
201.0
 11
150.585185434
 21
201.647047613
  0
LINE
  8
4
  6
CONTINUOUS
 62
     2
 10
153.0
 20
201.0
 11
150.585185434
 21
200.352952387
  0
LINE
  8
4
  6
CONTINUOUS
 62
     2
 10
153.0
 20
192.0
 11
153.0
 21
202.0
  0
TEXT
  8
4
  6
CONTINUOUS
 62
     5
 10
126.45
 20
202.0
 30
0.1
 40
4.0
  1
４６
 50
0.0
 41
0.875
 51
0.0
  7
KANJI3
  0
LINE
  8
4
  6
CONTINUOUS
 62
     2
 10
103.0
 20
186.0
 11
103.0
 21
212.0
  0
LINE
  8
4
  6
CONTINUOUS
 62
     2
 10
103.0
 20
211.0
 11
105.414814566
 21
210.352952387
  0
LINE
  8
4
  6
CONTINUOUS
 62
     2
 10
103.0
 20
211.0
 11
105.414814566
 21
211.647047613
  0
LINE
  8
4
  6
CONTINUOUS
 62
     2
 10
103.0
 20
211.0
 11
157.0
 21
211.0
  0
LINE
  8
4
  6
CONTINUOUS
 62
     2
 10
157.0
 20
211.0
 11
154.585185434
 21
211.647047613
  0
LINE
  8
4
  6
CONTINUOUS
 62
     2
 10
157.0
 20
211.0
 11
154.585185434
 21
210.352952387
  0
LINE
  8
4
  6
CONTINUOUS
 62
     2
 10
157.0
 20
186.0
 11
157.0
 21
212.0
  0
TEXT
  8
4
  6
CONTINUOUS
 62
     5
 10
126.45
 20
212.0
 30
0.1
 40
4.0
  1
５４
 50
0.0
 41
0.875
 51
0.0
  7
KANJI3
  0
LINE
  8
4
  6
CONTINUOUS
 62
     2
 10
100.0
 20
192.0
 11
100.0
 21
222.0
  0
LINE
  8
4
  6
CONTINUOUS
 62
     2
 10
100.0
 20
221.0
 11
102.414814566
 21
220.352952387
  0
LINE
  8
4
  6
CONTINUOUS
 62
     2
 10
100.0
 20
221.0
 11
102.414814566
 21
221.647047613
  0
LINE
  8
4
  6
CONTINUOUS
 62
     2
 10
100.0
 20
221.0
 11
160.0
 21
221.0
  0
LINE
  8
4
  6
CONTINUOUS
 62
     2
 10
160.0
 20
221.0
 11
157.585185434
 21
221.647047613
  0
LINE
  8
4
  6
CONTINUOUS
 62
     2
 10
160.0
 20
221.0
 11
157.585185434
 21
220.352952387
  0
LINE
  8
4
  6
CONTINUOUS
 62
     2
 10
160.0
 20
192.0
 11
160.0
 21
222.0
  0
TEXT
  8
4
  6
CONTINUOUS
 62
     5
 10
126.45
 20
222.0
 30
0.1
 40
4.0
  1
６０
 50
0.0
 41
0.875
 51
0.0
  7
KANJI3
  0
LINE
  8
4
  6
CONTINUOUS
 62
     2
 10
161.0
 20
149.0
 11
176.0
 21
149.0
  0
LINE
  8
4
  6
CONTINUOUS
 62
     2
 10
175.0
 20
149.0
 11
175.647047613
 21
151.414814566
  0
LINE
  8
4
  6
CONTINUOUS
 62
     2
 10
175.0
 20
149.0
 11
174.352952387
 21
151.414814566
  0
LINE
  8
4
  6
CONTINUOUS
 62
     2
 10
175.0
 20
149.0
 11
175.0
 21
159.0
  0
LINE
  8
4
  6
CONTINUOUS
 62
     2
 10
175.0
 20
159.0
 11
174.352952387
 21
156.585185434
  0
LINE
  8
4
  6
CONTINUOUS
 62
     2
 10
175.0
 20
159.0
 11
175.647047613
 21
156.585185434
  0
LINE
  8
4
  6
CONTINUOUS
 62
     2
 10
161.0
 20
159.0
 11
176.0
 21
159.0
  0
TEXT
  8
4
  6
CONTINUOUS
 62
     5
 10
174.0
 20
150.45
 30
0.1
 40
4.0
  1
１０
 50
90.0
 41
0.875
 51
0.0
  7
KANJI3
  0
LINE
  8
4
  6
CONTINUOUS
 62
     2
 10
175.0
 20
159.0
 11
175.647047613
 21
161.414814566
  0
LINE
  8
4
  6
CONTINUOUS
 62
     2
 10
175.0
 20
159.0
 11
174.352952387
 21
161.414814566
  0
LINE
  8
4
  6
CONTINUOUS
 62
     2
 10
175.0
 20
159.0
 11
175.0
 21
181.0
  0
LINE
  8
4
  6
CONTINUOUS
 62
     2
 10
175.0
 20
181.0
 11
174.352952387
 21
178.585185434
  0
LINE
  8
4
  6
CONTINUOUS
 62
     2
 10
175.0
 20
181.0
 11
175.647047613
 21
178.585185434
  0
LINE
  8
4
  6
CONTINUOUS
 62
     2
 10
161.0
 20
181.0
 11
176.0
 21
181.0
  0
TEXT
  8
4
  6
CONTINUOUS
 62
     5
 10
174.0
 20
166.45
 30
0.1
 40
4.0
  1
２２
 50
90.0
 41
0.875
 51
0.0
  7
KANJI3
  0
LINE
  8
4
  6
CONTINUOUS
 62
     2
 10
175.0
 20
181.0
 11
175.647047613
 21
183.414814566
  0
LINE
  8
4
  6
CONTINUOUS
 62
     2
 10
175.0
 20
181.0
 11
174.352952387
 21
183.414814566
  0
LINE
  8
4
  6
CONTINUOUS
 62
     2
 10
175.0
 20
181.0
 11
175.0
 21
191.0
  0
LINE
  8
4
  6
CONTINUOUS
 62
     2
 10
175.0
 20
191.0
 11
174.352952387
 21
188.585185434
  0
LINE
  8
4
  6
CONTINUOUS
 62
     2
 10
175.0
 20
191.0
 11
175.647047613
 21
188.585185434
  0
LINE
  8
4
  6
CONTINUOUS
 62
     2
 10
161.0
 20
191.0
 11
176.0
 21
191.0
  0
TEXT
  8
4
  6
CONTINUOUS
 62
     5
 10
174.0
 20
182.45
 30
0.1
 40
4.0
  1
１０
 50
90.0
 41
0.875
 51
0.0
  7
KANJI3
  0
LINE
  8
4
  6
CONTINUOUS
 62
     2
 10
176.0
 20
149.0
 11
186.0
 21
149.0
  0
LINE
  8
4
  6
CONTINUOUS
 62
     2
 10
185.0
 20
149.0
 11
185.647047613
 21
151.414814566
  0
LINE
  8
4
  6
CONTINUOUS
 62
     2
 10
185.0
 20
149.0
 11
184.352952387
 21
151.414814566
  0
LINE
  8
4
  6
CONTINUOUS
 62
     2
 10
185.0
 20
149.0
 11
185.0
 21
191.0
  0
LINE
  8
4
  6
CONTINUOUS
 62
     2
 10
185.0
 20
191.0
 11
184.352952387
 21
188.585185434
  0
LINE
  8
4
  6
CONTINUOUS
 62
     2
 10
185.0
 20
191.0
 11
185.647047613
 21
188.585185434
  0
LINE
  8
4
  6
CONTINUOUS
 62
     2
 10
176.0
 20
191.0
 11
186.0
 21
191.0
  0
TEXT
  8
4
  6
CONTINUOUS
 62
     5
 10
184.0
 20
166.45
 30
0.1
 40
4.0
  1
４２
 50
90.0
 41
0.875
 51
0.0
  7
KANJI3
  0
LINE
  8
4
  6
CONTINUOUS
 62
     2
 10
158.26
 20
182.68
 11
160.22652683
 21
184.223623085
  0
LINE
  8
4
  6
CONTINUOUS
 62
     2
 10
158.26
 20
182.68
 11
159.191250649
 21
185.00008022
  0
LINE
  8
4
  6
CONTINUOUS
 62
     2
 10
158.26
 20
182.68
 11
172.0
 21
201.0
  0
LINE
  8
4
  6
CONTINUOUS
 62
     2
 10
172.0
 20
201.0
 11
193.5
 21
201.0
  0
TEXT
  8
4
  6
CONTINUOUS
 62
     5
 10
172.0
 20
202.0
 30
0.1
 40
4.0
  1
４－φ４．２
 50
0.0
 41
0.875
 51
0.0
  7
KANJI3
  0
LINE
  8
4
  6
CONTINUOUS
 62
     2
 10
138.5
 20
124.0
 11
186.0
 21
124.0
  0
LINE
  8
4
  6
CONTINUOUS
 62
     2
 10
185.0
 20
124.0
 11
185.647047613
 21
126.414814566
  0
LINE
  8
4
  6
CONTINUOUS
 62
     2
 10
185.0
 20
124.0
 11
184.352952387
 21
126.414814566
  0
LINE
  8
4
  6
CONTINUOUS
 62
     2
 10
185.0
 20
124.0
 11
185.0
 21
149.0
  0
LINE
  8
4
  6
CONTINUOUS
 62
     2
 10
185.0
 20
149.0
 11
184.352952387
 21
146.585185434
  0
LINE
  8
4
  6
CONTINUOUS
 62
     2
 10
185.0
 20
149.0
 11
185.647047613
 21
146.585185434
  0
TEXT
  8
4
  6
CONTINUOUS
 62
     5
 10
184.0
 20
132.95
 30
0.1
 40
4.0
  1
２５
 50
90.0
 41
0.875
 51
0.0
  7
KANJI3
  0
LINE
  8
4
  6
CONTINUOUS
 62
     2
 10
119.0
 20
236.0
 11
121.897777479
 21
235.223542865
  0
LINE
  8
4
  6
CONTINUOUS
 62
     2
 10
119.0
 20
236.0
 11
121.897777479
 21
236.776457135
  0
LINE
  8
4
  6
CONTINUOUS
 62
     2
 10
119.0
 20
236.0
 11
141.0
 21
236.0
  0
LINE
  8
4
  6
CONTINUOUS
 62
     2
 10
141.0
 20
236.0
 11
138.102222521
 21
235.223542865
  0
LINE
  8
4
  6
CONTINUOUS
 62
     2
 10
141.0
 20
236.0
 11
138.102222521
 21
236.776457135
  0
TEXT
  8
4
  6
CONTINUOUS
 62
     5
 10
134.5
 20
231.0
 30
0.0
 40
4.0
  1
（＋）
 50
0.0
 41
0.875
 51
0.0
  7
KANJI2
  0
TEXT
  8
4
  6
CONTINUOUS
 62
     5
 10
115.0
 20
231.0
 30
0.0
 40
4.0
  1
（－）
 50
0.0
 41
0.875
 51
0.0
  7
KANJI2
  0
TEXT
  8
4
  6
CONTINUOUS
 62
     5
 10
119.25
 20
237.0
 30
0.0
 40
4.0
  1
負荷方向（Ｘ）
 50
0.0
 41
0.875
 51
0.0
  7
KANJI2
  0
TEXT
  8
4
  6
CONTINUOUS
 62
     5
 10
74.75
 20
166.0
 30
0.0
 40
4.0
  1
（Ｙ）
 50
0.0
 41
0.875
 51
0.0
  7
KANJI2
  0
TEXT
  8
5
  6
CONTINUOUS
 62
     5
 10
130.5
 20
42.9
 30
0.0
 40
4.0
  1
１
 50
0.0
 41
0.875
 51
0.0
  7
KANJI2
  0
TEXT
  8
5
  6
CONTINUOUS
 62
     5
 10
126.5
 20
24.0
 30
0.0
 40
4.0
  1
９Ｅ０７－Ａ３－□ＭＳ
 50
0.0
 41
0.875
 51
0.0
  7
KANJI2
  0
TEXT
  8
5
  6
CONTINUOUS
 62
     5
 10
126.5
 20
13.0
 30
0.0
 40
4.0
  1
Ｕ－００１１－Ａ００４
 50
0.0
 41
0.875
 51
0.0
  7
KANJI2
  0
TEXT
  8
4
  6
CONTINUOUS
 62
     5
 10
190.1
 20
62.4
 30
0.0
 40
2.0
  1
２
 50
0.0
 41
0.875
 51
0.0
  7
KANJI4
  0
TEXT
  8
4
  6
CONTINUOUS
 62
     5
 10
133.0
 20
60.0
 30
0.0
 40
4.0
  1
２０，５０，１００，２００　ｍ／ｓ
 50
0.0
 41
0.875
 51
0.0
  7
KANJI2
  0
LINE
  8
4
  6
CONTINUOUS
 62
     1
 10
38.0
 20
51.5
 11
48.0
 21
61.5
  0
LINE
  8
4
  6
CONTINUOUS
 62
     1
 10
48.0
 20
61.5
 11
58.0
 21
51.5
  0
LINE
  8
4
  6
CONTINUOUS
 62
     1
 10
58.0
 20
51.5
 11
48.0
 21
41.5
  0
LINE
  8
4
  6
CONTINUOUS
 62
     1
 10
48.0
 20
41.5
 11
38.0
 21
51.5
  0
LINE
  8
4
  6
CONTINUOUS
 62
     1
 10
38.0
 20
51.5
 11
38.0
 21
31.5
  0
LINE
  8
4
  6
CONTINUOUS
 62
     2
 10
58.0
 20
69.5
 11
79.0
 21
69.5
  0
TEXT
  8
4
  6
CONTINUOUS
 62
     5
 10
58.0
 20
70.5
 30
0.0
 40
4.0
  1
ケーブル結線
 50
0.0
 41
0.875
 51
0.0
  7
KANJI2
  0
LINE
  8
4
  6
CONTINUOUS
 62
     1
 10
48.0
 20
61.5
 11
73.0
 21
61.5
  0
LINE
  8
4
  6
CONTINUOUS
 62
     1
 10
38.0
 20
31.5
 11
73.0
 21
31.5
  0
LINE
  8
4
  6
CONTINUOUS
 62
     1
 10
58.0
 20
51.5
 11
73.0
 21
51.5
  0
LINE
  8
4
  6
CONTINUOUS
 62
     1
 10
48.0
 20
41.5
 11
73.0
 21
41.5
  0
TEXT
  8
4
  6
CONTINUOUS
 62
     5
 10
75.0
 20
59.5
 30
0.0
 40
4.0
  1
赤：入力（＋）
 50
0.0
 41
0.875
 51
0.0
  7
KANJI2
  0
TEXT
  8
4
  6
CONTINUOUS
 62
     5
 10
75.0
 20
49.5
 30
0.0
 40
4.0
  1
青：出力（－）
 50
0.0
 41
0.875
 51
0.0
  7
KANJI2
  0
TEXT
  8
4
  6
CONTINUOUS
 62
     5
 10
75.0
 20
39.5
 30
0.0
 40
4.0
  1
白：入力（－）
 50
0.0
 41
0.875
 51
0.0
  7
KANJI2
  0
TEXT
  8
4
  6
CONTINUOUS
 62
     5
 10
75.0
 20
29.5
 30
0.0
 40
4.0
  1
緑：出力（＋）
 50
0.0
 41
0.875
 51
0.0
  7
KANJI2
  0
LINE
  8
0
  6
CONTINUOUS
 62
     1
 10
33.5
 20
124.0
 11
33.5
 21
109.0
  0
LINE
  8
0
  6
CONTINUOUS
 62
     1
 10
36.7
 20
124.0
 11
36.7
 21
109.0
  0
ARC
  8
0
  6
CONTINUOUS
 62
     1
 10
34.3
 20
109.6
 40
1.0
 50
216.869897646
 51
323.130102354
  0
ARC
  8
0
  6
CONTINUOUS
 62
     1
 10
35.9
 20
109.6
 40
1.0
 50
216.869897645
 51
323.130102354
  0
ARC
  8
0
  6
CONTINUOUS
 62
     1
 10
34.3
 20
108.4
 40
1.0
 50
36.869897646
 51
143.130102354
  0
LINE
  8
0
  6
LTYPE1
 62
     2
 10
35.1
 20
154.0
 11
35.1
 21
104.0
  0
LINE
  8
0
  6
CONTINUOUS
 62
     1
 10
113.4
 20
124.0
 11
113.4
 21
109.0
  0
LINE
  8
0
  6
CONTINUOUS
 62
     1
 10
116.6
 20
124.0
 11
116.6
 21
109.0
  0
ARC
  8
0
  6
CONTINUOUS
 62
     1
 10
114.2
 20
109.6
 40
1.0
 50
216.869897646
 51
323.130102354
  0
ARC
  8
0
  6
CONTINUOUS
 62
     1
 10
115.8
 20
109.6
 40
1.0
 50
216.869897645
 51
323.130102354
  0
ARC
  8
0
  6
CONTINUOUS
 62
     1
 10
114.2
 20
108.4
 40
1.0
 50
36.869897646
 51
143.130102354
  0
LINE
  8
0
  6
LTYPE1
 62
     2
 10
115.0
 20
154.0
 11
115.0
 21
104.0
  0
LINE
  8
0
  6
CONTINUOUS
 62
     1
 10
123.4
 20
124.0
 11
123.4
 21
109.0
  0
LINE
  8
0
  6
CONTINUOUS
 62
     1
 10
126.6
 20
124.0
 11
126.6
 21
109.0
  0
ARC
  8
0
  6
CONTINUOUS
 62
     1
 10
124.2
 20
109.6
 40
1.0
 50
216.869897646
 51
323.130102354
  0
ARC
  8
0
  6
CONTINUOUS
 62
     1
 10
125.8
 20
109.6
 40
1.0
 50
216.869897645
 51
323.130102354
  0
ARC
  8
0
  6
CONTINUOUS
 62
     1
 10
124.2
 20
108.4
 40
1.0
 50
36.869897646
 51
143.130102354
  0
LINE
  8
0
  6
LTYPE1
 62
     2
 10
125.0
 20
154.0
 11
125.0
 21
104.0
  0
LINE
  8
0
  6
CONTINUOUS
 62
     1
 10
133.4
 20
124.0
 11
133.4
 21
109.0
  0
LINE
  8
0
  6
CONTINUOUS
 62
     1
 10
136.6
 20
124.0
 11
136.6
 21
109.0
  0
ARC
  8
0
  6
CONTINUOUS
 62
     1
 10
134.2
 20
109.6
 40
1.0
 50
216.869897646
 51
323.130102354
  0
ARC
  8
0
  6
CONTINUOUS
 62
     1
 10
135.8
 20
109.6
 40
1.0
 50
216.869897645
 51
323.130102354
  0
ARC
  8
0
  6
CONTINUOUS
 62
     1
 10
134.2
 20
108.4
 40
1.0
 50
36.869897646
 51
143.130102354
  0
LINE
  8
0
  6
LTYPE1
 62
     2
 10
135.0
 20
154.0
 11
135.0
 21
104.0
  0
ENDSEC
  0
EOF
