  0
SECTION
  2
HEADER
  9
$EXTMIN
 10
0.0
 20
0.0
 30
0.0
  9
$EXTMAX
 10
210.0
 20
297.0
 30
0.0
  9
$LIMMIN
 10
0.0
 20
0.0
  9
$LIMMAX
 10
210.0
 20
297.0
  9
$LTSCALE
 40
1.0
  9
$PDMODE
 70
     0
  0
ENDSEC
  0
SECTION
  2
TABLES
  0
TABLE
  2
LTYPE
 70
     4
  0
LTYPE
  2
CONTINUOUS
 70
    64
  3
Solid line
 72
    65
 73
     0
 40
0.0
  0
LTYPE
  2
LTYPE1
 70
    64
  3
PHANTOM
 72
    65
 73
     6
 40
10.0
 49
7.5
 49
-0.5
 49
0.5
 49
-0.5
 49
0.5
 49
-0.5
  0
LTYPE
  2
LTYPE2
 70
    64
  3
HIDDEN
 72
    65
 73
     2
 40
2.0
 49
1.2
 49
-0.8
  0
LTYPE
  2
LTYPE3
 70
    64
  3
CENTER
 72
    65
 73
     4
 40
10.0
 49
7.0
 49
-1.0
 49
1.0
 49
-1.0
  0
ENDTAB
  0
TABLE
  2
LAYER
 70
   128
  0
LAYER
  2
0
 70
     0
 62
     7
  6
CONTINUOUS
  0
LAYER
  2
2
 70
     0
 62
     7
  6
CONTINUOUS
  0
LAYER
  2
3
 70
     0
 62
     7
  6
CONTINUOUS
  0
LAYER
  2
4
 70
     0
 62
     7
  6
CONTINUOUS
  0
LAYER
  2
5
 70
     0
 62
     7
  6
CONTINUOUS
  0
LAYER
  2
6
 70
     0
 62
     7
  6
CONTINUOUS
  0
LAYER
  2
7
 70
     0
 62
     7
  6
CONTINUOUS
  0
LAYER
  2
8
 70
     0
 62
     7
  6
CONTINUOUS
  0
LAYER
  2
9
 70
     0
 62
     7
  6
CONTINUOUS
  0
LAYER
  2
10
 70
     0
 62
     7
  6
CONTINUOUS
  0
LAYER
  2
11
 70
     0
 62
     7
  6
CONTINUOUS
  0
LAYER
  2
12
 70
     0
 62
     7
  6
CONTINUOUS
  0
LAYER
  2
13
 70
     0
 62
     7
  6
CONTINUOUS
  0
LAYER
  2
14
 70
     0
 62
     7
  6
CONTINUOUS
  0
LAYER
  2
15
 70
     0
 62
     7
  6
CONTINUOUS
  0
LAYER
  2
16
 70
     0
 62
     7
  6
CONTINUOUS
  0
LAYER
  2
17
 70
     0
 62
     7
  6
CONTINUOUS
  0
LAYER
  2
18
 70
     0
 62
     7
  6
CONTINUOUS
  0
LAYER
  2
19
 70
     0
 62
     7
  6
CONTINUOUS
  0
LAYER
  2
20
 70
     0
 62
     7
  6
CONTINUOUS
  0
LAYER
  2
21
 70
     0
 62
     7
  6
CONTINUOUS
  0
LAYER
  2
22
 70
     0
 62
     7
  6
CONTINUOUS
  0
LAYER
  2
23
 70
     0
 62
     7
  6
CONTINUOUS
  0
LAYER
  2
24
 70
     0
 62
     7
  6
CONTINUOUS
  0
LAYER
  2
25
 70
     0
 62
     7
  6
CONTINUOUS
  0
LAYER
  2
26
 70
     0
 62
     7
  6
CONTINUOUS
  0
LAYER
  2
27
 70
     0
 62
     7
  6
CONTINUOUS
  0
LAYER
  2
28
 70
     0
 62
     7
  6
CONTINUOUS
  0
LAYER
  2
29
 70
     0
 62
     7
  6
CONTINUOUS
  0
LAYER
  2
30
 70
     0
 62
     7
  6
CONTINUOUS
  0
LAYER
  2
31
 70
     0
 62
     7
  6
CONTINUOUS
  0
LAYER
  2
32
 70
     0
 62
     7
  6
CONTINUOUS
  0
LAYER
  2
33
 70
     0
 62
     7
  6
CONTINUOUS
  0
LAYER
  2
34
 70
     0
 62
     7
  6
CONTINUOUS
  0
LAYER
  2
35
 70
     0
 62
     7
  6
CONTINUOUS
  0
LAYER
  2
36
 70
     0
 62
     7
  6
CONTINUOUS
  0
LAYER
  2
37
 70
     0
 62
     7
  6
CONTINUOUS
  0
LAYER
  2
38
 70
     0
 62
     7
  6
CONTINUOUS
  0
LAYER
  2
39
 70
     0
 62
     7
  6
CONTINUOUS
  0
LAYER
  2
40
 70
     0
 62
     7
  6
CONTINUOUS
  0
LAYER
  2
41
 70
     0
 62
     7
  6
CONTINUOUS
  0
LAYER
  2
42
 70
     0
 62
     7
  6
CONTINUOUS
  0
LAYER
  2
43
 70
     0
 62
     7
  6
CONTINUOUS
  0
LAYER
  2
44
 70
     0
 62
     7
  6
CONTINUOUS
  0
LAYER
  2
45
 70
     0
 62
     7
  6
CONTINUOUS
  0
LAYER
  2
46
 70
     0
 62
     7
  6
CONTINUOUS
  0
LAYER
  2
47
 70
     0
 62
     7
  6
CONTINUOUS
  0
LAYER
  2
48
 70
     0
 62
     7
  6
CONTINUOUS
  0
LAYER
  2
49
 70
     0
 62
     7
  6
CONTINUOUS
  0
LAYER
  2
50
 70
     0
 62
     7
  6
CONTINUOUS
  0
LAYER
  2
51
 70
     0
 62
     7
  6
CONTINUOUS
  0
LAYER
  2
52
 70
     0
 62
     7
  6
CONTINUOUS
  0
LAYER
  2
53
 70
     0
 62
     7
  6
CONTINUOUS
  0
LAYER
  2
54
 70
     0
 62
     7
  6
CONTINUOUS
  0
LAYER
  2
55
 70
     0
 62
     7
  6
CONTINUOUS
  0
LAYER
  2
56
 70
     0
 62
     7
  6
CONTINUOUS
  0
LAYER
  2
57
 70
     0
 62
     7
  6
CONTINUOUS
  0
LAYER
  2
58
 70
     0
 62
     7
  6
CONTINUOUS
  0
LAYER
  2
59
 70
     0
 62
     7
  6
CONTINUOUS
  0
LAYER
  2
60
 70
     0
 62
     7
  6
CONTINUOUS
  0
LAYER
  2
61
 70
     0
 62
     7
  6
CONTINUOUS
  0
LAYER
  2
62
 70
     0
 62
     7
  6
CONTINUOUS
  0
LAYER
  2
63
 70
     0
 62
     7
  6
CONTINUOUS
  0
LAYER
  2
64
 70
     0
 62
     7
  6
CONTINUOUS
  0
LAYER
  2
65
 70
     0
 62
     7
  6
CONTINUOUS
  0
LAYER
  2
66
 70
     0
 62
     7
  6
CONTINUOUS
  0
LAYER
  2
67
 70
     0
 62
     7
  6
CONTINUOUS
  0
LAYER
  2
68
 70
     0
 62
     7
  6
CONTINUOUS
  0
LAYER
  2
69
 70
     0
 62
     7
  6
CONTINUOUS
  0
LAYER
  2
70
 70
     0
 62
     7
  6
CONTINUOUS
  0
LAYER
  2
71
 70
     0
 62
     7
  6
CONTINUOUS
  0
LAYER
  2
72
 70
     0
 62
     7
  6
CONTINUOUS
  0
LAYER
  2
73
 70
     0
 62
     7
  6
CONTINUOUS
  0
LAYER
  2
74
 70
     0
 62
     7
  6
CONTINUOUS
  0
LAYER
  2
75
 70
     0
 62
     7
  6
CONTINUOUS
  0
LAYER
  2
76
 70
     0
 62
     7
  6
CONTINUOUS
  0
LAYER
  2
77
 70
     0
 62
     7
  6
CONTINUOUS
  0
LAYER
  2
78
 70
     0
 62
     7
  6
CONTINUOUS
  0
LAYER
  2
79
 70
     0
 62
     7
  6
CONTINUOUS
  0
LAYER
  2
80
 70
     0
 62
     7
  6
CONTINUOUS
  0
LAYER
  2
81
 70
     0
 62
     7
  6
CONTINUOUS
  0
LAYER
  2
82
 70
     0
 62
     7
  6
CONTINUOUS
  0
LAYER
  2
83
 70
     0
 62
     7
  6
CONTINUOUS
  0
LAYER
  2
84
 70
     0
 62
     7
  6
CONTINUOUS
  0
LAYER
  2
85
 70
     0
 62
     7
  6
CONTINUOUS
  0
LAYER
  2
86
 70
     0
 62
     7
  6
CONTINUOUS
  0
LAYER
  2
87
 70
     0
 62
     7
  6
CONTINUOUS
  0
LAYER
  2
88
 70
     0
 62
     7
  6
CONTINUOUS
  0
LAYER
  2
89
 70
     0
 62
     7
  6
CONTINUOUS
  0
LAYER
  2
90
 70
     0
 62
     7
  6
CONTINUOUS
  0
LAYER
  2
91
 70
     0
 62
     7
  6
CONTINUOUS
  0
LAYER
  2
92
 70
     0
 62
     7
  6
CONTINUOUS
  0
LAYER
  2
93
 70
     0
 62
     7
  6
CONTINUOUS
  0
LAYER
  2
94
 70
     0
 62
     7
  6
CONTINUOUS
  0
LAYER
  2
95
 70
     0
 62
     7
  6
CONTINUOUS
  0
LAYER
  2
96
 70
     0
 62
     7
  6
CONTINUOUS
  0
LAYER
  2
97
 70
     0
 62
     7
  6
CONTINUOUS
  0
LAYER
  2
98
 70
     0
 62
     7
  6
CONTINUOUS
  0
LAYER
  2
99
 70
     0
 62
     7
  6
CONTINUOUS
  0
LAYER
  2
100
 70
     0
 62
     7
  6
CONTINUOUS
  0
LAYER
  2
101
 70
     0
 62
     7
  6
CONTINUOUS
  0
LAYER
  2
102
 70
     0
 62
     7
  6
CONTINUOUS
  0
LAYER
  2
103
 70
     0
 62
     7
  6
CONTINUOUS
  0
LAYER
  2
104
 70
     0
 62
     7
  6
CONTINUOUS
  0
LAYER
  2
105
 70
     0
 62
     7
  6
CONTINUOUS
  0
LAYER
  2
106
 70
     0
 62
     7
  6
CONTINUOUS
  0
LAYER
  2
107
 70
     0
 62
     7
  6
CONTINUOUS
  0
LAYER
  2
108
 70
     0
 62
     7
  6
CONTINUOUS
  0
LAYER
  2
109
 70
     0
 62
     7
  6
CONTINUOUS
  0
LAYER
  2
110
 70
     0
 62
     7
  6
CONTINUOUS
  0
LAYER
  2
111
 70
     0
 62
     7
  6
CONTINUOUS
  0
LAYER
  2
112
 70
     0
 62
     7
  6
CONTINUOUS
  0
LAYER
  2
113
 70
     0
 62
     7
  6
CONTINUOUS
  0
LAYER
  2
114
 70
     0
 62
     7
  6
CONTINUOUS
  0
LAYER
  2
115
 70
     0
 62
     7
  6
CONTINUOUS
  0
LAYER
  2
116
 70
     0
 62
     7
  6
CONTINUOUS
  0
LAYER
  2
117
 70
     0
 62
     7
  6
CONTINUOUS
  0
LAYER
  2
118
 70
     0
 62
     7
  6
CONTINUOUS
  0
LAYER
  2
119
 70
     0
 62
     7
  6
CONTINUOUS
  0
LAYER
  2
120
 70
     0
 62
     7
  6
CONTINUOUS
  0
LAYER
  2
121
 70
     0
 62
     7
  6
CONTINUOUS
  0
LAYER
  2
122
 70
     0
 62
     7
  6
CONTINUOUS
  0
LAYER
  2
123
 70
     0
 62
     7
  6
CONTINUOUS
  0
LAYER
  2
124
 70
     0
 62
     7
  6
CONTINUOUS
  0
LAYER
  2
125
 70
     0
 62
     7
  6
CONTINUOUS
  0
LAYER
  2
126
 70
     0
 62
     7
  6
CONTINUOUS
  0
LAYER
  2
127
 70
     0
 62
     7
  6
CONTINUOUS
  0
LAYER
  2
128
 70
     0
 62
     7
  6
CONTINUOUS
  0
ENDTAB
  0
TABLE
  2
STYLE
 70
    14
  0
STYLE
  2
STANDARD
 70
     0
 40
0.0
 41
1.0
 50
0.0
 71
     0
 42
0.2
  3
txt
  4

  0
STYLE
  2
KANJI0
 70
     0
 40
4.0
 41
0.875
 50
0.0
 71
     0
 42
4.0
  3

  4
bigfont
  0
STYLE
  2
KANJI1
 70
     0
 40
5.0
 41
1.2
 50
0.0
 71
     0
 42
5.0
  3

  4
bigfont
  0
STYLE
  2
KANJI2
 70
     0
 40
5.0
 41
1.0
 50
0.0
 71
     0
 42
5.0
  3

  4
bigfont
  0
STYLE
  2
KANJI3
 70
     0
 40
2.5
 41
1.0
 50
0.0
 71
     0
 42
2.5
  3

  4
bigfont
  0
STYLE
  2
KANJI4
 70
     0
 40
2.5
 41
1.0
 50
0.0
 71
     0
 42
2.5
  3

  4
bigfont
  0
STYLE
  2
KANJI5
 70
     0
 40
2.5
 41
1.0
 50
0.0
 71
     0
 42
2.5
  3

  4
bigfont
  0
STYLE
  2
KANJI6
 70
     0
 40
4.0
 41
1.125
 50
0.0
 71
     0
 42
4.0
  3

  4
bigfont
  0
STYLE
  2
KANJI7
 70
     0
 40
7.0
 41
0.857142857
 50
0.0
 71
     0
 42
7.0
  3

  4
bigfont
  0
STYLE
  2
KANJI8
 70
     0
 40
3.0
 41
0.666666667
 50
0.0
 71
     0
 42
3.0
  3

  4
bigfont
  0
STYLE
  2
KANJI9
 70
     0
 40
3.0
 41
1.0
 50
0.0
 71
     0
 42
3.0
  3

  4
bigfont
  0
STYLE
  2
KANJI10
 70
     0
 40
3.0
 41
0.833333333
 50
0.0
 71
     0
 42
3.0
  3

  4
bigfont
  0
STYLE
  2
KANJI11
 70
     0
 40
4.0
 41
0.875
 50
0.0
 71
     0
 42
4.0
  3

  4
bigfont
  0
STYLE
  2
KANJI12
 70
     0
 40
2.0
 41
0.875
 50
0.0
 71
     0
 42
2.0
  3

  4
bigfont
  0
ENDTAB
  0
TABLE
  2
VIEW
 70
     0
  0
ENDTAB
  0
ENDSEC
  0
SECTION
  2
BLOCKS
  0
ENDSEC
  0
SECTION
  2
ENTITIES
  0
TEXT
  8
6
  6
CONTINUOUS
 62
     5
 10
133.0
 20
24.0
 30
0.0
 40
4.0
  1
益子
 50
0.0
 41
0.875
 51
0.0
  7
KANJI0
  0
LINE
  8
7
  6
CONTINUOUS
 62
     2
 10
24.0
 20
249.5
 11
19.0
 21
249.5
  0
LINE
  8
7
  6
CONTINUOUS
 62
     2
 10
156.5
 20
288.0
 11
156.5
 21
293.0
  0
LINE
  8
7
  6
CONTINUOUS
 62
     2
 10
51.5
 20
288.0
 11
51.5
 21
293.0
  0
LINE
  8
7
  6
CONTINUOUS
 62
     2
 10
24.0
 20
199.5
 11
19.0
 21
199.5
  0
TEXT
  8
7
  6
CONTINUOUS
 62
     6
 10
74.75
 20
289.5
 30
0.0
 40
5.0
  1
２
 50
0.0
 41
1.2
 51
0.0
  7
KANJI1
  0
TEXT
  8
7
  6
CONTINUOUS
 62
     6
 10
22.25
 20
289.5
 30
0.0
 40
5.0
  1
１
 50
0.0
 41
1.2
 51
0.0
  7
KANJI1
  0
TEXT
  8
7
  6
CONTINUOUS
 62
     6
 10
127.25
 20
289.5
 30
0.0
 40
5.0
  1
３
 50
0.0
 41
1.2
 51
0.0
  7
KANJI1
  0
TEXT
  8
7
  6
CONTINUOUS
 62
     6
 10
178.25
 20
289.0
 30
0.0
 40
5.0
  1
４
 50
0.0
 41
1.2
 51
0.0
  7
KANJI1
  0
TEXT
  8
7
  6
CONTINUOUS
 62
     6
 10
17.5
 20
272.0
 30
0.0
 40
5.0
  1
Ａ
 50
0.0
 41
1.0
 51
0.0
  7
KANJI2
  0
TEXT
  8
7
  6
CONTINUOUS
 62
     6
 10
17.5
 20
222.0
 30
0.0
 40
5.0
  1
Ｂ
 50
0.0
 41
1.0
 51
0.0
  7
KANJI2
  0
TEXT
  8
7
  6
CONTINUOUS
 62
     6
 10
17.5
 20
172.0
 30
0.0
 40
5.0
  1
Ｃ
 50
0.0
 41
1.0
 51
0.0
  7
KANJI2
  0
TEXT
  8
7
  6
CONTINUOUS
 62
     6
 10
17.5
 20
122.0
 30
0.0
 40
5.0
  1
Ｄ
 50
0.0
 41
1.0
 51
0.0
  7
KANJI2
  0
LINE
  8
7
  6
CONTINUOUS
 62
     6
 10
104.0
 20
288.0
 11
104.0
 21
298.0
  0
LINE
  8
7
  6
CONTINUOUS
 62
     6
 10
24.0
 20
149.5
 11
-1.0
 21
149.5
  0
LINE
  8
7
  6
CONTINUOUS
 62
     6
 10
24.0
 20
288.0
 11
24.0
 21
11.0
  0
LINE
  8
7
  6
CONTINUOUS
 62
     2
 10
198.0
 20
199.5
 11
203.0
 21
199.5
  0
LINE
  8
7
  6
CONTINUOUS
 62
     2
 10
198.0
 20
249.5
 11
203.0
 21
249.5
  0
TEXT
  8
7
  6
CONTINUOUS
 62
     6
 10
199.5
 20
272.0
 30
0.0
 40
5.0
  1
Ａ
 50
0.0
 41
1.0
 51
0.0
  7
KANJI2
  0
TEXT
  8
7
  6
CONTINUOUS
 62
     6
 10
199.5
 20
222.0
 30
0.0
 40
5.0
  1
Ｂ
 50
0.0
 41
1.0
 51
0.0
  7
KANJI2
  0
TEXT
  8
7
  6
CONTINUOUS
 62
     6
 10
199.5
 20
172.0
 30
0.0
 40
5.0
  1
Ｃ
 50
0.0
 41
1.0
 51
0.0
  7
KANJI2
  0
TEXT
  8
7
  6
CONTINUOUS
 62
     6
 10
199.5
 20
122.0
 30
0.0
 40
5.0
  1
Ｄ
 50
0.0
 41
1.0
 51
0.0
  7
KANJI2
  0
LINE
  8
7
  6
CONTINUOUS
 62
     6
 10
198.0
 20
288.0
 11
24.0
 21
288.0
  0
LINE
  8
7
  6
CONTINUOUS
 62
     6
 10
198.0
 20
149.5
 11
209.0
 21
149.5
  0
LINE
  8
7
  6
CONTINUOUS
 62
     6
 10
198.0
 20
11.0
 11
198.0
 21
288.0
  0
LINE
  8
7
  6
CONTINUOUS
 62
     2
 10
198.0
 20
99.5
 11
203.0
 21
99.5
  0
LINE
  8
7
  6
CONTINUOUS
 62
     2
 10
198.0
 20
49.5
 11
203.0
 21
49.5
  0
LINE
  8
7
  6
CONTINUOUS
 62
     2
 10
198.0
 20
76.0
 11
195.5
 21
76.0
  0
LINE
  8
7
  6
CONTINUOUS
 62
     2
 10
198.0
 20
84.0
 11
195.5
 21
84.0
  0
LINE
  8
7
  6
CONTINUOUS
 62
     2
 10
198.0
 20
92.0
 11
195.5
 21
92.0
  0
TEXT
  8
7
  6
CONTINUOUS
 62
     6
 10
199.5
 20
72.0
 30
0.0
 40
5.0
  1
Ｅ
 50
0.0
 41
1.0
 51
0.0
  7
KANJI2
  0
TEXT
  8
7
  6
CONTINUOUS
 62
     6
 10
199.5
 20
22.0
 30
0.0
 40
5.0
  1
Ｆ
 50
0.0
 41
1.0
 51
0.0
  7
KANJI2
  0
LINE
  8
7
  6
CONTINUOUS
 62
     2
 10
145.0
 20
33.0
 11
198.0
 21
33.0
  0
LINE
  8
7
  6
CONTINUOUS
 62
     2
 10
145.0
 20
22.0
 11
198.0
 21
22.0
  0
LINE
  8
7
  6
CONTINUOUS
 62
     6
 10
189.0
 20
11.0
 11
198.0
 21
11.0
  0
LINE
  8
7
  6
CONTINUOUS
 62
     2
 10
65.0
 20
52.0
 11
198.0
 21
52.0
  0
LINE
  8
7
  6
CONTINUOUS
 62
     2
 10
65.0
 20
68.0
 11
198.0
 21
68.0
  0
LINE
  8
7
  6
CONTINUOUS
 62
     2
 10
65.0
 20
60.0
 11
198.0
 21
60.0
  0
LINE
  8
7
  6
CONTINUOUS
 62
     2
 10
65.0
 20
44.0
 11
198.0
 21
44.0
  0
LINE
  8
7
  6
CONTINUOUS
 62
     2
 10
51.5
 20
11.0
 11
51.5
 21
6.0
  0
LINE
  8
7
  6
CONTINUOUS
 62
     2
 10
24.0
 20
99.5
 11
19.0
 21
99.5
  0
LINE
  8
7
  6
CONTINUOUS
 62
     2
 10
24.0
 20
49.5
 11
19.0
 21
49.5
  0
LINE
  8
7
  6
CONTINUOUS
 62
     2
 10
31.0
 20
68.0
 11
31.0
 21
11.0
  0
LINE
  8
7
  6
CONTINUOUS
 62
     2
 10
38.0
 20
68.0
 11
38.0
 21
11.0
  0
LINE
  8
7
  6
CONTINUOUS
 62
     2
 10
45.0
 20
68.0
 11
45.0
 21
11.0
  0
LINE
  8
7
  6
CONTINUOUS
 62
     2
 10
52.0
 20
68.0
 11
52.0
 21
11.0
  0
TEXT
  8
7
  6
CONTINUOUS
 62
     6
 10
17.5
 20
72.0
 30
0.0
 40
5.0
  1
Ｅ
 50
0.0
 41
1.0
 51
0.0
  7
KANJI2
  0
TEXT
  8
7
  6
CONTINUOUS
 62
     6
 10
17.5
 20
22.0
 30
0.0
 40
5.0
  1
Ｆ
 50
0.0
 41
1.0
 51
0.0
  7
KANJI2
  0
TEXT
  8
7
  6
CONTINUOUS
 62
     6
 10
22.25
 20
4.5
 30
0.0
 40
5.0
  1
１
 50
0.0
 41
1.2
 51
0.0
  7
KANJI1
  0
LINE
  8
7
  6
CONTINUOUS
 62
     6
 10
54.0
 20
6.0
 11
154.0
 21
6.0
  0
LINE
  8
7
  6
CONTINUOUS
 62
     2
 10
156.5
 20
11.0
 11
156.5
 21
6.0
  0
LINE
  8
7
  6
CONTINUOUS
 62
     2
 10
24.0
 20
40.0
 11
65.0
 21
40.0
  0
LINE
  8
7
  6
CONTINUOUS
 62
     2
 10
24.0
 20
18.0
 11
65.0
 21
18.0
  0
LINE
  8
7
  6
CONTINUOUS
 62
     2
 10
113.0
 20
44.0
 11
113.0
 21
22.0
  0
LINE
  8
7
  6
CONTINUOUS
 62
     2
 10
129.0
 20
44.0
 11
129.0
 21
22.0
  0
LINE
  8
7
  6
CONTINUOUS
 62
     2
 10
89.0
 20
44.0
 11
89.0
 21
33.0
  0
LINE
  8
7
  6
CONTINUOUS
 62
     2
 10
59.0
 20
68.0
 11
59.0
 21
11.0
  0
LINE
  8
7
  6
CONTINUOUS
 62
     2
 10
81.0
 20
33.0
 11
81.0
 21
11.0
  0
LINE
  8
7
  6
CONTINUOUS
 62
     2
 10
97.0
 20
33.0
 11
97.0
 21
11.0
  0
LINE
  8
7
  6
LTYPE1
 62
     2
 10
103.0
 20
14.5
 11
107.0
 21
14.5
  0
LINE
  8
7
  6
LTYPE1
 62
     2
 10
107.0
 20
14.5
 11
107.0
 21
18.5
  0
LINE
  8
7
  6
LTYPE1
 62
     2
 10
107.0
 20
18.5
 11
103.0
 21
18.5
  0
LINE
  8
7
  6
LTYPE1
 62
     2
 10
103.0
 20
18.5
 11
103.0
 21
14.5
  0
TEXT
  8
7
  6
CONTINUOUS
 62
     4
 10
63.15
 20
53.5
 30
0.3
 40
2.5
  1
氏名
 50
90.0
 41
1.0
 51
0.0
  7
KANJI3
  0
TEXT
  8
7
  6
CONTINUOUS
 62
     4
 10
63.15
 20
41.425
 30
1.0
 40
2.5
  1
年月日
 50
90.0
 41
1.0
 51
0.0
  7
KANJI4
  0
TEXT
  8
7
  6
CONTINUOUS
 62
     4
 10
63.15
 20
61.375
 30
0.3
 40
2.5
  1
承認
 50
90.0
 41
1.0
 51
0.0
  7
KANJI3
  0
TEXT
  8
7
  6
CONTINUOUS
 62
     4
 10
66.0
 20
40.5
 30
0.0
 40
2.5
  1
熱処理
 50
0.0
 41
1.0
 51
0.0
  7
KANJI5
  0
TEXT
  8
7
  6
CONTINUOUS
 62
     4
 10
90.0
 20
40.5
 30
0.0
 40
2.5
  1
表面処理
 50
0.0
 41
1.0
 51
0.0
  7
KANJI5
  0
TEXT
  8
7
  6
CONTINUOUS
 62
     4
 10
114.0
 20
40.5
 30
0.0
 40
2.5
  1
台数
 50
0.0
 41
1.0
 51
0.0
  7
KANJI5
  0
TEXT
  8
7
  6
CONTINUOUS
 62
     4
 10
130.0
 20
40.5
 30
0.0
 40
2.5
  1
作成日付
 50
0.0
 41
1.0
 51
0.0
  7
KANJI5
  0
TEXT
  8
7
  6
CONTINUOUS
 62
     4
 10
146.0
 20
40.5
 30
0.0
 40
2.5
  1
名称
 50
0.0
 41
1.0
 51
0.0
  7
KANJI5
  0
TEXT
  8
7
  6
CONTINUOUS
 62
     4
 10
66.0
 20
29.5
 30
0.0
 40
2.5
  1
尺度
 50
0.0
 41
1.0
 51
0.0
  7
KANJI5
  0
TEXT
  8
7
  6
CONTINUOUS
 62
     4
 10
82.0
 20
29.5
 30
0.0
 40
2.5
  1
承認
 50
0.0
 41
1.0
 51
0.0
  7
KANJI5
  0
TEXT
  8
7
  6
CONTINUOUS
 62
     4
 10
98.0
 20
29.5
 30
0.0
 40
2.5
  1
検図
 50
0.0
 41
1.0
 51
0.0
  7
KANJI5
  0
TEXT
  8
7
  6
CONTINUOUS
 62
     4
 10
114.0
 20
29.5
 30
0.0
 40
2.5
  1
設計
 50
0.0
 41
1.0
 51
0.0
  7
KANJI5
  0
TEXT
  8
7
  6
CONTINUOUS
 62
     4
 10
130.0
 20
29.5
 30
0.0
 40
2.5
  1
製図
 50
0.0
 41
1.0
 51
0.0
  7
KANJI5
  0
TEXT
  8
7
  6
CONTINUOUS
 62
     4
 10
146.0
 20
29.5
 30
0.0
 40
2.5
  1
機名
 50
0.0
 41
1.0
 51
0.0
  7
KANJI5
  0
TEXT
  8
7
  6
CONTINUOUS
 62
     4
 10
63.15
 20
11.875
 30
0.3
 40
2.5
  1
記号
 50
90.0
 41
1.0
 51
0.0
  7
KANJI3
  0
TEXT
  8
7
  6
CONTINUOUS
 62
     4
 10
146.0
 20
18.5
 30
0.0
 40
2.5
  1
図面番号
 50
0.0
 41
1.0
 51
0.0
  7
KANJI5
  0
TEXT
  8
7
  6
CONTINUOUS
 62
     4
 10
109.0
 20
15.25
 30
0.0
 40
2.5
  1
株式会社
 50
0.0
 41
1.0
 51
0.0
  7
KANJI5
  0
TEXT
  8
7
  6
CONTINUOUS
 62
     4
 10
121.0
 20
14.5
 30
0.0
 40
4.0
  1
昭和測器
 50
0.0
 41
1.125
 51
0.0
  7
KANJI6
  0
TEXT
  8
7
  6
CONTINUOUS
 62
     4
 10
63.15
 20
19.375
 30
0.3
 40
2.5
  1
来歴・改訂記事
 50
90.0
 41
1.0
 51
0.0
  7
KANJI3
  0
TEXT
  8
7
  6
CONTINUOUS
 62
     1
 10
68.0
 20
16.5
 30
0.0
 40
5.0
  1
第３
 50
0.0
 41
1.0
 51
0.0
  7
KANJI2
  0
TEXT
  8
7
  6
CONTINUOUS
 62
     1
 10
68.0
 20
11.5
 30
0.0
 40
5.0
  1
角法
 50
0.0
 41
1.0
 51
0.0
  7
KANJI2
  0
CIRCLE
  8
7
  6
CONTINUOUS
 62
     6
 10
72.75
 20
27.0
 40
0.2
  0
CIRCLE
  8
7
  6
CONTINUOUS
 62
     6
 10
72.75
 20
24.5
 40
0.2
  0
TEXT
  8
7
  6
CONTINUOUS
 62
     6
 10
83.725
 20
13.025
 30
-1.0
 40
7.0
  1
Ａ４
 50
0.0
 41
0.857142857
 51
0.0
  7
KANJI7
  0
TEXT
  8
7
  6
CONTINUOUS
 62
     6
 10
178.25
 20
5.0
 30
0.0
 40
5.0
  1
４
 50
0.0
 41
1.2
 51
0.0
  7
KANJI1
  0
TEXT
  8
7
  6
CONTINUOUS
 62
     4
 10
66.5
 20
46.0
 30
0.0
 40
4.0
  1
番号
 50
0.0
 41
0.875
 51
0.0
  7
KANJI0
  0
TEXT
  8
7
  6
CONTINUOUS
 62
     4
 10
84.25
 20
46.0
 30
0.0
 40
4.0
  1
部　品　名
 50
0.0
 41
0.875
 51
0.0
  7
KANJI0
  0
LINE
  8
7
  6
CONTINUOUS
 62
     6
 10
104.0
 20
11.0
 11
104.0
 21
1.0
  0
LINE
  8
7
  6
CONTINUOUS
 62
     6
 10
54.0
 20
11.0
 11
54.0
 21
6.0
  0
LINE
  8
7
  6
CONTINUOUS
 62
     6
 10
154.0
 20
6.0
 11
154.0
 21
11.0
  0
LINE
  8
7
  6
CONTINUOUS
 62
     6
 10
64.0
 20
11.0
 11
64.0
 21
6.0
  0
LINE
  8
7
  6
CONTINUOUS
 62
     6
 10
74.0
 20
11.0
 11
74.0
 21
6.0
  0
LINE
  8
7
  6
CONTINUOUS
 62
     6
 10
84.0
 20
11.0
 11
84.0
 21
6.0
  0
LINE
  8
7
  6
CONTINUOUS
 62
     6
 10
94.0
 20
11.0
 11
94.0
 21
6.0
  0
LINE
  8
7
  6
CONTINUOUS
 62
     6
 10
144.0
 20
6.0
 11
144.0
 21
11.0
  0
LINE
  8
7
  6
CONTINUOUS
 62
     6
 10
134.0
 20
6.0
 11
134.0
 21
11.0
  0
LINE
  8
7
  6
CONTINUOUS
 62
     6
 10
124.0
 20
6.0
 11
124.0
 21
11.0
  0
LINE
  8
7
  6
CONTINUOUS
 62
     6
 10
114.0
 20
6.0
 11
114.0
 21
11.0
  0
LINE
  8
7
  6
CONTINUOUS
 62
     2
 10
24.0
 20
68.0
 11
65.0
 21
68.0
  0
LINE
  8
7
  6
CONTINUOUS
 62
     2
 10
24.0
 20
60.0
 11
65.0
 21
60.0
  0
LINE
  8
7
  6
CONTINUOUS
 62
     2
 10
65.0
 20
52.0
 11
65.0
 21
11.0
  0
LINE
  8
7
  6
CONTINUOUS
 62
     2
 10
65.0
 20
68.0
 11
65.0
 21
52.0
  0
LINE
  8
7
  6
CONTINUOUS
 62
     2
 10
75.0
 20
52.0
 11
75.0
 21
44.0
  0
LINE
  8
7
  6
CONTINUOUS
 62
     2
 10
75.0
 20
68.0
 11
75.0
 21
52.0
  0
LINE
  8
7
  6
CONTINUOUS
 62
     2
 10
111.0
 20
52.0
 11
111.0
 21
44.0
  0
LINE
  8
7
  6
CONTINUOUS
 62
     2
 10
111.0
 20
68.0
 11
111.0
 21
52.0
  0
LINE
  8
7
  6
CONTINUOUS
 62
     2
 10
65.0
 20
33.0
 11
145.0
 21
33.0
  0
LINE
  8
7
  6
CONTINUOUS
 62
     2
 10
65.0
 20
22.0
 11
145.0
 21
22.0
  0
LINE
  8
7
  6
CONTINUOUS
 62
     6
 10
24.0
 20
11.0
 11
145.0
 21
11.0
  0
LINE
  8
7
  6
CONTINUOUS
 62
     6
 10
145.0
 20
11.0
 11
189.0
 21
11.0
  0
TEXT
  8
7
  6
CONTINUOUS
 62
     4
 10
172.25
 20
46.0
 30
0.0
 40
4.0
  1
摘　　　要
 50
0.0
 41
0.875
 51
0.0
  7
KANJI0
  0
LINE
  8
7
  6
LTYPE2
 62
     2
 10
187.0
 20
22.0
 11
187.0
 21
11.0
  0
TEXT
  8
7
  6
CONTINUOUS
 62
     4
 10
145.0
 20
48.0
 30
-0.5
 40
3.0
  1
１セット分
 50
0.0
 41
0.666666667
 51
0.0
  7
KANJI8
  0
TEXT
  8
7
  6
CONTINUOUS
 62
     4
 10
134.0
 20
48.0
 30
0.0
 40
3.0
  1
１台分
 50
0.0
 41
1.0
 51
0.0
  7
KANJI9
  0
TEXT
  8
7
  6
CONTINUOUS
 62
     4
 10
136.0
 20
45.0
 30
0.0
 40
3.0
  1
個数
 50
0.0
 41
1.0
 51
0.0
  7
KANJI9
  0
TEXT
  8
7
  6
CONTINUOUS
 62
     4
 10
146.0
 20
45.0
 30
0.0
 40
3.0
  1
個数
 50
0.0
 41
1.0
 51
0.0
  7
KANJI9
  0
TEXT
  8
7
  6
CONTINUOUS
 62
     4
 10
155.5
 20
46.0
 30
0.0
 40
4.0
  1
総数
 50
0.0
 41
0.875
 51
0.0
  7
KANJI0
  0
LINE
  8
7
  6
CONTINUOUS
 62
     2
 10
134.0
 20
52.0
 11
134.0
 21
44.0
  0
LINE
  8
7
  6
CONTINUOUS
 62
     2
 10
134.0
 20
68.0
 11
134.0
 21
52.0
  0
LINE
  8
7
  6
CONTINUOUS
 62
     2
 10
144.0
 20
52.0
 11
144.0
 21
44.0
  0
LINE
  8
7
  6
CONTINUOUS
 62
     2
 10
144.0
 20
68.0
 11
144.0
 21
52.0
  0
LINE
  8
7
  6
CONTINUOUS
 62
     2
 10
154.0
 20
52.0
 11
154.0
 21
44.0
  0
LINE
  8
7
  6
CONTINUOUS
 62
     2
 10
154.0
 20
68.0
 11
154.0
 21
52.0
  0
LINE
  8
7
  6
CONTINUOUS
 62
     2
 10
164.0
 20
52.0
 11
164.0
 21
44.0
  0
LINE
  8
7
  6
CONTINUOUS
 62
     2
 10
164.0
 20
68.0
 11
164.0
 21
52.0
  0
LINE
  8
7
  6
CONTINUOUS
 62
     2
 10
145.0
 20
44.0
 11
145.0
 21
11.0
  0
TEXT
  8
7
  6
CONTINUOUS
 62
     4
 10
117.25
 20
46.0
 30
0.0
 40
4.0
  1
材　質
 50
0.0
 41
0.875
 51
0.0
  7
KANJI0
  0
LINE
  8
7
  6
CONTINUOUS
 62
     2
 10
25.0
 20
52.0
 11
65.0
 21
52.0
  0
TEXT
  8
6
  6
CONTINUOUS
 62
     5
 10
67.75
 20
24.0
 30
0.0
 40
4.0
  1
１
 50
0.0
 41
0.875
 51
0.0
  7
KANJI0
  0
TEXT
  8
6
  6
CONTINUOUS
 62
     5
 10
74.25
 20
24.0
 30
0.0
 40
4.0
  1
１
 50
0.0
 41
0.875
 51
0.0
  7
KANJI0
  0
TEXT
  8
6
  6
CONTINUOUS
 62
     5
 10
130.5
 20
37.0
 30
-0.5
 40
3.0
  1
２０１７．
 50
0.0
 41
0.833333333
 51
0.0
  7
KANJI10
  0
TEXT
  8
6
  6
CONTINUOUS
 62
     5
 10
133.0
 20
34.0
 30
-0.5
 40
3.0
  1
０７．１３
 50
0.0
 41
0.833333333
 51
0.0
  7
KANJI10
  0
TEXT
  8
6
  6
CONTINUOUS
 62
     5
 10
166.15
 20
35.0
 30
0.1
 40
4.0
  1
外観図
 50
0.0
 41
0.875
 51
0.0
  7
KANJI11
  0
TEXT
  8
6
  6
CONTINUOUS
 62
     5
 10
150.7
 20
24.0
 30
0.1
 40
4.0
  1
ＳＡＬ－□ＭＳ
 50
0.0
 41
0.875
 51
0.0
  7
KANJI11
  0
TEXT
  8
6
  6
CONTINUOUS
 62
     5
 10
147.65
 20
13.0
 30
0.1
 40
4.0
  1
Ｕ－０００９－Ａ００１
 50
0.0
 41
0.875
 51
0.0
  7
KANJI11
  0
TEXT
  8
5
  6
CONTINUOUS
 62
     5
 10
135.0
 20
70.0
 30
0.0
 40
4.0
  1
２０，５０，１００，２００　ｍ／ｓ
 50
0.0
 41
0.875
 51
0.0
  7
KANJI0
  0
TEXT
  8
5
  6
CONTINUOUS
 62
     5
 10
192.0
 20
73.0
 30
0.0
 40
2.0
  1
２
 50
0.0
 41
0.875
 51
0.0
  7
KANJI12
  0
POLYLINE
  8
0
  6
CONTINUOUS
 62
     1
 66
     1
  0
VERTEX
  8
0
  6
CONTINUOUS
 62
     1
 10
72.0
 20
162.0
  0
VERTEX
  8
0
  6
CONTINUOUS
 62
     1
 10
88.0
 20
162.0
  0
VERTEX
  8
0
  6
CONTINUOUS
 62
     1
 10
88.0
 20
178.0
  0
VERTEX
  8
0
  6
CONTINUOUS
 62
     1
 10
72.0
 20
178.0
  0
SEQEND
  0
CIRCLE
  8
0
  6
CONTINUOUS
 62
     1
 10
77.5
 20
172.5
 40
0.5
  0
CIRCLE
  8
0
  6
CONTINUOUS
 62
     1
 10
77.5
 20
167.5
 40
0.5
  0
CIRCLE
  8
0
  6
CONTINUOUS
 62
     1
 10
82.5
 20
172.5
 40
0.5
  0
CIRCLE
  8
0
  6
CONTINUOUS
 62
     1
 10
82.5
 20
167.5
 40
0.5
  0
LINE
  8
0
  6
LTYPE3
 62
     2
 10
80.0
 20
183.0
 11
80.0
 21
157.0
  0
CIRCLE
  8
0
  6
CONTINUOUS
 62
     1
 10
77.5
 20
167.5
 40
1.0
  0
CIRCLE
  8
0
  6
CONTINUOUS
 62
     1
 10
77.5
 20
172.5
 40
1.0
  0
CIRCLE
  8
0
  6
CONTINUOUS
 62
     1
 10
82.5
 20
172.5
 40
1.0
  0
CIRCLE
  8
0
  6
CONTINUOUS
 62
     1
 10
82.5
 20
167.5
 40
1.0
  0
LINE
  8
0
  6
CONTINUOUS
 62
     1
 10
72.0
 20
178.0
 11
72.0
 21
162.0
  0
LINE
  8
0
  6
LTYPE3
 62
     2
 10
67.0
 20
170.0
 11
93.0
 21
170.0
  0
CIRCLE
  8
4
  6
CONTINUOUS
 62
     1
 10
74.0
 20
176.0
 40
1.9
  0
LINE
  8
4
  6
CONTINUOUS
 62
     1
 10
73.05
 20
175.841666667
 11
73.05
 21
176.158333333
  0
LINE
  8
4
  6
CONTINUOUS
 62
     1
 10
73.841666667
 20
176.95
 11
74.158333333
 21
176.95
  0
LINE
  8
4
  6
CONTINUOUS
 62
     1
 10
74.95
 20
175.841666667
 11
74.95
 21
176.158333333
  0
LINE
  8
4
  6
CONTINUOUS
 62
     1
 10
73.841666667
 20
175.05
 11
74.158333333
 21
175.05
  0
LINE
  8
4
  6
CONTINUOUS
 62
     1
 10
74.95
 20
175.841666667
 11
74.633333333
 21
175.841666667
  0
LINE
  8
4
  6
CONTINUOUS
 62
     1
 10
74.158333333
 20
175.05
 11
74.158333333
 21
175.366666667
  0
LINE
  8
4
  6
CONTINUOUS
 62
     1
 10
73.841666667
 20
175.05
 11
73.841666667
 21
175.366666667
  0
LINE
  8
4
  6
CONTINUOUS
 62
     1
 10
73.05
 20
176.158333333
 11
73.366666667
 21
176.158333333
  0
LINE
  8
4
  6
CONTINUOUS
 62
     1
 10
74.158333333
 20
176.95
 11
74.158333333
 21
176.633333333
  0
LINE
  8
4
  6
CONTINUOUS
 62
     1
 10
74.95
 20
175.841666667
 11
74.633333333
 21
175.841666667
  0
LINE
  8
4
  6
CONTINUOUS
 62
     1
 10
74.95
 20
176.158333333
 11
74.633333333
 21
176.158333333
  0
LINE
  8
4
  6
CONTINUOUS
 62
     1
 10
73.841666667
 20
176.95
 11
73.841666667
 21
176.633333333
  0
LINE
  8
4
  6
CONTINUOUS
 62
     1
 10
73.05
 20
175.841666667
 11
73.366666667
 21
175.841666667
  0
ARC
  8
4
  6
CONTINUOUS
 62
     1
 10
74.580555556
 20
176.580555556
 40
0.422222222
 50
172.3
 51
277.7
  0
ARC
  8
4
  6
CONTINUOUS
 62
     1
 10
73.419444444
 20
176.580555556
 40
0.422222222
 50
262.3
 51
7.7
  0
ARC
  8
4
  6
CONTINUOUS
 62
     1
 10
73.419444444
 20
175.419444444
 40
0.422222222
 50
352.3
 51
97.7
  0
ARC
  8
4
  6
CONTINUOUS
 62
     1
 10
74.580555556
 20
175.419444444
 40
0.422222222
 50
82.3
 51
187.7
  0
CIRCLE
  8
4
  6
CONTINUOUS
 62
     1
 10
74.0
 20
164.0
 40
1.9
  0
LINE
  8
4
  6
CONTINUOUS
 62
     1
 10
74.158333333
 20
163.05
 11
73.841666667
 21
163.05
  0
LINE
  8
4
  6
CONTINUOUS
 62
     1
 10
73.05
 20
163.841666667
 11
73.05
 21
164.158333333
  0
LINE
  8
4
  6
CONTINUOUS
 62
     1
 10
74.158333333
 20
164.95
 11
73.841666667
 21
164.95
  0
LINE
  8
4
  6
CONTINUOUS
 62
     1
 10
74.95
 20
163.841666667
 11
74.95
 21
164.158333333
  0
LINE
  8
4
  6
CONTINUOUS
 62
     1
 10
74.158333333
 20
164.95
 11
74.158333333
 21
164.633333333
  0
LINE
  8
4
  6
CONTINUOUS
 62
     1
 10
74.95
 20
164.158333333
 11
74.633333333
 21
164.158333333
  0
LINE
  8
4
  6
CONTINUOUS
 62
     1
 10
74.95
 20
163.841666667
 11
74.633333333
 21
163.841666667
  0
LINE
  8
4
  6
CONTINUOUS
 62
     1
 10
73.841666667
 20
163.05
 11
73.841666667
 21
163.366666667
  0
LINE
  8
4
  6
CONTINUOUS
 62
     1
 10
73.05
 20
164.158333333
 11
73.366666667
 21
164.158333333
  0
LINE
  8
4
  6
CONTINUOUS
 62
     1
 10
74.158333333
 20
164.95
 11
74.158333333
 21
164.633333333
  0
LINE
  8
4
  6
CONTINUOUS
 62
     1
 10
73.841666667
 20
164.95
 11
73.841666667
 21
164.633333333
  0
LINE
  8
4
  6
CONTINUOUS
 62
     1
 10
73.05
 20
163.841666667
 11
73.366666667
 21
163.841666667
  0
LINE
  8
4
  6
CONTINUOUS
 62
     1
 10
74.158333333
 20
163.05
 11
74.158333333
 21
163.366666667
  0
ARC
  8
4
  6
CONTINUOUS
 62
     1
 10
73.419444444
 20
164.580555556
 40
0.422222222
 50
262.3
 51
7.7
  0
ARC
  8
4
  6
CONTINUOUS
 62
     1
 10
73.419444444
 20
163.419444444
 40
0.422222222
 50
352.3
 51
97.7
  0
ARC
  8
4
  6
CONTINUOUS
 62
     1
 10
74.580555556
 20
163.419444444
 40
0.422222222
 50
82.3
 51
187.7
  0
ARC
  8
4
  6
CONTINUOUS
 62
     1
 10
74.580555556
 20
164.580555556
 40
0.422222222
 50
172.3
 51
277.7
  0
CIRCLE
  8
4
  6
CONTINUOUS
 62
     1
 10
86.0
 20
164.0
 40
1.9
  0
LINE
  8
4
  6
CONTINUOUS
 62
     1
 10
86.95
 20
164.158333333
 11
86.95
 21
163.841666667
  0
LINE
  8
4
  6
CONTINUOUS
 62
     1
 10
86.158333333
 20
163.05
 11
85.841666667
 21
163.05
  0
LINE
  8
4
  6
CONTINUOUS
 62
     1
 10
85.05
 20
164.158333333
 11
85.05
 21
163.841666667
  0
LINE
  8
4
  6
CONTINUOUS
 62
     1
 10
86.158333333
 20
164.95
 11
85.841666667
 21
164.95
  0
LINE
  8
4
  6
CONTINUOUS
 62
     1
 10
85.05
 20
164.158333333
 11
85.366666667
 21
164.158333333
  0
LINE
  8
4
  6
CONTINUOUS
 62
     1
 10
85.841666667
 20
164.95
 11
85.841666667
 21
164.633333333
  0
LINE
  8
4
  6
CONTINUOUS
 62
     1
 10
86.158333333
 20
164.95
 11
86.158333333
 21
164.633333333
  0
LINE
  8
4
  6
CONTINUOUS
 62
     1
 10
86.95
 20
163.841666667
 11
86.633333333
 21
163.841666667
  0
LINE
  8
4
  6
CONTINUOUS
 62
     1
 10
85.841666667
 20
163.05
 11
85.841666667
 21
163.366666667
  0
LINE
  8
4
  6
CONTINUOUS
 62
     1
 10
85.05
 20
164.158333333
 11
85.366666667
 21
164.158333333
  0
LINE
  8
4
  6
CONTINUOUS
 62
     1
 10
85.05
 20
163.841666667
 11
85.366666667
 21
163.841666667
  0
LINE
  8
4
  6
CONTINUOUS
 62
     1
 10
86.158333333
 20
163.05
 11
86.158333333
 21
163.366666667
  0
LINE
  8
4
  6
CONTINUOUS
 62
     1
 10
86.95
 20
164.158333333
 11
86.633333333
 21
164.158333333
  0
ARC
  8
4
  6
CONTINUOUS
 62
     1
 10
85.419444444
 20
163.419444444
 40
0.422222222
 50
352.3
 51
97.7
  0
ARC
  8
4
  6
CONTINUOUS
 62
     1
 10
86.580555556
 20
163.419444444
 40
0.422222222
 50
82.3
 51
187.7
  0
ARC
  8
4
  6
CONTINUOUS
 62
     1
 10
86.580555556
 20
164.580555556
 40
0.422222222
 50
172.3
 51
277.7
  0
ARC
  8
4
  6
CONTINUOUS
 62
     1
 10
85.419444444
 20
164.580555556
 40
0.422222222
 50
262.3
 51
7.7
  0
CIRCLE
  8
4
  6
CONTINUOUS
 62
     1
 10
86.0
 20
176.0
 40
1.9
  0
LINE
  8
4
  6
CONTINUOUS
 62
     1
 10
85.841666667
 20
176.95
 11
86.158333333
 21
176.95
  0
LINE
  8
4
  6
CONTINUOUS
 62
     1
 10
86.95
 20
176.158333333
 11
86.95
 21
175.841666667
  0
LINE
  8
4
  6
CONTINUOUS
 62
     1
 10
85.841666667
 20
175.05
 11
86.158333333
 21
175.05
  0
LINE
  8
4
  6
CONTINUOUS
 62
     1
 10
85.05
 20
176.158333333
 11
85.05
 21
175.841666667
  0
LINE
  8
4
  6
CONTINUOUS
 62
     1
 10
85.841666667
 20
175.05
 11
85.841666667
 21
175.366666667
  0
LINE
  8
4
  6
CONTINUOUS
 62
     1
 10
85.05
 20
175.841666667
 11
85.366666667
 21
175.841666667
  0
LINE
  8
4
  6
CONTINUOUS
 62
     1
 10
85.05
 20
176.158333333
 11
85.366666667
 21
176.158333333
  0
LINE
  8
4
  6
CONTINUOUS
 62
     1
 10
86.158333333
 20
176.95
 11
86.158333333
 21
176.633333333
  0
LINE
  8
4
  6
CONTINUOUS
 62
     1
 10
86.95
 20
175.841666667
 11
86.633333333
 21
175.841666667
  0
LINE
  8
4
  6
CONTINUOUS
 62
     1
 10
85.841666667
 20
175.05
 11
85.841666667
 21
175.366666667
  0
LINE
  8
4
  6
CONTINUOUS
 62
     1
 10
86.158333333
 20
175.05
 11
86.158333333
 21
175.366666667
  0
LINE
  8
4
  6
CONTINUOUS
 62
     1
 10
86.95
 20
176.158333333
 11
86.633333333
 21
176.158333333
  0
LINE
  8
4
  6
CONTINUOUS
 62
     1
 10
85.841666667
 20
176.95
 11
85.841666667
 21
176.633333333
  0
ARC
  8
4
  6
CONTINUOUS
 62
     1
 10
86.580555556
 20
175.419444444
 40
0.422222222
 50
82.3
 51
187.7
  0
ARC
  8
4
  6
CONTINUOUS
 62
     1
 10
86.580555556
 20
176.580555556
 40
0.422222222
 50
172.3
 51
277.7
  0
ARC
  8
4
  6
CONTINUOUS
 62
     1
 10
85.419444444
 20
176.580555556
 40
0.422222222
 50
262.3
 51
7.7
  0
ARC
  8
4
  6
CONTINUOUS
 62
     1
 10
85.419444444
 20
175.419444444
 40
0.422222222
 50
352.3
 51
97.7
  0
LINE
  8
5
  6
CONTINUOUS
 62
     2
 10
72.0
 20
179.0
 11
72.0
 21
189.0
  0
LINE
  8
5
  6
CONTINUOUS
 62
     2
 10
72.0
 20
188.0
 11
74.414814566
 21
187.352952387
  0
LINE
  8
5
  6
CONTINUOUS
 62
     2
 10
72.0
 20
188.0
 11
74.414814566
 21
188.647047613
  0
LINE
  8
5
  6
CONTINUOUS
 62
     2
 10
72.0
 20
188.0
 11
88.0
 21
188.0
  0
LINE
  8
5
  6
CONTINUOUS
 62
     2
 10
88.0
 20
188.0
 11
85.585185434
 21
188.647047613
  0
LINE
  8
5
  6
CONTINUOUS
 62
     2
 10
88.0
 20
188.0
 11
85.585185434
 21
187.352952387
  0
LINE
  8
5
  6
CONTINUOUS
 62
     2
 10
88.0
 20
179.0
 11
88.0
 21
189.0
  0
TEXT
  8
5
  6
CONTINUOUS
 62
     5
 10
76.45
 20
189.0
 30
0.1
 40
4.0
  1
１６
 50
0.0
 41
0.875
 51
0.0
  7
KANJI11
  0
POLYLINE
  8
0
  6
CONTINUOUS
 62
     1
 66
     1
 70
     1
  0
VERTEX
  8
0
  6
CONTINUOUS
 62
     1
 10
134.0
 20
162.0
  0
VERTEX
  8
0
  6
CONTINUOUS
 62
     1
 10
150.0
 20
162.0
  0
VERTEX
  8
0
  6
CONTINUOUS
 62
     1
 10
150.0
 20
178.0
  0
VERTEX
  8
0
  6
CONTINUOUS
 62
     1
 10
134.0
 20
178.0
  0
SEQEND
  0
LINE
  8
0
  6
CONTINUOUS
 62
     1
 10
135.5
 20
178.0
 11
135.5
 21
162.0
  0
LINE
  8
0
  6
LTYPE3
 62
     2
 10
155.0
 20
170.0
 11
125.0
 21
170.0
  0
LINE
  8
0
  6
CONTINUOUS
 62
     1
 10
134.0
 20
172.0
 11
131.0
 21
172.0
  0
LINE
  8
0
  6
CONTINUOUS
 62
     1
 10
131.0
 20
173.0
 11
134.0
 21
173.0
  0
LINE
  8
0
  6
CONTINUOUS
 62
     1
 10
131.0
 20
173.0
 11
131.0
 21
172.0
  0
LINE
  8
0
  6
CONTINUOUS
 62
     1
 10
134.0
 20
168.0
 11
131.0
 21
168.0
  0
LINE
  8
0
  6
CONTINUOUS
 62
     1
 10
131.0
 20
167.0
 11
134.0
 21
167.0
  0
LINE
  8
0
  6
CONTINUOUS
 62
     1
 10
131.0
 20
167.0
 11
131.0
 21
168.0
  0
LINE
  8
5
  6
CONTINUOUS
 62
     2
 10
134.0
 20
179.0
 11
134.0
 21
189.0
  0
LINE
  8
5
  6
CONTINUOUS
 62
     2
 10
134.0
 20
188.0
 11
136.414814566
 21
187.352952387
  0
LINE
  8
5
  6
CONTINUOUS
 62
     2
 10
134.0
 20
188.0
 11
136.414814566
 21
188.647047613
  0
LINE
  8
5
  6
CONTINUOUS
 62
     2
 10
134.0
 20
188.0
 11
150.0
 21
188.0
  0
LINE
  8
5
  6
CONTINUOUS
 62
     2
 10
150.0
 20
188.0
 11
147.585185434
 21
188.647047613
  0
LINE
  8
5
  6
CONTINUOUS
 62
     2
 10
150.0
 20
188.0
 11
147.585185434
 21
187.352952387
  0
LINE
  8
5
  6
CONTINUOUS
 62
     2
 10
150.0
 20
179.0
 11
150.0
 21
189.0
  0
TEXT
  8
5
  6
CONTINUOUS
 62
     5
 10
131.25
 20
189.0
 30
0.1
 40
4.0
  1
１６（１９）
 50
0.0
 41
0.875
 51
0.0
  7
KANJI11
  0
LINE
  8
5
  6
CONTINUOUS
 62
     2
 10
131.0
 20
174.0
 11
131.0
 21
199.0
  0
LINE
  8
5
  6
CONTINUOUS
 62
     2
 10
131.0
 20
198.0
 11
133.414814566
 21
197.352952387
  0
LINE
  8
5
  6
CONTINUOUS
 62
     2
 10
131.0
 20
198.0
 11
133.414814566
 21
198.647047613
  0
LINE
  8
5
  6
CONTINUOUS
 62
     2
 10
131.0
 20
198.0
 11
150.0
 21
198.0
  0
LINE
  8
5
  6
CONTINUOUS
 62
     2
 10
150.0
 20
198.0
 11
147.585185434
 21
198.647047613
  0
LINE
  8
5
  6
CONTINUOUS
 62
     2
 10
150.0
 20
198.0
 11
147.585185434
 21
197.352952387
  0
LINE
  8
5
  6
CONTINUOUS
 62
     2
 10
150.0
 20
179.0
 11
150.0
 21
199.0
  0
TEXT
  8
5
  6
CONTINUOUS
 62
     5
 10
129.75
 20
199.0
 30
0.1
 40
4.0
  1
１９（２２）
 50
0.0
 41
0.875
 51
0.0
  7
KANJI11
  0
LINE
  8
5
  6
CONTINUOUS
 62
     2
 10
151.0
 20
162.0
 11
166.0
 21
162.0
  0
LINE
  8
5
  6
CONTINUOUS
 62
     2
 10
165.0
 20
162.0
 11
165.647047613
 21
164.414814566
  0
LINE
  8
5
  6
CONTINUOUS
 62
     2
 10
165.0
 20
162.0
 11
164.352952387
 21
164.414814566
  0
LINE
  8
5
  6
CONTINUOUS
 62
     2
 10
165.0
 20
162.0
 11
165.0
 21
178.0
  0
LINE
  8
5
  6
CONTINUOUS
 62
     2
 10
165.0
 20
178.0
 11
164.352952387
 21
175.585185434
  0
LINE
  8
5
  6
CONTINUOUS
 62
     2
 10
165.0
 20
178.0
 11
165.647047613
 21
175.585185434
  0
LINE
  8
5
  6
CONTINUOUS
 62
     2
 10
151.0
 20
178.0
 11
166.0
 21
178.0
  0
TEXT
  8
5
  6
CONTINUOUS
 62
     5
 10
164.0
 20
166.45
 30
0.1
 40
4.0
  1
１６
 50
90.0
 41
0.875
 51
0.0
  7
KANJI11
  0
TEXT
  8
5
  6
CONTINUOUS
 62
     5
 10
92.0
 20
120.0
 30
0.0
 40
4.0
  1
（　）内の寸法は２０　ｍ／ｓ
 50
0.0
 41
0.875
 51
0.0
  7
KANJI0
  0
TEXT
  8
5
  6
CONTINUOUS
 62
     5
 10
139.0
 20
123.0
 30
0.0
 40
2.0
  1
２
 50
0.0
 41
0.875
 51
0.0
  7
KANJI12
  0
LINE
  8
5
  6
CONTINUOUS
 62
     2
 10
92.0
 20
119.0
 11
142.0
 21
119.0
  0
ENDSEC
  0
EOF
