  0
SECTION
  2
HEADER
  9
$EXTMIN
 10
0.0
 20
0.0
 30
0.0
  9
$EXTMAX
 10
420.0
 20
297.0
 30
0.0
  9
$LIMMIN
 10
0.0
 20
0.0
  9
$LIMMAX
 10
420.0
 20
297.0
  9
$LTSCALE
 40
1.0
  9
$PDMODE
 70
     0
  0
ENDSEC
  0
SECTION
  2
TABLES
  0
TABLE
  2
LTYPE
 70
     4
  0
LTYPE
  2
CONTINUOUS
 70
    64
  3
Solid line
 72
    65
 73
     0
 40
0.0
  0
LTYPE
  2
LTYPE1
 70
    64
  3
CENTER
 72
    65
 73
     4
 40
10.0
 49
7.0
 49
-1.0
 49
1.0
 49
-1.0
  0
LTYPE
  2
LTYPE2
 70
    64
  3
PHANTOM
 72
    65
 73
     6
 40
10.0
 49
7.5
 49
-0.5
 49
0.5
 49
-0.5
 49
0.5
 49
-0.5
  0
LTYPE
  2
LTYPE3
 70
    64
  3
HIDDEN
 72
    65
 73
     2
 40
2.0
 49
1.2
 49
-0.8
  0
ENDTAB
  0
TABLE
  2
LAYER
 70
   128
  0
LAYER
  2
0
 70
     0
 62
     7
  6
CONTINUOUS
  0
LAYER
  2
ハッチング
 70
     0
 62
     7
  6
CONTINUOUS
  0
LAYER
  2
治具
 70
     0
 62
     7
  6
CONTINUOUS
  0
LAYER
  2
購入品
 70
     0
 62
     7
  6
CONTINUOUS
  0
LAYER
  2
寸法線
 70
     0
 62
     7
  6
CONTINUOUS
  0
LAYER
  2
表題欄
 70
     0
 62
     7
  6
CONTINUOUS
  0
LAYER
  2
図枠
 70
     0
 62
     7
  6
CONTINUOUS
  0
LAYER
  2
8
 70
     0
 62
     7
  6
CONTINUOUS
  0
LAYER
  2
9
 70
     0
 62
     7
  6
CONTINUOUS
  0
LAYER
  2
10
 70
     0
 62
     7
  6
CONTINUOUS
  0
LAYER
  2
11
 70
     0
 62
     7
  6
CONTINUOUS
  0
LAYER
  2
12
 70
     0
 62
     7
  6
CONTINUOUS
  0
LAYER
  2
13
 70
     0
 62
     7
  6
CONTINUOUS
  0
LAYER
  2
14
 70
     0
 62
     7
  6
CONTINUOUS
  0
LAYER
  2
15
 70
     0
 62
     7
  6
CONTINUOUS
  0
LAYER
  2
16
 70
     0
 62
     7
  6
CONTINUOUS
  0
LAYER
  2
17
 70
     0
 62
     7
  6
CONTINUOUS
  0
LAYER
  2
18
 70
     0
 62
     7
  6
CONTINUOUS
  0
LAYER
  2
19
 70
     0
 62
     7
  6
CONTINUOUS
  0
LAYER
  2
20
 70
     0
 62
     7
  6
CONTINUOUS
  0
LAYER
  2
21
 70
     0
 62
     7
  6
CONTINUOUS
  0
LAYER
  2
22
 70
     0
 62
     7
  6
CONTINUOUS
  0
LAYER
  2
23
 70
     0
 62
     7
  6
CONTINUOUS
  0
LAYER
  2
24
 70
     0
 62
     7
  6
CONTINUOUS
  0
LAYER
  2
25
 70
     0
 62
     7
  6
CONTINUOUS
  0
LAYER
  2
26
 70
     0
 62
     7
  6
CONTINUOUS
  0
LAYER
  2
27
 70
     0
 62
     7
  6
CONTINUOUS
  0
LAYER
  2
28
 70
     0
 62
     7
  6
CONTINUOUS
  0
LAYER
  2
29
 70
     0
 62
     7
  6
CONTINUOUS
  0
LAYER
  2
30
 70
     0
 62
     7
  6
CONTINUOUS
  0
LAYER
  2
31
 70
     0
 62
     7
  6
CONTINUOUS
  0
LAYER
  2
32
 70
     0
 62
     7
  6
CONTINUOUS
  0
LAYER
  2
33
 70
     0
 62
     7
  6
CONTINUOUS
  0
LAYER
  2
34
 70
     0
 62
     7
  6
CONTINUOUS
  0
LAYER
  2
35
 70
     0
 62
     7
  6
CONTINUOUS
  0
LAYER
  2
36
 70
     0
 62
     7
  6
CONTINUOUS
  0
LAYER
  2
37
 70
     0
 62
     7
  6
CONTINUOUS
  0
LAYER
  2
38
 70
     0
 62
     7
  6
CONTINUOUS
  0
LAYER
  2
39
 70
     0
 62
     7
  6
CONTINUOUS
  0
LAYER
  2
40
 70
     0
 62
     7
  6
CONTINUOUS
  0
LAYER
  2
41
 70
     0
 62
     7
  6
CONTINUOUS
  0
LAYER
  2
42
 70
     0
 62
     7
  6
CONTINUOUS
  0
LAYER
  2
43
 70
     0
 62
     7
  6
CONTINUOUS
  0
LAYER
  2
44
 70
     0
 62
     7
  6
CONTINUOUS
  0
LAYER
  2
45
 70
     0
 62
     7
  6
CONTINUOUS
  0
LAYER
  2
46
 70
     0
 62
     7
  6
CONTINUOUS
  0
LAYER
  2
47
 70
     0
 62
     7
  6
CONTINUOUS
  0
LAYER
  2
48
 70
     0
 62
     7
  6
CONTINUOUS
  0
LAYER
  2
49
 70
     0
 62
     7
  6
CONTINUOUS
  0
LAYER
  2
50
 70
     0
 62
     7
  6
CONTINUOUS
  0
LAYER
  2
51
 70
     0
 62
     7
  6
CONTINUOUS
  0
LAYER
  2
52
 70
     0
 62
     7
  6
CONTINUOUS
  0
LAYER
  2
53
 70
     0
 62
     7
  6
CONTINUOUS
  0
LAYER
  2
54
 70
     0
 62
     7
  6
CONTINUOUS
  0
LAYER
  2
55
 70
     0
 62
     7
  6
CONTINUOUS
  0
LAYER
  2
56
 70
     0
 62
     7
  6
CONTINUOUS
  0
LAYER
  2
57
 70
     0
 62
     7
  6
CONTINUOUS
  0
LAYER
  2
58
 70
     0
 62
     7
  6
CONTINUOUS
  0
LAYER
  2
59
 70
     0
 62
     7
  6
CONTINUOUS
  0
LAYER
  2
60
 70
     0
 62
     7
  6
CONTINUOUS
  0
LAYER
  2
61
 70
     0
 62
     7
  6
CONTINUOUS
  0
LAYER
  2
62
 70
     0
 62
     7
  6
CONTINUOUS
  0
LAYER
  2
63
 70
     0
 62
     7
  6
CONTINUOUS
  0
LAYER
  2
64
 70
     0
 62
     7
  6
CONTINUOUS
  0
LAYER
  2
65
 70
     0
 62
     7
  6
CONTINUOUS
  0
LAYER
  2
66
 70
     0
 62
     7
  6
CONTINUOUS
  0
LAYER
  2
67
 70
     0
 62
     7
  6
CONTINUOUS
  0
LAYER
  2
68
 70
     0
 62
     7
  6
CONTINUOUS
  0
LAYER
  2
69
 70
     0
 62
     7
  6
CONTINUOUS
  0
LAYER
  2
70
 70
     0
 62
     7
  6
CONTINUOUS
  0
LAYER
  2
71
 70
     0
 62
     7
  6
CONTINUOUS
  0
LAYER
  2
72
 70
     0
 62
     7
  6
CONTINUOUS
  0
LAYER
  2
73
 70
     0
 62
     7
  6
CONTINUOUS
  0
LAYER
  2
74
 70
     0
 62
     7
  6
CONTINUOUS
  0
LAYER
  2
75
 70
     0
 62
     7
  6
CONTINUOUS
  0
LAYER
  2
76
 70
     0
 62
     7
  6
CONTINUOUS
  0
LAYER
  2
77
 70
     0
 62
     7
  6
CONTINUOUS
  0
LAYER
  2
78
 70
     0
 62
     7
  6
CONTINUOUS
  0
LAYER
  2
79
 70
     0
 62
     7
  6
CONTINUOUS
  0
LAYER
  2
80
 70
     0
 62
     7
  6
CONTINUOUS
  0
LAYER
  2
81
 70
     0
 62
     7
  6
CONTINUOUS
  0
LAYER
  2
82
 70
     0
 62
     7
  6
CONTINUOUS
  0
LAYER
  2
83
 70
     0
 62
     7
  6
CONTINUOUS
  0
LAYER
  2
84
 70
     0
 62
     7
  6
CONTINUOUS
  0
LAYER
  2
85
 70
     0
 62
     7
  6
CONTINUOUS
  0
LAYER
  2
86
 70
     0
 62
     7
  6
CONTINUOUS
  0
LAYER
  2
87
 70
     0
 62
     7
  6
CONTINUOUS
  0
LAYER
  2
88
 70
     0
 62
     7
  6
CONTINUOUS
  0
LAYER
  2
89
 70
     0
 62
     7
  6
CONTINUOUS
  0
LAYER
  2
90
 70
     0
 62
     7
  6
CONTINUOUS
  0
LAYER
  2
91
 70
     0
 62
     7
  6
CONTINUOUS
  0
LAYER
  2
92
 70
     0
 62
     7
  6
CONTINUOUS
  0
LAYER
  2
93
 70
     0
 62
     7
  6
CONTINUOUS
  0
LAYER
  2
94
 70
     0
 62
     7
  6
CONTINUOUS
  0
LAYER
  2
95
 70
     0
 62
     7
  6
CONTINUOUS
  0
LAYER
  2
96
 70
     0
 62
     7
  6
CONTINUOUS
  0
LAYER
  2
97
 70
     0
 62
     7
  6
CONTINUOUS
  0
LAYER
  2
98
 70
     0
 62
     7
  6
CONTINUOUS
  0
LAYER
  2
99
 70
     0
 62
     7
  6
CONTINUOUS
  0
LAYER
  2
100
 70
     0
 62
     7
  6
CONTINUOUS
  0
LAYER
  2
101
 70
     0
 62
     7
  6
CONTINUOUS
  0
LAYER
  2
102
 70
     0
 62
     7
  6
CONTINUOUS
  0
LAYER
  2
103
 70
     0
 62
     7
  6
CONTINUOUS
  0
LAYER
  2
104
 70
     0
 62
     7
  6
CONTINUOUS
  0
LAYER
  2
105
 70
     0
 62
     7
  6
CONTINUOUS
  0
LAYER
  2
106
 70
     0
 62
     7
  6
CONTINUOUS
  0
LAYER
  2
107
 70
     0
 62
     7
  6
CONTINUOUS
  0
LAYER
  2
108
 70
     0
 62
     7
  6
CONTINUOUS
  0
LAYER
  2
109
 70
     0
 62
     7
  6
CONTINUOUS
  0
LAYER
  2
110
 70
     0
 62
     7
  6
CONTINUOUS
  0
LAYER
  2
111
 70
     0
 62
     7
  6
CONTINUOUS
  0
LAYER
  2
112
 70
     0
 62
     7
  6
CONTINUOUS
  0
LAYER
  2
113
 70
     0
 62
     7
  6
CONTINUOUS
  0
LAYER
  2
114
 70
     0
 62
     7
  6
CONTINUOUS
  0
LAYER
  2
115
 70
     0
 62
     7
  6
CONTINUOUS
  0
LAYER
  2
116
 70
     0
 62
     7
  6
CONTINUOUS
  0
LAYER
  2
117
 70
     0
 62
     7
  6
CONTINUOUS
  0
LAYER
  2
118
 70
     0
 62
     7
  6
CONTINUOUS
  0
LAYER
  2
119
 70
     0
 62
     7
  6
CONTINUOUS
  0
LAYER
  2
120
 70
     0
 62
     7
  6
CONTINUOUS
  0
LAYER
  2
121
 70
     0
 62
     7
  6
CONTINUOUS
  0
LAYER
  2
122
 70
     0
 62
     7
  6
CONTINUOUS
  0
LAYER
  2
123
 70
     0
 62
     7
  6
CONTINUOUS
  0
LAYER
  2
124
 70
     0
 62
     7
  6
CONTINUOUS
  0
LAYER
  2
125
 70
     0
 62
     7
  6
CONTINUOUS
  0
LAYER
  2
126
 70
     0
 62
     7
  6
CONTINUOUS
  0
LAYER
  2
127
 70
     0
 62
     7
  6
CONTINUOUS
  0
LAYER
  2
128
 70
     0
 62
     7
  6
CONTINUOUS
  0
ENDTAB
  0
TABLE
  2
STYLE
 70
    13
  0
STYLE
  2
STANDARD
 70
     0
 40
0.0
 41
1.0
 50
0.0
 71
     0
 42
0.2
  3
txt
  4

  0
STYLE
  2
KANJI0
 70
     0
 40
4.0
 41
0.875
 50
0.0
 71
     0
 42
4.0
  3

  4
bigfont
  0
STYLE
  2
KANJI1
 70
     0
 40
4.0
 41
0.875
 50
0.0
 71
     0
 42
4.0
  3

  4
bigfont
  0
STYLE
  2
KANJI2
 70
     0
 40
5.0
 41
1.0
 50
0.0
 71
     0
 42
5.0
  3

  4
bigfont
  0
STYLE
  2
KANJI3
 70
     0
 40
5.0
 41
1.2
 50
0.0
 71
     0
 42
5.0
  3

  4
bigfont
  0
STYLE
  2
KANJI4
 70
     0
 40
3.0
 41
0.666666667
 50
0.0
 71
     0
 42
3.0
  3

  4
bigfont
  0
STYLE
  2
KANJI5
 70
     0
 40
3.0
 41
1.0
 50
0.0
 71
     0
 42
3.0
  3

  4
bigfont
  0
STYLE
  2
KANJI6
 70
     0
 40
2.5
 41
1.0
 50
0.0
 71
     0
 42
2.5
  3

  4
bigfont
  0
STYLE
  2
KANJI7
 70
     0
 40
2.5
 41
1.0
 50
0.0
 71
     0
 42
2.5
  3

  4
bigfont
  0
STYLE
  2
KANJI8
 70
     0
 40
2.5
 41
1.0
 50
0.0
 71
     0
 42
2.5
  3

  4
bigfont
  0
STYLE
  2
KANJI9
 70
     0
 40
4.0
 41
1.125
 50
0.0
 71
     0
 42
4.0
  3

  4
bigfont
  0
STYLE
  2
KANJI10
 70
     0
 40
7.0
 41
0.857142857
 50
0.0
 71
     0
 42
7.0
  3

  4
bigfont
  0
STYLE
  2
KANJI11
 70
     0
 40
3.0
 41
0.833333333
 50
0.0
 71
     0
 42
3.0
  3

  4
bigfont
  0
ENDTAB
  0
TABLE
  2
VIEW
 70
     0
  0
ENDTAB
  0
ENDSEC
  0
SECTION
  2
BLOCKS
  0
ENDSEC
  0
SECTION
  2
ENTITIES
  0
CIRCLE
  8
0
  6
CONTINUOUS
 62
     1
 10
82.220754456
 20
216.574578963
 40
4.5
  0
CIRCLE
  8
0
  6
CONTINUOUS
 62
     1
 10
106.574578963
 20
192.220754456
 40
4.5
  0
CIRCLE
  8
0
  6
CONTINUOUS
 62
     1
 10
106.574578963
 20
157.779245544
 40
4.5
  0
CIRCLE
  8
0
  6
CONTINUOUS
 62
     1
 10
82.220754456
 20
133.425421037
 40
4.5
  0
ARC
  8
0
  6
CONTINUOUS
 62
     1
 10
65.0
 20
175.0
 40
7.65
 50
270.0
 51
90.0
  0
ARC
  8
0
  6
CONTINUOUS
 62
     1
 10
65.0
 20
175.0
 40
55.0
 50
270.0
 51
90.0
  0
ARC
  8
0
  6
CONTINUOUS
 62
     1
 10
65.0
 20
175.0
 40
30.0
 50
270.0
 51
90.0
  0
CIRCLE
  8
0
  6
CONTINUOUS
 62
     1
 10
347.779245544
 20
216.574578963
 40
4.5
  0
CIRCLE
  8
0
  6
CONTINUOUS
 62
     1
 10
323.425421037
 20
192.220754456
 40
4.5
  0
CIRCLE
  8
0
  6
CONTINUOUS
 62
     1
 10
323.425421037
 20
157.779245544
 40
4.5
  0
CIRCLE
  8
0
  6
CONTINUOUS
 62
     1
 10
347.779245544
 20
133.425421037
 40
4.5
  0
ARC
  8
0
  6
CONTINUOUS
 62
     1
 10
365.0
 20
175.0
 40
7.65
 50
90.0
 51
270.0
  0
ARC
  8
0
  6
CONTINUOUS
 62
     1
 10
365.0
 20
175.0
 40
55.0
 50
90.0
 51
270.0
  0
ARC
  8
0
  6
CONTINUOUS
 62
     1
 10
365.0
 20
175.0
 40
30.0
 50
90.0
 51
270.0
  0
LINE
  8
0
  6
LTYPE1
 62
     2
 10
113.041735691
 20
194.899538483
 11
100.107422235
 21
189.54197043
  0
LINE
  8
0
  6
LTYPE1
 62
     2
 10
113.041735691
 20
155.100461517
 11
100.107422235
 21
160.45802957
  0
LINE
  8
0
  6
LTYPE1
 62
     2
 10
84.899538483
 20
126.958264309
 11
79.54197043
 21
139.892577765
  0
ARC
  8
0
  6
LTYPE1
 62
     2
 10
65.0
 20
175.0
 40
45.0
 50
263.659808254
 51
96.340191746
  0
LINE
  8
0
  6
LTYPE1
 62
     2
 10
65.0
 20
235.0
 11
65.0
 21
115.0
  0
LINE
  8
0
  6
LTYPE1
 62
     2
 10
60.0
 20
175.0
 11
125.0
 21
175.0
  0
LINE
  8
0
  6
LTYPE1
 62
     2
 10
84.899538483
 20
223.041735691
 11
79.54197043
 21
210.107422235
  0
LINE
  8
0
  6
LTYPE1
 62
     2
 10
345.100461517
 20
223.041735691
 11
350.45802957
 21
210.107422235
  0
LINE
  8
0
  6
LTYPE1
 62
     2
 10
316.958264309
 20
194.899538483
 11
329.892577765
 21
189.54197043
  0
LINE
  8
0
  6
LTYPE1
 62
     2
 10
316.958264309
 20
155.100461517
 11
329.892577765
 21
160.45802957
  0
LINE
  8
0
  6
LTYPE1
 62
     2
 10
345.100461517
 20
126.958264309
 11
350.45802957
 21
139.892577765
  0
LINE
  8
0
  6
LTYPE1
 62
     2
 10
365.0
 20
235.0
 11
365.0
 21
115.0
  0
LINE
  8
0
  6
LTYPE1
 62
     2
 10
370.0
 20
175.0
 11
305.0
 21
175.0
  0
ARC
  8
0
  6
LTYPE1
 62
     2
 10
365.0
 20
175.0
 40
45.0
 50
83.659808254
 51
276.340191746
  0
TEXT
  8
寸法線
  6
CONTINUOUS
 62
     5
 10
41.135146135
 20
152.549359697
 30
0.1
 40
4.0
  1
Ｐ．Ｃ．Ｄ．９０
 50
45.0
 41
0.875
 51
0.0
  7
KANJI0
  0
LINE
  8
寸法線
  6
CONTINUOUS
 62
     2
 10
41.842252916
 20
151.842252916
 11
96.819805153
 21
206.819805153
  0
LINE
  8
寸法線
  6
CONTINUOUS
 62
     2
 10
96.819805153
 20
206.819805153
 11
95.569805153
 21
204.654741644
  0
LINE
  8
寸法線
  6
CONTINUOUS
 62
     2
 10
96.819805153
 20
206.819805153
 11
94.654741644
 21
205.569805153
  0
LINE
  8
寸法線
  6
CONTINUOUS
 62
     2
 10
344.597265028
 20
130.243440522
 11
342.432201519
 21
128.993440522
  0
LINE
  8
寸法線
  6
CONTINUOUS
 62
     2
 10
344.597265028
 20
130.243440522
 11
343.347265028
 21
128.078377012
  0
LINE
  8
寸法線
  6
CONTINUOUS
 62
     2
 10
344.597265028
 20
130.243440522
 11
332.779245544
 21
118.425421037
  0
LINE
  8
寸法線
  6
CONTINUOUS
 62
     2
 10
332.779245544
 20
118.425421037
 11
307.679245544
 21
118.425421037
  0
TEXT
  8
寸法線
  6
CONTINUOUS
 62
     5
 10
307.679245544
 20
119.425421037
 30
0.1
 40
4.0
  1
８－φ９取付穴
 50
0.0
 41
0.875
 51
0.0
  7
KANJI0
  0
LINE
  8
寸法線
  6
CONTINUOUS
 62
     2
 10
85.402734972
 20
130.243440522
 11
86.652734972
 21
128.078377012
  0
LINE
  8
寸法線
  6
CONTINUOUS
 62
     2
 10
85.402734972
 20
130.243440522
 11
87.567798481
 21
128.993440522
  0
LINE
  8
寸法線
  6
CONTINUOUS
 62
     2
 10
85.402734972
 20
130.243440522
 11
97.220754456
 21
118.425421037
  0
LINE
  8
寸法線
  6
CONTINUOUS
 62
     2
 10
97.220754456
 20
118.425421037
 11
122.320754456
 21
118.425421037
  0
TEXT
  8
寸法線
  6
CONTINUOUS
 62
     5
 10
97.220754456
 20
119.425421037
 30
0.1
 40
4.0
  1
８－φ９取付穴
 50
0.0
 41
0.875
 51
0.0
  7
KANJI0
  0
POLYLINE
  8
0
  6
CONTINUOUS
 62
     1
 66
     1
 70
     1
  0
VERTEX
  8
0
  6
CONTINUOUS
 62
     1
 10
160.0
 20
120.0
  0
VERTEX
  8
0
  6
CONTINUOUS
 62
     1
 10
175.0
 20
120.0
  0
VERTEX
  8
0
  6
CONTINUOUS
 62
     1
 10
175.0
 20
230.0
  0
VERTEX
  8
0
  6
CONTINUOUS
 62
     1
 10
160.0
 20
230.0
  0
SEQEND
  0
POLYLINE
  8
0
  6
CONTINUOUS
 62
     1
 66
     1
 70
     1
  0
VERTEX
  8
0
  6
CONTINUOUS
 62
     1
 10
240.0
 20
120.0
  0
VERTEX
  8
0
  6
CONTINUOUS
 62
     1
 10
255.0
 20
120.0
  0
VERTEX
  8
0
  6
CONTINUOUS
 62
     1
 10
255.0
 20
230.0
  0
VERTEX
  8
0
  6
CONTINUOUS
 62
     1
 10
240.0
 20
230.0
  0
SEQEND
  0
LINE
  8
0
  6
CONTINUOUS
 62
     1
 10
160.0
 20
205.0
 11
156.0
 21
205.0
  0
LINE
  8
0
  6
CONTINUOUS
 62
     1
 10
156.0
 20
145.0
 11
160.0
 21
145.0
  0
LINE
  8
0
  6
CONTINUOUS
 62
     1
 10
156.0
 20
205.0
 11
156.0
 21
145.0
  0
LINE
  8
0
  6
CONTINUOUS
 62
     1
 10
235.0
 20
207.5
 11
235.0
 21
142.5
  0
ARC
  8
0
  6
CONTINUOUS
 62
     1
 10
235.0
 20
212.5
 40
5.0
 50
270.0
 51
0.0
  0
ARC
  8
0
  6
CONTINUOUS
 62
     1
 10
180.0
 20
212.5
 40
5.0
 50
180.0
 51
270.0
  0
ARC
  8
0
  6
CONTINUOUS
 62
     1
 10
180.0
 20
137.5
 40
5.0
 50
90.0
 51
180.0
  0
ARC
  8
0
  6
CONTINUOUS
 62
     1
 10
235.0
 20
137.5
 40
5.0
 50
0.0
 51
90.0
  0
LINE
  8
0
  6
CONTINUOUS
 62
     1
 10
196.5
 20
217.5
 11
218.5
 21
217.5
  0
LINE
  8
0
  6
CONTINUOUS
 62
     1
 10
199.5
 20
230.0
 11
215.5
 21
230.0
  0
LINE
  8
0
  6
CONTINUOUS
 62
     1
 10
197.0
 20
219.0
 11
218.0
 21
219.0
  0
LINE
  8
0
  6
CONTINUOUS
 62
     1
 10
197.0
 20
217.5
 11
218.0
 21
217.5
  0
LINE
  8
0
  6
CONTINUOUS
 62
     1
 10
218.0
 20
219.0
 11
218.0
 21
217.5
  0
LINE
  8
0
  6
CONTINUOUS
 62
     1
 10
197.0
 20
219.0
 11
197.0
 21
217.5
  0
ARC
  8
0
  6
CONTINUOUS
 62
     1
 10
199.5
 20
218.8975
 40
2.1025
 50
2.794362055
 51
177.205637945
  0
ARC
  8
0
  6
CONTINUOUS
 62
     1
 10
215.5
 20
218.8975
 40
2.1025
 50
2.794362055
 51
177.205637945
  0
LINE
  8
0
  6
CONTINUOUS
 62
     1
 10
199.5
 20
230.0
 11
199.5
 21
221.0
  0
LINE
  8
0
  6
CONTINUOUS
 62
     1
 10
215.5
 20
230.0
 11
215.5
 21
221.0
  0
LINE
  8
0
  6
CONTINUOUS
 62
     1
 10
180.0
 20
142.5
 11
234.0
 21
142.5
  0
LINE
  8
0
  6
CONTINUOUS
 62
     1
 10
234.0
 20
207.5
 11
234.0
 21
142.5
  0
LINE
  8
0
  6
CONTINUOUS
 62
     1
 10
235.0
 20
148.5
 11
234.0
 21
148.5
  0
LINE
  8
0
  6
CONTINUOUS
 62
     1
 10
235.0
 20
201.5
 11
234.0
 21
201.5
  0
LINE
  8
0
  6
CONTINUOUS
 62
     1
 10
180.0
 20
207.5
 11
180.0
 21
142.5
  0
POLYLINE
  8
0
  6
CONTINUOUS
 62
     1
 66
     1
 70
     1
  0
VERTEX
  8
0
  6
CONTINUOUS
 62
     1
 10
188.5
 20
191.25
 42
0.025187664
  0
VERTEX
  8
0
  6
CONTINUOUS
 62
     1
 10
188.486681443
 20
191.514176806
 42
0.025076847
  0
VERTEX
  8
0
  6
CONTINUOUS
 62
     1
 10
188.446827136
 20
191.776343066
 42
0.024845864
  0
VERTEX
  8
0
  6
CONTINUOUS
 62
     1
 10
188.380740392
 20
192.034503538
 42
0.024508071
  0
VERTEX
  8
0
  6
CONTINUOUS
 62
     1
 10
188.288924173
 20
192.286693465
 42
0.024082007
  0
VERTEX
  8
0
  6
CONTINUOUS
 62
     1
 10
188.172077255
 20
192.530993528
 42
0.023589414
  0
VERTEX
  8
0
  6
CONTINUOUS
 62
     1
 10
188.031088913
 20
192.765544457
 42
0.02305322
  0
VERTEX
  8
0
  6
CONTINUOUS
 62
     1
 10
187.867032155
 20
192.988561177
 42
0.022495771
  0
VERTEX
  8
0
  6
CONTINUOUS
 62
     1
 10
187.681155551
 20
193.198346397
 42
0.021937539
  0
VERTEX
  8
0
  6
CONTINUOUS
 62
     1
 10
187.474873734
 20
193.393303525
 42
0.021396316
  0
VERTEX
  8
0
  6
CONTINUOUS
 62
     1
 10
187.249756634
 20
193.571948819
 42
0.02088689
  0
VERTEX
  8
0
  6
CONTINUOUS
 62
     1
 10
187.007517527
 20
193.73292268
 42
0.020421065
  0
VERTEX
  8
0
  6
CONTINUOUS
 62
     1
 10
186.75
 20
193.875
 42
0.020007926
  0
VERTEX
  8
0
  6
CONTINUOUS
 62
     1
 10
186.479163916
 20
193.997099485
 42
0.019654221
  0
VERTEX
  8
0
  6
CONTINUOUS
 62
     1
 10
186.197070502
 20
194.098291885
 42
0.019364797
  0
VERTEX
  8
0
  6
CONTINUOUS
 62
     1
 10
185.905866658
 20
194.177807063
 42
0.019143001
  0
VERTEX
  8
0
  6
CONTINUOUS
 62
     1
 10
185.607768622
 20
194.235039862
 42
0.018991036
  0
VERTEX
  8
0
  6
CONTINUOUS
 62
     1
 10
185.3050451
 20
194.269554705
 42
0.018910232
  0
VERTEX
  8
0
  6
CONTINUOUS
 62
     1
 10
185.0
 20
194.281088913
 42
0.018901239
  0
VERTEX
  8
0
  6
CONTINUOUS
 62
     1
 10
184.6949549
 20
194.269554705
 42
0.018964128
  0
VERTEX
  8
0
  6
CONTINUOUS
 62
     1
 10
184.392231378
 20
194.235039862
 42
0.019098398
  0
VERTEX
  8
0
  6
CONTINUOUS
 62
     1
 10
184.094133342
 20
194.177807063
 42
0.019302905
  0
VERTEX
  8
0
  6
CONTINUOUS
 62
     1
 10
183.802929498
 20
194.098291885
 42
0.019575685
  0
VERTEX
  8
0
  6
CONTINUOUS
 62
     1
 10
183.520836084
 20
193.997099485
 42
0.019913709
  0
VERTEX
  8
0
  6
CONTINUOUS
 62
     1
 10
183.25
 20
193.875
 42
0.020312541
  0
VERTEX
  8
0
  6
CONTINUOUS
 62
     1
 10
182.992482473
 20
193.73292268
 42
0.020765948
  0
VERTEX
  8
0
  6
CONTINUOUS
 62
     1
 10
182.750243366
 20
193.571948819
 42
0.021265468
  0
VERTEX
  8
0
  6
CONTINUOUS
 62
     1
 10
182.525126266
 20
193.393303525
 42
0.021800009
  0
VERTEX
  8
0
  6
CONTINUOUS
 62
     1
 10
182.318844449
 20
193.198346397
 42
0.022355542
  0
VERTEX
  8
0
  6
CONTINUOUS
 62
     1
 10
182.132967845
 20
192.988561177
 42
0.022915011
  0
VERTEX
  8
0
  6
CONTINUOUS
 62
     1
 10
181.968911087
 20
192.765544457
 42
0.023458559
  0
VERTEX
  8
0
  6
CONTINUOUS
 62
     1
 10
181.827922745
 20
192.530993528
 42
0.023964205
  0
VERTEX
  8
0
  6
CONTINUOUS
 62
     1
 10
181.711075827
 20
192.286693465
 42
0.02440902
  0
VERTEX
  8
0
  6
CONTINUOUS
 62
     1
 10
181.619259608
 20
192.034503538
 42
0.02477078
  0
VERTEX
  8
0
  6
CONTINUOUS
 62
     1
 10
181.553172864
 20
191.776343066
 42
0.02502995
  0
VERTEX
  8
0
  6
CONTINUOUS
 62
     1
 10
181.513318557
 20
191.514176806
 42
0.025171713
  0
VERTEX
  8
0
  6
CONTINUOUS
 62
     1
 10
181.5
 20
191.25
 42
0.025187664
  0
VERTEX
  8
0
  6
CONTINUOUS
 62
     1
 10
181.513318557
 20
190.985823194
 42
0.025076847
  0
VERTEX
  8
0
  6
CONTINUOUS
 62
     1
 10
181.553172864
 20
190.723656934
 42
0.024845864
  0
VERTEX
  8
0
  6
CONTINUOUS
 62
     1
 10
181.619259608
 20
190.465496462
 42
0.024508071
  0
VERTEX
  8
0
  6
CONTINUOUS
 62
     1
 10
181.711075827
 20
190.213306535
 42
0.024082007
  0
VERTEX
  8
0
  6
CONTINUOUS
 62
     1
 10
181.827922745
 20
189.969006472
 42
0.023589414
  0
VERTEX
  8
0
  6
CONTINUOUS
 62
     1
 10
181.968911087
 20
189.734455543
 42
0.02305322
  0
VERTEX
  8
0
  6
CONTINUOUS
 62
     1
 10
182.132967845
 20
189.511438823
 42
0.022495771
  0
VERTEX
  8
0
  6
CONTINUOUS
 62
     1
 10
182.318844449
 20
189.301653603
 42
0.021937539
  0
VERTEX
  8
0
  6
CONTINUOUS
 62
     1
 10
182.525126266
 20
189.106696475
 42
0.021396316
  0
VERTEX
  8
0
  6
CONTINUOUS
 62
     1
 10
182.750243366
 20
188.928051181
 42
0.02088689
  0
VERTEX
  8
0
  6
CONTINUOUS
 62
     1
 10
182.992482473
 20
188.76707732
 42
0.020421065
  0
VERTEX
  8
0
  6
CONTINUOUS
 62
     1
 10
183.25
 20
188.625
 42
0.020007926
  0
VERTEX
  8
0
  6
CONTINUOUS
 62
     1
 10
183.520836084
 20
188.502900515
 42
0.019654221
  0
VERTEX
  8
0
  6
CONTINUOUS
 62
     1
 10
183.802929498
 20
188.401708115
 42
0.019364797
  0
VERTEX
  8
0
  6
CONTINUOUS
 62
     1
 10
184.094133342
 20
188.322192937
 42
0.019143001
  0
VERTEX
  8
0
  6
CONTINUOUS
 62
     1
 10
184.392231378
 20
188.264960138
 42
0.018991036
  0
VERTEX
  8
0
  6
CONTINUOUS
 62
     1
 10
184.6949549
 20
188.230445295
 42
0.018910232
  0
VERTEX
  8
0
  6
CONTINUOUS
 62
     1
 10
185.0
 20
188.218911087
 42
0.018901239
  0
VERTEX
  8
0
  6
CONTINUOUS
 62
     1
 10
185.3050451
 20
188.230445295
 42
0.018964128
  0
VERTEX
  8
0
  6
CONTINUOUS
 62
     1
 10
185.607768622
 20
188.264960138
 42
0.019098398
  0
VERTEX
  8
0
  6
CONTINUOUS
 62
     1
 10
185.905866658
 20
188.322192937
 42
0.019302905
  0
VERTEX
  8
0
  6
CONTINUOUS
 62
     1
 10
186.197070502
 20
188.401708115
 42
0.019575685
  0
VERTEX
  8
0
  6
CONTINUOUS
 62
     1
 10
186.479163916
 20
188.502900515
 42
0.019913709
  0
VERTEX
  8
0
  6
CONTINUOUS
 62
     1
 10
186.75
 20
188.625
 42
0.020312541
  0
VERTEX
  8
0
  6
CONTINUOUS
 62
     1
 10
187.007517527
 20
188.76707732
 42
0.020765948
  0
VERTEX
  8
0
  6
CONTINUOUS
 62
     1
 10
187.249756634
 20
188.928051181
 42
0.021265468
  0
VERTEX
  8
0
  6
CONTINUOUS
 62
     1
 10
187.474873734
 20
189.106696475
 42
0.021800009
  0
VERTEX
  8
0
  6
CONTINUOUS
 62
     1
 10
187.681155551
 20
189.301653603
 42
0.022355542
  0
VERTEX
  8
0
  6
CONTINUOUS
 62
     1
 10
187.867032155
 20
189.511438823
 42
0.022915011
  0
VERTEX
  8
0
  6
CONTINUOUS
 62
     1
 10
188.031088913
 20
189.734455543
 42
0.023458559
  0
VERTEX
  8
0
  6
CONTINUOUS
 62
     1
 10
188.172077255
 20
189.969006472
 42
0.023964205
  0
VERTEX
  8
0
  6
CONTINUOUS
 62
     1
 10
188.288924173
 20
190.213306535
 42
0.02440902
  0
VERTEX
  8
0
  6
CONTINUOUS
 62
     1
 10
188.380740392
 20
190.465496462
 42
0.02477078
  0
VERTEX
  8
0
  6
CONTINUOUS
 62
     1
 10
188.446827136
 20
190.723656934
 42
0.02502995
  0
VERTEX
  8
0
  6
CONTINUOUS
 62
     1
 10
188.486681443
 20
190.985823194
 42
0.025171713
  0
SEQEND
  8
0
  6
CONTINUOUS
 62
     1
  0
LINE
  8
0
  6
CONTINUOUS
 62
     1
 10
183.3
 20
191.25
 11
184.1
 21
192.531721186
  0
LINE
  8
0
  6
CONTINUOUS
 62
     1
 10
184.1
 20
192.531721186
 11
185.9
 21
192.531721186
  0
LINE
  8
0
  6
CONTINUOUS
 62
     1
 10
185.9
 20
192.531721186
 11
186.7
 21
191.25
  0
LINE
  8
0
  6
CONTINUOUS
 62
     1
 10
186.7
 20
191.25
 11
185.9
 21
189.933644975
  0
LINE
  8
0
  6
CONTINUOUS
 62
     1
 10
185.9
 20
189.933644975
 11
184.1
 21
189.933644975
  0
LINE
  8
0
  6
CONTINUOUS
 62
     1
 10
184.1
 20
189.933644975
 11
183.3
 21
191.25
  0
POLYLINE
  8
0
  6
CONTINUOUS
 62
     1
 66
     1
 70
     1
  0
VERTEX
  8
0
  6
CONTINUOUS
 62
     1
 10
189.0
 20
191.25
 42
0.025187664
  0
VERTEX
  8
0
  6
CONTINUOUS
 62
     1
 10
188.984778792
 20
191.551916349
 42
0.025076847
  0
VERTEX
  8
0
  6
CONTINUOUS
 62
     1
 10
188.939231012
 20
191.851534933
 42
0.024845864
  0
VERTEX
  8
0
  6
CONTINUOUS
 62
     1
 10
188.863703305
 20
192.146575472
 42
0.024508071
  0
VERTEX
  8
0
  6
CONTINUOUS
 62
     1
 10
188.758770483
 20
192.434792531
 42
0.024082007
  0
VERTEX
  8
0
  6
CONTINUOUS
 62
     1
 10
188.625231148
 20
192.713992603
 42
0.023589414
  0
VERTEX
  8
0
  6
CONTINUOUS
 62
     1
 10
188.464101615
 20
192.982050808
 42
0.02305322
  0
VERTEX
  8
0
  6
CONTINUOUS
 62
     1
 10
188.276608177
 20
193.23692706
 42
0.022495771
  0
VERTEX
  8
0
  6
CONTINUOUS
 62
     1
 10
188.064177772
 20
193.476681597
 42
0.021937539
  0
VERTEX
  8
0
  6
CONTINUOUS
 62
     1
 10
187.828427125
 20
193.699489743
 42
0.021396316
  0
VERTEX
  8
0
  6
CONTINUOUS
 62
     1
 10
187.571150439
 20
193.903655793
 42
0.02088689
  0
VERTEX
  8
0
  6
CONTINUOUS
 62
     1
 10
187.294305745
 20
194.08762592
 42
0.020421065
  0
VERTEX
  8
0
  6
CONTINUOUS
 62
     1
 10
187.0
 20
194.25
 42
0.020007926
  0
VERTEX
  8
0
  6
CONTINUOUS
 62
     1
 10
186.690473047
 20
194.389542269
 42
0.019654221
  0
VERTEX
  8
0
  6
CONTINUOUS
 62
     1
 10
186.368080573
 20
194.505190725
 42
0.019364797
  0
VERTEX
  8
0
  6
CONTINUOUS
 62
     1
 10
186.03527618
 20
194.596065215
 42
0.019143001
  0
VERTEX
  8
0
  6
CONTINUOUS
 62
     1
 10
185.694592711
 20
194.661474128
 42
0.018991036
  0
VERTEX
  8
0
  6
CONTINUOUS
 62
     1
 10
185.348622971
 20
194.700919663
 42
0.018910232
  0
VERTEX
  8
0
  6
CONTINUOUS
 62
     1
 10
185.0
 20
194.714101615
 42
0.018901239
  0
VERTEX
  8
0
  6
CONTINUOUS
 62
     1
 10
184.651377029
 20
194.700919663
 42
0.018964128
  0
VERTEX
  8
0
  6
CONTINUOUS
 62
     1
 10
184.305407289
 20
194.661474128
 42
0.019098398
  0
VERTEX
  8
0
  6
CONTINUOUS
 62
     1
 10
183.96472382
 20
194.596065215
 42
0.019302905
  0
VERTEX
  8
0
  6
CONTINUOUS
 62
     1
 10
183.631919427
 20
194.505190725
 42
0.019575685
  0
VERTEX
  8
0
  6
CONTINUOUS
 62
     1
 10
183.309526953
 20
194.389542269
 42
0.019913709
  0
VERTEX
  8
0
  6
CONTINUOUS
 62
     1
 10
183.0
 20
194.25
 42
0.020312541
  0
VERTEX
  8
0
  6
CONTINUOUS
 62
     1
 10
182.705694255
 20
194.08762592
 42
0.020765948
  0
VERTEX
  8
0
  6
CONTINUOUS
 62
     1
 10
182.428849561
 20
193.903655793
 42
0.021265468
  0
VERTEX
  8
0
  6
CONTINUOUS
 62
     1
 10
182.171572875
 20
193.699489743
 42
0.021800009
  0
VERTEX
  8
0
  6
CONTINUOUS
 62
     1
 10
181.935822228
 20
193.476681597
 42
0.022355542
  0
VERTEX
  8
0
  6
CONTINUOUS
 62
     1
 10
181.723391823
 20
193.23692706
 42
0.022915011
  0
VERTEX
  8
0
  6
CONTINUOUS
 62
     1
 10
181.535898385
 20
192.982050808
 42
0.023458559
  0
VERTEX
  8
0
  6
CONTINUOUS
 62
     1
 10
181.374768852
 20
192.713992603
 42
0.023964205
  0
VERTEX
  8
0
  6
CONTINUOUS
 62
     1
 10
181.241229517
 20
192.434792531
 42
0.02440902
  0
VERTEX
  8
0
  6
CONTINUOUS
 62
     1
 10
181.136296695
 20
192.146575472
 42
0.02477078
  0
VERTEX
  8
0
  6
CONTINUOUS
 62
     1
 10
181.060768988
 20
191.851534933
 42
0.02502995
  0
VERTEX
  8
0
  6
CONTINUOUS
 62
     1
 10
181.015221208
 20
191.551916349
 42
0.025171713
  0
VERTEX
  8
0
  6
CONTINUOUS
 62
     1
 10
181.0
 20
191.25
 42
0.025187664
  0
VERTEX
  8
0
  6
CONTINUOUS
 62
     1
 10
181.015221208
 20
190.948083651
 42
0.025076847
  0
VERTEX
  8
0
  6
CONTINUOUS
 62
     1
 10
181.060768988
 20
190.648465067
 42
0.024845864
  0
VERTEX
  8
0
  6
CONTINUOUS
 62
     1
 10
181.136296695
 20
190.353424528
 42
0.024508071
  0
VERTEX
  8
0
  6
CONTINUOUS
 62
     1
 10
181.241229517
 20
190.065207469
 42
0.024082007
  0
VERTEX
  8
0
  6
CONTINUOUS
 62
     1
 10
181.374768852
 20
189.786007397
 42
0.023589414
  0
VERTEX
  8
0
  6
CONTINUOUS
 62
     1
 10
181.535898385
 20
189.517949192
 42
0.02305322
  0
VERTEX
  8
0
  6
CONTINUOUS
 62
     1
 10
181.723391823
 20
189.26307294
 42
0.022495771
  0
VERTEX
  8
0
  6
CONTINUOUS
 62
     1
 10
181.935822228
 20
189.023318403
 42
0.021937539
  0
VERTEX
  8
0
  6
CONTINUOUS
 62
     1
 10
182.171572875
 20
188.800510257
 42
0.021396316
  0
VERTEX
  8
0
  6
CONTINUOUS
 62
     1
 10
182.428849561
 20
188.596344207
 42
0.02088689
  0
VERTEX
  8
0
  6
CONTINUOUS
 62
     1
 10
182.705694255
 20
188.41237408
 42
0.020421065
  0
VERTEX
  8
0
  6
CONTINUOUS
 62
     1
 10
183.0
 20
188.25
 42
0.020007926
  0
VERTEX
  8
0
  6
CONTINUOUS
 62
     1
 10
183.309526953
 20
188.110457731
 42
0.019654221
  0
VERTEX
  8
0
  6
CONTINUOUS
 62
     1
 10
183.631919427
 20
187.994809275
 42
0.019364797
  0
VERTEX
  8
0
  6
CONTINUOUS
 62
     1
 10
183.96472382
 20
187.903934785
 42
0.019143001
  0
VERTEX
  8
0
  6
CONTINUOUS
 62
     1
 10
184.305407289
 20
187.838525872
 42
0.018991036
  0
VERTEX
  8
0
  6
CONTINUOUS
 62
     1
 10
184.651377029
 20
187.799080337
 42
0.018910232
  0
VERTEX
  8
0
  6
CONTINUOUS
 62
     1
 10
185.0
 20
187.785898385
 42
0.018901239
  0
VERTEX
  8
0
  6
CONTINUOUS
 62
     1
 10
185.348622971
 20
187.799080337
 42
0.018964128
  0
VERTEX
  8
0
  6
CONTINUOUS
 62
     1
 10
185.694592711
 20
187.838525872
 42
0.019098398
  0
VERTEX
  8
0
  6
CONTINUOUS
 62
     1
 10
186.03527618
 20
187.903934785
 42
0.019302905
  0
VERTEX
  8
0
  6
CONTINUOUS
 62
     1
 10
186.368080573
 20
187.994809275
 42
0.019575685
  0
VERTEX
  8
0
  6
CONTINUOUS
 62
     1
 10
186.690473047
 20
188.110457731
 42
0.019913709
  0
VERTEX
  8
0
  6
CONTINUOUS
 62
     1
 10
187.0
 20
188.25
 42
0.020312541
  0
VERTEX
  8
0
  6
CONTINUOUS
 62
     1
 10
187.294305745
 20
188.41237408
 42
0.020765948
  0
VERTEX
  8
0
  6
CONTINUOUS
 62
     1
 10
187.571150439
 20
188.596344207
 42
0.021265468
  0
VERTEX
  8
0
  6
CONTINUOUS
 62
     1
 10
187.828427125
 20
188.800510257
 42
0.021800009
  0
VERTEX
  8
0
  6
CONTINUOUS
 62
     1
 10
188.064177772
 20
189.023318403
 42
0.022355542
  0
VERTEX
  8
0
  6
CONTINUOUS
 62
     1
 10
188.276608177
 20
189.26307294
 42
0.022915011
  0
VERTEX
  8
0
  6
CONTINUOUS
 62
     1
 10
188.464101615
 20
189.517949192
 42
0.023458559
  0
VERTEX
  8
0
  6
CONTINUOUS
 62
     1
 10
188.625231148
 20
189.786007397
 42
0.023964205
  0
VERTEX
  8
0
  6
CONTINUOUS
 62
     1
 10
188.758770483
 20
190.065207469
 42
0.02440902
  0
VERTEX
  8
0
  6
CONTINUOUS
 62
     1
 10
188.863703305
 20
190.353424528
 42
0.02477078
  0
VERTEX
  8
0
  6
CONTINUOUS
 62
     1
 10
188.939231012
 20
190.648465067
 42
0.02502995
  0
VERTEX
  8
0
  6
CONTINUOUS
 62
     1
 10
188.984778792
 20
190.948083651
 42
0.025171713
  0
SEQEND
  8
0
  6
CONTINUOUS
 62
     1
  0
POLYLINE
  8
0
  6
CONTINUOUS
 62
     1
 66
     1
 70
     1
  0
VERTEX
  8
0
  6
CONTINUOUS
 62
     1
 10
188.5
 20
158.75
 42
-0.025187664
  0
VERTEX
  8
0
  6
CONTINUOUS
 62
     1
 10
188.486681443
 20
158.485823194
 42
-0.025076847
  0
VERTEX
  8
0
  6
CONTINUOUS
 62
     1
 10
188.446827136
 20
158.223656934
 42
-0.024845864
  0
VERTEX
  8
0
  6
CONTINUOUS
 62
     1
 10
188.380740392
 20
157.965496462
 42
-0.024508071
  0
VERTEX
  8
0
  6
CONTINUOUS
 62
     1
 10
188.288924173
 20
157.713306535
 42
-0.024082007
  0
VERTEX
  8
0
  6
CONTINUOUS
 62
     1
 10
188.172077255
 20
157.469006472
 42
-0.023589414
  0
VERTEX
  8
0
  6
CONTINUOUS
 62
     1
 10
188.031088913
 20
157.234455543
 42
-0.02305322
  0
VERTEX
  8
0
  6
CONTINUOUS
 62
     1
 10
187.867032155
 20
157.011438823
 42
-0.022495771
  0
VERTEX
  8
0
  6
CONTINUOUS
 62
     1
 10
187.681155551
 20
156.801653603
 42
-0.021937539
  0
VERTEX
  8
0
  6
CONTINUOUS
 62
     1
 10
187.474873734
 20
156.606696475
 42
-0.021396316
  0
VERTEX
  8
0
  6
CONTINUOUS
 62
     1
 10
187.249756634
 20
156.428051181
 42
-0.02088689
  0
VERTEX
  8
0
  6
CONTINUOUS
 62
     1
 10
187.007517527
 20
156.26707732
 42
-0.020421065
  0
VERTEX
  8
0
  6
CONTINUOUS
 62
     1
 10
186.75
 20
156.125
 42
-0.020007926
  0
VERTEX
  8
0
  6
CONTINUOUS
 62
     1
 10
186.479163916
 20
156.002900515
 42
-0.019654221
  0
VERTEX
  8
0
  6
CONTINUOUS
 62
     1
 10
186.197070502
 20
155.901708115
 42
-0.019364797
  0
VERTEX
  8
0
  6
CONTINUOUS
 62
     1
 10
185.905866658
 20
155.822192937
 42
-0.019143001
  0
VERTEX
  8
0
  6
CONTINUOUS
 62
     1
 10
185.607768622
 20
155.764960138
 42
-0.018991036
  0
VERTEX
  8
0
  6
CONTINUOUS
 62
     1
 10
185.3050451
 20
155.730445295
 42
-0.018910232
  0
VERTEX
  8
0
  6
CONTINUOUS
 62
     1
 10
185.0
 20
155.718911087
 42
-0.018901239
  0
VERTEX
  8
0
  6
CONTINUOUS
 62
     1
 10
184.6949549
 20
155.730445295
 42
-0.018964128
  0
VERTEX
  8
0
  6
CONTINUOUS
 62
     1
 10
184.392231378
 20
155.764960138
 42
-0.019098398
  0
VERTEX
  8
0
  6
CONTINUOUS
 62
     1
 10
184.094133342
 20
155.822192937
 42
-0.019302905
  0
VERTEX
  8
0
  6
CONTINUOUS
 62
     1
 10
183.802929498
 20
155.901708115
 42
-0.019575685
  0
VERTEX
  8
0
  6
CONTINUOUS
 62
     1
 10
183.520836084
 20
156.002900515
 42
-0.019913709
  0
VERTEX
  8
0
  6
CONTINUOUS
 62
     1
 10
183.25
 20
156.125
 42
-0.020312541
  0
VERTEX
  8
0
  6
CONTINUOUS
 62
     1
 10
182.992482473
 20
156.26707732
 42
-0.020765948
  0
VERTEX
  8
0
  6
CONTINUOUS
 62
     1
 10
182.750243366
 20
156.428051181
 42
-0.021265468
  0
VERTEX
  8
0
  6
CONTINUOUS
 62
     1
 10
182.525126266
 20
156.606696475
 42
-0.021800009
  0
VERTEX
  8
0
  6
CONTINUOUS
 62
     1
 10
182.318844449
 20
156.801653603
 42
-0.022355542
  0
VERTEX
  8
0
  6
CONTINUOUS
 62
     1
 10
182.132967845
 20
157.011438823
 42
-0.022915011
  0
VERTEX
  8
0
  6
CONTINUOUS
 62
     1
 10
181.968911087
 20
157.234455543
 42
-0.023458559
  0
VERTEX
  8
0
  6
CONTINUOUS
 62
     1
 10
181.827922745
 20
157.469006472
 42
-0.023964205
  0
VERTEX
  8
0
  6
CONTINUOUS
 62
     1
 10
181.711075827
 20
157.713306535
 42
-0.02440902
  0
VERTEX
  8
0
  6
CONTINUOUS
 62
     1
 10
181.619259608
 20
157.965496462
 42
-0.02477078
  0
VERTEX
  8
0
  6
CONTINUOUS
 62
     1
 10
181.553172864
 20
158.223656934
 42
-0.02502995
  0
VERTEX
  8
0
  6
CONTINUOUS
 62
     1
 10
181.513318557
 20
158.485823194
 42
-0.025171713
  0
VERTEX
  8
0
  6
CONTINUOUS
 62
     1
 10
181.5
 20
158.75
 42
-0.025187664
  0
VERTEX
  8
0
  6
CONTINUOUS
 62
     1
 10
181.513318557
 20
159.014176806
 42
-0.025076847
  0
VERTEX
  8
0
  6
CONTINUOUS
 62
     1
 10
181.553172864
 20
159.276343066
 42
-0.024845864
  0
VERTEX
  8
0
  6
CONTINUOUS
 62
     1
 10
181.619259608
 20
159.534503538
 42
-0.024508071
  0
VERTEX
  8
0
  6
CONTINUOUS
 62
     1
 10
181.711075827
 20
159.786693465
 42
-0.024082007
  0
VERTEX
  8
0
  6
CONTINUOUS
 62
     1
 10
181.827922745
 20
160.030993528
 42
-0.023589414
  0
VERTEX
  8
0
  6
CONTINUOUS
 62
     1
 10
181.968911087
 20
160.265544457
 42
-0.02305322
  0
VERTEX
  8
0
  6
CONTINUOUS
 62
     1
 10
182.132967845
 20
160.488561177
 42
-0.022495771
  0
VERTEX
  8
0
  6
CONTINUOUS
 62
     1
 10
182.318844449
 20
160.698346397
 42
-0.021937539
  0
VERTEX
  8
0
  6
CONTINUOUS
 62
     1
 10
182.525126266
 20
160.893303525
 42
-0.021396316
  0
VERTEX
  8
0
  6
CONTINUOUS
 62
     1
 10
182.750243366
 20
161.071948819
 42
-0.02088689
  0
VERTEX
  8
0
  6
CONTINUOUS
 62
     1
 10
182.992482473
 20
161.23292268
 42
-0.020421065
  0
VERTEX
  8
0
  6
CONTINUOUS
 62
     1
 10
183.25
 20
161.375
 42
-0.020007926
  0
VERTEX
  8
0
  6
CONTINUOUS
 62
     1
 10
183.520836084
 20
161.497099485
 42
-0.019654221
  0
VERTEX
  8
0
  6
CONTINUOUS
 62
     1
 10
183.802929498
 20
161.598291885
 42
-0.019364797
  0
VERTEX
  8
0
  6
CONTINUOUS
 62
     1
 10
184.094133342
 20
161.677807063
 42
-0.019143001
  0
VERTEX
  8
0
  6
CONTINUOUS
 62
     1
 10
184.392231378
 20
161.735039862
 42
-0.018991036
  0
VERTEX
  8
0
  6
CONTINUOUS
 62
     1
 10
184.6949549
 20
161.769554705
 42
-0.018910232
  0
VERTEX
  8
0
  6
CONTINUOUS
 62
     1
 10
185.0
 20
161.781088913
 42
-0.018901239
  0
VERTEX
  8
0
  6
CONTINUOUS
 62
     1
 10
185.3050451
 20
161.769554705
 42
-0.018964128
  0
VERTEX
  8
0
  6
CONTINUOUS
 62
     1
 10
185.607768622
 20
161.735039862
 42
-0.019098398
  0
VERTEX
  8
0
  6
CONTINUOUS
 62
     1
 10
185.905866658
 20
161.677807063
 42
-0.019302905
  0
VERTEX
  8
0
  6
CONTINUOUS
 62
     1
 10
186.197070502
 20
161.598291885
 42
-0.019575685
  0
VERTEX
  8
0
  6
CONTINUOUS
 62
     1
 10
186.479163916
 20
161.497099485
 42
-0.019913709
  0
VERTEX
  8
0
  6
CONTINUOUS
 62
     1
 10
186.75
 20
161.375
 42
-0.020312541
  0
VERTEX
  8
0
  6
CONTINUOUS
 62
     1
 10
187.007517527
 20
161.23292268
 42
-0.020765948
  0
VERTEX
  8
0
  6
CONTINUOUS
 62
     1
 10
187.249756634
 20
161.071948819
 42
-0.021265468
  0
VERTEX
  8
0
  6
CONTINUOUS
 62
     1
 10
187.474873734
 20
160.893303525
 42
-0.021800009
  0
VERTEX
  8
0
  6
CONTINUOUS
 62
     1
 10
187.681155551
 20
160.698346397
 42
-0.022355542
  0
VERTEX
  8
0
  6
CONTINUOUS
 62
     1
 10
187.867032155
 20
160.488561177
 42
-0.022915011
  0
VERTEX
  8
0
  6
CONTINUOUS
 62
     1
 10
188.031088913
 20
160.265544457
 42
-0.023458559
  0
VERTEX
  8
0
  6
CONTINUOUS
 62
     1
 10
188.172077255
 20
160.030993528
 42
-0.023964205
  0
VERTEX
  8
0
  6
CONTINUOUS
 62
     1
 10
188.288924173
 20
159.786693465
 42
-0.02440902
  0
VERTEX
  8
0
  6
CONTINUOUS
 62
     1
 10
188.380740392
 20
159.534503538
 42
-0.02477078
  0
VERTEX
  8
0
  6
CONTINUOUS
 62
     1
 10
188.446827136
 20
159.276343066
 42
-0.02502995
  0
VERTEX
  8
0
  6
CONTINUOUS
 62
     1
 10
188.486681443
 20
159.014176806
 42
-0.025171713
  0
SEQEND
  8
0
  6
CONTINUOUS
 62
     1
  0
LINE
  8
0
  6
CONTINUOUS
 62
     1
 10
183.3
 20
158.75
 11
184.1
 21
157.468278814
  0
LINE
  8
0
  6
CONTINUOUS
 62
     1
 10
184.1
 20
157.468278814
 11
185.9
 21
157.468278814
  0
LINE
  8
0
  6
CONTINUOUS
 62
     1
 10
185.9
 20
157.468278814
 11
186.7
 21
158.75
  0
LINE
  8
0
  6
CONTINUOUS
 62
     1
 10
186.7
 20
158.75
 11
185.9
 21
160.066355025
  0
LINE
  8
0
  6
CONTINUOUS
 62
     1
 10
185.9
 20
160.066355025
 11
184.1
 21
160.066355025
  0
LINE
  8
0
  6
CONTINUOUS
 62
     1
 10
184.1
 20
160.066355025
 11
183.3
 21
158.75
  0
POLYLINE
  8
0
  6
CONTINUOUS
 62
     1
 66
     1
 70
     1
  0
VERTEX
  8
0
  6
CONTINUOUS
 62
     1
 10
189.0
 20
158.75
 42
-0.025187664
  0
VERTEX
  8
0
  6
CONTINUOUS
 62
     1
 10
188.984778792
 20
158.448083651
 42
-0.025076847
  0
VERTEX
  8
0
  6
CONTINUOUS
 62
     1
 10
188.939231012
 20
158.148465067
 42
-0.024845864
  0
VERTEX
  8
0
  6
CONTINUOUS
 62
     1
 10
188.863703305
 20
157.853424528
 42
-0.024508071
  0
VERTEX
  8
0
  6
CONTINUOUS
 62
     1
 10
188.758770483
 20
157.565207469
 42
-0.024082007
  0
VERTEX
  8
0
  6
CONTINUOUS
 62
     1
 10
188.625231148
 20
157.286007397
 42
-0.023589414
  0
VERTEX
  8
0
  6
CONTINUOUS
 62
     1
 10
188.464101615
 20
157.017949192
 42
-0.02305322
  0
VERTEX
  8
0
  6
CONTINUOUS
 62
     1
 10
188.276608177
 20
156.76307294
 42
-0.022495771
  0
VERTEX
  8
0
  6
CONTINUOUS
 62
     1
 10
188.064177772
 20
156.523318403
 42
-0.021937539
  0
VERTEX
  8
0
  6
CONTINUOUS
 62
     1
 10
187.828427125
 20
156.300510257
 42
-0.021396316
  0
VERTEX
  8
0
  6
CONTINUOUS
 62
     1
 10
187.571150439
 20
156.096344207
 42
-0.02088689
  0
VERTEX
  8
0
  6
CONTINUOUS
 62
     1
 10
187.294305745
 20
155.91237408
 42
-0.020421065
  0
VERTEX
  8
0
  6
CONTINUOUS
 62
     1
 10
187.0
 20
155.75
 42
-0.020007926
  0
VERTEX
  8
0
  6
CONTINUOUS
 62
     1
 10
186.690473047
 20
155.610457731
 42
-0.019654221
  0
VERTEX
  8
0
  6
CONTINUOUS
 62
     1
 10
186.368080573
 20
155.494809275
 42
-0.019364797
  0
VERTEX
  8
0
  6
CONTINUOUS
 62
     1
 10
186.03527618
 20
155.403934785
 42
-0.019143001
  0
VERTEX
  8
0
  6
CONTINUOUS
 62
     1
 10
185.694592711
 20
155.338525872
 42
-0.018991036
  0
VERTEX
  8
0
  6
CONTINUOUS
 62
     1
 10
185.348622971
 20
155.299080337
 42
-0.018910232
  0
VERTEX
  8
0
  6
CONTINUOUS
 62
     1
 10
185.0
 20
155.285898385
 42
-0.018901239
  0
VERTEX
  8
0
  6
CONTINUOUS
 62
     1
 10
184.651377029
 20
155.299080337
 42
-0.018964128
  0
VERTEX
  8
0
  6
CONTINUOUS
 62
     1
 10
184.305407289
 20
155.338525872
 42
-0.019098398
  0
VERTEX
  8
0
  6
CONTINUOUS
 62
     1
 10
183.96472382
 20
155.403934785
 42
-0.019302905
  0
VERTEX
  8
0
  6
CONTINUOUS
 62
     1
 10
183.631919427
 20
155.494809275
 42
-0.019575685
  0
VERTEX
  8
0
  6
CONTINUOUS
 62
     1
 10
183.309526953
 20
155.610457731
 42
-0.019913709
  0
VERTEX
  8
0
  6
CONTINUOUS
 62
     1
 10
183.0
 20
155.75
 42
-0.020312541
  0
VERTEX
  8
0
  6
CONTINUOUS
 62
     1
 10
182.705694255
 20
155.91237408
 42
-0.020765948
  0
VERTEX
  8
0
  6
CONTINUOUS
 62
     1
 10
182.428849561
 20
156.096344207
 42
-0.021265468
  0
VERTEX
  8
0
  6
CONTINUOUS
 62
     1
 10
182.171572875
 20
156.300510257
 42
-0.021800009
  0
VERTEX
  8
0
  6
CONTINUOUS
 62
     1
 10
181.935822228
 20
156.523318403
 42
-0.022355542
  0
VERTEX
  8
0
  6
CONTINUOUS
 62
     1
 10
181.723391823
 20
156.76307294
 42
-0.022915011
  0
VERTEX
  8
0
  6
CONTINUOUS
 62
     1
 10
181.535898385
 20
157.017949192
 42
-0.023458559
  0
VERTEX
  8
0
  6
CONTINUOUS
 62
     1
 10
181.374768852
 20
157.286007397
 42
-0.023964205
  0
VERTEX
  8
0
  6
CONTINUOUS
 62
     1
 10
181.241229517
 20
157.565207469
 42
-0.02440902
  0
VERTEX
  8
0
  6
CONTINUOUS
 62
     1
 10
181.136296695
 20
157.853424528
 42
-0.02477078
  0
VERTEX
  8
0
  6
CONTINUOUS
 62
     1
 10
181.060768988
 20
158.148465067
 42
-0.02502995
  0
VERTEX
  8
0
  6
CONTINUOUS
 62
     1
 10
181.015221208
 20
158.448083651
 42
-0.025171713
  0
VERTEX
  8
0
  6
CONTINUOUS
 62
     1
 10
181.0
 20
158.75
 42
-0.025187664
  0
VERTEX
  8
0
  6
CONTINUOUS
 62
     1
 10
181.015221208
 20
159.051916349
 42
-0.025076847
  0
VERTEX
  8
0
  6
CONTINUOUS
 62
     1
 10
181.060768988
 20
159.351534933
 42
-0.024845864
  0
VERTEX
  8
0
  6
CONTINUOUS
 62
     1
 10
181.136296695
 20
159.646575472
 42
-0.024508071
  0
VERTEX
  8
0
  6
CONTINUOUS
 62
     1
 10
181.241229517
 20
159.934792531
 42
-0.024082007
  0
VERTEX
  8
0
  6
CONTINUOUS
 62
     1
 10
181.374768852
 20
160.213992603
 42
-0.023589414
  0
VERTEX
  8
0
  6
CONTINUOUS
 62
     1
 10
181.535898385
 20
160.482050808
 42
-0.02305322
  0
VERTEX
  8
0
  6
CONTINUOUS
 62
     1
 10
181.723391823
 20
160.73692706
 42
-0.022495771
  0
VERTEX
  8
0
  6
CONTINUOUS
 62
     1
 10
181.935822228
 20
160.976681597
 42
-0.021937539
  0
VERTEX
  8
0
  6
CONTINUOUS
 62
     1
 10
182.171572875
 20
161.199489743
 42
-0.021396316
  0
VERTEX
  8
0
  6
CONTINUOUS
 62
     1
 10
182.428849561
 20
161.403655793
 42
-0.02088689
  0
VERTEX
  8
0
  6
CONTINUOUS
 62
     1
 10
182.705694255
 20
161.58762592
 42
-0.020421065
  0
VERTEX
  8
0
  6
CONTINUOUS
 62
     1
 10
183.0
 20
161.75
 42
-0.020007926
  0
VERTEX
  8
0
  6
CONTINUOUS
 62
     1
 10
183.309526953
 20
161.889542269
 42
-0.019654221
  0
VERTEX
  8
0
  6
CONTINUOUS
 62
     1
 10
183.631919427
 20
162.005190725
 42
-0.019364797
  0
VERTEX
  8
0
  6
CONTINUOUS
 62
     1
 10
183.96472382
 20
162.096065215
 42
-0.019143001
  0
VERTEX
  8
0
  6
CONTINUOUS
 62
     1
 10
184.305407289
 20
162.161474128
 42
-0.018991036
  0
VERTEX
  8
0
  6
CONTINUOUS
 62
     1
 10
184.651377029
 20
162.200919663
 42
-0.018910232
  0
VERTEX
  8
0
  6
CONTINUOUS
 62
     1
 10
185.0
 20
162.214101615
 42
-0.018901239
  0
VERTEX
  8
0
  6
CONTINUOUS
 62
     1
 10
185.348622971
 20
162.200919663
 42
-0.018964128
  0
VERTEX
  8
0
  6
CONTINUOUS
 62
     1
 10
185.694592711
 20
162.161474128
 42
-0.019098398
  0
VERTEX
  8
0
  6
CONTINUOUS
 62
     1
 10
186.03527618
 20
162.096065215
 42
-0.019302905
  0
VERTEX
  8
0
  6
CONTINUOUS
 62
     1
 10
186.368080573
 20
162.005190725
 42
-0.019575685
  0
VERTEX
  8
0
  6
CONTINUOUS
 62
     1
 10
186.690473047
 20
161.889542269
 42
-0.019913709
  0
VERTEX
  8
0
  6
CONTINUOUS
 62
     1
 10
187.0
 20
161.75
 42
-0.020312541
  0
VERTEX
  8
0
  6
CONTINUOUS
 62
     1
 10
187.294305745
 20
161.58762592
 42
-0.020765948
  0
VERTEX
  8
0
  6
CONTINUOUS
 62
     1
 10
187.571150439
 20
161.403655793
 42
-0.021265468
  0
VERTEX
  8
0
  6
CONTINUOUS
 62
     1
 10
187.828427125
 20
161.199489743
 42
-0.021800009
  0
VERTEX
  8
0
  6
CONTINUOUS
 62
     1
 10
188.064177772
 20
160.976681597
 42
-0.022355542
  0
VERTEX
  8
0
  6
CONTINUOUS
 62
     1
 10
188.276608177
 20
160.73692706
 42
-0.022915011
  0
VERTEX
  8
0
  6
CONTINUOUS
 62
     1
 10
188.464101615
 20
160.482050808
 42
-0.023458559
  0
VERTEX
  8
0
  6
CONTINUOUS
 62
     1
 10
188.625231148
 20
160.213992603
 42
-0.023964205
  0
VERTEX
  8
0
  6
CONTINUOUS
 62
     1
 10
188.758770483
 20
159.934792531
 42
-0.02440902
  0
VERTEX
  8
0
  6
CONTINUOUS
 62
     1
 10
188.863703305
 20
159.646575472
 42
-0.02477078
  0
VERTEX
  8
0
  6
CONTINUOUS
 62
     1
 10
188.939231012
 20
159.351534933
 42
-0.02502995
  0
VERTEX
  8
0
  6
CONTINUOUS
 62
     1
 10
188.984778792
 20
159.051916349
 42
-0.025171713
  0
SEQEND
  8
0
  6
CONTINUOUS
 62
     1
  0
LINE
  8
0
  6
CONTINUOUS
 62
     1
 10
180.0
 20
175.0
 11
234.0
 21
175.0
  0
LINE
  8
0
  6
CONTINUOUS
 62
     1
 10
218.5
 20
207.5
 11
234.0
 21
207.5
  0
LINE
  8
0
  6
CONTINUOUS
 62
     1
 10
180.0
 20
207.5
 11
196.5
 21
207.5
  0
LINE
  8
0
  6
CONTINUOUS
 62
     1
 10
218.5
 20
217.5
 11
218.5
 21
205.581857367
  0
LINE
  8
0
  6
CONTINUOUS
 62
     1
 10
196.5
 20
205.581857367
 11
196.5
 21
217.5
  0
LINE
  8
0
  6
CONTINUOUS
 62
     1
 10
198.5
 20
205.581857367
 11
216.5
 21
205.581857367
  0
POLYLINE
  8
0
  6
CONTINUOUS
 62
     1
 66
     1
 70
     1
  0
VERTEX
  8
0
  6
CONTINUOUS
 62
     1
 10
201.5
 20
169.356434226
 42
-0.022156032
  0
VERTEX
  8
0
  6
CONTINUOUS
 62
     1
 10
201.484778792
 20
169.013107621
 42
-0.022146901
  0
VERTEX
  8
0
  6
CONTINUOUS
 62
     1
 10
201.439231012
 20
168.672393939
 42
-0.022127631
  0
VERTEX
  8
0
  6
CONTINUOUS
 62
     1
 10
201.363703305
 20
168.336886217
 42
-0.022098859
  0
VERTEX
  8
0
  6
CONTINUOUS
 62
     1
 10
201.258770483
 20
168.00913787
 42
-0.022061528
  0
VERTEX
  8
0
  6
CONTINUOUS
 62
     1
 10
201.125231148
 20
167.691643263
 42
-0.022016855
  0
VERTEX
  8
0
  6
CONTINUOUS
 62
     1
 10
200.964101615
 20
167.38681872
 42
-0.021966277
  0
VERTEX
  8
0
  6
CONTINUOUS
 62
     1
 10
200.776608177
 20
167.09698414
 42
-0.021911401
  0
VERTEX
  8
0
  6
CONTINUOUS
 62
     1
 10
200.564177772
 20
166.82434534
 42
-0.021853949
  0
VERTEX
  8
0
  6
CONTINUOUS
 62
     1
 10
200.328427125
 20
166.570977265
 42
-0.021795695
  0
VERTEX
  8
0
  6
CONTINUOUS
 62
     1
 10
200.071150439
 20
166.338808199
 42
-0.021738409
  0
VERTEX
  8
0
  6
CONTINUOUS
 62
     1
 10
199.794305745
 20
166.129605089
 42
-0.021683806
  0
VERTEX
  8
0
  6
CONTINUOUS
 62
     1
 10
199.5
 20
165.944960098
 42
-0.021633496
  0
VERTEX
  8
0
  6
CONTINUOUS
 62
     1
 10
199.190473047
 20
165.786278485
 42
-0.021588938
  0
VERTEX
  8
0
  6
CONTINUOUS
 62
     1
 10
198.868080573
 20
165.654767912
 42
-0.021551411
  0
VERTEX
  8
0
  6
CONTINUOUS
 62
     1
 10
198.53527618
 20
165.551429256
 42
-0.021521975
  0
VERTEX
  8
0
  6
CONTINUOUS
 62
     1
 10
198.194592711
 20
165.477048984
 42
-0.021501458
  0
VERTEX
  8
0
  6
CONTINUOUS
 62
     1
 10
197.848622971
 20
165.432193177
 42
-0.021490431
  0
VERTEX
  8
0
  6
CONTINUOUS
 62
     1
 10
197.5
 20
165.417203214
 42
-0.021489198
  0
VERTEX
  8
0
  6
CONTINUOUS
 62
     1
 10
197.151377029
 20
165.432193177
 42
-0.021497795
  0
VERTEX
  8
0
  6
CONTINUOUS
 62
     1
 10
196.805407289
 20
165.477048984
 42
-0.021515983
  0
VERTEX
  8
0
  6
CONTINUOUS
 62
     1
 10
196.46472382
 20
165.551429256
 42
-0.021543257
  0
VERTEX
  8
0
  6
CONTINUOUS
 62
     1
 10
196.131919427
 20
165.654767912
 42
-0.021578852
  0
VERTEX
  8
0
  6
CONTINUOUS
 62
     1
 10
195.809526953
 20
165.786278485
 42
-0.021621764
  0
VERTEX
  8
0
  6
CONTINUOUS
 62
     1
 10
195.5
 20
165.944960098
 42
-0.021670766
  0
VERTEX
  8
0
  6
CONTINUOUS
 62
     1
 10
195.205694255
 20
166.129605089
 42
-0.021724442
  0
VERTEX
  8
0
  6
CONTINUOUS
 62
     1
 10
194.928849561
 20
166.338808199
 42
-0.021781214
  0
VERTEX
  8
0
  6
CONTINUOUS
 62
     1
 10
194.671572875
 20
166.570977265
 42
-0.021839391
  0
VERTEX
  8
0
  6
CONTINUOUS
 62
     1
 10
194.435822228
 20
166.82434534
 42
-0.021897211
  0
VERTEX
  8
0
  6
CONTINUOUS
 62
     1
 10
194.223391823
 20
167.09698414
 42
-0.021952895
  0
VERTEX
  8
0
  6
CONTINUOUS
 62
     1
 10
194.035898385
 20
167.38681872
 42
-0.022004704
  0
VERTEX
  8
0
  6
CONTINUOUS
 62
     1
 10
193.874768852
 20
167.691643263
 42
-0.022050996
  0
VERTEX
  8
0
  6
CONTINUOUS
 62
     1
 10
193.741229517
 20
168.00913787
 42
-0.022090285
  0
VERTEX
  8
0
  6
CONTINUOUS
 62
     1
 10
193.636296695
 20
168.336886217
 42
-0.022121297
  0
VERTEX
  8
0
  6
CONTINUOUS
 62
     1
 10
193.560768988
 20
168.672393939
 42
-0.022143014
  0
VERTEX
  8
0
  6
CONTINUOUS
 62
     1
 10
193.515221208
 20
169.013107621
 42
-0.022154722
  0
VERTEX
  8
0
  6
CONTINUOUS
 62
     1
 10
193.5
 20
169.356434226
 42
-0.022156032
  0
VERTEX
  8
0
  6
CONTINUOUS
 62
     1
 10
193.515221208
 20
169.699760831
 42
-0.022146901
  0
VERTEX
  8
0
  6
CONTINUOUS
 62
     1
 10
193.560768988
 20
170.040474512
 42
-0.022127631
  0
VERTEX
  8
0
  6
CONTINUOUS
 62
     1
 10
193.636296695
 20
170.375982235
 42
-0.022098859
  0
VERTEX
  8
0
  6
CONTINUOUS
 62
     1
 10
193.741229517
 20
170.703730581
 42
-0.022061528
  0
VERTEX
  8
0
  6
CONTINUOUS
 62
     1
 10
193.874768852
 20
171.021225189
 42
-0.022016855
  0
VERTEX
  8
0
  6
CONTINUOUS
 62
     1
 10
194.035898385
 20
171.326049732
 42
-0.021966277
  0
VERTEX
  8
0
  6
CONTINUOUS
 62
     1
 10
194.223391823
 20
171.615884312
 42
-0.021911401
  0
VERTEX
  8
0
  6
CONTINUOUS
 62
     1
 10
194.435822228
 20
171.888523112
 42
-0.021853949
  0
VERTEX
  8
0
  6
CONTINUOUS
 62
     1
 10
194.671572875
 20
172.141891187
 42
-0.021795695
  0
VERTEX
  8
0
  6
CONTINUOUS
 62
     1
 10
194.928849561
 20
172.374060253
 42
-0.021738409
  0
VERTEX
  8
0
  6
CONTINUOUS
 62
     1
 10
195.205694255
 20
172.583263362
 42
-0.021683806
  0
VERTEX
  8
0
  6
CONTINUOUS
 62
     1
 10
195.5
 20
172.767908354
 42
-0.021633496
  0
VERTEX
  8
0
  6
CONTINUOUS
 62
     1
 10
195.809526953
 20
172.926589967
 42
-0.021588938
  0
VERTEX
  8
0
  6
CONTINUOUS
 62
     1
 10
196.131919427
 20
173.058100539
 42
-0.021551411
  0
VERTEX
  8
0
  6
CONTINUOUS
 62
     1
 10
196.46472382
 20
173.161439196
 42
-0.021521975
  0
VERTEX
  8
0
  6
CONTINUOUS
 62
     1
 10
196.805407289
 20
173.235819467
 42
-0.021501458
  0
VERTEX
  8
0
  6
CONTINUOUS
 62
     1
 10
197.151377029
 20
173.280675275
 42
-0.021490431
  0
VERTEX
  8
0
  6
CONTINUOUS
 62
     1
 10
197.5
 20
173.295665238
 42
-0.021489198
  0
VERTEX
  8
0
  6
CONTINUOUS
 62
     1
 10
197.848622971
 20
173.280675275
 42
-0.021497795
  0
VERTEX
  8
0
  6
CONTINUOUS
 62
     1
 10
198.194592711
 20
173.235819467
 42
-0.021515983
  0
VERTEX
  8
0
  6
CONTINUOUS
 62
     1
 10
198.53527618
 20
173.161439196
 42
-0.021543257
  0
VERTEX
  8
0
  6
CONTINUOUS
 62
     1
 10
198.868080573
 20
173.058100539
 42
-0.021578852
  0
VERTEX
  8
0
  6
CONTINUOUS
 62
     1
 10
199.190473047
 20
172.926589967
 42
-0.021621764
  0
VERTEX
  8
0
  6
CONTINUOUS
 62
     1
 10
199.5
 20
172.767908354
 42
-0.021670766
  0
VERTEX
  8
0
  6
CONTINUOUS
 62
     1
 10
199.794305745
 20
172.583263362
 42
-0.021724442
  0
VERTEX
  8
0
  6
CONTINUOUS
 62
     1
 10
200.071150439
 20
172.374060253
 42
-0.021781214
  0
VERTEX
  8
0
  6
CONTINUOUS
 62
     1
 10
200.328427125
 20
172.141891187
 42
-0.021839391
  0
VERTEX
  8
0
  6
CONTINUOUS
 62
     1
 10
200.564177772
 20
171.888523112
 42
-0.021897211
  0
VERTEX
  8
0
  6
CONTINUOUS
 62
     1
 10
200.776608177
 20
171.615884312
 42
-0.021952895
  0
VERTEX
  8
0
  6
CONTINUOUS
 62
     1
 10
200.964101615
 20
171.326049732
 42
-0.022004704
  0
VERTEX
  8
0
  6
CONTINUOUS
 62
     1
 10
201.125231148
 20
171.021225189
 42
-0.022050996
  0
VERTEX
  8
0
  6
CONTINUOUS
 62
     1
 10
201.258770483
 20
170.703730581
 42
-0.022090285
  0
VERTEX
  8
0
  6
CONTINUOUS
 62
     1
 10
201.363703305
 20
170.375982235
 42
-0.022121297
  0
VERTEX
  8
0
  6
CONTINUOUS
 62
     1
 10
201.439231012
 20
170.040474512
 42
-0.022143014
  0
VERTEX
  8
0
  6
CONTINUOUS
 62
     1
 10
201.484778792
 20
169.699760831
 42
-0.022154722
  0
SEQEND
  8
0
  6
CONTINUOUS
 62
     1
  0
POLYLINE
  8
0
  6
CONTINUOUS
 62
     1
 66
     1
 70
     1
  0
VERTEX
  8
0
  6
CONTINUOUS
 62
     1
 10
201.0
 20
169.356434226
 42
-0.022156032
  0
VERTEX
  8
0
  6
CONTINUOUS
 62
     1
 10
200.986681443
 20
169.056023447
 42
-0.022146901
  0
VERTEX
  8
0
  6
CONTINUOUS
 62
     1
 10
200.946827136
 20
168.757898975
 42
-0.022127631
  0
VERTEX
  8
0
  6
CONTINUOUS
 62
     1
 10
200.880740392
 20
168.464329718
 42
-0.022098859
  0
VERTEX
  8
0
  6
CONTINUOUS
 62
     1
 10
200.788924173
 20
168.177549915
 42
-0.022061528
  0
VERTEX
  8
0
  6
CONTINUOUS
 62
     1
 10
200.672077255
 20
167.899742133
 42
-0.022016855
  0
VERTEX
  8
0
  6
CONTINUOUS
 62
     1
 10
200.531088913
 20
167.633020658
 42
-0.021966277
  0
VERTEX
  8
0
  6
CONTINUOUS
 62
     1
 10
200.367032155
 20
167.379415401
 42
-0.021911401
  0
VERTEX
  8
0
  6
CONTINUOUS
 62
     1
 10
200.181155551
 20
167.14085645
 42
-0.021853949
  0
VERTEX
  8
0
  6
CONTINUOUS
 62
     1
 10
199.974873734
 20
166.919159385
 42
-0.021795695
  0
VERTEX
  8
0
  6
CONTINUOUS
 62
     1
 10
199.749756634
 20
166.716011452
 42
-0.021738409
  0
VERTEX
  8
0
  6
CONTINUOUS
 62
     1
 10
199.507517527
 20
166.532958731
 42
-0.021683806
  0
VERTEX
  8
0
  6
CONTINUOUS
 62
     1
 10
199.25
 20
166.371394364
 42
-0.021633496
  0
VERTEX
  8
0
  6
CONTINUOUS
 62
     1
 10
198.979163916
 20
166.232547952
 42
-0.021588938
  0
VERTEX
  8
0
  6
CONTINUOUS
 62
     1
 10
198.697070502
 20
166.117476201
 42
-0.021551411
  0
VERTEX
  8
0
  6
CONTINUOUS
 62
     1
 10
198.405866658
 20
166.027054877
 42
-0.021521975
  0
VERTEX
  8
0
  6
CONTINUOUS
 62
     1
 10
198.107768622
 20
165.961972139
 42
-0.021501458
  0
VERTEX
  8
0
  6
CONTINUOUS
 62
     1
 10
197.8050451
 20
165.922723308
 42
-0.021490431
  0
VERTEX
  8
0
  6
CONTINUOUS
 62
     1
 10
197.5
 20
165.90960709
 42
-0.021489198
  0
VERTEX
  8
0
  6
CONTINUOUS
 62
     1
 10
197.1949549
 20
165.922723308
 42
-0.021497795
  0
VERTEX
  8
0
  6
CONTINUOUS
 62
     1
 10
196.892231378
 20
165.961972139
 42
-0.021515983
  0
VERTEX
  8
0
  6
CONTINUOUS
 62
     1
 10
196.594133342
 20
166.027054877
 42
-0.021543257
  0
VERTEX
  8
0
  6
CONTINUOUS
 62
     1
 10
196.302929498
 20
166.117476201
 42
-0.021578852
  0
VERTEX
  8
0
  6
CONTINUOUS
 62
     1
 10
196.020836084
 20
166.232547952
 42
-0.021621764
  0
VERTEX
  8
0
  6
CONTINUOUS
 62
     1
 10
195.75
 20
166.371394364
 42
-0.021670766
  0
VERTEX
  8
0
  6
CONTINUOUS
 62
     1
 10
195.492482473
 20
166.532958731
 42
-0.021724442
  0
VERTEX
  8
0
  6
CONTINUOUS
 62
     1
 10
195.250243366
 20
166.716011452
 42
-0.021781214
  0
VERTEX
  8
0
  6
CONTINUOUS
 62
     1
 10
195.025126266
 20
166.919159385
 42
-0.021839391
  0
VERTEX
  8
0
  6
CONTINUOUS
 62
     1
 10
194.818844449
 20
167.14085645
 42
-0.021897211
  0
VERTEX
  8
0
  6
CONTINUOUS
 62
     1
 10
194.632967845
 20
167.379415401
 42
-0.021952895
  0
VERTEX
  8
0
  6
CONTINUOUS
 62
     1
 10
194.468911087
 20
167.633020658
 42
-0.022004704
  0
VERTEX
  8
0
  6
CONTINUOUS
 62
     1
 10
194.327922745
 20
167.899742133
 42
-0.022050996
  0
VERTEX
  8
0
  6
CONTINUOUS
 62
     1
 10
194.211075827
 20
168.177549915
 42
-0.022090285
  0
VERTEX
  8
0
  6
CONTINUOUS
 62
     1
 10
194.119259608
 20
168.464329718
 42
-0.022121297
  0
VERTEX
  8
0
  6
CONTINUOUS
 62
     1
 10
194.053172864
 20
168.757898975
 42
-0.022143014
  0
VERTEX
  8
0
  6
CONTINUOUS
 62
     1
 10
194.013318557
 20
169.056023447
 42
-0.022154722
  0
VERTEX
  8
0
  6
CONTINUOUS
 62
     1
 10
194.0
 20
169.356434226
 42
-0.022156032
  0
VERTEX
  8
0
  6
CONTINUOUS
 62
     1
 10
194.013318557
 20
169.656845005
 42
-0.022146901
  0
VERTEX
  8
0
  6
CONTINUOUS
 62
     1
 10
194.053172864
 20
169.954969477
 42
-0.022127631
  0
VERTEX
  8
0
  6
CONTINUOUS
 62
     1
 10
194.119259608
 20
170.248538734
 42
-0.022098859
  0
VERTEX
  8
0
  6
CONTINUOUS
 62
     1
 10
194.211075827
 20
170.535318537
 42
-0.022061528
  0
VERTEX
  8
0
  6
CONTINUOUS
 62
     1
 10
194.327922745
 20
170.813126318
 42
-0.022016855
  0
VERTEX
  8
0
  6
CONTINUOUS
 62
     1
 10
194.468911087
 20
171.079847794
 42
-0.021966277
  0
VERTEX
  8
0
  6
CONTINUOUS
 62
     1
 10
194.632967845
 20
171.333453051
 42
-0.021911401
  0
VERTEX
  8
0
  6
CONTINUOUS
 62
     1
 10
194.818844449
 20
171.572012001
 42
-0.021853949
  0
VERTEX
  8
0
  6
CONTINUOUS
 62
     1
 10
195.025126266
 20
171.793709067
 42
-0.021795695
  0
VERTEX
  8
0
  6
CONTINUOUS
 62
     1
 10
195.250243366
 20
171.996856999
 42
-0.021738409
  0
VERTEX
  8
0
  6
CONTINUOUS
 62
     1
 10
195.492482473
 20
172.17990972
 42
-0.021683806
  0
VERTEX
  8
0
  6
CONTINUOUS
 62
     1
 10
195.75
 20
172.341474088
 42
-0.021633496
  0
VERTEX
  8
0
  6
CONTINUOUS
 62
     1
 10
196.020836084
 20
172.480320499
 42
-0.021588938
  0
VERTEX
  8
0
  6
CONTINUOUS
 62
     1
 10
196.302929498
 20
172.59539225
 42
-0.021551411
  0
VERTEX
  8
0
  6
CONTINUOUS
 62
     1
 10
196.594133342
 20
172.685813575
 42
-0.021521975
  0
VERTEX
  8
0
  6
CONTINUOUS
 62
     1
 10
196.892231378
 20
172.750896312
 42
-0.021501458
  0
VERTEX
  8
0
  6
CONTINUOUS
 62
     1
 10
197.1949549
 20
172.790145143
 42
-0.021490431
  0
VERTEX
  8
0
  6
CONTINUOUS
 62
     1
 10
197.5
 20
172.803261361
 42
-0.021489198
  0
VERTEX
  8
0
  6
CONTINUOUS
 62
     1
 10
197.8050451
 20
172.790145143
 42
-0.021497795
  0
VERTEX
  8
0
  6
CONTINUOUS
 62
     1
 10
198.107768622
 20
172.750896312
 42
-0.021515983
  0
VERTEX
  8
0
  6
CONTINUOUS
 62
     1
 10
198.405866658
 20
172.685813575
 42
-0.021543257
  0
VERTEX
  8
0
  6
CONTINUOUS
 62
     1
 10
198.697070502
 20
172.59539225
 42
-0.021578852
  0
VERTEX
  8
0
  6
CONTINUOUS
 62
     1
 10
198.979163916
 20
172.480320499
 42
-0.021621764
  0
VERTEX
  8
0
  6
CONTINUOUS
 62
     1
 10
199.25
 20
172.341474088
 42
-0.021670766
  0
VERTEX
  8
0
  6
CONTINUOUS
 62
     1
 10
199.507517527
 20
172.17990972
 42
-0.021724442
  0
VERTEX
  8
0
  6
CONTINUOUS
 62
     1
 10
199.749756634
 20
171.996856999
 42
-0.021781214
  0
VERTEX
  8
0
  6
CONTINUOUS
 62
     1
 10
199.974873734
 20
171.793709067
 42
-0.021839391
  0
VERTEX
  8
0
  6
CONTINUOUS
 62
     1
 10
200.181155551
 20
171.572012001
 42
-0.021897211
  0
VERTEX
  8
0
  6
CONTINUOUS
 62
     1
 10
200.367032155
 20
171.333453051
 42
-0.021952895
  0
VERTEX
  8
0
  6
CONTINUOUS
 62
     1
 10
200.531088913
 20
171.079847794
 42
-0.022004704
  0
VERTEX
  8
0
  6
CONTINUOUS
 62
     1
 10
200.672077255
 20
170.813126318
 42
-0.022050996
  0
VERTEX
  8
0
  6
CONTINUOUS
 62
     1
 10
200.788924173
 20
170.535318537
 42
-0.022090285
  0
VERTEX
  8
0
  6
CONTINUOUS
 62
     1
 10
200.880740392
 20
170.248538734
 42
-0.022121297
  0
VERTEX
  8
0
  6
CONTINUOUS
 62
     1
 10
200.946827136
 20
169.954969477
 42
-0.022143014
  0
VERTEX
  8
0
  6
CONTINUOUS
 62
     1
 10
200.986681443
 20
169.656845005
 42
-0.022154722
  0
SEQEND
  8
0
  6
CONTINUOUS
 62
     1
  0
LINE
  8
0
  6
CONTINUOUS
 62
     1
 10
195.8
 20
169.356434226
 11
196.6
 21
167.885236699
  0
LINE
  8
0
  6
CONTINUOUS
 62
     1
 10
196.6
 20
167.885236699
 11
198.4
 21
167.885236699
  0
LINE
  8
0
  6
CONTINUOUS
 62
     1
 10
198.4
 20
167.885236699
 11
199.2
 21
169.356434226
  0
LINE
  8
0
  6
CONTINUOUS
 62
     1
 10
199.2
 20
169.356434226
 11
198.4
 21
170.839659958
  0
LINE
  8
0
  6
CONTINUOUS
 62
     1
 10
198.4
 20
170.839659958
 11
196.6
 21
170.839659958
  0
LINE
  8
0
  6
CONTINUOUS
 62
     1
 10
196.6
 20
170.839659958
 11
195.8
 21
169.356434226
  0
POLYLINE
  8
0
  6
CONTINUOUS
 62
     1
 66
     1
 70
     1
  0
VERTEX
  8
0
  6
CONTINUOUS
 62
     1
 10
221.5
 20
169.356434226
 42
-0.022156032
  0
VERTEX
  8
0
  6
CONTINUOUS
 62
     1
 10
221.484778792
 20
169.013107621
 42
-0.022146901
  0
VERTEX
  8
0
  6
CONTINUOUS
 62
     1
 10
221.439231012
 20
168.672393939
 42
-0.022127631
  0
VERTEX
  8
0
  6
CONTINUOUS
 62
     1
 10
221.363703305
 20
168.336886217
 42
-0.022098859
  0
VERTEX
  8
0
  6
CONTINUOUS
 62
     1
 10
221.258770483
 20
168.00913787
 42
-0.022061528
  0
VERTEX
  8
0
  6
CONTINUOUS
 62
     1
 10
221.125231148
 20
167.691643263
 42
-0.022016855
  0
VERTEX
  8
0
  6
CONTINUOUS
 62
     1
 10
220.964101615
 20
167.38681872
 42
-0.021966277
  0
VERTEX
  8
0
  6
CONTINUOUS
 62
     1
 10
220.776608177
 20
167.09698414
 42
-0.021911401
  0
VERTEX
  8
0
  6
CONTINUOUS
 62
     1
 10
220.564177772
 20
166.82434534
 42
-0.021853949
  0
VERTEX
  8
0
  6
CONTINUOUS
 62
     1
 10
220.328427125
 20
166.570977265
 42
-0.021795695
  0
VERTEX
  8
0
  6
CONTINUOUS
 62
     1
 10
220.071150439
 20
166.338808199
 42
-0.021738409
  0
VERTEX
  8
0
  6
CONTINUOUS
 62
     1
 10
219.794305745
 20
166.129605089
 42
-0.021683806
  0
VERTEX
  8
0
  6
CONTINUOUS
 62
     1
 10
219.5
 20
165.944960098
 42
-0.021633496
  0
VERTEX
  8
0
  6
CONTINUOUS
 62
     1
 10
219.190473047
 20
165.786278485
 42
-0.021588938
  0
VERTEX
  8
0
  6
CONTINUOUS
 62
     1
 10
218.868080573
 20
165.654767912
 42
-0.021551411
  0
VERTEX
  8
0
  6
CONTINUOUS
 62
     1
 10
218.53527618
 20
165.551429256
 42
-0.021521975
  0
VERTEX
  8
0
  6
CONTINUOUS
 62
     1
 10
218.194592711
 20
165.477048984
 42
-0.021501458
  0
VERTEX
  8
0
  6
CONTINUOUS
 62
     1
 10
217.848622971
 20
165.432193177
 42
-0.021490431
  0
VERTEX
  8
0
  6
CONTINUOUS
 62
     1
 10
217.5
 20
165.417203214
 42
-0.021489198
  0
VERTEX
  8
0
  6
CONTINUOUS
 62
     1
 10
217.151377029
 20
165.432193177
 42
-0.021497795
  0
VERTEX
  8
0
  6
CONTINUOUS
 62
     1
 10
216.805407289
 20
165.477048984
 42
-0.021515983
  0
VERTEX
  8
0
  6
CONTINUOUS
 62
     1
 10
216.46472382
 20
165.551429256
 42
-0.021543257
  0
VERTEX
  8
0
  6
CONTINUOUS
 62
     1
 10
216.131919427
 20
165.654767912
 42
-0.021578852
  0
VERTEX
  8
0
  6
CONTINUOUS
 62
     1
 10
215.809526953
 20
165.786278485
 42
-0.021621764
  0
VERTEX
  8
0
  6
CONTINUOUS
 62
     1
 10
215.5
 20
165.944960098
 42
-0.021670766
  0
VERTEX
  8
0
  6
CONTINUOUS
 62
     1
 10
215.205694255
 20
166.129605089
 42
-0.021724442
  0
VERTEX
  8
0
  6
CONTINUOUS
 62
     1
 10
214.928849561
 20
166.338808199
 42
-0.021781214
  0
VERTEX
  8
0
  6
CONTINUOUS
 62
     1
 10
214.671572875
 20
166.570977265
 42
-0.021839391
  0
VERTEX
  8
0
  6
CONTINUOUS
 62
     1
 10
214.435822228
 20
166.82434534
 42
-0.021897211
  0
VERTEX
  8
0
  6
CONTINUOUS
 62
     1
 10
214.223391823
 20
167.09698414
 42
-0.021952895
  0
VERTEX
  8
0
  6
CONTINUOUS
 62
     1
 10
214.035898385
 20
167.38681872
 42
-0.022004704
  0
VERTEX
  8
0
  6
CONTINUOUS
 62
     1
 10
213.874768852
 20
167.691643263
 42
-0.022050996
  0
VERTEX
  8
0
  6
CONTINUOUS
 62
     1
 10
213.741229517
 20
168.00913787
 42
-0.022090285
  0
VERTEX
  8
0
  6
CONTINUOUS
 62
     1
 10
213.636296695
 20
168.336886217
 42
-0.022121297
  0
VERTEX
  8
0
  6
CONTINUOUS
 62
     1
 10
213.560768988
 20
168.672393939
 42
-0.022143014
  0
VERTEX
  8
0
  6
CONTINUOUS
 62
     1
 10
213.515221208
 20
169.013107621
 42
-0.022154722
  0
VERTEX
  8
0
  6
CONTINUOUS
 62
     1
 10
213.5
 20
169.356434226
 42
-0.022156032
  0
VERTEX
  8
0
  6
CONTINUOUS
 62
     1
 10
213.515221208
 20
169.699760831
 42
-0.022146901
  0
VERTEX
  8
0
  6
CONTINUOUS
 62
     1
 10
213.560768988
 20
170.040474512
 42
-0.022127631
  0
VERTEX
  8
0
  6
CONTINUOUS
 62
     1
 10
213.636296695
 20
170.375982235
 42
-0.022098859
  0
VERTEX
  8
0
  6
CONTINUOUS
 62
     1
 10
213.741229517
 20
170.703730581
 42
-0.022061528
  0
VERTEX
  8
0
  6
CONTINUOUS
 62
     1
 10
213.874768852
 20
171.021225189
 42
-0.022016855
  0
VERTEX
  8
0
  6
CONTINUOUS
 62
     1
 10
214.035898385
 20
171.326049732
 42
-0.021966277
  0
VERTEX
  8
0
  6
CONTINUOUS
 62
     1
 10
214.223391823
 20
171.615884312
 42
-0.021911401
  0
VERTEX
  8
0
  6
CONTINUOUS
 62
     1
 10
214.435822228
 20
171.888523112
 42
-0.021853949
  0
VERTEX
  8
0
  6
CONTINUOUS
 62
     1
 10
214.671572875
 20
172.141891187
 42
-0.021795695
  0
VERTEX
  8
0
  6
CONTINUOUS
 62
     1
 10
214.928849561
 20
172.374060253
 42
-0.021738409
  0
VERTEX
  8
0
  6
CONTINUOUS
 62
     1
 10
215.205694255
 20
172.583263362
 42
-0.021683806
  0
VERTEX
  8
0
  6
CONTINUOUS
 62
     1
 10
215.5
 20
172.767908354
 42
-0.021633496
  0
VERTEX
  8
0
  6
CONTINUOUS
 62
     1
 10
215.809526953
 20
172.926589967
 42
-0.021588938
  0
VERTEX
  8
0
  6
CONTINUOUS
 62
     1
 10
216.131919427
 20
173.058100539
 42
-0.021551411
  0
VERTEX
  8
0
  6
CONTINUOUS
 62
     1
 10
216.46472382
 20
173.161439196
 42
-0.021521975
  0
VERTEX
  8
0
  6
CONTINUOUS
 62
     1
 10
216.805407289
 20
173.235819467
 42
-0.021501458
  0
VERTEX
  8
0
  6
CONTINUOUS
 62
     1
 10
217.151377029
 20
173.280675275
 42
-0.021490431
  0
VERTEX
  8
0
  6
CONTINUOUS
 62
     1
 10
217.5
 20
173.295665238
 42
-0.021489198
  0
VERTEX
  8
0
  6
CONTINUOUS
 62
     1
 10
217.848622971
 20
173.280675275
 42
-0.021497795
  0
VERTEX
  8
0
  6
CONTINUOUS
 62
     1
 10
218.194592711
 20
173.235819467
 42
-0.021515983
  0
VERTEX
  8
0
  6
CONTINUOUS
 62
     1
 10
218.53527618
 20
173.161439196
 42
-0.021543257
  0
VERTEX
  8
0
  6
CONTINUOUS
 62
     1
 10
218.868080573
 20
173.058100539
 42
-0.021578852
  0
VERTEX
  8
0
  6
CONTINUOUS
 62
     1
 10
219.190473047
 20
172.926589967
 42
-0.021621764
  0
VERTEX
  8
0
  6
CONTINUOUS
 62
     1
 10
219.5
 20
172.767908354
 42
-0.021670766
  0
VERTEX
  8
0
  6
CONTINUOUS
 62
     1
 10
219.794305745
 20
172.583263362
 42
-0.021724442
  0
VERTEX
  8
0
  6
CONTINUOUS
 62
     1
 10
220.071150439
 20
172.374060253
 42
-0.021781214
  0
VERTEX
  8
0
  6
CONTINUOUS
 62
     1
 10
220.328427125
 20
172.141891187
 42
-0.021839391
  0
VERTEX
  8
0
  6
CONTINUOUS
 62
     1
 10
220.564177772
 20
171.888523112
 42
-0.021897211
  0
VERTEX
  8
0
  6
CONTINUOUS
 62
     1
 10
220.776608177
 20
171.615884312
 42
-0.021952895
  0
VERTEX
  8
0
  6
CONTINUOUS
 62
     1
 10
220.964101615
 20
171.326049732
 42
-0.022004704
  0
VERTEX
  8
0
  6
CONTINUOUS
 62
     1
 10
221.125231148
 20
171.021225189
 42
-0.022050996
  0
VERTEX
  8
0
  6
CONTINUOUS
 62
     1
 10
221.258770483
 20
170.703730581
 42
-0.022090285
  0
VERTEX
  8
0
  6
CONTINUOUS
 62
     1
 10
221.363703305
 20
170.375982235
 42
-0.022121297
  0
VERTEX
  8
0
  6
CONTINUOUS
 62
     1
 10
221.439231012
 20
170.040474512
 42
-0.022143014
  0
VERTEX
  8
0
  6
CONTINUOUS
 62
     1
 10
221.484778792
 20
169.699760831
 42
-0.022154722
  0
SEQEND
  8
0
  6
CONTINUOUS
 62
     1
  0
POLYLINE
  8
0
  6
CONTINUOUS
 62
     1
 66
     1
 70
     1
  0
VERTEX
  8
0
  6
CONTINUOUS
 62
     1
 10
221.0
 20
169.356434226
 42
-0.022156032
  0
VERTEX
  8
0
  6
CONTINUOUS
 62
     1
 10
220.986681443
 20
169.056023447
 42
-0.022146901
  0
VERTEX
  8
0
  6
CONTINUOUS
 62
     1
 10
220.946827136
 20
168.757898975
 42
-0.022127631
  0
VERTEX
  8
0
  6
CONTINUOUS
 62
     1
 10
220.880740392
 20
168.464329718
 42
-0.022098859
  0
VERTEX
  8
0
  6
CONTINUOUS
 62
     1
 10
220.788924173
 20
168.177549915
 42
-0.022061528
  0
VERTEX
  8
0
  6
CONTINUOUS
 62
     1
 10
220.672077255
 20
167.899742133
 42
-0.022016855
  0
VERTEX
  8
0
  6
CONTINUOUS
 62
     1
 10
220.531088913
 20
167.633020658
 42
-0.021966277
  0
VERTEX
  8
0
  6
CONTINUOUS
 62
     1
 10
220.367032155
 20
167.379415401
 42
-0.021911401
  0
VERTEX
  8
0
  6
CONTINUOUS
 62
     1
 10
220.181155551
 20
167.14085645
 42
-0.021853949
  0
VERTEX
  8
0
  6
CONTINUOUS
 62
     1
 10
219.974873734
 20
166.919159385
 42
-0.021795695
  0
VERTEX
  8
0
  6
CONTINUOUS
 62
     1
 10
219.749756634
 20
166.716011452
 42
-0.021738409
  0
VERTEX
  8
0
  6
CONTINUOUS
 62
     1
 10
219.507517527
 20
166.532958731
 42
-0.021683806
  0
VERTEX
  8
0
  6
CONTINUOUS
 62
     1
 10
219.25
 20
166.371394364
 42
-0.021633496
  0
VERTEX
  8
0
  6
CONTINUOUS
 62
     1
 10
218.979163916
 20
166.232547952
 42
-0.021588938
  0
VERTEX
  8
0
  6
CONTINUOUS
 62
     1
 10
218.697070502
 20
166.117476201
 42
-0.021551411
  0
VERTEX
  8
0
  6
CONTINUOUS
 62
     1
 10
218.405866658
 20
166.027054877
 42
-0.021521975
  0
VERTEX
  8
0
  6
CONTINUOUS
 62
     1
 10
218.107768622
 20
165.961972139
 42
-0.021501458
  0
VERTEX
  8
0
  6
CONTINUOUS
 62
     1
 10
217.8050451
 20
165.922723308
 42
-0.021490431
  0
VERTEX
  8
0
  6
CONTINUOUS
 62
     1
 10
217.5
 20
165.90960709
 42
-0.021489198
  0
VERTEX
  8
0
  6
CONTINUOUS
 62
     1
 10
217.1949549
 20
165.922723308
 42
-0.021497795
  0
VERTEX
  8
0
  6
CONTINUOUS
 62
     1
 10
216.892231378
 20
165.961972139
 42
-0.021515983
  0
VERTEX
  8
0
  6
CONTINUOUS
 62
     1
 10
216.594133342
 20
166.027054877
 42
-0.021543257
  0
VERTEX
  8
0
  6
CONTINUOUS
 62
     1
 10
216.302929498
 20
166.117476201
 42
-0.021578852
  0
VERTEX
  8
0
  6
CONTINUOUS
 62
     1
 10
216.020836084
 20
166.232547952
 42
-0.021621764
  0
VERTEX
  8
0
  6
CONTINUOUS
 62
     1
 10
215.75
 20
166.371394364
 42
-0.021670766
  0
VERTEX
  8
0
  6
CONTINUOUS
 62
     1
 10
215.492482473
 20
166.532958731
 42
-0.021724442
  0
VERTEX
  8
0
  6
CONTINUOUS
 62
     1
 10
215.250243366
 20
166.716011452
 42
-0.021781214
  0
VERTEX
  8
0
  6
CONTINUOUS
 62
     1
 10
215.025126266
 20
166.919159385
 42
-0.021839391
  0
VERTEX
  8
0
  6
CONTINUOUS
 62
     1
 10
214.818844449
 20
167.14085645
 42
-0.021897211
  0
VERTEX
  8
0
  6
CONTINUOUS
 62
     1
 10
214.632967845
 20
167.379415401
 42
-0.021952895
  0
VERTEX
  8
0
  6
CONTINUOUS
 62
     1
 10
214.468911087
 20
167.633020658
 42
-0.022004704
  0
VERTEX
  8
0
  6
CONTINUOUS
 62
     1
 10
214.327922745
 20
167.899742133
 42
-0.022050996
  0
VERTEX
  8
0
  6
CONTINUOUS
 62
     1
 10
214.211075827
 20
168.177549915
 42
-0.022090285
  0
VERTEX
  8
0
  6
CONTINUOUS
 62
     1
 10
214.119259608
 20
168.464329718
 42
-0.022121297
  0
VERTEX
  8
0
  6
CONTINUOUS
 62
     1
 10
214.053172864
 20
168.757898975
 42
-0.022143014
  0
VERTEX
  8
0
  6
CONTINUOUS
 62
     1
 10
214.013318557
 20
169.056023447
 42
-0.022154722
  0
VERTEX
  8
0
  6
CONTINUOUS
 62
     1
 10
214.0
 20
169.356434226
 42
-0.022156032
  0
VERTEX
  8
0
  6
CONTINUOUS
 62
     1
 10
214.013318557
 20
169.656845005
 42
-0.022146901
  0
VERTEX
  8
0
  6
CONTINUOUS
 62
     1
 10
214.053172864
 20
169.954969477
 42
-0.022127631
  0
VERTEX
  8
0
  6
CONTINUOUS
 62
     1
 10
214.119259608
 20
170.248538734
 42
-0.022098859
  0
VERTEX
  8
0
  6
CONTINUOUS
 62
     1
 10
214.211075827
 20
170.535318537
 42
-0.022061528
  0
VERTEX
  8
0
  6
CONTINUOUS
 62
     1
 10
214.327922745
 20
170.813126318
 42
-0.022016855
  0
VERTEX
  8
0
  6
CONTINUOUS
 62
     1
 10
214.468911087
 20
171.079847794
 42
-0.021966277
  0
VERTEX
  8
0
  6
CONTINUOUS
 62
     1
 10
214.632967845
 20
171.333453051
 42
-0.021911401
  0
VERTEX
  8
0
  6
CONTINUOUS
 62
     1
 10
214.818844449
 20
171.572012001
 42
-0.021853949
  0
VERTEX
  8
0
  6
CONTINUOUS
 62
     1
 10
215.025126266
 20
171.793709067
 42
-0.021795695
  0
VERTEX
  8
0
  6
CONTINUOUS
 62
     1
 10
215.250243366
 20
171.996856999
 42
-0.021738409
  0
VERTEX
  8
0
  6
CONTINUOUS
 62
     1
 10
215.492482473
 20
172.17990972
 42
-0.021683806
  0
VERTEX
  8
0
  6
CONTINUOUS
 62
     1
 10
215.75
 20
172.341474088
 42
-0.021633496
  0
VERTEX
  8
0
  6
CONTINUOUS
 62
     1
 10
216.020836084
 20
172.480320499
 42
-0.021588938
  0
VERTEX
  8
0
  6
CONTINUOUS
 62
     1
 10
216.302929498
 20
172.59539225
 42
-0.021551411
  0
VERTEX
  8
0
  6
CONTINUOUS
 62
     1
 10
216.594133342
 20
172.685813575
 42
-0.021521975
  0
VERTEX
  8
0
  6
CONTINUOUS
 62
     1
 10
216.892231378
 20
172.750896312
 42
-0.021501458
  0
VERTEX
  8
0
  6
CONTINUOUS
 62
     1
 10
217.1949549
 20
172.790145143
 42
-0.021490431
  0
VERTEX
  8
0
  6
CONTINUOUS
 62
     1
 10
217.5
 20
172.803261361
 42
-0.021489198
  0
VERTEX
  8
0
  6
CONTINUOUS
 62
     1
 10
217.8050451
 20
172.790145143
 42
-0.021497795
  0
VERTEX
  8
0
  6
CONTINUOUS
 62
     1
 10
218.107768622
 20
172.750896312
 42
-0.021515983
  0
VERTEX
  8
0
  6
CONTINUOUS
 62
     1
 10
218.405866658
 20
172.685813575
 42
-0.021543257
  0
VERTEX
  8
0
  6
CONTINUOUS
 62
     1
 10
218.697070502
 20
172.59539225
 42
-0.021578852
  0
VERTEX
  8
0
  6
CONTINUOUS
 62
     1
 10
218.979163916
 20
172.480320499
 42
-0.021621764
  0
VERTEX
  8
0
  6
CONTINUOUS
 62
     1
 10
219.25
 20
172.341474088
 42
-0.021670766
  0
VERTEX
  8
0
  6
CONTINUOUS
 62
     1
 10
219.507517527
 20
172.17990972
 42
-0.021724442
  0
VERTEX
  8
0
  6
CONTINUOUS
 62
     1
 10
219.749756634
 20
171.996856999
 42
-0.021781214
  0
VERTEX
  8
0
  6
CONTINUOUS
 62
     1
 10
219.974873734
 20
171.793709067
 42
-0.021839391
  0
VERTEX
  8
0
  6
CONTINUOUS
 62
     1
 10
220.181155551
 20
171.572012001
 42
-0.021897211
  0
VERTEX
  8
0
  6
CONTINUOUS
 62
     1
 10
220.367032155
 20
171.333453051
 42
-0.021952895
  0
VERTEX
  8
0
  6
CONTINUOUS
 62
     1
 10
220.531088913
 20
171.079847794
 42
-0.022004704
  0
VERTEX
  8
0
  6
CONTINUOUS
 62
     1
 10
220.672077255
 20
170.813126318
 42
-0.022050996
  0
VERTEX
  8
0
  6
CONTINUOUS
 62
     1
 10
220.788924173
 20
170.535318537
 42
-0.022090285
  0
VERTEX
  8
0
  6
CONTINUOUS
 62
     1
 10
220.880740392
 20
170.248538734
 42
-0.022121297
  0
VERTEX
  8
0
  6
CONTINUOUS
 62
     1
 10
220.946827136
 20
169.954969477
 42
-0.022143014
  0
VERTEX
  8
0
  6
CONTINUOUS
 62
     1
 10
220.986681443
 20
169.656845005
 42
-0.022154722
  0
SEQEND
  8
0
  6
CONTINUOUS
 62
     1
  0
LINE
  8
0
  6
CONTINUOUS
 62
     1
 10
215.8
 20
169.356434226
 11
216.6
 21
167.885236699
  0
LINE
  8
0
  6
CONTINUOUS
 62
     1
 10
216.6
 20
167.885236699
 11
218.4
 21
167.885236699
  0
LINE
  8
0
  6
CONTINUOUS
 62
     1
 10
218.4
 20
167.885236699
 11
219.2
 21
169.356434226
  0
LINE
  8
0
  6
CONTINUOUS
 62
     1
 10
219.2
 20
169.356434226
 11
218.4
 21
170.839659958
  0
LINE
  8
0
  6
CONTINUOUS
 62
     1
 10
218.4
 20
170.839659958
 11
216.6
 21
170.839659958
  0
LINE
  8
0
  6
CONTINUOUS
 62
     1
 10
216.6
 20
170.839659958
 11
215.8
 21
169.356434226
  0
LINE
  8
0
  6
LTYPE1
 62
     2
 10
260.0
 20
175.0
 11
151.0
 21
175.0
  0
LINE
  8
0
  6
LTYPE1
 62
     2
 10
199.5
 20
221.0
 11
199.5
 21
216.0
  0
LINE
  8
0
  6
LTYPE1
 62
     2
 10
215.5
 20
221.0
 11
215.5
 21
216.0
  0
LINE
  8
0
  6
LTYPE1
 62
     2
 10
185.0
 20
202.5
 11
185.0
 21
210.5
  0
LINE
  8
0
  6
LTYPE1
 62
     2
 10
191.0
 20
191.25
 11
179.0
 21
191.25
  0
LINE
  8
0
  6
LTYPE1
 62
     2
 10
185.0
 20
196.25
 11
185.0
 21
186.25
  0
LINE
  8
0
  6
LTYPE1
 62
     2
 10
185.0
 20
147.5
 11
185.0
 21
139.5
  0
LINE
  8
0
  6
LTYPE1
 62
     2
 10
191.0
 20
158.75
 11
179.0
 21
158.75
  0
LINE
  8
0
  6
LTYPE1
 62
     2
 10
185.0
 20
153.75
 11
185.0
 21
163.75
  0
LINE
  8
0
  6
LTYPE1
 62
     2
 10
207.5
 20
200.581857367
 11
207.5
 21
235.0
  0
LINE
  8
0
  6
LTYPE1
 62
     2
 10
203.5
 20
169.356434226
 11
191.5
 21
169.356434226
  0
LINE
  8
0
  6
LTYPE1
 62
     2
 10
197.5
 20
163.356434226
 11
197.5
 21
175.356434226
  0
LINE
  8
0
  6
LTYPE1
 62
     2
 10
223.5
 20
169.356434226
 11
211.5
 21
169.356434226
  0
LINE
  8
0
  6
LTYPE1
 62
     2
 10
217.5
 20
163.356434226
 11
217.5
 21
175.356434226
  0
POLYLINE
  8
0
  6
CONTINUOUS
 62
     2
 66
     1
  0
VERTEX
  8
0
  6
CONTINUOUS
 62
     2
 10
255.0
 20
215.0
  0
VERTEX
  8
0
  6
CONTINUOUS
 62
     2
 10
254.496
 20
214.2
  0
VERTEX
  8
0
  6
CONTINUOUS
 62
     2
 10
253.968
 20
213.4
  0
VERTEX
  8
0
  6
CONTINUOUS
 62
     2
 10
253.392
 20
212.6
  0
VERTEX
  8
0
  6
CONTINUOUS
 62
     2
 10
252.744
 20
211.8
  0
VERTEX
  8
0
  6
CONTINUOUS
 62
     2
 10
252.0
 20
211.0
  0
VERTEX
  8
0
  6
CONTINUOUS
 62
     2
 10
250.768
 20
210.344
  0
VERTEX
  8
0
  6
CONTINUOUS
 62
     2
 10
249.484
 20
209.652
  0
VERTEX
  8
0
  6
CONTINUOUS
 62
     2
 10
248.216
 20
208.888
  0
VERTEX
  8
0
  6
CONTINUOUS
 62
     2
 10
247.032
 20
208.016
  0
VERTEX
  8
0
  6
CONTINUOUS
 62
     2
 10
246.0
 20
207.0
  0
VERTEX
  8
0
  6
CONTINUOUS
 62
     2
 10
245.652
 20
205.676
  0
VERTEX
  8
0
  6
CONTINUOUS
 62
     2
 10
245.476
 20
204.168
  0
VERTEX
  8
0
  6
CONTINUOUS
 62
     2
 10
245.424
 20
202.472
  0
VERTEX
  8
0
  6
CONTINUOUS
 62
     2
 10
245.448
 20
200.584
  0
VERTEX
  8
0
  6
CONTINUOUS
 62
     2
 10
245.5
 20
198.5
  0
VERTEX
  8
0
  6
CONTINUOUS
 62
     2
 10
245.308
 20
195.816
  0
VERTEX
  8
0
  6
CONTINUOUS
 62
     2
 10
245.104
 20
193.028
  0
VERTEX
  8
0
  6
CONTINUOUS
 62
     2
 10
244.896
 20
190.232
  0
VERTEX
  8
0
  6
CONTINUOUS
 62
     2
 10
244.692
 20
187.524
  0
VERTEX
  8
0
  6
CONTINUOUS
 62
     2
 10
244.5
 20
185.0
  0
VERTEX
  8
0
  6
CONTINUOUS
 62
     2
 10
244.36
 20
183.492
  0
VERTEX
  8
0
  6
CONTINUOUS
 62
     2
 10
244.24
 20
182.176
  0
VERTEX
  8
0
  6
CONTINUOUS
 62
     2
 10
244.14
 20
180.964
  0
VERTEX
  8
0
  6
CONTINUOUS
 62
     2
 10
244.06
 20
179.768
  0
VERTEX
  8
0
  6
CONTINUOUS
 62
     2
 10
244.0
 20
178.5
  0
VERTEX
  8
0
  6
CONTINUOUS
 62
     2
 10
243.976
 20
176.688
  0
VERTEX
  8
0
  6
CONTINUOUS
 62
     2
 10
243.968
 20
174.724
  0
VERTEX
  8
0
  6
CONTINUOUS
 62
     2
 10
243.972
 20
172.616
  0
VERTEX
  8
0
  6
CONTINUOUS
 62
     2
 10
243.984
 20
170.372
  0
VERTEX
  8
0
  6
CONTINUOUS
 62
     2
 10
244.0
 20
168.0
  0
VERTEX
  8
0
  6
CONTINUOUS
 62
     2
 10
243.984
 20
165.284
  0
VERTEX
  8
0
  6
CONTINUOUS
 62
     2
 10
243.972
 20
162.512
  0
VERTEX
  8
0
  6
CONTINUOUS
 62
     2
 10
243.968
 20
159.748
  0
VERTEX
  8
0
  6
CONTINUOUS
 62
     2
 10
243.976
 20
157.056
  0
VERTEX
  8
0
  6
CONTINUOUS
 62
     2
 10
244.0
 20
154.5
  0
VERTEX
  8
0
  6
CONTINUOUS
 62
     2
 10
243.964
 20
152.432
  0
VERTEX
  8
0
  6
CONTINUOUS
 62
     2
 10
243.972
 20
150.556
  0
VERTEX
  8
0
  6
CONTINUOUS
 62
     2
 10
244.048
 20
148.864
  0
VERTEX
  8
0
  6
CONTINUOUS
 62
     2
 10
244.216
 20
147.348
  0
VERTEX
  8
0
  6
CONTINUOUS
 62
     2
 10
244.5
 20
146.0
  0
VERTEX
  8
0
  6
CONTINUOUS
 62
     2
 10
245.052
 20
144.972
  0
VERTEX
  8
0
  6
CONTINUOUS
 62
     2
 10
245.736
 20
144.056
  0
VERTEX
  8
0
  6
CONTINUOUS
 62
     2
 10
246.544
 20
143.204
  0
VERTEX
  8
0
  6
CONTINUOUS
 62
     2
 10
247.468
 20
142.368
  0
VERTEX
  8
0
  6
CONTINUOUS
 62
     2
 10
248.5
 20
141.5
  0
VERTEX
  8
0
  6
CONTINUOUS
 62
     2
 10
249.68
 20
140.296
  0
VERTEX
  8
0
  6
CONTINUOUS
 62
     2
 10
250.94
 20
139.028
  0
VERTEX
  8
0
  6
CONTINUOUS
 62
     2
 10
252.26
 20
137.712
  0
VERTEX
  8
0
  6
CONTINUOUS
 62
     2
 10
253.62
 20
136.364
  0
VERTEX
  8
0
  6
CONTINUOUS
 62
     2
 10
255.0
 20
135.0
  0
SEQEND
  0
LINE
  8
0
  6
CONTINUOUS
 62
     1
 10
255.0
 20
205.0
 11
250.0
 21
205.0
  0
LINE
  8
0
  6
CONTINUOUS
 62
     1
 10
250.0
 20
191.3
 11
244.975450644
 21
191.3
  0
LINE
  8
0
  6
CONTINUOUS
 62
     1
 10
250.0
 20
158.7
 11
243.971114413
 21
158.7
  0
LINE
  8
0
  6
CONTINUOUS
 62
     1
 10
250.0
 20
145.0
 11
255.0
 21
145.0
  0
LINE
  8
0
  6
CONTINUOUS
 62
     1
 10
250.0
 20
205.0
 11
250.0
 21
145.0
  0
LINE
  8
寸法線
  6
CONTINUOUS
 62
     2
 10
155.0
 20
205.0
 11
145.0
 21
205.0
  0
LINE
  8
寸法線
  6
CONTINUOUS
 62
     2
 10
146.0
 20
205.0
 11
145.352952387
 21
202.585185434
  0
LINE
  8
寸法線
  6
CONTINUOUS
 62
     2
 10
146.0
 20
205.0
 11
146.647047613
 21
202.585185434
  0
LINE
  8
寸法線
  6
CONTINUOUS
 62
     2
 10
146.0
 20
205.0
 11
146.0
 21
145.0
  0
LINE
  8
寸法線
  6
CONTINUOUS
 62
     2
 10
146.0
 20
145.0
 11
146.647047613
 21
147.414814566
  0
LINE
  8
寸法線
  6
CONTINUOUS
 62
     2
 10
146.0
 20
145.0
 11
145.352952387
 21
147.414814566
  0
LINE
  8
寸法線
  6
CONTINUOUS
 62
     2
 10
155.0
 20
145.0
 11
145.0
 21
145.0
  0
TEXT
  8
寸法線
  6
CONTINUOUS
 62
     5
 10
145.0
 20
166.05
 30
0.1
 40
4.0
  1
φ６０ｇ６
 50
90.0
 41
0.875
 51
0.0
  7
KANJI0
  0
LINE
  8
寸法線
  6
CONTINUOUS
 62
     2
 10
256.0
 20
205.0
 11
271.0
 21
205.0
  0
LINE
  8
寸法線
  6
CONTINUOUS
 62
     2
 10
270.0
 20
205.0
 11
269.352952387
 21
202.585185434
  0
LINE
  8
寸法線
  6
CONTINUOUS
 62
     2
 10
270.0
 20
205.0
 11
270.647047613
 21
202.585185434
  0
LINE
  8
寸法線
  6
CONTINUOUS
 62
     2
 10
270.0
 20
205.0
 11
270.0
 21
145.0
  0
LINE
  8
寸法線
  6
CONTINUOUS
 62
     2
 10
270.0
 20
145.0
 11
270.647047613
 21
147.414814566
  0
LINE
  8
寸法線
  6
CONTINUOUS
 62
     2
 10
270.0
 20
145.0
 11
269.352952387
 21
147.414814566
  0
LINE
  8
寸法線
  6
CONTINUOUS
 62
     2
 10
256.0
 20
145.0
 11
271.0
 21
145.0
  0
TEXT
  8
寸法線
  6
CONTINUOUS
 62
     5
 10
269.0
 20
166.05
 30
0.1
 40
4.0
  1
φ６０Ｈ７
 50
90.0
 41
0.875
 51
0.0
  7
KANJI0
  0
LINE
  8
寸法線
  6
CONTINUOUS
 62
     2
 10
256.0
 20
230.0
 11
281.0
 21
230.0
  0
LINE
  8
寸法線
  6
CONTINUOUS
 62
     2
 10
280.0
 20
230.0
 11
279.352952387
 21
227.585185434
  0
LINE
  8
寸法線
  6
CONTINUOUS
 62
     2
 10
280.0
 20
230.0
 11
280.647047613
 21
227.585185434
  0
LINE
  8
寸法線
  6
CONTINUOUS
 62
     2
 10
280.0
 20
230.0
 11
280.0
 21
120.0
  0
LINE
  8
寸法線
  6
CONTINUOUS
 62
     2
 10
280.0
 20
120.0
 11
280.647047613
 21
122.414814566
  0
LINE
  8
寸法線
  6
CONTINUOUS
 62
     2
 10
280.0
 20
120.0
 11
279.352952387
 21
122.414814566
  0
LINE
  8
寸法線
  6
CONTINUOUS
 62
     2
 10
256.0
 20
120.0
 11
281.0
 21
120.0
  0
TEXT
  8
寸法線
  6
CONTINUOUS
 62
     5
 10
279.0
 20
167.85
 30
0.1
 40
4.0
  1
φ１１０
 50
90.0
 41
0.875
 51
0.0
  7
KANJI0
  0
LINE
  8
寸法線
  6
CONTINUOUS
 62
     2
 10
229.0
 20
207.5
 11
228.352952387
 21
205.085185434
  0
LINE
  8
寸法線
  6
CONTINUOUS
 62
     2
 10
229.0
 20
207.5
 11
229.647047613
 21
205.085185434
  0
LINE
  8
寸法線
  6
CONTINUOUS
 62
     2
 10
229.0
 20
207.5
 11
229.0
 21
142.5
  0
LINE
  8
寸法線
  6
CONTINUOUS
 62
     2
 10
229.0
 20
142.5
 11
229.647047613
 21
144.914814566
  0
LINE
  8
寸法線
  6
CONTINUOUS
 62
     2
 10
229.0
 20
142.5
 11
228.352952387
 21
144.914814566
  0
TEXT
  8
寸法線
  6
CONTINUOUS
 62
     5
 10
228.0
 20
176.0
 30
0.1
 40
4.0
  1
φ６５
 50
90.0
 41
0.875
 51
0.0
  7
KANJI0
  0
LINE
  8
寸法線
  6
CONTINUOUS
 62
     2
 10
255.0
 20
231.0
 11
255.0
 21
241.0
  0
LINE
  8
寸法線
  6
CONTINUOUS
 62
     2
 10
255.0
 20
240.0
 11
257.414814566
 21
239.352952387
  0
LINE
  8
寸法線
  6
CONTINUOUS
 62
     2
 10
255.0
 20
240.0
 11
257.414814566
 21
240.647047613
  0
LINE
  8
寸法線
  6
CONTINUOUS
 62
     2
 10
258.75
 20
240.0
 11
255.0
 21
240.0
  0
LINE
  8
寸法線
  6
CONTINUOUS
 62
     2
 10
255.0
 20
240.0
 11
250.0
 21
240.0
  0
LINE
  8
寸法線
  6
CONTINUOUS
 62
     2
 10
250.0
 20
240.0
 11
246.25
 21
240.0
  0
LINE
  8
寸法線
  6
CONTINUOUS
 62
     2
 10
250.0
 20
240.0
 11
247.585185434
 21
240.647047613
  0
LINE
  8
寸法線
  6
CONTINUOUS
 62
     2
 10
250.0
 20
240.0
 11
247.585185434
 21
239.352952387
  0
LINE
  8
寸法線
  6
CONTINUOUS
 62
     2
 10
250.0
 20
206.0
 11
250.0
 21
241.0
  0
TEXT
  8
寸法線
  6
CONTINUOUS
 62
     5
 10
250.75
 20
241.0
 30
0.1
 40
4.0
  1
５
 50
0.0
 41
0.875
 51
0.0
  7
KANJI0
  0
LINE
  8
寸法線
  6
CONTINUOUS
 62
     2
 10
156.0
 20
144.0
 11
156.0
 21
104.0
  0
LINE
  8
寸法線
  6
CONTINUOUS
 62
     2
 10
156.0
 20
105.0
 11
153.585185434
 21
105.647047613
  0
LINE
  8
寸法線
  6
CONTINUOUS
 62
     2
 10
156.0
 20
105.0
 11
153.585185434
 21
104.352952387
  0
LINE
  8
寸法線
  6
CONTINUOUS
 62
     2
 10
152.25
 20
105.0
 11
156.0
 21
105.0
  0
LINE
  8
寸法線
  6
CONTINUOUS
 62
     2
 10
156.0
 20
105.0
 11
160.0
 21
105.0
  0
TEXT
  8
寸法線
  6
CONTINUOUS
 62
     5
 10
156.25
 20
106.0
 30
0.1
 40
4.0
  1
４
 50
0.0
 41
0.875
 51
0.0
  7
KANJI0
  0
LINE
  8
寸法線
  6
CONTINUOUS
 62
     2
 10
160.0
 20
119.0
 11
160.0
 21
104.0
  0
LINE
  8
寸法線
  6
CONTINUOUS
 62
     2
 10
160.0
 20
105.0
 11
162.414814566
 21
104.352952387
  0
LINE
  8
寸法線
  6
CONTINUOUS
 62
     2
 10
160.0
 20
105.0
 11
162.414814566
 21
105.647047613
  0
LINE
  8
寸法線
  6
CONTINUOUS
 62
     2
 10
160.0
 20
105.0
 11
175.0
 21
105.0
  0
LINE
  8
寸法線
  6
CONTINUOUS
 62
     2
 10
175.0
 20
105.0
 11
172.585185434
 21
105.647047613
  0
LINE
  8
寸法線
  6
CONTINUOUS
 62
     2
 10
175.0
 20
105.0
 11
172.585185434
 21
104.352952387
  0
LINE
  8
寸法線
  6
CONTINUOUS
 62
     2
 10
175.0
 20
119.0
 11
175.0
 21
104.0
  0
TEXT
  8
寸法線
  6
CONTINUOUS
 62
     5
 10
163.95
 20
106.0
 30
0.1
 40
4.0
  1
１５
 50
0.0
 41
0.875
 51
0.0
  7
KANJI0
  0
LINE
  8
寸法線
  6
CONTINUOUS
 62
     2
 10
175.0
 20
105.0
 11
177.414814566
 21
104.352952387
  0
LINE
  8
寸法線
  6
CONTINUOUS
 62
     2
 10
175.0
 20
105.0
 11
177.414814566
 21
105.647047613
  0
LINE
  8
寸法線
  6
CONTINUOUS
 62
     2
 10
175.0
 20
105.0
 11
240.0
 21
105.0
  0
LINE
  8
寸法線
  6
CONTINUOUS
 62
     2
 10
240.0
 20
105.0
 11
237.585185434
 21
105.647047613
  0
LINE
  8
寸法線
  6
CONTINUOUS
 62
     2
 10
240.0
 20
105.0
 11
237.585185434
 21
104.352952387
  0
LINE
  8
寸法線
  6
CONTINUOUS
 62
     2
 10
240.0
 20
119.0
 11
240.0
 21
104.0
  0
TEXT
  8
寸法線
  6
CONTINUOUS
 62
     5
 10
203.95
 20
106.0
 30
0.1
 40
4.0
  1
６５
 50
0.0
 41
0.875
 51
0.0
  7
KANJI0
  0
LINE
  8
寸法線
  6
CONTINUOUS
 62
     2
 10
240.0
 20
105.0
 11
242.414814566
 21
104.352952387
  0
LINE
  8
寸法線
  6
CONTINUOUS
 62
     2
 10
240.0
 20
105.0
 11
242.414814566
 21
105.647047613
  0
LINE
  8
寸法線
  6
CONTINUOUS
 62
     2
 10
240.0
 20
105.0
 11
255.0
 21
105.0
  0
LINE
  8
寸法線
  6
CONTINUOUS
 62
     2
 10
255.0
 20
105.0
 11
252.585185434
 21
105.647047613
  0
LINE
  8
寸法線
  6
CONTINUOUS
 62
     2
 10
255.0
 20
105.0
 11
252.585185434
 21
104.352952387
  0
LINE
  8
寸法線
  6
CONTINUOUS
 62
     2
 10
255.0
 20
119.0
 11
255.0
 21
104.0
  0
TEXT
  8
寸法線
  6
CONTINUOUS
 62
     5
 10
243.95
 20
106.0
 30
0.1
 40
4.0
  1
１５
 50
0.0
 41
0.875
 51
0.0
  7
KANJI0
  0
LINE
  8
寸法線
  6
CONTINUOUS
 62
     2
 10
255.0
 20
104.0
 11
255.0
 21
94.0
  0
LINE
  8
寸法線
  6
CONTINUOUS
 62
     2
 10
255.0
 20
95.0
 11
252.585185434
 21
95.647047613
  0
LINE
  8
寸法線
  6
CONTINUOUS
 62
     2
 10
255.0
 20
95.0
 11
252.585185434
 21
94.352952387
  0
LINE
  8
寸法線
  6
CONTINUOUS
 62
     2
 10
255.0
 20
95.0
 11
156.0
 21
95.0
  0
LINE
  8
寸法線
  6
CONTINUOUS
 62
     2
 10
156.0
 20
95.0
 11
158.414814566
 21
94.352952387
  0
LINE
  8
寸法線
  6
CONTINUOUS
 62
     2
 10
156.0
 20
95.0
 11
158.414814566
 21
95.647047613
  0
LINE
  8
寸法線
  6
CONTINUOUS
 62
     2
 10
156.0
 20
104.0
 11
156.0
 21
94.0
  0
TEXT
  8
寸法線
  6
CONTINUOUS
 62
     5
 10
201.95
 20
96.0
 30
0.1
 40
4.0
  1
９９
 50
0.0
 41
0.875
 51
0.0
  7
KANJI0
  0
TEXT
  8
寸法線
  6
CONTINUOUS
 62
     5
 10
372.283199846
 20
169.131013716
 30
0.1
 40
4.0
  1
Ｐ．Ｃ．Ｄ．９０
 50
315.0
 41
0.875
 51
0.0
  7
KANJI0
  0
LINE
  8
寸法線
  6
CONTINUOUS
 62
     2
 10
388.157747084
 20
151.842252916
 11
333.180194847
 21
206.819805153
  0
LINE
  8
寸法線
  6
CONTINUOUS
 62
     2
 10
333.180194847
 20
206.819805153
 11
334.430194847
 21
204.654741644
  0
LINE
  8
寸法線
  6
CONTINUOUS
 62
     2
 10
333.180194847
 20
206.819805153
 11
335.345258356
 21
205.569805153
  0
LINE
  8
0
  6
CONTINUOUS
 62
     1
 10
188.5
 20
191.25
 11
188.5
 21
189.572949017
  0
LINE
  8
0
  6
CONTINUOUS
 62
     1
 10
181.5
 20
191.25
 11
181.5
 21
189.572949017
  0
LINE
  8
0
  6
CONTINUOUS
 62
     1
 10
188.5
 20
158.75
 11
188.5
 21
160.427050983
  0
LINE
  8
0
  6
CONTINUOUS
 62
     1
 10
181.5
 20
158.75
 11
181.5
 21
160.427050983
  0
TEXT
  8
表題欄
  6
CONTINUOUS
 62
     5
 10
343.0
 20
23.0
 30
0.0
 40
4.0
  1
益子
 50
0.0
 41
0.875
 51
0.0
  7
KANJI1
  0
LINE
  8
図枠
  6
CONTINUOUS
 62
     2
 10
410.0
 20
198.5
 11
415.0
 21
198.5
  0
LINE
  8
図枠
  6
CONTINUOUS
 62
     2
 10
410.0
 20
248.5
 11
415.0
 21
248.5
  0
LINE
  8
図枠
  6
CONTINUOUS
 62
     2
 10
410.0
 20
98.5
 11
415.0
 21
98.5
  0
LINE
  8
図枠
  6
CONTINUOUS
 62
     2
 10
410.0
 20
48.5
 11
415.0
 21
48.5
  0
LINE
  8
図枠
  6
CONTINUOUS
 62
     2
 10
410.0
 20
75.0
 11
407.5
 21
75.0
  0
LINE
  8
図枠
  6
CONTINUOUS
 62
     2
 10
410.0
 20
83.0
 11
407.5
 21
83.0
  0
LINE
  8
図枠
  6
CONTINUOUS
 62
     2
 10
410.0
 20
91.0
 11
407.5
 21
91.0
  0
TEXT
  8
図枠
  6
CONTINUOUS
 62
     6
 10
411.5
 20
271.0
 30
0.0
 40
5.0
  1
Ａ
 50
0.0
 41
1.0
 51
0.0
  7
KANJI2
  0
TEXT
  8
図枠
  6
CONTINUOUS
 62
     6
 10
411.5
 20
221.0
 30
0.0
 40
5.0
  1
Ｂ
 50
0.0
 41
1.0
 51
0.0
  7
KANJI2
  0
TEXT
  8
図枠
  6
CONTINUOUS
 62
     6
 10
411.5
 20
171.0
 30
0.0
 40
5.0
  1
Ｃ
 50
0.0
 41
1.0
 51
0.0
  7
KANJI2
  0
TEXT
  8
図枠
  6
CONTINUOUS
 62
     6
 10
411.5
 20
121.0
 30
0.0
 40
5.0
  1
Ｄ
 50
0.0
 41
1.0
 51
0.0
  7
KANJI2
  0
TEXT
  8
図枠
  6
CONTINUOUS
 62
     6
 10
411.5
 20
71.0
 30
0.0
 40
5.0
  1
Ｅ
 50
0.0
 41
1.0
 51
0.0
  7
KANJI2
  0
TEXT
  8
図枠
  6
CONTINUOUS
 62
     6
 10
411.5
 20
21.0
 30
0.0
 40
5.0
  1
Ｆ
 50
0.0
 41
1.0
 51
0.0
  7
KANJI2
  0
LINE
  8
図枠
  6
CONTINUOUS
 62
     2
 10
25.0
 20
198.5
 11
20.0
 21
198.5
  0
LINE
  8
図枠
  6
CONTINUOUS
 62
     2
 10
25.0
 20
248.5
 11
20.0
 21
248.5
  0
LINE
  8
図枠
  6
CONTINUOUS
 62
     2
 10
25.0
 20
98.5
 11
20.0
 21
98.5
  0
LINE
  8
図枠
  6
CONTINUOUS
 62
     2
 10
25.0
 20
48.5
 11
20.0
 21
48.5
  0
TEXT
  8
図枠
  6
CONTINUOUS
 62
     6
 10
18.5
 20
271.0
 30
0.0
 40
5.0
  1
Ａ
 50
0.0
 41
1.0
 51
0.0
  7
KANJI2
  0
TEXT
  8
図枠
  6
CONTINUOUS
 62
     6
 10
18.5
 20
221.0
 30
0.0
 40
5.0
  1
Ｂ
 50
0.0
 41
1.0
 51
0.0
  7
KANJI2
  0
TEXT
  8
図枠
  6
CONTINUOUS
 62
     6
 10
18.5
 20
171.0
 30
0.0
 40
5.0
  1
Ｃ
 50
0.0
 41
1.0
 51
0.0
  7
KANJI2
  0
TEXT
  8
図枠
  6
CONTINUOUS
 62
     6
 10
18.5
 20
121.0
 30
0.0
 40
5.0
  1
Ｄ
 50
0.0
 41
1.0
 51
0.0
  7
KANJI2
  0
TEXT
  8
図枠
  6
CONTINUOUS
 62
     6
 10
18.5
 20
71.0
 30
0.0
 40
5.0
  1
Ｅ
 50
0.0
 41
1.0
 51
0.0
  7
KANJI2
  0
TEXT
  8
図枠
  6
CONTINUOUS
 62
     6
 10
18.5
 20
21.0
 30
0.0
 40
5.0
  1
Ｆ
 50
0.0
 41
1.0
 51
0.0
  7
KANJI2
  0
LINE
  8
図枠
  6
CONTINUOUS
 62
     2
 10
160.0
 20
287.0
 11
160.0
 21
292.0
  0
LINE
  8
図枠
  6
CONTINUOUS
 62
     2
 10
110.0
 20
292.0
 11
110.0
 21
287.0
  0
LINE
  8
図枠
  6
CONTINUOUS
 62
     2
 10
60.0
 20
292.0
 11
60.0
 21
287.0
  0
LINE
  8
図枠
  6
CONTINUOUS
 62
     2
 10
260.0
 20
292.0
 11
260.0
 21
287.0
  0
LINE
  8
図枠
  6
CONTINUOUS
 62
     2
 10
310.0
 20
292.0
 11
310.0
 21
287.0
  0
LINE
  8
図枠
  6
CONTINUOUS
 62
     2
 10
110.0
 20
5.0
 11
110.0
 21
10.0
  0
LINE
  8
図枠
  6
CONTINUOUS
 62
     2
 10
60.0
 20
5.0
 11
60.0
 21
10.0
  0
TEXT
  8
図枠
  6
CONTINUOUS
 62
     6
 10
32.0
 20
3.5
 30
0.0
 40
5.0
  1
１
 50
0.0
 41
1.2
 51
0.0
  7
KANJI3
  0
TEXT
  8
図枠
  6
CONTINUOUS
 62
     6
 10
82.0
 20
3.5
 30
0.0
 40
5.0
  1
２
 50
0.0
 41
1.2
 51
0.0
  7
KANJI3
  0
TEXT
  8
図枠
  6
CONTINUOUS
 62
     6
 10
132.0
 20
3.5
 30
0.0
 40
5.0
  1
３
 50
0.0
 41
1.2
 51
0.0
  7
KANJI3
  0
LINE
  8
図枠
  6
CONTINUOUS
 62
     2
 10
360.0
 20
287.0
 11
360.0
 21
292.0
  0
LINE
  8
図枠
  6
CONTINUOUS
 62
     6
 10
25.0
 20
287.0
 11
25.0
 21
10.0
  0
LINE
  8
図枠
  6
CONTINUOUS
 62
     6
 10
210.0
 20
10.0
 11
210.0
 21
0.0
  0
LINE
  8
図枠
  6
CONTINUOUS
 62
     6
 10
160.0
 20
10.0
 11
160.0
 21
5.0
  0
LINE
  8
図枠
  6
CONTINUOUS
 62
     6
 10
170.0
 20
10.0
 11
170.0
 21
5.0
  0
LINE
  8
図枠
  6
CONTINUOUS
 62
     6
 10
180.0
 20
10.0
 11
180.0
 21
5.0
  0
LINE
  8
図枠
  6
CONTINUOUS
 62
     6
 10
190.0
 20
10.0
 11
190.0
 21
5.0
  0
LINE
  8
図枠
  6
CONTINUOUS
 62
     6
 10
200.0
 20
10.0
 11
200.0
 21
5.0
  0
LINE
  8
図枠
  6
CONTINUOUS
 62
     6
 10
25.0
 20
10.0
 11
410.0
 21
10.0
  0
LINE
  8
図枠
  6
CONTINUOUS
 62
     6
 10
260.0
 20
5.0
 11
260.0
 21
10.0
  0
LINE
  8
図枠
  6
CONTINUOUS
 62
     6
 10
250.0
 20
5.0
 11
250.0
 21
10.0
  0
LINE
  8
図枠
  6
CONTINUOUS
 62
     6
 10
240.0
 20
5.0
 11
240.0
 21
10.0
  0
LINE
  8
図枠
  6
CONTINUOUS
 62
     6
 10
230.0
 20
5.0
 11
230.0
 21
10.0
  0
LINE
  8
図枠
  6
CONTINUOUS
 62
     6
 10
220.0
 20
5.0
 11
220.0
 21
10.0
  0
LINE
  8
図枠
  6
CONTINUOUS
 62
     6
 10
160.0
 20
5.0
 11
260.0
 21
5.0
  0
LINE
  8
図枠
  6
CONTINUOUS
 62
     6
 10
25.0
 20
148.5
 11
0.0
 21
148.5
  0
LINE
  8
図枠
  6
CONTINUOUS
 62
     6
 10
210.0
 20
287.0
 11
210.0
 21
297.0
  0
LINE
  8
図枠
  6
CONTINUOUS
 62
     6
 10
410.0
 20
287.0
 11
25.0
 21
287.0
  0
LINE
  8
図枠
  6
CONTINUOUS
 62
     6
 10
410.0
 20
148.5
 11
420.0
 21
148.5
  0
LINE
  8
図枠
  6
CONTINUOUS
 62
     6
 10
410.0
 20
10.0
 11
410.0
 21
287.0
  0
TEXT
  8
図枠
  6
CONTINUOUS
 62
     6
 10
285.0
 20
3.5
 30
0.0
 40
5.0
  1
６
 50
0.0
 41
1.2
 51
0.0
  7
KANJI3
  0
TEXT
  8
図枠
  6
CONTINUOUS
 62
     6
 10
335.0
 20
3.5
 30
0.0
 40
5.0
  1
７
 50
0.0
 41
1.2
 51
0.0
  7
KANJI3
  0
TEXT
  8
図枠
  6
CONTINUOUS
 62
     6
 10
385.0
 20
3.5
 30
0.0
 40
5.0
  1
８
 50
0.0
 41
1.2
 51
0.0
  7
KANJI3
  0
LINE
  8
図枠
  6
CONTINUOUS
 62
     2
 10
310.0
 20
5.0
 11
310.0
 21
10.0
  0
LINE
  8
図枠
  6
CONTINUOUS
 62
     2
 10
360.0
 20
5.0
 11
360.0
 21
10.0
  0
LINE
  8
図枠
  6
CONTINUOUS
 62
     2
 10
241.0
 20
67.0
 11
241.0
 21
10.0
  0
LINE
  8
図枠
  6
CONTINUOUS
 62
     2
 10
248.0
 20
67.0
 11
248.0
 21
10.0
  0
LINE
  8
図枠
  6
CONTINUOUS
 62
     2
 10
255.0
 20
67.0
 11
255.0
 21
10.0
  0
LINE
  8
図枠
  6
CONTINUOUS
 62
     2
 10
262.0
 20
67.0
 11
262.0
 21
10.0
  0
LINE
  8
図枠
  6
CONTINUOUS
 62
     2
 10
323.0
 20
43.0
 11
323.0
 21
21.0
  0
LINE
  8
図枠
  6
CONTINUOUS
 62
     2
 10
339.0
 20
43.0
 11
339.0
 21
21.0
  0
LINE
  8
図枠
  6
CONTINUOUS
 62
     2
 10
299.0
 20
43.0
 11
299.0
 21
32.0
  0
LINE
  8
図枠
  6
CONTINUOUS
 62
     2
 10
269.0
 20
67.0
 11
269.0
 21
10.0
  0
LINE
  8
図枠
  6
CONTINUOUS
 62
     2
 10
291.0
 20
32.0
 11
291.0
 21
10.0
  0
LINE
  8
図枠
  6
CONTINUOUS
 62
     2
 10
307.0
 20
32.0
 11
307.0
 21
10.0
  0
LINE
  8
図枠
  6
CONTINUOUS
 62
     2
 10
355.0
 20
43.0
 11
355.0
 21
10.0
  0
LINE
  8
図枠
  6
LTYPE2
 62
     2
 10
313.0
 20
13.5
 11
317.0
 21
13.5
  0
LINE
  8
図枠
  6
LTYPE2
 62
     2
 10
317.0
 20
13.5
 11
317.0
 21
17.5
  0
LINE
  8
図枠
  6
LTYPE2
 62
     2
 10
317.0
 20
17.5
 11
313.0
 21
17.5
  0
LINE
  8
図枠
  6
LTYPE2
 62
     2
 10
313.0
 20
17.5
 11
313.0
 21
13.5
  0
TEXT
  8
図枠
  6
CONTINUOUS
 62
     4
 10
356.0
 20
47.0
 30
-0.5
 40
3.0
  1
１セット分
 50
0.0
 41
0.666666667
 51
0.0
  7
KANJI4
  0
TEXT
  8
図枠
  6
CONTINUOUS
 62
     4
 10
345.0
 20
47.0
 30
0.0
 40
3.0
  1
１台分
 50
0.0
 41
1.0
 51
0.0
  7
KANJI5
  0
TEXT
  8
図枠
  6
CONTINUOUS
 62
     4
 10
347.0
 20
44.0
 30
0.0
 40
3.0
  1
個数
 50
0.0
 41
1.0
 51
0.0
  7
KANJI5
  0
TEXT
  8
図枠
  6
CONTINUOUS
 62
     4
 10
357.0
 20
44.0
 30
0.0
 40
3.0
  1
個数
 50
0.0
 41
1.0
 51
0.0
  7
KANJI5
  0
TEXT
  8
図枠
  6
CONTINUOUS
 62
     4
 10
366.5
 20
45.0
 30
0.0
 40
4.0
  1
総数
 50
0.0
 41
0.875
 51
0.0
  7
KANJI1
  0
TEXT
  8
図枠
  6
CONTINUOUS
 62
     4
 10
273.15
 20
52.5
 30
0.3
 40
2.5
  1
氏名
 50
90.0
 41
1.0
 51
0.0
  7
KANJI6
  0
TEXT
  8
図枠
  6
CONTINUOUS
 62
     4
 10
273.15
 20
40.425
 30
1.0
 40
2.5
  1
年月日
 50
90.0
 41
1.0
 51
0.0
  7
KANJI7
  0
TEXT
  8
図枠
  6
CONTINUOUS
 62
     4
 10
273.15
 20
60.375
 30
0.3
 40
2.5
  1
承認
 50
90.0
 41
1.0
 51
0.0
  7
KANJI6
  0
TEXT
  8
図枠
  6
CONTINUOUS
 62
     4
 10
276.0
 20
39.5
 30
0.0
 40
2.5
  1
熱処理
 50
0.0
 41
1.0
 51
0.0
  7
KANJI8
  0
TEXT
  8
図枠
  6
CONTINUOUS
 62
     4
 10
300.0
 20
39.5
 30
0.0
 40
2.5
  1
表面処理
 50
0.0
 41
1.0
 51
0.0
  7
KANJI8
  0
TEXT
  8
図枠
  6
CONTINUOUS
 62
     4
 10
324.0
 20
39.5
 30
0.0
 40
2.5
  1
台数
 50
0.0
 41
1.0
 51
0.0
  7
KANJI8
  0
TEXT
  8
図枠
  6
CONTINUOUS
 62
     4
 10
340.0
 20
39.5
 30
0.0
 40
2.5
  1
作成日付
 50
0.0
 41
1.0
 51
0.0
  7
KANJI8
  0
TEXT
  8
図枠
  6
CONTINUOUS
 62
     4
 10
356.0
 20
39.5
 30
0.0
 40
2.5
  1
名称
 50
0.0
 41
1.0
 51
0.0
  7
KANJI8
  0
TEXT
  8
図枠
  6
CONTINUOUS
 62
     4
 10
276.0
 20
28.5
 30
0.0
 40
2.5
  1
尺度
 50
0.0
 41
1.0
 51
0.0
  7
KANJI8
  0
TEXT
  8
図枠
  6
CONTINUOUS
 62
     4
 10
292.0
 20
28.5
 30
0.0
 40
2.5
  1
承認
 50
0.0
 41
1.0
 51
0.0
  7
KANJI8
  0
TEXT
  8
図枠
  6
CONTINUOUS
 62
     4
 10
308.0
 20
28.5
 30
0.0
 40
2.5
  1
検図
 50
0.0
 41
1.0
 51
0.0
  7
KANJI8
  0
TEXT
  8
図枠
  6
CONTINUOUS
 62
     4
 10
324.0
 20
28.5
 30
0.0
 40
2.5
  1
設計
 50
0.0
 41
1.0
 51
0.0
  7
KANJI8
  0
TEXT
  8
図枠
  6
CONTINUOUS
 62
     4
 10
340.0
 20
28.5
 30
0.0
 40
2.5
  1
製図
 50
0.0
 41
1.0
 51
0.0
  7
KANJI8
  0
TEXT
  8
図枠
  6
CONTINUOUS
 62
     4
 10
356.0
 20
28.5
 30
0.0
 40
2.5
  1
機名
 50
0.0
 41
1.0
 51
0.0
  7
KANJI8
  0
TEXT
  8
図枠
  6
CONTINUOUS
 62
     4
 10
273.15
 20
10.875
 30
0.3
 40
2.5
  1
記号
 50
90.0
 41
1.0
 51
0.0
  7
KANJI6
  0
TEXT
  8
図枠
  6
CONTINUOUS
 62
     4
 10
356.0
 20
17.5
 30
0.0
 40
2.5
  1
図面番号
 50
0.0
 41
1.0
 51
0.0
  7
KANJI8
  0
TEXT
  8
図枠
  6
CONTINUOUS
 62
     4
 10
319.0
 20
14.25
 30
0.0
 40
2.5
  1
株式会社
 50
0.0
 41
1.0
 51
0.0
  7
KANJI8
  0
TEXT
  8
図枠
  6
CONTINUOUS
 62
     4
 10
331.0
 20
13.5
 30
0.0
 40
4.0
  1
昭和測器
 50
0.0
 41
1.125
 51
0.0
  7
KANJI9
  0
TEXT
  8
図枠
  6
CONTINUOUS
 62
     4
 10
273.15
 20
18.375
 30
0.3
 40
2.5
  1
来歴・改訂記事
 50
90.0
 41
1.0
 51
0.0
  7
KANJI6
  0
TEXT
  8
図枠
  6
CONTINUOUS
 62
     1
 10
278.0
 20
15.5
 30
0.0
 40
5.0
  1
第３
 50
0.0
 41
1.0
 51
0.0
  7
KANJI2
  0
TEXT
  8
図枠
  6
CONTINUOUS
 62
     1
 10
278.0
 20
10.5
 30
0.0
 40
5.0
  1
角法
 50
0.0
 41
1.0
 51
0.0
  7
KANJI2
  0
LINE
  8
図枠
  6
CONTINUOUS
 62
     2
 10
234.0
 20
67.0
 11
234.0
 21
10.0
  0
LINE
  8
図枠
  6
CONTINUOUS
 62
     2
 10
233.0
 20
17.0
 11
275.0
 21
17.0
  0
TEXT
  8
図枠
  6
CONTINUOUS
 62
     4
 10
326.0
 20
45.0
 30
0.0
 40
4.0
  1
材　　質
 50
0.0
 41
0.875
 51
0.0
  7
KANJI1
  0
TEXT
  8
図枠
  6
CONTINUOUS
 62
     4
 10
383.25
 20
45.0
 30
0.0
 40
4.0
  1
摘　　　要
 50
0.0
 41
0.875
 51
0.0
  7
KANJI1
  0
TEXT
  8
図枠
  6
CONTINUOUS
 62
     4
 10
276.5
 20
45.0
 30
0.0
 40
4.0
  1
番号
 50
0.0
 41
0.875
 51
0.0
  7
KANJI1
  0
TEXT
  8
図枠
  6
CONTINUOUS
 62
     4
 10
294.25
 20
45.0
 30
0.0
 40
4.0
  1
部　品　名
 50
0.0
 41
0.875
 51
0.0
  7
KANJI1
  0
CIRCLE
  8
図枠
  6
CONTINUOUS
 62
     6
 10
283.0
 20
26.0
 40
0.2
  0
CIRCLE
  8
図枠
  6
CONTINUOUS
 62
     6
 10
283.0
 20
23.5
 40
0.2
  0
TEXT
  8
図枠
  6
CONTINUOUS
 62
     6
 10
293.725
 20
12.025
 30
-1.0
 40
7.0
  1
Ａ３
 50
0.0
 41
0.857142857
 51
0.0
  7
KANJI10
  0
LINE
  8
図枠
  6
CONTINUOUS
 62
     2
 10
233.0
 20
67.0
 11
275.0
 21
67.0
  0
LINE
  8
図枠
  6
CONTINUOUS
 62
     2
 10
233.0
 20
59.0
 11
275.0
 21
59.0
  0
LINE
  8
図枠
  6
CONTINUOUS
 62
     2
 10
285.0
 20
51.0
 11
285.0
 21
43.0
  0
LINE
  8
図枠
  6
CONTINUOUS
 62
     2
 10
285.0
 20
67.0
 11
285.0
 21
51.0
  0
LINE
  8
図枠
  6
CONTINUOUS
 62
     2
 10
321.0
 20
51.0
 11
321.0
 21
43.0
  0
LINE
  8
図枠
  6
CONTINUOUS
 62
     2
 10
321.0
 20
67.0
 11
321.0
 21
51.0
  0
LINE
  8
図枠
  6
CONTINUOUS
 62
     2
 10
345.0
 20
51.0
 11
345.0
 21
43.0
  0
LINE
  8
図枠
  6
CONTINUOUS
 62
     2
 10
345.0
 20
67.0
 11
345.0
 21
51.0
  0
LINE
  8
図枠
  6
CONTINUOUS
 62
     2
 10
355.0
 20
51.0
 11
355.0
 21
43.0
  0
LINE
  8
図枠
  6
CONTINUOUS
 62
     2
 10
355.0
 20
67.0
 11
355.0
 21
51.0
  0
LINE
  8
図枠
  6
CONTINUOUS
 62
     2
 10
365.0
 20
51.0
 11
365.0
 21
43.0
  0
LINE
  8
図枠
  6
CONTINUOUS
 62
     2
 10
365.0
 20
67.0
 11
365.0
 21
51.0
  0
LINE
  8
図枠
  6
CONTINUOUS
 62
     2
 10
375.0
 20
51.0
 11
375.0
 21
43.0
  0
LINE
  8
図枠
  6
CONTINUOUS
 62
     2
 10
375.0
 20
67.0
 11
375.0
 21
51.0
  0
LINE
  8
図枠
  6
CONTINUOUS
 62
     2
 10
275.0
 20
51.0
 11
275.0
 21
10.0
  0
LINE
  8
図枠
  6
CONTINUOUS
 62
     2
 10
275.0
 20
67.0
 11
275.0
 21
51.0
  0
LINE
  8
図枠
  6
CONTINUOUS
 62
     2
 10
233.0
 20
39.0
 11
275.0
 21
39.0
  0
LINE
  8
図枠
  6
CONTINUOUS
 62
     2
 10
233.0
 20
51.0
 11
275.0
 21
51.0
  0
LINE
  8
図枠
  6
LTYPE3
 62
     2
 10
400.0
 20
21.0
 11
400.0
 21
10.0
  0
LINE
  8
図枠
  6
CONTINUOUS
 62
     2
 10
275.0
 20
67.0
 11
410.0
 21
67.0
  0
LINE
  8
図枠
  6
CONTINUOUS
 62
     2
 10
275.0
 20
59.0
 11
410.0
 21
59.0
  0
LINE
  8
図枠
  6
CONTINUOUS
 62
     2
 10
275.0
 20
51.0
 11
410.0
 21
51.0
  0
LINE
  8
図枠
  6
CONTINUOUS
 62
     2
 10
275.0
 20
43.0
 11
410.0
 21
43.0
  0
LINE
  8
図枠
  6
CONTINUOUS
 62
     2
 10
275.0
 20
32.0
 11
410.0
 21
32.0
  0
LINE
  8
図枠
  6
CONTINUOUS
 62
     2
 10
275.0
 20
21.0
 11
410.0
 21
21.0
  0
TEXT
  8
表題欄
  6
CONTINUOUS
 62
     5
 10
278.0
 20
23.0
 30
0.0
 40
4.0
  1
１
 50
0.0
 41
0.875
 51
0.0
  7
KANJI1
  0
TEXT
  8
表題欄
  6
CONTINUOUS
 62
     5
 10
284.5
 20
23.0
 30
0.0
 40
4.0
  1
１
 50
0.0
 41
0.875
 51
0.0
  7
KANJI1
  0
TEXT
  8
表題欄
  6
CONTINUOUS
 62
     5
 10
340.5
 20
36.0
 30
-0.5
 40
3.0
  1
２０１７．
 50
0.0
 41
0.833333333
 51
0.0
  7
KANJI11
  0
TEXT
  8
表題欄
  6
CONTINUOUS
 62
     5
 10
343.0
 20
33.0
 30
-0.5
 40
3.0
  1
０７．１２
 50
0.0
 41
0.833333333
 51
0.0
  7
KANJI11
  0
TEXT
  8
表題欄
  6
CONTINUOUS
 62
     5
 10
377.4
 20
34.0
 30
0.1
 40
4.0
  1
外観図
 50
0.0
 41
0.875
 51
0.0
  7
KANJI0
  0
TEXT
  8
表題欄
  6
CONTINUOUS
 62
     5
 10
361.2
 20
23.0
 30
0.1
 40
4.0
  1
ＴＰ－□Ｎ
 50
0.0
 41
0.875
 51
0.0
  7
KANJI0
  0
TEXT
  8
表題欄
  6
CONTINUOUS
 62
     5
 10
358.15
 20
12.0
 30
0.1
 40
4.0
  1
Ｉ－０１３４－Ａ００１
 50
0.0
 41
0.875
 51
0.0
  7
KANJI0
  0
TEXT
  8
寸法線
  6
CONTINUOUS
 62
     5
 10
363.0
 20
90.0
 30
0.0
 40
4.0
  1
時計回り　（＋）
 50
0.0
 41
0.875
 51
0.0
  7
KANJI1
  0
TEXT
  8
寸法線
  6
CONTINUOUS
 62
     5
 10
363.0
 20
85.0
 30
0.0
 40
4.0
  1
反時計回り（－）
 50
0.0
 41
0.875
 51
0.0
  7
KANJI1
  0
LINE
  8
寸法線
  6
CONTINUOUS
 62
     2
 10
368.0
 20
95.0
 11
382.0
 21
95.0
  0
TEXT
  8
寸法線
  6
CONTINUOUS
 62
     5
 10
368.0
 20
96.0
 30
0.0
 40
4.0
  1
負荷方向
 50
0.0
 41
0.875
 51
0.0
  7
KANJI1
  0
TEXT
  8
寸法線
  6
CONTINUOUS
 62
     5
 10
337.0
 20
70.5
 30
0.1
 40
4.0
  1
５０，１００，２００，３００　Ｎ・ｍ
 50
0.0
 41
0.875
 51
0.0
  7
KANJI0
  0
ENDSEC
  0
EOF
