  0
SECTION
  2
HEADER
  9
$EXTMIN
 10
0.0
 20
0.0
 30
0.0
  9
$EXTMAX
 10
420.0
 20
297.0
 30
0.0
  9
$LIMMIN
 10
0.0
 20
0.0
  9
$LIMMAX
 10
420.0
 20
297.0
  9
$LTSCALE
 40
1.0
  9
$PDMODE
 70
     0
  0
ENDSEC
  0
SECTION
  2
TABLES
  0
TABLE
  2
LTYPE
 70
     4
  0
LTYPE
  2
CONTINUOUS
 70
    64
  3
Solid line
 72
    65
 73
     0
 40
0.0
  0
LTYPE
  2
LTYPE1
 70
    64
  3
PHANTOM
 72
    65
 73
     6
 40
10.0
 49
7.5
 49
-0.5
 49
0.5
 49
-0.5
 49
0.5
 49
-0.5
  0
LTYPE
  2
LTYPE2
 70
    64
  3
HIDDEN
 72
    65
 73
     2
 40
2.0
 49
1.2
 49
-0.8
  0
LTYPE
  2
LTYPE3
 70
    64
  3
CENTER
 72
    65
 73
     4
 40
10.0
 49
7.0
 49
-1.0
 49
1.0
 49
-1.0
  0
ENDTAB
  0
TABLE
  2
LAYER
 70
   128
  0
LAYER
  2
0
 70
     0
 62
     7
  6
CONTINUOUS
  0
LAYER
  2
ハッチング
 70
     0
 62
     7
  6
CONTINUOUS
  0
LAYER
  2
治具
 70
     0
 62
     7
  6
CONTINUOUS
  0
LAYER
  2
購入品
 70
     0
 62
     7
  6
CONTINUOUS
  0
LAYER
  2
寸法線
 70
     0
 62
     7
  6
CONTINUOUS
  0
LAYER
  2
表題欄
 70
     0
 62
     7
  6
CONTINUOUS
  0
LAYER
  2
図枠
 70
     0
 62
     7
  6
CONTINUOUS
  0
LAYER
  2
8
 70
     0
 62
     7
  6
CONTINUOUS
  0
LAYER
  2
9
 70
     0
 62
     7
  6
CONTINUOUS
  0
LAYER
  2
10
 70
     0
 62
     7
  6
CONTINUOUS
  0
LAYER
  2
11
 70
     0
 62
     7
  6
CONTINUOUS
  0
LAYER
  2
12
 70
     0
 62
     7
  6
CONTINUOUS
  0
LAYER
  2
13
 70
     0
 62
     7
  6
CONTINUOUS
  0
LAYER
  2
14
 70
     0
 62
     7
  6
CONTINUOUS
  0
LAYER
  2
15
 70
     0
 62
     7
  6
CONTINUOUS
  0
LAYER
  2
16
 70
     0
 62
     7
  6
CONTINUOUS
  0
LAYER
  2
17
 70
     0
 62
     7
  6
CONTINUOUS
  0
LAYER
  2
18
 70
     0
 62
     7
  6
CONTINUOUS
  0
LAYER
  2
19
 70
     0
 62
     7
  6
CONTINUOUS
  0
LAYER
  2
20
 70
     0
 62
     7
  6
CONTINUOUS
  0
LAYER
  2
21
 70
     0
 62
     7
  6
CONTINUOUS
  0
LAYER
  2
22
 70
     0
 62
     7
  6
CONTINUOUS
  0
LAYER
  2
23
 70
     0
 62
     7
  6
CONTINUOUS
  0
LAYER
  2
24
 70
     0
 62
     7
  6
CONTINUOUS
  0
LAYER
  2
25
 70
     0
 62
     7
  6
CONTINUOUS
  0
LAYER
  2
26
 70
     0
 62
     7
  6
CONTINUOUS
  0
LAYER
  2
27
 70
     0
 62
     7
  6
CONTINUOUS
  0
LAYER
  2
28
 70
     0
 62
     7
  6
CONTINUOUS
  0
LAYER
  2
29
 70
     0
 62
     7
  6
CONTINUOUS
  0
LAYER
  2
30
 70
     0
 62
     7
  6
CONTINUOUS
  0
LAYER
  2
31
 70
     0
 62
     7
  6
CONTINUOUS
  0
LAYER
  2
32
 70
     0
 62
     7
  6
CONTINUOUS
  0
LAYER
  2
33
 70
     0
 62
     7
  6
CONTINUOUS
  0
LAYER
  2
34
 70
     0
 62
     7
  6
CONTINUOUS
  0
LAYER
  2
35
 70
     0
 62
     7
  6
CONTINUOUS
  0
LAYER
  2
36
 70
     0
 62
     7
  6
CONTINUOUS
  0
LAYER
  2
37
 70
     0
 62
     7
  6
CONTINUOUS
  0
LAYER
  2
38
 70
     0
 62
     7
  6
CONTINUOUS
  0
LAYER
  2
39
 70
     0
 62
     7
  6
CONTINUOUS
  0
LAYER
  2
40
 70
     0
 62
     7
  6
CONTINUOUS
  0
LAYER
  2
41
 70
     0
 62
     7
  6
CONTINUOUS
  0
LAYER
  2
42
 70
     0
 62
     7
  6
CONTINUOUS
  0
LAYER
  2
43
 70
     0
 62
     7
  6
CONTINUOUS
  0
LAYER
  2
44
 70
     0
 62
     7
  6
CONTINUOUS
  0
LAYER
  2
45
 70
     0
 62
     7
  6
CONTINUOUS
  0
LAYER
  2
46
 70
     0
 62
     7
  6
CONTINUOUS
  0
LAYER
  2
47
 70
     0
 62
     7
  6
CONTINUOUS
  0
LAYER
  2
48
 70
     0
 62
     7
  6
CONTINUOUS
  0
LAYER
  2
49
 70
     0
 62
     7
  6
CONTINUOUS
  0
LAYER
  2
50
 70
     0
 62
     7
  6
CONTINUOUS
  0
LAYER
  2
51
 70
     0
 62
     7
  6
CONTINUOUS
  0
LAYER
  2
52
 70
     0
 62
     7
  6
CONTINUOUS
  0
LAYER
  2
53
 70
     0
 62
     7
  6
CONTINUOUS
  0
LAYER
  2
54
 70
     0
 62
     7
  6
CONTINUOUS
  0
LAYER
  2
55
 70
     0
 62
     7
  6
CONTINUOUS
  0
LAYER
  2
56
 70
     0
 62
     7
  6
CONTINUOUS
  0
LAYER
  2
57
 70
     0
 62
     7
  6
CONTINUOUS
  0
LAYER
  2
58
 70
     0
 62
     7
  6
CONTINUOUS
  0
LAYER
  2
59
 70
     0
 62
     7
  6
CONTINUOUS
  0
LAYER
  2
60
 70
     0
 62
     7
  6
CONTINUOUS
  0
LAYER
  2
61
 70
     0
 62
     7
  6
CONTINUOUS
  0
LAYER
  2
62
 70
     0
 62
     7
  6
CONTINUOUS
  0
LAYER
  2
63
 70
     0
 62
     7
  6
CONTINUOUS
  0
LAYER
  2
64
 70
     0
 62
     7
  6
CONTINUOUS
  0
LAYER
  2
65
 70
     0
 62
     7
  6
CONTINUOUS
  0
LAYER
  2
66
 70
     0
 62
     7
  6
CONTINUOUS
  0
LAYER
  2
67
 70
     0
 62
     7
  6
CONTINUOUS
  0
LAYER
  2
68
 70
     0
 62
     7
  6
CONTINUOUS
  0
LAYER
  2
69
 70
     0
 62
     7
  6
CONTINUOUS
  0
LAYER
  2
70
 70
     0
 62
     7
  6
CONTINUOUS
  0
LAYER
  2
71
 70
     0
 62
     7
  6
CONTINUOUS
  0
LAYER
  2
72
 70
     0
 62
     7
  6
CONTINUOUS
  0
LAYER
  2
73
 70
     0
 62
     7
  6
CONTINUOUS
  0
LAYER
  2
74
 70
     0
 62
     7
  6
CONTINUOUS
  0
LAYER
  2
75
 70
     0
 62
     7
  6
CONTINUOUS
  0
LAYER
  2
76
 70
     0
 62
     7
  6
CONTINUOUS
  0
LAYER
  2
77
 70
     0
 62
     7
  6
CONTINUOUS
  0
LAYER
  2
78
 70
     0
 62
     7
  6
CONTINUOUS
  0
LAYER
  2
79
 70
     0
 62
     7
  6
CONTINUOUS
  0
LAYER
  2
80
 70
     0
 62
     7
  6
CONTINUOUS
  0
LAYER
  2
81
 70
     0
 62
     7
  6
CONTINUOUS
  0
LAYER
  2
82
 70
     0
 62
     7
  6
CONTINUOUS
  0
LAYER
  2
83
 70
     0
 62
     7
  6
CONTINUOUS
  0
LAYER
  2
84
 70
     0
 62
     7
  6
CONTINUOUS
  0
LAYER
  2
85
 70
     0
 62
     7
  6
CONTINUOUS
  0
LAYER
  2
86
 70
     0
 62
     7
  6
CONTINUOUS
  0
LAYER
  2
87
 70
     0
 62
     7
  6
CONTINUOUS
  0
LAYER
  2
88
 70
     0
 62
     7
  6
CONTINUOUS
  0
LAYER
  2
89
 70
     0
 62
     7
  6
CONTINUOUS
  0
LAYER
  2
90
 70
     0
 62
     7
  6
CONTINUOUS
  0
LAYER
  2
91
 70
     0
 62
     7
  6
CONTINUOUS
  0
LAYER
  2
92
 70
     0
 62
     7
  6
CONTINUOUS
  0
LAYER
  2
93
 70
     0
 62
     7
  6
CONTINUOUS
  0
LAYER
  2
94
 70
     0
 62
     7
  6
CONTINUOUS
  0
LAYER
  2
95
 70
     0
 62
     7
  6
CONTINUOUS
  0
LAYER
  2
96
 70
     0
 62
     7
  6
CONTINUOUS
  0
LAYER
  2
97
 70
     0
 62
     7
  6
CONTINUOUS
  0
LAYER
  2
98
 70
     0
 62
     7
  6
CONTINUOUS
  0
LAYER
  2
99
 70
     0
 62
     7
  6
CONTINUOUS
  0
LAYER
  2
100
 70
     0
 62
     7
  6
CONTINUOUS
  0
LAYER
  2
101
 70
     0
 62
     7
  6
CONTINUOUS
  0
LAYER
  2
102
 70
     0
 62
     7
  6
CONTINUOUS
  0
LAYER
  2
103
 70
     0
 62
     7
  6
CONTINUOUS
  0
LAYER
  2
104
 70
     0
 62
     7
  6
CONTINUOUS
  0
LAYER
  2
105
 70
     0
 62
     7
  6
CONTINUOUS
  0
LAYER
  2
106
 70
     0
 62
     7
  6
CONTINUOUS
  0
LAYER
  2
107
 70
     0
 62
     7
  6
CONTINUOUS
  0
LAYER
  2
108
 70
     0
 62
     7
  6
CONTINUOUS
  0
LAYER
  2
109
 70
     0
 62
     7
  6
CONTINUOUS
  0
LAYER
  2
110
 70
     0
 62
     7
  6
CONTINUOUS
  0
LAYER
  2
111
 70
     0
 62
     7
  6
CONTINUOUS
  0
LAYER
  2
112
 70
     0
 62
     7
  6
CONTINUOUS
  0
LAYER
  2
113
 70
     0
 62
     7
  6
CONTINUOUS
  0
LAYER
  2
114
 70
     0
 62
     7
  6
CONTINUOUS
  0
LAYER
  2
115
 70
     0
 62
     7
  6
CONTINUOUS
  0
LAYER
  2
116
 70
     0
 62
     7
  6
CONTINUOUS
  0
LAYER
  2
117
 70
     0
 62
     7
  6
CONTINUOUS
  0
LAYER
  2
118
 70
     0
 62
     7
  6
CONTINUOUS
  0
LAYER
  2
119
 70
     0
 62
     7
  6
CONTINUOUS
  0
LAYER
  2
120
 70
     0
 62
     7
  6
CONTINUOUS
  0
LAYER
  2
121
 70
     0
 62
     7
  6
CONTINUOUS
  0
LAYER
  2
122
 70
     0
 62
     7
  6
CONTINUOUS
  0
LAYER
  2
123
 70
     0
 62
     7
  6
CONTINUOUS
  0
LAYER
  2
124
 70
     0
 62
     7
  6
CONTINUOUS
  0
LAYER
  2
125
 70
     0
 62
     7
  6
CONTINUOUS
  0
LAYER
  2
126
 70
     0
 62
     7
  6
CONTINUOUS
  0
LAYER
  2
127
 70
     0
 62
     7
  6
CONTINUOUS
  0
LAYER
  2
128
 70
     0
 62
     7
  6
CONTINUOUS
  0
ENDTAB
  0
TABLE
  2
STYLE
 70
    13
  0
STYLE
  2
STANDARD
 70
     0
 40
0.0
 41
1.0
 50
0.0
 71
     0
 42
0.2
  3
txt
  4

  0
STYLE
  2
KANJI0
 70
     0
 40
4.0
 41
0.875
 50
0.0
 71
     0
 42
4.0
  3

  4
bigfont
  0
STYLE
  2
KANJI1
 70
     0
 40
5.0
 41
1.0
 50
0.0
 71
     0
 42
5.0
  3

  4
bigfont
  0
STYLE
  2
KANJI2
 70
     0
 40
5.0
 41
1.2
 50
0.0
 71
     0
 42
5.0
  3

  4
bigfont
  0
STYLE
  2
KANJI3
 70
     0
 40
3.0
 41
0.666666667
 50
0.0
 71
     0
 42
3.0
  3

  4
bigfont
  0
STYLE
  2
KANJI4
 70
     0
 40
3.0
 41
1.0
 50
0.0
 71
     0
 42
3.0
  3

  4
bigfont
  0
STYLE
  2
KANJI5
 70
     0
 40
2.5
 41
1.0
 50
0.0
 71
     0
 42
2.5
  3

  4
bigfont
  0
STYLE
  2
KANJI6
 70
     0
 40
2.5
 41
1.0
 50
0.0
 71
     0
 42
2.5
  3

  4
bigfont
  0
STYLE
  2
KANJI7
 70
     0
 40
2.5
 41
1.0
 50
0.0
 71
     0
 42
2.5
  3

  4
bigfont
  0
STYLE
  2
KANJI8
 70
     0
 40
4.0
 41
1.125
 50
0.0
 71
     0
 42
4.0
  3

  4
bigfont
  0
STYLE
  2
KANJI9
 70
     0
 40
7.0
 41
0.857142857
 50
0.0
 71
     0
 42
7.0
  3

  4
bigfont
  0
STYLE
  2
KANJI10
 70
     0
 40
3.0
 41
0.833333333
 50
0.0
 71
     0
 42
3.0
  3

  4
bigfont
  0
STYLE
  2
KANJI11
 70
     0
 40
4.0
 41
0.875
 50
0.0
 71
     0
 42
4.0
  3

  4
bigfont
  0
ENDTAB
  0
TABLE
  2
VIEW
 70
     0
  0
ENDTAB
  0
ENDSEC
  0
SECTION
  2
BLOCKS
  0
ENDSEC
  0
SECTION
  2
ENTITIES
  0
LINE
  8
図枠
  6
CONTINUOUS
 62
     6
 10
405.5
 20
148.5
 11
420.0
 21
148.5
  0
TEXT
  8
表題欄
  6
CONTINUOUS
 62
     5
 10
343.0
 20
23.0
 30
0.0
 40
4.0
  1
益子
 50
0.0
 41
0.875
 51
0.0
  7
KANJI0
  0
LINE
  8
図枠
  6
CONTINUOUS
 62
     2
 10
410.0
 20
198.5
 11
415.0
 21
198.5
  0
LINE
  8
図枠
  6
CONTINUOUS
 62
     2
 10
410.0
 20
248.5
 11
415.0
 21
248.5
  0
LINE
  8
図枠
  6
CONTINUOUS
 62
     2
 10
410.0
 20
98.5
 11
415.0
 21
98.5
  0
LINE
  8
図枠
  6
CONTINUOUS
 62
     2
 10
410.0
 20
48.5
 11
415.0
 21
48.5
  0
LINE
  8
図枠
  6
CONTINUOUS
 62
     2
 10
410.0
 20
75.0
 11
407.5
 21
75.0
  0
LINE
  8
図枠
  6
CONTINUOUS
 62
     2
 10
410.0
 20
83.0
 11
407.5
 21
83.0
  0
LINE
  8
図枠
  6
CONTINUOUS
 62
     2
 10
410.0
 20
91.0
 11
407.5
 21
91.0
  0
TEXT
  8
図枠
  6
CONTINUOUS
 62
     6
 10
411.5
 20
271.0
 30
0.0
 40
5.0
  1
Ａ
 50
0.0
 41
1.0
 51
0.0
  7
KANJI1
  0
TEXT
  8
図枠
  6
CONTINUOUS
 62
     6
 10
411.5
 20
221.0
 30
0.0
 40
5.0
  1
Ｂ
 50
0.0
 41
1.0
 51
0.0
  7
KANJI1
  0
TEXT
  8
図枠
  6
CONTINUOUS
 62
     6
 10
411.5
 20
171.0
 30
0.0
 40
5.0
  1
Ｃ
 50
0.0
 41
1.0
 51
0.0
  7
KANJI1
  0
TEXT
  8
図枠
  6
CONTINUOUS
 62
     6
 10
411.5
 20
121.0
 30
0.0
 40
5.0
  1
Ｄ
 50
0.0
 41
1.0
 51
0.0
  7
KANJI1
  0
TEXT
  8
図枠
  6
CONTINUOUS
 62
     6
 10
411.5
 20
71.0
 30
0.0
 40
5.0
  1
Ｅ
 50
0.0
 41
1.0
 51
0.0
  7
KANJI1
  0
TEXT
  8
図枠
  6
CONTINUOUS
 62
     6
 10
411.5
 20
21.0
 30
0.0
 40
5.0
  1
Ｆ
 50
0.0
 41
1.0
 51
0.0
  7
KANJI1
  0
LINE
  8
図枠
  6
CONTINUOUS
 62
     2
 10
25.0
 20
198.5
 11
20.0
 21
198.5
  0
LINE
  8
図枠
  6
CONTINUOUS
 62
     2
 10
25.0
 20
248.5
 11
20.0
 21
248.5
  0
LINE
  8
図枠
  6
CONTINUOUS
 62
     2
 10
25.0
 20
98.5
 11
20.0
 21
98.5
  0
LINE
  8
図枠
  6
CONTINUOUS
 62
     2
 10
25.0
 20
48.5
 11
20.0
 21
48.5
  0
TEXT
  8
図枠
  6
CONTINUOUS
 62
     6
 10
18.5
 20
271.0
 30
0.0
 40
5.0
  1
Ａ
 50
0.0
 41
1.0
 51
0.0
  7
KANJI1
  0
TEXT
  8
図枠
  6
CONTINUOUS
 62
     6
 10
18.5
 20
221.0
 30
0.0
 40
5.0
  1
Ｂ
 50
0.0
 41
1.0
 51
0.0
  7
KANJI1
  0
TEXT
  8
図枠
  6
CONTINUOUS
 62
     6
 10
18.5
 20
171.0
 30
0.0
 40
5.0
  1
Ｃ
 50
0.0
 41
1.0
 51
0.0
  7
KANJI1
  0
TEXT
  8
図枠
  6
CONTINUOUS
 62
     6
 10
18.5
 20
121.0
 30
0.0
 40
5.0
  1
Ｄ
 50
0.0
 41
1.0
 51
0.0
  7
KANJI1
  0
TEXT
  8
図枠
  6
CONTINUOUS
 62
     6
 10
18.5
 20
71.0
 30
0.0
 40
5.0
  1
Ｅ
 50
0.0
 41
1.0
 51
0.0
  7
KANJI1
  0
TEXT
  8
図枠
  6
CONTINUOUS
 62
     6
 10
18.5
 20
21.0
 30
0.0
 40
5.0
  1
Ｆ
 50
0.0
 41
1.0
 51
0.0
  7
KANJI1
  0
LINE
  8
図枠
  6
CONTINUOUS
 62
     2
 10
160.0
 20
287.0
 11
160.0
 21
292.0
  0
LINE
  8
図枠
  6
CONTINUOUS
 62
     2
 10
110.0
 20
292.0
 11
110.0
 21
287.0
  0
LINE
  8
図枠
  6
CONTINUOUS
 62
     2
 10
60.0
 20
292.0
 11
60.0
 21
287.0
  0
LINE
  8
図枠
  6
CONTINUOUS
 62
     2
 10
260.0
 20
292.0
 11
260.0
 21
287.0
  0
LINE
  8
図枠
  6
CONTINUOUS
 62
     2
 10
310.0
 20
292.0
 11
310.0
 21
287.0
  0
TEXT
  8
図枠
  6
CONTINUOUS
 62
     6
 10
32.0
 20
288.5
 30
0.0
 40
5.0
  1
１
 50
0.0
 41
1.2
 51
0.0
  7
KANJI2
  0
TEXT
  8
図枠
  6
CONTINUOUS
 62
     6
 10
82.0
 20
288.5
 30
0.0
 40
5.0
  1
２
 50
0.0
 41
1.2
 51
0.0
  7
KANJI2
  0
TEXT
  8
図枠
  6
CONTINUOUS
 62
     6
 10
132.0
 20
288.5
 30
0.0
 40
5.0
  1
３
 50
0.0
 41
1.2
 51
0.0
  7
KANJI2
  0
TEXT
  8
図枠
  6
CONTINUOUS
 62
     6
 10
182.0
 20
288.5
 30
0.0
 40
5.0
  1
４
 50
0.0
 41
1.2
 51
0.0
  7
KANJI2
  0
TEXT
  8
図枠
  6
CONTINUOUS
 62
     6
 10
232.0
 20
288.5
 30
0.0
 40
5.0
  1
５
 50
0.0
 41
1.2
 51
0.0
  7
KANJI2
  0
TEXT
  8
図枠
  6
CONTINUOUS
 62
     6
 10
282.0
 20
288.5
 30
0.0
 40
5.0
  1
６
 50
0.0
 41
1.2
 51
0.0
  7
KANJI2
  0
TEXT
  8
図枠
  6
CONTINUOUS
 62
     6
 10
332.0
 20
288.5
 30
0.0
 40
5.0
  1
７
 50
0.0
 41
1.2
 51
0.0
  7
KANJI2
  0
TEXT
  8
図枠
  6
CONTINUOUS
 62
     6
 10
382.0
 20
288.5
 30
0.0
 40
5.0
  1
８
 50
0.0
 41
1.2
 51
0.0
  7
KANJI2
  0
LINE
  8
図枠
  6
CONTINUOUS
 62
     2
 10
110.0
 20
5.0
 11
110.0
 21
10.0
  0
LINE
  8
図枠
  6
CONTINUOUS
 62
     2
 10
60.0
 20
5.0
 11
60.0
 21
10.0
  0
TEXT
  8
図枠
  6
CONTINUOUS
 62
     6
 10
32.0
 20
3.5
 30
0.0
 40
5.0
  1
１
 50
0.0
 41
1.2
 51
0.0
  7
KANJI2
  0
TEXT
  8
図枠
  6
CONTINUOUS
 62
     6
 10
82.0
 20
3.5
 30
0.0
 40
5.0
  1
２
 50
0.0
 41
1.2
 51
0.0
  7
KANJI2
  0
TEXT
  8
図枠
  6
CONTINUOUS
 62
     6
 10
132.0
 20
3.5
 30
0.0
 40
5.0
  1
３
 50
0.0
 41
1.2
 51
0.0
  7
KANJI2
  0
LINE
  8
図枠
  6
CONTINUOUS
 62
     2
 10
360.0
 20
287.0
 11
360.0
 21
292.0
  0
LINE
  8
図枠
  6
CONTINUOUS
 62
     6
 10
25.0
 20
287.0
 11
25.0
 21
10.0
  0
LINE
  8
図枠
  6
CONTINUOUS
 62
     6
 10
210.0
 20
10.0
 11
210.0
 21
0.0
  0
LINE
  8
図枠
  6
CONTINUOUS
 62
     6
 10
160.0
 20
10.0
 11
160.0
 21
5.0
  0
LINE
  8
図枠
  6
CONTINUOUS
 62
     6
 10
170.0
 20
10.0
 11
170.0
 21
5.0
  0
LINE
  8
図枠
  6
CONTINUOUS
 62
     6
 10
180.0
 20
10.0
 11
180.0
 21
5.0
  0
LINE
  8
図枠
  6
CONTINUOUS
 62
     6
 10
190.0
 20
10.0
 11
190.0
 21
5.0
  0
LINE
  8
図枠
  6
CONTINUOUS
 62
     6
 10
200.0
 20
10.0
 11
200.0
 21
5.0
  0
LINE
  8
図枠
  6
CONTINUOUS
 62
     6
 10
25.0
 20
10.0
 11
410.0
 21
10.0
  0
LINE
  8
図枠
  6
CONTINUOUS
 62
     6
 10
260.0
 20
5.0
 11
260.0
 21
10.0
  0
LINE
  8
図枠
  6
CONTINUOUS
 62
     6
 10
250.0
 20
5.0
 11
250.0
 21
10.0
  0
LINE
  8
図枠
  6
CONTINUOUS
 62
     6
 10
240.0
 20
5.0
 11
240.0
 21
10.0
  0
LINE
  8
図枠
  6
CONTINUOUS
 62
     6
 10
230.0
 20
5.0
 11
230.0
 21
10.0
  0
LINE
  8
図枠
  6
CONTINUOUS
 62
     6
 10
220.0
 20
5.0
 11
220.0
 21
10.0
  0
LINE
  8
図枠
  6
CONTINUOUS
 62
     6
 10
160.0
 20
5.0
 11
260.0
 21
5.0
  0
LINE
  8
図枠
  6
CONTINUOUS
 62
     6
 10
25.0
 20
148.5
 11
0.0
 21
148.5
  0
LINE
  8
図枠
  6
CONTINUOUS
 62
     6
 10
210.0
 20
287.0
 11
210.0
 21
297.0
  0
LINE
  8
図枠
  6
CONTINUOUS
 62
     6
 10
410.0
 20
287.0
 11
25.0
 21
287.0
  0
LINE
  8
図枠
  6
CONTINUOUS
 62
     6
 10
410.0
 20
148.5
 11
420.0
 21
148.5
  0
LINE
  8
図枠
  6
CONTINUOUS
 62
     6
 10
410.0
 20
10.0
 11
410.0
 21
287.0
  0
TEXT
  8
図枠
  6
CONTINUOUS
 62
     6
 10
285.0
 20
3.5
 30
0.0
 40
5.0
  1
６
 50
0.0
 41
1.2
 51
0.0
  7
KANJI2
  0
TEXT
  8
図枠
  6
CONTINUOUS
 62
     6
 10
335.0
 20
3.5
 30
0.0
 40
5.0
  1
７
 50
0.0
 41
1.2
 51
0.0
  7
KANJI2
  0
TEXT
  8
図枠
  6
CONTINUOUS
 62
     6
 10
385.0
 20
3.5
 30
0.0
 40
5.0
  1
８
 50
0.0
 41
1.2
 51
0.0
  7
KANJI2
  0
LINE
  8
図枠
  6
CONTINUOUS
 62
     2
 10
310.0
 20
5.0
 11
310.0
 21
10.0
  0
LINE
  8
図枠
  6
CONTINUOUS
 62
     2
 10
360.0
 20
5.0
 11
360.0
 21
10.0
  0
LINE
  8
図枠
  6
CONTINUOUS
 62
     2
 10
241.0
 20
67.0
 11
241.0
 21
10.0
  0
LINE
  8
図枠
  6
CONTINUOUS
 62
     2
 10
248.0
 20
67.0
 11
248.0
 21
10.0
  0
LINE
  8
図枠
  6
CONTINUOUS
 62
     2
 10
255.0
 20
67.0
 11
255.0
 21
10.0
  0
LINE
  8
図枠
  6
CONTINUOUS
 62
     2
 10
262.0
 20
67.0
 11
262.0
 21
10.0
  0
LINE
  8
図枠
  6
CONTINUOUS
 62
     2
 10
323.0
 20
43.0
 11
323.0
 21
21.0
  0
LINE
  8
図枠
  6
CONTINUOUS
 62
     2
 10
339.0
 20
43.0
 11
339.0
 21
21.0
  0
LINE
  8
図枠
  6
CONTINUOUS
 62
     2
 10
299.0
 20
43.0
 11
299.0
 21
32.0
  0
LINE
  8
図枠
  6
CONTINUOUS
 62
     2
 10
269.0
 20
67.0
 11
269.0
 21
10.0
  0
LINE
  8
図枠
  6
CONTINUOUS
 62
     2
 10
291.0
 20
32.0
 11
291.0
 21
10.0
  0
LINE
  8
図枠
  6
CONTINUOUS
 62
     2
 10
307.0
 20
32.0
 11
307.0
 21
10.0
  0
LINE
  8
図枠
  6
CONTINUOUS
 62
     2
 10
355.0
 20
43.0
 11
355.0
 21
10.0
  0
LINE
  8
図枠
  6
LTYPE1
 62
     2
 10
313.0
 20
13.5
 11
317.0
 21
13.5
  0
LINE
  8
図枠
  6
LTYPE1
 62
     2
 10
317.0
 20
13.5
 11
317.0
 21
17.5
  0
LINE
  8
図枠
  6
LTYPE1
 62
     2
 10
317.0
 20
17.5
 11
313.0
 21
17.5
  0
LINE
  8
図枠
  6
LTYPE1
 62
     2
 10
313.0
 20
17.5
 11
313.0
 21
13.5
  0
TEXT
  8
図枠
  6
CONTINUOUS
 62
     4
 10
356.0
 20
47.0
 30
-0.5
 40
3.0
  1
１セット分
 50
0.0
 41
0.666666667
 51
0.0
  7
KANJI3
  0
TEXT
  8
図枠
  6
CONTINUOUS
 62
     4
 10
345.0
 20
47.0
 30
0.0
 40
3.0
  1
１台分
 50
0.0
 41
1.0
 51
0.0
  7
KANJI4
  0
TEXT
  8
図枠
  6
CONTINUOUS
 62
     4
 10
347.0
 20
44.0
 30
0.0
 40
3.0
  1
個数
 50
0.0
 41
1.0
 51
0.0
  7
KANJI4
  0
TEXT
  8
図枠
  6
CONTINUOUS
 62
     4
 10
357.0
 20
44.0
 30
0.0
 40
3.0
  1
個数
 50
0.0
 41
1.0
 51
0.0
  7
KANJI4
  0
TEXT
  8
図枠
  6
CONTINUOUS
 62
     4
 10
366.5
 20
45.0
 30
0.0
 40
4.0
  1
総数
 50
0.0
 41
0.875
 51
0.0
  7
KANJI0
  0
TEXT
  8
図枠
  6
CONTINUOUS
 62
     4
 10
273.15
 20
52.5
 30
0.3
 40
2.5
  1
氏名
 50
90.0
 41
1.0
 51
0.0
  7
KANJI5
  0
TEXT
  8
図枠
  6
CONTINUOUS
 62
     4
 10
273.15
 20
40.425
 30
1.0
 40
2.5
  1
年月日
 50
90.0
 41
1.0
 51
0.0
  7
KANJI6
  0
TEXT
  8
図枠
  6
CONTINUOUS
 62
     4
 10
273.15
 20
60.375
 30
0.3
 40
2.5
  1
承認
 50
90.0
 41
1.0
 51
0.0
  7
KANJI5
  0
TEXT
  8
図枠
  6
CONTINUOUS
 62
     4
 10
276.0
 20
39.5
 30
0.0
 40
2.5
  1
熱処理
 50
0.0
 41
1.0
 51
0.0
  7
KANJI7
  0
TEXT
  8
図枠
  6
CONTINUOUS
 62
     4
 10
300.0
 20
39.5
 30
0.0
 40
2.5
  1
表面処理
 50
0.0
 41
1.0
 51
0.0
  7
KANJI7
  0
TEXT
  8
図枠
  6
CONTINUOUS
 62
     4
 10
324.0
 20
39.5
 30
0.0
 40
2.5
  1
台数
 50
0.0
 41
1.0
 51
0.0
  7
KANJI7
  0
TEXT
  8
図枠
  6
CONTINUOUS
 62
     4
 10
340.0
 20
39.5
 30
0.0
 40
2.5
  1
作成日付
 50
0.0
 41
1.0
 51
0.0
  7
KANJI7
  0
TEXT
  8
図枠
  6
CONTINUOUS
 62
     4
 10
356.0
 20
39.5
 30
0.0
 40
2.5
  1
名称
 50
0.0
 41
1.0
 51
0.0
  7
KANJI7
  0
TEXT
  8
図枠
  6
CONTINUOUS
 62
     4
 10
276.0
 20
28.5
 30
0.0
 40
2.5
  1
尺度
 50
0.0
 41
1.0
 51
0.0
  7
KANJI7
  0
TEXT
  8
図枠
  6
CONTINUOUS
 62
     4
 10
292.0
 20
28.5
 30
0.0
 40
2.5
  1
承認
 50
0.0
 41
1.0
 51
0.0
  7
KANJI7
  0
TEXT
  8
図枠
  6
CONTINUOUS
 62
     4
 10
308.0
 20
28.5
 30
0.0
 40
2.5
  1
検図
 50
0.0
 41
1.0
 51
0.0
  7
KANJI7
  0
TEXT
  8
図枠
  6
CONTINUOUS
 62
     4
 10
324.0
 20
28.5
 30
0.0
 40
2.5
  1
設計
 50
0.0
 41
1.0
 51
0.0
  7
KANJI7
  0
TEXT
  8
図枠
  6
CONTINUOUS
 62
     4
 10
340.0
 20
28.5
 30
0.0
 40
2.5
  1
製図
 50
0.0
 41
1.0
 51
0.0
  7
KANJI7
  0
TEXT
  8
図枠
  6
CONTINUOUS
 62
     4
 10
356.0
 20
28.5
 30
0.0
 40
2.5
  1
機名
 50
0.0
 41
1.0
 51
0.0
  7
KANJI7
  0
TEXT
  8
図枠
  6
CONTINUOUS
 62
     4
 10
273.15
 20
10.875
 30
0.3
 40
2.5
  1
記号
 50
90.0
 41
1.0
 51
0.0
  7
KANJI5
  0
TEXT
  8
図枠
  6
CONTINUOUS
 62
     4
 10
356.0
 20
17.5
 30
0.0
 40
2.5
  1
図面番号
 50
0.0
 41
1.0
 51
0.0
  7
KANJI7
  0
TEXT
  8
図枠
  6
CONTINUOUS
 62
     4
 10
319.0
 20
14.25
 30
0.0
 40
2.5
  1
株式会社
 50
0.0
 41
1.0
 51
0.0
  7
KANJI7
  0
TEXT
  8
図枠
  6
CONTINUOUS
 62
     4
 10
331.0
 20
13.5
 30
0.0
 40
4.0
  1
昭和測器
 50
0.0
 41
1.125
 51
0.0
  7
KANJI8
  0
TEXT
  8
図枠
  6
CONTINUOUS
 62
     4
 10
273.15
 20
18.375
 30
0.3
 40
2.5
  1
来歴・改訂記事
 50
90.0
 41
1.0
 51
0.0
  7
KANJI5
  0
TEXT
  8
図枠
  6
CONTINUOUS
 62
     1
 10
278.0
 20
15.5
 30
0.0
 40
5.0
  1
第３
 50
0.0
 41
1.0
 51
0.0
  7
KANJI1
  0
TEXT
  8
図枠
  6
CONTINUOUS
 62
     1
 10
278.0
 20
10.5
 30
0.0
 40
5.0
  1
角法
 50
0.0
 41
1.0
 51
0.0
  7
KANJI1
  0
LINE
  8
図枠
  6
CONTINUOUS
 62
     2
 10
234.0
 20
67.0
 11
234.0
 21
10.0
  0
LINE
  8
図枠
  6
CONTINUOUS
 62
     2
 10
233.0
 20
17.0
 11
275.0
 21
17.0
  0
TEXT
  8
図枠
  6
CONTINUOUS
 62
     4
 10
326.0
 20
45.0
 30
0.0
 40
4.0
  1
材　　質
 50
0.0
 41
0.875
 51
0.0
  7
KANJI0
  0
TEXT
  8
図枠
  6
CONTINUOUS
 62
     4
 10
383.25
 20
45.0
 30
0.0
 40
4.0
  1
摘　　　要
 50
0.0
 41
0.875
 51
0.0
  7
KANJI0
  0
TEXT
  8
図枠
  6
CONTINUOUS
 62
     4
 10
276.5
 20
45.0
 30
0.0
 40
4.0
  1
番号
 50
0.0
 41
0.875
 51
0.0
  7
KANJI0
  0
TEXT
  8
図枠
  6
CONTINUOUS
 62
     4
 10
294.25
 20
45.0
 30
0.0
 40
4.0
  1
部　品　名
 50
0.0
 41
0.875
 51
0.0
  7
KANJI0
  0
CIRCLE
  8
図枠
  6
CONTINUOUS
 62
     6
 10
283.0
 20
26.0
 40
0.2
  0
CIRCLE
  8
図枠
  6
CONTINUOUS
 62
     6
 10
283.0
 20
23.5
 40
0.2
  0
TEXT
  8
図枠
  6
CONTINUOUS
 62
     6
 10
293.725
 20
12.025
 30
-1.0
 40
7.0
  1
Ａ３
 50
0.0
 41
0.857142857
 51
0.0
  7
KANJI9
  0
LINE
  8
図枠
  6
CONTINUOUS
 62
     2
 10
233.0
 20
67.0
 11
275.0
 21
67.0
  0
LINE
  8
図枠
  6
CONTINUOUS
 62
     2
 10
233.0
 20
59.0
 11
275.0
 21
59.0
  0
LINE
  8
図枠
  6
CONTINUOUS
 62
     2
 10
285.0
 20
51.0
 11
285.0
 21
43.0
  0
LINE
  8
図枠
  6
CONTINUOUS
 62
     2
 10
285.0
 20
67.0
 11
285.0
 21
51.0
  0
LINE
  8
図枠
  6
CONTINUOUS
 62
     2
 10
321.0
 20
51.0
 11
321.0
 21
43.0
  0
LINE
  8
図枠
  6
CONTINUOUS
 62
     2
 10
321.0
 20
67.0
 11
321.0
 21
51.0
  0
LINE
  8
図枠
  6
CONTINUOUS
 62
     2
 10
345.0
 20
51.0
 11
345.0
 21
43.0
  0
LINE
  8
図枠
  6
CONTINUOUS
 62
     2
 10
345.0
 20
67.0
 11
345.0
 21
51.0
  0
LINE
  8
図枠
  6
CONTINUOUS
 62
     2
 10
355.0
 20
51.0
 11
355.0
 21
43.0
  0
LINE
  8
図枠
  6
CONTINUOUS
 62
     2
 10
355.0
 20
67.0
 11
355.0
 21
51.0
  0
LINE
  8
図枠
  6
CONTINUOUS
 62
     2
 10
365.0
 20
51.0
 11
365.0
 21
43.0
  0
LINE
  8
図枠
  6
CONTINUOUS
 62
     2
 10
365.0
 20
67.0
 11
365.0
 21
51.0
  0
LINE
  8
図枠
  6
CONTINUOUS
 62
     2
 10
375.0
 20
51.0
 11
375.0
 21
43.0
  0
LINE
  8
図枠
  6
CONTINUOUS
 62
     2
 10
375.0
 20
67.0
 11
375.0
 21
51.0
  0
LINE
  8
図枠
  6
CONTINUOUS
 62
     2
 10
275.0
 20
51.0
 11
275.0
 21
10.0
  0
LINE
  8
図枠
  6
CONTINUOUS
 62
     2
 10
275.0
 20
67.0
 11
275.0
 21
51.0
  0
LINE
  8
図枠
  6
CONTINUOUS
 62
     2
 10
233.0
 20
39.0
 11
275.0
 21
39.0
  0
LINE
  8
図枠
  6
CONTINUOUS
 62
     2
 10
233.0
 20
51.0
 11
275.0
 21
51.0
  0
LINE
  8
図枠
  6
LTYPE2
 62
     2
 10
400.0
 20
21.0
 11
400.0
 21
10.0
  0
LINE
  8
図枠
  6
CONTINUOUS
 62
     2
 10
275.0
 20
67.0
 11
410.0
 21
67.0
  0
LINE
  8
図枠
  6
CONTINUOUS
 62
     2
 10
275.0
 20
59.0
 11
410.0
 21
59.0
  0
LINE
  8
図枠
  6
CONTINUOUS
 62
     2
 10
275.0
 20
51.0
 11
410.0
 21
51.0
  0
LINE
  8
図枠
  6
CONTINUOUS
 62
     2
 10
275.0
 20
43.0
 11
410.0
 21
43.0
  0
LINE
  8
図枠
  6
CONTINUOUS
 62
     2
 10
275.0
 20
32.0
 11
410.0
 21
32.0
  0
LINE
  8
図枠
  6
CONTINUOUS
 62
     2
 10
275.0
 20
21.0
 11
410.0
 21
21.0
  0
TEXT
  8
表題欄
  6
CONTINUOUS
 62
     5
 10
278.0
 20
23.0
 30
0.0
 40
4.0
  1
１
 50
0.0
 41
0.875
 51
0.0
  7
KANJI0
  0
TEXT
  8
表題欄
  6
CONTINUOUS
 62
     5
 10
284.5
 20
23.0
 30
0.0
 40
4.0
  1
１
 50
0.0
 41
0.875
 51
0.0
  7
KANJI0
  0
TEXT
  8
表題欄
  6
CONTINUOUS
 62
     5
 10
340.5
 20
36.0
 30
-0.5
 40
3.0
  1
２０１７．
 50
0.0
 41
0.833333333
 51
0.0
  7
KANJI10
  0
TEXT
  8
表題欄
  6
CONTINUOUS
 62
     5
 10
343.0
 20
33.0
 30
-0.5
 40
3.0
  1
０７．１２
 50
0.0
 41
0.833333333
 51
0.0
  7
KANJI10
  0
TEXT
  8
表題欄
  6
CONTINUOUS
 62
     5
 10
377.4
 20
34.0
 30
0.1
 40
4.0
  1
外観図
 50
0.0
 41
0.875
 51
0.0
  7
KANJI11
  0
TEXT
  8
表題欄
  6
CONTINUOUS
 62
     5
 10
361.2
 20
23.0
 30
0.1
 40
4.0
  1
ＴＰ－□Ｎ
 50
0.0
 41
0.875
 51
0.0
  7
KANJI11
  0
TEXT
  8
寸法線
  6
CONTINUOUS
 62
     5
 10
363.0
 20
89.8
 30
0.0
 40
4.0
  1
時計回り　（＋）
 50
0.0
 41
0.875
 51
0.0
  7
KANJI0
  0
TEXT
  8
寸法線
  6
CONTINUOUS
 62
     5
 10
363.0
 20
84.8
 30
0.0
 40
4.0
  1
反時計回り（－）
 50
0.0
 41
0.875
 51
0.0
  7
KANJI0
  0
LINE
  8
寸法線
  6
CONTINUOUS
 62
     2
 10
368.0
 20
94.8
 11
382.0
 21
94.8
  0
TEXT
  8
寸法線
  6
CONTINUOUS
 62
     5
 10
368.0
 20
95.8
 30
0.0
 40
4.0
  1
負荷方向
 50
0.0
 41
0.875
 51
0.0
  7
KANJI0
  0
POLYLINE
  8
0
  6
CONTINUOUS
 62
     1
 66
     1
 70
     1
  0
VERTEX
  8
0
  6
CONTINUOUS
 62
     1
 10
155.0
 20
117.5
  0
VERTEX
  8
0
  6
CONTINUOUS
 62
     1
 10
177.5
 20
117.5
  0
VERTEX
  8
0
  6
CONTINUOUS
 62
     1
 10
177.5
 20
252.5
  0
VERTEX
  8
0
  6
CONTINUOUS
 62
     1
 10
155.0
 20
252.5
  0
SEQEND
  0
LINE
  8
0
  6
CONTINUOUS
 62
     1
 10
155.0
 20
225.0
 11
151.0
 21
225.0
  0
LINE
  8
0
  6
CONTINUOUS
 62
     1
 10
151.0
 20
225.0
 11
151.0
 21
145.0
  0
LINE
  8
0
  6
CONTINUOUS
 62
     1
 10
151.0
 20
145.0
 11
155.0
 21
145.0
  0
POLYLINE
  8
0
  6
CONTINUOUS
 62
     1
 66
     1
 70
     1
  0
VERTEX
  8
0
  6
CONTINUOUS
 62
     1
 10
247.5
 20
117.5
  0
VERTEX
  8
0
  6
CONTINUOUS
 62
     1
 10
270.0
 20
117.5
  0
VERTEX
  8
0
  6
CONTINUOUS
 62
     1
 10
270.0
 20
252.5
  0
VERTEX
  8
0
  6
CONTINUOUS
 62
     1
 10
247.5
 20
252.5
  0
SEQEND
  0
LINE
  8
0
  6
CONTINUOUS
 62
     1
 10
270.0
 20
225.0
 11
265.0
 21
225.0
  0
LINE
  8
0
  6
CONTINUOUS
 62
     1
 10
265.0
 20
225.0
 11
265.0
 21
145.0
  0
LINE
  8
0
  6
CONTINUOUS
 62
     1
 10
265.0
 20
145.0
 11
270.0
 21
145.0
  0
LINE
  8
0
  6
CONTINUOUS
 62
     1
 10
242.5
 20
150.0
 11
242.5
 21
220.0
  0
LINE
  8
0
  6
CONTINUOUS
 62
     1
 10
182.5
 20
220.0
 11
182.5
 21
150.0
  0
ARC
  8
0
  6
CONTINUOUS
 62
     1
 10
182.5
 20
225.0
 40
5.0
 50
180.0
 51
270.0
  0
ARC
  8
0
  6
CONTINUOUS
 62
     1
 10
182.5
 20
145.0
 40
5.0
 50
90.0
 51
180.0
  0
ARC
  8
0
  6
CONTINUOUS
 62
     1
 10
242.5
 20
225.0
 40
5.0
 50
270.0
 51
0.0
  0
ARC
  8
0
  6
CONTINUOUS
 62
     1
 10
242.5
 20
145.0
 40
5.0
 50
0.0
 51
90.0
  0
LINE
  8
0
  6
CONTINUOUS
 62
     1
 10
241.5
 20
150.0
 11
241.5
 21
220.0
  0
LINE
  8
0
  6
CONTINUOUS
 62
     1
 10
182.5
 20
185.0
 11
241.5
 21
185.0
  0
LINE
  8
0
  6
CONTINUOUS
 62
     1
 10
182.5
 20
150.0
 11
241.5
 21
150.0
  0
LINE
  8
0
  6
CONTINUOUS
 62
     1
 10
241.5
 20
156.0
 11
242.5
 21
156.0
  0
LINE
  8
0
  6
CONTINUOUS
 62
     1
 10
241.5
 20
214.0
 11
242.5
 21
214.0
  0
CIRCLE
  8
0
  6
CONTINUOUS
 62
     1
 10
200.0
 20
178.922313782
 40
3.25
  0
CIRCLE
  8
0
  6
CONTINUOUS
 62
     1
 10
225.0
 20
178.922313782
 40
3.25
  0
POLYLINE
  8
0
  6
CONTINUOUS
 62
     1
 66
     1
 70
     1
  0
VERTEX
  8
0
  6
CONTINUOUS
 62
     1
 10
191.5
 20
202.5
 42
0.025187664
  0
VERTEX
  8
0
  6
CONTINUOUS
 62
     1
 10
191.484778792
 20
202.801916349
 42
0.025076847
  0
VERTEX
  8
0
  6
CONTINUOUS
 62
     1
 10
191.439231012
 20
203.101534933
 42
0.024845864
  0
VERTEX
  8
0
  6
CONTINUOUS
 62
     1
 10
191.363703305
 20
203.396575472
 42
0.024508071
  0
VERTEX
  8
0
  6
CONTINUOUS
 62
     1
 10
191.258770483
 20
203.684792531
 42
0.024082007
  0
VERTEX
  8
0
  6
CONTINUOUS
 62
     1
 10
191.125231148
 20
203.963992603
 42
0.023589414
  0
VERTEX
  8
0
  6
CONTINUOUS
 62
     1
 10
190.964101615
 20
204.232050808
 42
0.02305322
  0
VERTEX
  8
0
  6
CONTINUOUS
 62
     1
 10
190.776608177
 20
204.48692706
 42
0.022495771
  0
VERTEX
  8
0
  6
CONTINUOUS
 62
     1
 10
190.564177772
 20
204.726681597
 42
0.021937539
  0
VERTEX
  8
0
  6
CONTINUOUS
 62
     1
 10
190.328427125
 20
204.949489743
 42
0.021396316
  0
VERTEX
  8
0
  6
CONTINUOUS
 62
     1
 10
190.071150439
 20
205.153655793
 42
0.02088689
  0
VERTEX
  8
0
  6
CONTINUOUS
 62
     1
 10
189.794305745
 20
205.33762592
 42
0.020421065
  0
VERTEX
  8
0
  6
CONTINUOUS
 62
     1
 10
189.5
 20
205.5
 42
0.020007926
  0
VERTEX
  8
0
  6
CONTINUOUS
 62
     1
 10
189.190473047
 20
205.639542269
 42
0.019654221
  0
VERTEX
  8
0
  6
CONTINUOUS
 62
     1
 10
188.868080573
 20
205.755190725
 42
0.019364797
  0
VERTEX
  8
0
  6
CONTINUOUS
 62
     1
 10
188.53527618
 20
205.846065215
 42
0.019143001
  0
VERTEX
  8
0
  6
CONTINUOUS
 62
     1
 10
188.194592711
 20
205.911474128
 42
0.018991036
  0
VERTEX
  8
0
  6
CONTINUOUS
 62
     1
 10
187.848622971
 20
205.950919663
 42
0.018910232
  0
VERTEX
  8
0
  6
CONTINUOUS
 62
     1
 10
187.5
 20
205.964101615
 42
0.018901239
  0
VERTEX
  8
0
  6
CONTINUOUS
 62
     1
 10
187.151377029
 20
205.950919663
 42
0.018964128
  0
VERTEX
  8
0
  6
CONTINUOUS
 62
     1
 10
186.805407289
 20
205.911474128
 42
0.019098398
  0
VERTEX
  8
0
  6
CONTINUOUS
 62
     1
 10
186.46472382
 20
205.846065215
 42
0.019302905
  0
VERTEX
  8
0
  6
CONTINUOUS
 62
     1
 10
186.131919427
 20
205.755190725
 42
0.019575685
  0
VERTEX
  8
0
  6
CONTINUOUS
 62
     1
 10
185.809526953
 20
205.639542269
 42
0.019913709
  0
VERTEX
  8
0
  6
CONTINUOUS
 62
     1
 10
185.5
 20
205.5
 42
0.020312541
  0
VERTEX
  8
0
  6
CONTINUOUS
 62
     1
 10
185.205694255
 20
205.33762592
 42
0.020765948
  0
VERTEX
  8
0
  6
CONTINUOUS
 62
     1
 10
184.928849561
 20
205.153655793
 42
0.021265468
  0
VERTEX
  8
0
  6
CONTINUOUS
 62
     1
 10
184.671572875
 20
204.949489743
 42
0.021800009
  0
VERTEX
  8
0
  6
CONTINUOUS
 62
     1
 10
184.435822228
 20
204.726681597
 42
0.022355542
  0
VERTEX
  8
0
  6
CONTINUOUS
 62
     1
 10
184.223391823
 20
204.48692706
 42
0.022915011
  0
VERTEX
  8
0
  6
CONTINUOUS
 62
     1
 10
184.035898385
 20
204.232050808
 42
0.023458559
  0
VERTEX
  8
0
  6
CONTINUOUS
 62
     1
 10
183.874768852
 20
203.963992603
 42
0.023964205
  0
VERTEX
  8
0
  6
CONTINUOUS
 62
     1
 10
183.741229517
 20
203.684792531
 42
0.02440902
  0
VERTEX
  8
0
  6
CONTINUOUS
 62
     1
 10
183.636296695
 20
203.396575472
 42
0.02477078
  0
VERTEX
  8
0
  6
CONTINUOUS
 62
     1
 10
183.560768988
 20
203.101534933
 42
0.02502995
  0
VERTEX
  8
0
  6
CONTINUOUS
 62
     1
 10
183.515221208
 20
202.801916349
 42
0.025171713
  0
VERTEX
  8
0
  6
CONTINUOUS
 62
     1
 10
183.5
 20
202.5
 42
0.025187664
  0
VERTEX
  8
0
  6
CONTINUOUS
 62
     1
 10
183.515221208
 20
202.198083651
 42
0.025076847
  0
VERTEX
  8
0
  6
CONTINUOUS
 62
     1
 10
183.560768988
 20
201.898465067
 42
0.024845864
  0
VERTEX
  8
0
  6
CONTINUOUS
 62
     1
 10
183.636296695
 20
201.603424528
 42
0.024508071
  0
VERTEX
  8
0
  6
CONTINUOUS
 62
     1
 10
183.741229517
 20
201.315207469
 42
0.024082007
  0
VERTEX
  8
0
  6
CONTINUOUS
 62
     1
 10
183.874768852
 20
201.036007397
 42
0.023589414
  0
VERTEX
  8
0
  6
CONTINUOUS
 62
     1
 10
184.035898385
 20
200.767949192
 42
0.02305322
  0
VERTEX
  8
0
  6
CONTINUOUS
 62
     1
 10
184.223391823
 20
200.51307294
 42
0.022495771
  0
VERTEX
  8
0
  6
CONTINUOUS
 62
     1
 10
184.435822228
 20
200.273318403
 42
0.021937539
  0
VERTEX
  8
0
  6
CONTINUOUS
 62
     1
 10
184.671572875
 20
200.050510257
 42
0.021396316
  0
VERTEX
  8
0
  6
CONTINUOUS
 62
     1
 10
184.928849561
 20
199.846344207
 42
0.02088689
  0
VERTEX
  8
0
  6
CONTINUOUS
 62
     1
 10
185.205694255
 20
199.66237408
 42
0.020421065
  0
VERTEX
  8
0
  6
CONTINUOUS
 62
     1
 10
185.5
 20
199.5
 42
0.020007926
  0
VERTEX
  8
0
  6
CONTINUOUS
 62
     1
 10
185.809526953
 20
199.360457731
 42
0.019654221
  0
VERTEX
  8
0
  6
CONTINUOUS
 62
     1
 10
186.131919427
 20
199.244809275
 42
0.019364797
  0
VERTEX
  8
0
  6
CONTINUOUS
 62
     1
 10
186.46472382
 20
199.153934785
 42
0.019143001
  0
VERTEX
  8
0
  6
CONTINUOUS
 62
     1
 10
186.805407289
 20
199.088525872
 42
0.018991036
  0
VERTEX
  8
0
  6
CONTINUOUS
 62
     1
 10
187.151377029
 20
199.049080337
 42
0.018910232
  0
VERTEX
  8
0
  6
CONTINUOUS
 62
     1
 10
187.5
 20
199.035898385
 42
0.018901239
  0
VERTEX
  8
0
  6
CONTINUOUS
 62
     1
 10
187.848622971
 20
199.049080337
 42
0.018964128
  0
VERTEX
  8
0
  6
CONTINUOUS
 62
     1
 10
188.194592711
 20
199.088525872
 42
0.019098398
  0
VERTEX
  8
0
  6
CONTINUOUS
 62
     1
 10
188.53527618
 20
199.153934785
 42
0.019302905
  0
VERTEX
  8
0
  6
CONTINUOUS
 62
     1
 10
188.868080573
 20
199.244809275
 42
0.019575685
  0
VERTEX
  8
0
  6
CONTINUOUS
 62
     1
 10
189.190473047
 20
199.360457731
 42
0.019913709
  0
VERTEX
  8
0
  6
CONTINUOUS
 62
     1
 10
189.5
 20
199.5
 42
0.020312541
  0
VERTEX
  8
0
  6
CONTINUOUS
 62
     1
 10
189.794305745
 20
199.66237408
 42
0.020765948
  0
VERTEX
  8
0
  6
CONTINUOUS
 62
     1
 10
190.071150439
 20
199.846344207
 42
0.021265468
  0
VERTEX
  8
0
  6
CONTINUOUS
 62
     1
 10
190.328427125
 20
200.050510257
 42
0.021800009
  0
VERTEX
  8
0
  6
CONTINUOUS
 62
     1
 10
190.564177772
 20
200.273318403
 42
0.022355542
  0
VERTEX
  8
0
  6
CONTINUOUS
 62
     1
 10
190.776608177
 20
200.51307294
 42
0.022915011
  0
VERTEX
  8
0
  6
CONTINUOUS
 62
     1
 10
190.964101615
 20
200.767949192
 42
0.023458559
  0
VERTEX
  8
0
  6
CONTINUOUS
 62
     1
 10
191.125231148
 20
201.036007397
 42
0.023964205
  0
VERTEX
  8
0
  6
CONTINUOUS
 62
     1
 10
191.258770483
 20
201.315207469
 42
0.02440902
  0
VERTEX
  8
0
  6
CONTINUOUS
 62
     1
 10
191.363703305
 20
201.603424528
 42
0.02477078
  0
VERTEX
  8
0
  6
CONTINUOUS
 62
     1
 10
191.439231012
 20
201.898465067
 42
0.02502995
  0
VERTEX
  8
0
  6
CONTINUOUS
 62
     1
 10
191.484778792
 20
202.198083651
 42
0.025171713
  0
SEQEND
  8
0
  6
CONTINUOUS
 62
     1
  0
POLYLINE
  8
0
  6
CONTINUOUS
 62
     1
 66
     1
 70
     1
  0
VERTEX
  8
0
  6
CONTINUOUS
 62
     1
 10
201.75
 20
178.922313782
  0
VERTEX
  8
0
  6
CONTINUOUS
 62
     1
 10
200.875
 20
180.437858238
  0
VERTEX
  8
0
  6
CONTINUOUS
 62
     1
 10
199.125
 20
180.437858238
  0
VERTEX
  8
0
  6
CONTINUOUS
 62
     1
 10
198.25
 20
178.922313782
  0
VERTEX
  8
0
  6
CONTINUOUS
 62
     1
 10
199.125
 20
177.406769325
  0
VERTEX
  8
0
  6
CONTINUOUS
 62
     1
 10
200.875
 20
177.406769325
  0
SEQEND
  0
POLYLINE
  8
0
  6
CONTINUOUS
 62
     1
 66
     1
 70
     1
  0
VERTEX
  8
0
  6
CONTINUOUS
 62
     1
 10
226.75
 20
178.922313782
  0
VERTEX
  8
0
  6
CONTINUOUS
 62
     1
 10
225.875
 20
180.437858238
  0
VERTEX
  8
0
  6
CONTINUOUS
 62
     1
 10
224.125
 20
180.437858238
  0
VERTEX
  8
0
  6
CONTINUOUS
 62
     1
 10
223.25
 20
178.922313782
  0
VERTEX
  8
0
  6
CONTINUOUS
 62
     1
 10
224.125
 20
177.406769325
  0
VERTEX
  8
0
  6
CONTINUOUS
 62
     1
 10
225.875
 20
177.406769325
  0
SEQEND
  0
LINE
  8
0
  6
CONTINUOUS
 62
     1
 10
186.323
 20
204.119823596
 11
188.573
 21
204.119823596
  0
LINE
  8
0
  6
CONTINUOUS
 62
     1
 10
186.323
 20
200.742128038
 11
188.573
 21
200.742128038
  0
LINE
  8
0
  6
CONTINUOUS
 62
     1
 10
185.25
 20
202.5
 11
186.323
 21
204.119823596
  0
LINE
  8
0
  6
CONTINUOUS
 62
     1
 10
185.25
 20
202.5
 11
186.323
 21
200.742128038
  0
LINE
  8
0
  6
CONTINUOUS
 62
     1
 10
188.573
 20
200.742128038
 11
189.75
 21
202.5
  0
LINE
  8
0
  6
CONTINUOUS
 62
     1
 10
189.75
 20
202.5
 11
188.573
 21
204.119823596
  0
POLYLINE
  8
0
  6
CONTINUOUS
 62
     1
 66
     1
 70
     1
  0
VERTEX
  8
0
  6
CONTINUOUS
 62
     1
 10
191.5
 20
167.5
 42
0.025187664
  0
VERTEX
  8
0
  6
CONTINUOUS
 62
     1
 10
191.484778792
 20
167.801916349
 42
0.025076847
  0
VERTEX
  8
0
  6
CONTINUOUS
 62
     1
 10
191.439231012
 20
168.101534933
 42
0.024845864
  0
VERTEX
  8
0
  6
CONTINUOUS
 62
     1
 10
191.363703305
 20
168.396575472
 42
0.024508071
  0
VERTEX
  8
0
  6
CONTINUOUS
 62
     1
 10
191.258770483
 20
168.684792531
 42
0.024082007
  0
VERTEX
  8
0
  6
CONTINUOUS
 62
     1
 10
191.125231148
 20
168.963992603
 42
0.023589414
  0
VERTEX
  8
0
  6
CONTINUOUS
 62
     1
 10
190.964101615
 20
169.232050808
 42
0.02305322
  0
VERTEX
  8
0
  6
CONTINUOUS
 62
     1
 10
190.776608177
 20
169.48692706
 42
0.022495771
  0
VERTEX
  8
0
  6
CONTINUOUS
 62
     1
 10
190.564177772
 20
169.726681597
 42
0.021937539
  0
VERTEX
  8
0
  6
CONTINUOUS
 62
     1
 10
190.328427125
 20
169.949489743
 42
0.021396316
  0
VERTEX
  8
0
  6
CONTINUOUS
 62
     1
 10
190.071150439
 20
170.153655793
 42
0.02088689
  0
VERTEX
  8
0
  6
CONTINUOUS
 62
     1
 10
189.794305745
 20
170.33762592
 42
0.020421065
  0
VERTEX
  8
0
  6
CONTINUOUS
 62
     1
 10
189.5
 20
170.5
 42
0.020007926
  0
VERTEX
  8
0
  6
CONTINUOUS
 62
     1
 10
189.190473047
 20
170.639542269
 42
0.019654221
  0
VERTEX
  8
0
  6
CONTINUOUS
 62
     1
 10
188.868080573
 20
170.755190725
 42
0.019364797
  0
VERTEX
  8
0
  6
CONTINUOUS
 62
     1
 10
188.53527618
 20
170.846065215
 42
0.019143001
  0
VERTEX
  8
0
  6
CONTINUOUS
 62
     1
 10
188.194592711
 20
170.911474128
 42
0.018991036
  0
VERTEX
  8
0
  6
CONTINUOUS
 62
     1
 10
187.848622971
 20
170.950919663
 42
0.018910232
  0
VERTEX
  8
0
  6
CONTINUOUS
 62
     1
 10
187.5
 20
170.964101615
 42
0.018901239
  0
VERTEX
  8
0
  6
CONTINUOUS
 62
     1
 10
187.151377029
 20
170.950919663
 42
0.018964128
  0
VERTEX
  8
0
  6
CONTINUOUS
 62
     1
 10
186.805407289
 20
170.911474128
 42
0.019098398
  0
VERTEX
  8
0
  6
CONTINUOUS
 62
     1
 10
186.46472382
 20
170.846065215
 42
0.019302905
  0
VERTEX
  8
0
  6
CONTINUOUS
 62
     1
 10
186.131919427
 20
170.755190725
 42
0.019575685
  0
VERTEX
  8
0
  6
CONTINUOUS
 62
     1
 10
185.809526953
 20
170.639542269
 42
0.019913709
  0
VERTEX
  8
0
  6
CONTINUOUS
 62
     1
 10
185.5
 20
170.5
 42
0.020312541
  0
VERTEX
  8
0
  6
CONTINUOUS
 62
     1
 10
185.205694255
 20
170.33762592
 42
0.020765948
  0
VERTEX
  8
0
  6
CONTINUOUS
 62
     1
 10
184.928849561
 20
170.153655793
 42
0.021265468
  0
VERTEX
  8
0
  6
CONTINUOUS
 62
     1
 10
184.671572875
 20
169.949489743
 42
0.021800009
  0
VERTEX
  8
0
  6
CONTINUOUS
 62
     1
 10
184.435822228
 20
169.726681597
 42
0.022355542
  0
VERTEX
  8
0
  6
CONTINUOUS
 62
     1
 10
184.223391823
 20
169.48692706
 42
0.022915011
  0
VERTEX
  8
0
  6
CONTINUOUS
 62
     1
 10
184.035898385
 20
169.232050808
 42
0.023458559
  0
VERTEX
  8
0
  6
CONTINUOUS
 62
     1
 10
183.874768852
 20
168.963992603
 42
0.023964205
  0
VERTEX
  8
0
  6
CONTINUOUS
 62
     1
 10
183.741229517
 20
168.684792531
 42
0.02440902
  0
VERTEX
  8
0
  6
CONTINUOUS
 62
     1
 10
183.636296695
 20
168.396575472
 42
0.02477078
  0
VERTEX
  8
0
  6
CONTINUOUS
 62
     1
 10
183.560768988
 20
168.101534933
 42
0.02502995
  0
VERTEX
  8
0
  6
CONTINUOUS
 62
     1
 10
183.515221208
 20
167.801916349
 42
0.025171713
  0
VERTEX
  8
0
  6
CONTINUOUS
 62
     1
 10
183.5
 20
167.5
 42
0.025187664
  0
VERTEX
  8
0
  6
CONTINUOUS
 62
     1
 10
183.515221208
 20
167.198083651
 42
0.025076847
  0
VERTEX
  8
0
  6
CONTINUOUS
 62
     1
 10
183.560768988
 20
166.898465067
 42
0.024845864
  0
VERTEX
  8
0
  6
CONTINUOUS
 62
     1
 10
183.636296695
 20
166.603424528
 42
0.024508071
  0
VERTEX
  8
0
  6
CONTINUOUS
 62
     1
 10
183.741229517
 20
166.315207469
 42
0.024082007
  0
VERTEX
  8
0
  6
CONTINUOUS
 62
     1
 10
183.874768852
 20
166.036007397
 42
0.023589414
  0
VERTEX
  8
0
  6
CONTINUOUS
 62
     1
 10
184.035898385
 20
165.767949192
 42
0.02305322
  0
VERTEX
  8
0
  6
CONTINUOUS
 62
     1
 10
184.223391823
 20
165.51307294
 42
0.022495771
  0
VERTEX
  8
0
  6
CONTINUOUS
 62
     1
 10
184.435822228
 20
165.273318403
 42
0.021937539
  0
VERTEX
  8
0
  6
CONTINUOUS
 62
     1
 10
184.671572875
 20
165.050510257
 42
0.021396316
  0
VERTEX
  8
0
  6
CONTINUOUS
 62
     1
 10
184.928849561
 20
164.846344207
 42
0.02088689
  0
VERTEX
  8
0
  6
CONTINUOUS
 62
     1
 10
185.205694255
 20
164.66237408
 42
0.020421065
  0
VERTEX
  8
0
  6
CONTINUOUS
 62
     1
 10
185.5
 20
164.5
 42
0.020007926
  0
VERTEX
  8
0
  6
CONTINUOUS
 62
     1
 10
185.809526953
 20
164.360457731
 42
0.019654221
  0
VERTEX
  8
0
  6
CONTINUOUS
 62
     1
 10
186.131919427
 20
164.244809275
 42
0.019364797
  0
VERTEX
  8
0
  6
CONTINUOUS
 62
     1
 10
186.46472382
 20
164.153934785
 42
0.019143001
  0
VERTEX
  8
0
  6
CONTINUOUS
 62
     1
 10
186.805407289
 20
164.088525872
 42
0.018991036
  0
VERTEX
  8
0
  6
CONTINUOUS
 62
     1
 10
187.151377029
 20
164.049080337
 42
0.018910232
  0
VERTEX
  8
0
  6
CONTINUOUS
 62
     1
 10
187.5
 20
164.035898385
 42
0.018901239
  0
VERTEX
  8
0
  6
CONTINUOUS
 62
     1
 10
187.848622971
 20
164.049080337
 42
0.018964128
  0
VERTEX
  8
0
  6
CONTINUOUS
 62
     1
 10
188.194592711
 20
164.088525872
 42
0.019098398
  0
VERTEX
  8
0
  6
CONTINUOUS
 62
     1
 10
188.53527618
 20
164.153934785
 42
0.019302905
  0
VERTEX
  8
0
  6
CONTINUOUS
 62
     1
 10
188.868080573
 20
164.244809275
 42
0.019575685
  0
VERTEX
  8
0
  6
CONTINUOUS
 62
     1
 10
189.190473047
 20
164.360457731
 42
0.019913709
  0
VERTEX
  8
0
  6
CONTINUOUS
 62
     1
 10
189.5
 20
164.5
 42
0.020312541
  0
VERTEX
  8
0
  6
CONTINUOUS
 62
     1
 10
189.794305745
 20
164.66237408
 42
0.020765948
  0
VERTEX
  8
0
  6
CONTINUOUS
 62
     1
 10
190.071150439
 20
164.846344207
 42
0.021265468
  0
VERTEX
  8
0
  6
CONTINUOUS
 62
     1
 10
190.328427125
 20
165.050510257
 42
0.021800009
  0
VERTEX
  8
0
  6
CONTINUOUS
 62
     1
 10
190.564177772
 20
165.273318403
 42
0.022355542
  0
VERTEX
  8
0
  6
CONTINUOUS
 62
     1
 10
190.776608177
 20
165.51307294
 42
0.022915011
  0
VERTEX
  8
0
  6
CONTINUOUS
 62
     1
 10
190.964101615
 20
165.767949192
 42
0.023458559
  0
VERTEX
  8
0
  6
CONTINUOUS
 62
     1
 10
191.125231148
 20
166.036007397
 42
0.023964205
  0
VERTEX
  8
0
  6
CONTINUOUS
 62
     1
 10
191.258770483
 20
166.315207469
 42
0.02440902
  0
VERTEX
  8
0
  6
CONTINUOUS
 62
     1
 10
191.363703305
 20
166.603424528
 42
0.02477078
  0
VERTEX
  8
0
  6
CONTINUOUS
 62
     1
 10
191.439231012
 20
166.898465067
 42
0.02502995
  0
VERTEX
  8
0
  6
CONTINUOUS
 62
     1
 10
191.484778792
 20
167.198083651
 42
0.025171713
  0
SEQEND
  8
0
  6
CONTINUOUS
 62
     1
  0
LINE
  8
0
  6
CONTINUOUS
 62
     1
 10
186.323
 20
169.119823596
 11
188.573
 21
169.119823596
  0
LINE
  8
0
  6
CONTINUOUS
 62
     1
 10
186.323
 20
165.742128038
 11
188.573
 21
165.742128038
  0
LINE
  8
0
  6
CONTINUOUS
 62
     1
 10
185.25
 20
167.5
 11
186.323
 21
169.119823596
  0
LINE
  8
0
  6
CONTINUOUS
 62
     1
 10
185.25
 20
167.5
 11
186.323
 21
165.742128038
  0
LINE
  8
0
  6
CONTINUOUS
 62
     1
 10
188.573
 20
165.742128038
 11
189.75
 21
167.5
  0
LINE
  8
0
  6
CONTINUOUS
 62
     1
 10
189.75
 20
167.5
 11
188.573
 21
169.119823596
  0
LINE
  8
0
  6
CONTINUOUS
 62
     1
 10
182.5
 20
185.0
 11
241.5
 21
185.0
  0
LINE
  8
0
  6
CONTINUOUS
 62
     1
 10
201.5
 20
230.0
 11
223.5
 21
230.0
  0
LINE
  8
0
  6
CONTINUOUS
 62
     1
 10
223.5
 20
230.0
 11
223.5
 21
218.226495452
  0
LINE
  8
0
  6
CONTINUOUS
 62
     1
 10
201.5
 20
230.0
 11
201.5
 21
218.226495452
  0
LINE
  8
0
  6
CONTINUOUS
 62
     1
 10
202.5
 20
218.226495452
 11
222.5
 21
218.226495452
  0
LINE
  8
0
  6
CONTINUOUS
 62
     1
 10
201.5
 20
220.0
 11
182.5
 21
220.0
  0
LINE
  8
0
  6
CONTINUOUS
 62
     1
 10
241.5
 20
220.0
 11
223.5
 21
220.0
  0
LINE
  8
0
  6
CONTINUOUS
 62
     1
 10
204.5
 20
242.5
 11
220.5
 21
242.5
  0
LINE
  8
0
  6
CONTINUOUS
 62
     1
 10
202.0
 20
231.5
 11
223.0
 21
231.5
  0
LINE
  8
0
  6
CONTINUOUS
 62
     1
 10
202.0
 20
230.0
 11
223.0
 21
230.0
  0
LINE
  8
0
  6
CONTINUOUS
 62
     1
 10
223.0
 20
231.5
 11
223.0
 21
230.0
  0
LINE
  8
0
  6
CONTINUOUS
 62
     1
 10
202.0
 20
231.5
 11
202.0
 21
230.0
  0
ARC
  8
0
  6
CONTINUOUS
 62
     1
 10
204.5
 20
231.3975
 40
2.1025
 50
2.794362055
 51
177.205637945
  0
ARC
  8
0
  6
CONTINUOUS
 62
     1
 10
220.5
 20
231.3975
 40
2.1025
 50
2.794362055
 51
177.205637945
  0
LINE
  8
0
  6
CONTINUOUS
 62
     1
 10
204.5
 20
242.5
 11
204.5
 21
233.5
  0
LINE
  8
0
  6
CONTINUOUS
 62
     1
 10
220.5
 20
242.5
 11
220.5
 21
233.5
  0
POLYLINE
  8
0
  6
CONTINUOUS
 62
     2
 66
     1
  0
VERTEX
  8
0
  6
CONTINUOUS
 62
     2
 10
270.0
 20
235.0
  0
VERTEX
  8
0
  6
CONTINUOUS
 62
     2
 10
269.132
 20
234.908
  0
VERTEX
  8
0
  6
CONTINUOUS
 62
     2
 10
268.256
 20
234.764
  0
VERTEX
  8
0
  6
CONTINUOUS
 62
     2
 10
267.364
 20
234.516
  0
VERTEX
  8
0
  6
CONTINUOUS
 62
     2
 10
266.448
 20
234.112
  0
VERTEX
  8
0
  6
CONTINUOUS
 62
     2
 10
265.5
 20
233.5
  0
VERTEX
  8
0
  6
CONTINUOUS
 62
     2
 10
264.272
 20
232.324
  0
VERTEX
  8
0
  6
CONTINUOUS
 62
     2
 10
263.056
 20
230.912
  0
VERTEX
  8
0
  6
CONTINUOUS
 62
     2
 10
261.904
 20
229.288
  0
VERTEX
  8
0
  6
CONTINUOUS
 62
     2
 10
260.868
 20
227.476
  0
VERTEX
  8
0
  6
CONTINUOUS
 62
     2
 10
260.0
 20
225.5
  0
VERTEX
  8
0
  6
CONTINUOUS
 62
     2
 10
259.816
 20
223.512
  0
VERTEX
  8
0
  6
CONTINUOUS
 62
     2
 10
259.788
 20
221.376
  0
VERTEX
  8
0
  6
CONTINUOUS
 62
     2
 10
259.852
 20
219.084
  0
VERTEX
  8
0
  6
CONTINUOUS
 62
     2
 10
259.944
 20
216.628
  0
VERTEX
  8
0
  6
CONTINUOUS
 62
     2
 10
260.0
 20
214.0
  0
VERTEX
  8
0
  6
CONTINUOUS
 62
     2
 10
259.54
 20
210.984
  0
VERTEX
  8
0
  6
CONTINUOUS
 62
     2
 10
259.02
 20
207.832
  0
VERTEX
  8
0
  6
CONTINUOUS
 62
     2
 10
258.48
 20
204.588
  0
VERTEX
  8
0
  6
CONTINUOUS
 62
     2
 10
257.96
 20
201.296
  0
VERTEX
  8
0
  6
CONTINUOUS
 62
     2
 10
257.5
 20
198.0
  0
VERTEX
  8
0
  6
CONTINUOUS
 62
     2
 10
257.38
 20
194.84
  0
VERTEX
  8
0
  6
CONTINUOUS
 62
     2
 10
257.34
 20
191.74
  0
VERTEX
  8
0
  6
CONTINUOUS
 62
     2
 10
257.36
 20
188.72
  0
VERTEX
  8
0
  6
CONTINUOUS
 62
     2
 10
257.42
 20
185.8
  0
VERTEX
  8
0
  6
CONTINUOUS
 62
     2
 10
257.5
 20
183.0
  0
VERTEX
  8
0
  6
CONTINUOUS
 62
     2
 10
257.452
 20
180.548
  0
VERTEX
  8
0
  6
CONTINUOUS
 62
     2
 10
257.416
 20
178.204
  0
VERTEX
  8
0
  6
CONTINUOUS
 62
     2
 10
257.404
 20
175.936
  0
VERTEX
  8
0
  6
CONTINUOUS
 62
     2
 10
257.428
 20
173.712
  0
VERTEX
  8
0
  6
CONTINUOUS
 62
     2
 10
257.5
 20
171.5
  0
VERTEX
  8
0
  6
CONTINUOUS
 62
     2
 10
257.744
 20
169.124
  0
VERTEX
  8
0
  6
CONTINUOUS
 62
     2
 10
258.032
 20
166.732
  0
VERTEX
  8
0
  6
CONTINUOUS
 62
     2
 10
258.348
 20
164.328
  0
VERTEX
  8
0
  6
CONTINUOUS
 62
     2
 10
258.676
 20
161.916
  0
VERTEX
  8
0
  6
CONTINUOUS
 62
     2
 10
259.0
 20
159.5
  0
VERTEX
  8
0
  6
CONTINUOUS
 62
     2
 10
259.064
 20
156.972
  0
VERTEX
  8
0
  6
CONTINUOUS
 62
     2
 10
259.152
 20
154.476
  0
VERTEX
  8
0
  6
CONTINUOUS
 62
     2
 10
259.308
 20
152.044
  0
VERTEX
  8
0
  6
CONTINUOUS
 62
     2
 10
259.576
 20
149.708
  0
VERTEX
  8
0
  6
CONTINUOUS
 62
     2
 10
260.0
 20
147.5
  0
VERTEX
  8
0
  6
CONTINUOUS
 62
     2
 10
261.024
 20
145.596
  0
VERTEX
  8
0
  6
CONTINUOUS
 62
     2
 10
262.192
 20
143.848
  0
VERTEX
  8
0
  6
CONTINUOUS
 62
     2
 10
263.448
 20
142.252
  0
VERTEX
  8
0
  6
CONTINUOUS
 62
     2
 10
264.736
 20
140.804
  0
VERTEX
  8
0
  6
CONTINUOUS
 62
     2
 10
266.0
 20
139.5
  0
VERTEX
  8
0
  6
CONTINUOUS
 62
     2
 10
266.896
 20
138.432
  0
VERTEX
  8
0
  6
CONTINUOUS
 62
     2
 10
267.728
 20
137.476
  0
VERTEX
  8
0
  6
CONTINUOUS
 62
     2
 10
268.512
 20
136.604
  0
VERTEX
  8
0
  6
CONTINUOUS
 62
     2
 10
269.264
 20
135.788
  0
VERTEX
  8
0
  6
CONTINUOUS
 62
     2
 10
270.0
 20
135.0
  0
SEQEND
  0
LINE
  8
0
  6
CONTINUOUS
 62
     1
 10
265.0
 20
202.55
 11
258.158080194
 21
202.55
  0
LINE
  8
0
  6
CONTINUOUS
 62
     1
 10
265.0
 20
167.45
 11
257.945551839
 21
167.45
  0
LINE
  8
0
  6
LTYPE3
 62
     2
 10
183.0
 20
202.5
 11
192.0
 21
202.5
  0
LINE
  8
0
  6
LTYPE3
 62
     2
 10
187.5
 20
206.5
 11
187.5
 21
198.5
  0
LINE
  8
0
  6
LTYPE3
 62
     2
 10
183.0
 20
167.5
 11
192.0
 21
167.5
  0
LINE
  8
0
  6
LTYPE3
 62
     2
 10
187.5
 20
171.464101615
 11
187.5
 21
163.535898385
  0
LINE
  8
0
  6
LTYPE3
 62
     2
 10
196.25
 20
178.922313782
 11
203.75
 21
178.922313782
  0
LINE
  8
0
  6
LTYPE3
 62
     2
 10
200.0
 20
182.922313782
 11
200.0
 21
174.922313782
  0
LINE
  8
0
  6
LTYPE3
 62
     2
 10
228.75
 20
178.922313782
 11
221.25
 21
178.922313782
  0
LINE
  8
0
  6
LTYPE3
 62
     2
 10
225.0
 20
182.922313782
 11
225.0
 21
174.922313782
  0
LINE
  8
0
  6
LTYPE3
 62
     2
 10
204.5
 20
233.5
 11
204.5
 21
228.5
  0
LINE
  8
0
  6
LTYPE3
 62
     2
 10
220.5
 20
233.5
 11
220.5
 21
228.5
  0
LINE
  8
0
  6
LTYPE3
 62
     2
 10
212.5
 20
213.3
 11
212.5
 21
246.5
  0
LINE
  8
0
  6
LTYPE3
 62
     2
 10
276.0
 20
185.0
 11
145.0
 21
185.0
  0
POLYLINE
  8
0
  6
CONTINUOUS
 62
     1
 66
     1
 70
     1
  0
VERTEX
  8
0
  6
CONTINUOUS
 62
     1
 10
191.0
 20
202.5
 42
0.025187664
  0
VERTEX
  8
0
  6
CONTINUOUS
 62
     1
 10
190.986681443
 20
202.764176806
 42
0.025076847
  0
VERTEX
  8
0
  6
CONTINUOUS
 62
     1
 10
190.946827136
 20
203.026343066
 42
0.024845864
  0
VERTEX
  8
0
  6
CONTINUOUS
 62
     1
 10
190.880740392
 20
203.284503538
 42
0.024508071
  0
VERTEX
  8
0
  6
CONTINUOUS
 62
     1
 10
190.788924173
 20
203.536693465
 42
0.024082007
  0
VERTEX
  8
0
  6
CONTINUOUS
 62
     1
 10
190.672077255
 20
203.780993528
 42
0.023589414
  0
VERTEX
  8
0
  6
CONTINUOUS
 62
     1
 10
190.531088913
 20
204.015544457
 42
0.02305322
  0
VERTEX
  8
0
  6
CONTINUOUS
 62
     1
 10
190.367032155
 20
204.238561177
 42
0.022495771
  0
VERTEX
  8
0
  6
CONTINUOUS
 62
     1
 10
190.181155551
 20
204.448346397
 42
0.021937539
  0
VERTEX
  8
0
  6
CONTINUOUS
 62
     1
 10
189.974873734
 20
204.643303525
 42
0.021396316
  0
VERTEX
  8
0
  6
CONTINUOUS
 62
     1
 10
189.749756634
 20
204.821948819
 42
0.02088689
  0
VERTEX
  8
0
  6
CONTINUOUS
 62
     1
 10
189.507517527
 20
204.98292268
 42
0.020421065
  0
VERTEX
  8
0
  6
CONTINUOUS
 62
     1
 10
189.25
 20
205.125
 42
0.020007926
  0
VERTEX
  8
0
  6
CONTINUOUS
 62
     1
 10
188.979163916
 20
205.247099485
 42
0.019654221
  0
VERTEX
  8
0
  6
CONTINUOUS
 62
     1
 10
188.697070502
 20
205.348291885
 42
0.019364797
  0
VERTEX
  8
0
  6
CONTINUOUS
 62
     1
 10
188.405866658
 20
205.427807063
 42
0.019143001
  0
VERTEX
  8
0
  6
CONTINUOUS
 62
     1
 10
188.107768622
 20
205.485039862
 42
0.018991036
  0
VERTEX
  8
0
  6
CONTINUOUS
 62
     1
 10
187.8050451
 20
205.519554705
 42
0.018910232
  0
VERTEX
  8
0
  6
CONTINUOUS
 62
     1
 10
187.5
 20
205.531088913
 42
0.018901239
  0
VERTEX
  8
0
  6
CONTINUOUS
 62
     1
 10
187.1949549
 20
205.519554705
 42
0.018964128
  0
VERTEX
  8
0
  6
CONTINUOUS
 62
     1
 10
186.892231378
 20
205.485039862
 42
0.019098398
  0
VERTEX
  8
0
  6
CONTINUOUS
 62
     1
 10
186.594133342
 20
205.427807063
 42
0.019302905
  0
VERTEX
  8
0
  6
CONTINUOUS
 62
     1
 10
186.302929498
 20
205.348291885
 42
0.019575685
  0
VERTEX
  8
0
  6
CONTINUOUS
 62
     1
 10
186.020836084
 20
205.247099485
 42
0.019913709
  0
VERTEX
  8
0
  6
CONTINUOUS
 62
     1
 10
185.75
 20
205.125
 42
0.020312541
  0
VERTEX
  8
0
  6
CONTINUOUS
 62
     1
 10
185.492482473
 20
204.98292268
 42
0.020765948
  0
VERTEX
  8
0
  6
CONTINUOUS
 62
     1
 10
185.250243366
 20
204.821948819
 42
0.021265468
  0
VERTEX
  8
0
  6
CONTINUOUS
 62
     1
 10
185.025126266
 20
204.643303525
 42
0.021800009
  0
VERTEX
  8
0
  6
CONTINUOUS
 62
     1
 10
184.818844449
 20
204.448346397
 42
0.022355542
  0
VERTEX
  8
0
  6
CONTINUOUS
 62
     1
 10
184.632967845
 20
204.238561177
 42
0.022915011
  0
VERTEX
  8
0
  6
CONTINUOUS
 62
     1
 10
184.468911087
 20
204.015544457
 42
0.023458559
  0
VERTEX
  8
0
  6
CONTINUOUS
 62
     1
 10
184.327922745
 20
203.780993528
 42
0.023964205
  0
VERTEX
  8
0
  6
CONTINUOUS
 62
     1
 10
184.211075827
 20
203.536693465
 42
0.02440902
  0
VERTEX
  8
0
  6
CONTINUOUS
 62
     1
 10
184.119259608
 20
203.284503538
 42
0.02477078
  0
VERTEX
  8
0
  6
CONTINUOUS
 62
     1
 10
184.053172864
 20
203.026343066
 42
0.02502995
  0
VERTEX
  8
0
  6
CONTINUOUS
 62
     1
 10
184.013318557
 20
202.764176806
 42
0.025171713
  0
VERTEX
  8
0
  6
CONTINUOUS
 62
     1
 10
184.0
 20
202.5
 42
0.025187664
  0
VERTEX
  8
0
  6
CONTINUOUS
 62
     1
 10
184.013318557
 20
202.235823194
 42
0.025076847
  0
VERTEX
  8
0
  6
CONTINUOUS
 62
     1
 10
184.053172864
 20
201.973656934
 42
0.024845864
  0
VERTEX
  8
0
  6
CONTINUOUS
 62
     1
 10
184.119259608
 20
201.715496462
 42
0.024508071
  0
VERTEX
  8
0
  6
CONTINUOUS
 62
     1
 10
184.211075827
 20
201.463306535
 42
0.024082007
  0
VERTEX
  8
0
  6
CONTINUOUS
 62
     1
 10
184.327922745
 20
201.219006472
 42
0.023589414
  0
VERTEX
  8
0
  6
CONTINUOUS
 62
     1
 10
184.468911087
 20
200.984455543
 42
0.02305322
  0
VERTEX
  8
0
  6
CONTINUOUS
 62
     1
 10
184.632967845
 20
200.761438823
 42
0.022495771
  0
VERTEX
  8
0
  6
CONTINUOUS
 62
     1
 10
184.818844449
 20
200.551653603
 42
0.021937539
  0
VERTEX
  8
0
  6
CONTINUOUS
 62
     1
 10
185.025126266
 20
200.356696475
 42
0.021396316
  0
VERTEX
  8
0
  6
CONTINUOUS
 62
     1
 10
185.250243366
 20
200.178051181
 42
0.02088689
  0
VERTEX
  8
0
  6
CONTINUOUS
 62
     1
 10
185.492482473
 20
200.01707732
 42
0.020421065
  0
VERTEX
  8
0
  6
CONTINUOUS
 62
     1
 10
185.75
 20
199.875
 42
0.020007926
  0
VERTEX
  8
0
  6
CONTINUOUS
 62
     1
 10
186.020836084
 20
199.752900515
 42
0.019654221
  0
VERTEX
  8
0
  6
CONTINUOUS
 62
     1
 10
186.302929498
 20
199.651708115
 42
0.019364797
  0
VERTEX
  8
0
  6
CONTINUOUS
 62
     1
 10
186.594133342
 20
199.572192937
 42
0.019143001
  0
VERTEX
  8
0
  6
CONTINUOUS
 62
     1
 10
186.892231378
 20
199.514960138
 42
0.018991036
  0
VERTEX
  8
0
  6
CONTINUOUS
 62
     1
 10
187.1949549
 20
199.480445295
 42
0.018910232
  0
VERTEX
  8
0
  6
CONTINUOUS
 62
     1
 10
187.5
 20
199.468911087
 42
0.018901239
  0
VERTEX
  8
0
  6
CONTINUOUS
 62
     1
 10
187.8050451
 20
199.480445295
 42
0.018964128
  0
VERTEX
  8
0
  6
CONTINUOUS
 62
     1
 10
188.107768622
 20
199.514960138
 42
0.019098398
  0
VERTEX
  8
0
  6
CONTINUOUS
 62
     1
 10
188.405866658
 20
199.572192937
 42
0.019302905
  0
VERTEX
  8
0
  6
CONTINUOUS
 62
     1
 10
188.697070502
 20
199.651708115
 42
0.019575685
  0
VERTEX
  8
0
  6
CONTINUOUS
 62
     1
 10
188.979163916
 20
199.752900515
 42
0.019913709
  0
VERTEX
  8
0
  6
CONTINUOUS
 62
     1
 10
189.25
 20
199.875
 42
0.020312541
  0
VERTEX
  8
0
  6
CONTINUOUS
 62
     1
 10
189.507517527
 20
200.01707732
 42
0.020765948
  0
VERTEX
  8
0
  6
CONTINUOUS
 62
     1
 10
189.749756634
 20
200.178051181
 42
0.021265468
  0
VERTEX
  8
0
  6
CONTINUOUS
 62
     1
 10
189.974873734
 20
200.356696475
 42
0.021800009
  0
VERTEX
  8
0
  6
CONTINUOUS
 62
     1
 10
190.181155551
 20
200.551653603
 42
0.022355542
  0
VERTEX
  8
0
  6
CONTINUOUS
 62
     1
 10
190.367032155
 20
200.761438823
 42
0.022915011
  0
VERTEX
  8
0
  6
CONTINUOUS
 62
     1
 10
190.531088913
 20
200.984455543
 42
0.023458559
  0
VERTEX
  8
0
  6
CONTINUOUS
 62
     1
 10
190.672077255
 20
201.219006472
 42
0.023964205
  0
VERTEX
  8
0
  6
CONTINUOUS
 62
     1
 10
190.788924173
 20
201.463306535
 42
0.02440902
  0
VERTEX
  8
0
  6
CONTINUOUS
 62
     1
 10
190.880740392
 20
201.715496462
 42
0.02477078
  0
VERTEX
  8
0
  6
CONTINUOUS
 62
     1
 10
190.946827136
 20
201.973656934
 42
0.02502995
  0
VERTEX
  8
0
  6
CONTINUOUS
 62
     1
 10
190.986681443
 20
202.235823194
 42
0.025171713
  0
SEQEND
  8
0
  6
CONTINUOUS
 62
     1
  0
CIRCLE
  8
0
  6
CONTINUOUS
 62
     1
 10
200.0
 20
178.922313782
 40
2.75
  0
CIRCLE
  8
0
  6
CONTINUOUS
 62
     1
 10
225.0
 20
178.922313782
 40
2.75
  0
POLYLINE
  8
0
  6
CONTINUOUS
 62
     1
 66
     1
 70
     1
  0
VERTEX
  8
0
  6
CONTINUOUS
 62
     1
 10
191.0
 20
167.5
 42
0.025187664
  0
VERTEX
  8
0
  6
CONTINUOUS
 62
     1
 10
190.986681443
 20
167.764176806
 42
0.025076847
  0
VERTEX
  8
0
  6
CONTINUOUS
 62
     1
 10
190.946827136
 20
168.026343066
 42
0.024845864
  0
VERTEX
  8
0
  6
CONTINUOUS
 62
     1
 10
190.880740392
 20
168.284503538
 42
0.024508071
  0
VERTEX
  8
0
  6
CONTINUOUS
 62
     1
 10
190.788924173
 20
168.536693465
 42
0.024082007
  0
VERTEX
  8
0
  6
CONTINUOUS
 62
     1
 10
190.672077255
 20
168.780993528
 42
0.023589414
  0
VERTEX
  8
0
  6
CONTINUOUS
 62
     1
 10
190.531088913
 20
169.015544457
 42
0.02305322
  0
VERTEX
  8
0
  6
CONTINUOUS
 62
     1
 10
190.367032155
 20
169.238561177
 42
0.022495771
  0
VERTEX
  8
0
  6
CONTINUOUS
 62
     1
 10
190.181155551
 20
169.448346397
 42
0.021937539
  0
VERTEX
  8
0
  6
CONTINUOUS
 62
     1
 10
189.974873734
 20
169.643303525
 42
0.021396316
  0
VERTEX
  8
0
  6
CONTINUOUS
 62
     1
 10
189.749756634
 20
169.821948819
 42
0.02088689
  0
VERTEX
  8
0
  6
CONTINUOUS
 62
     1
 10
189.507517527
 20
169.98292268
 42
0.020421065
  0
VERTEX
  8
0
  6
CONTINUOUS
 62
     1
 10
189.25
 20
170.125
 42
0.020007926
  0
VERTEX
  8
0
  6
CONTINUOUS
 62
     1
 10
188.979163916
 20
170.247099485
 42
0.019654221
  0
VERTEX
  8
0
  6
CONTINUOUS
 62
     1
 10
188.697070502
 20
170.348291885
 42
0.019364797
  0
VERTEX
  8
0
  6
CONTINUOUS
 62
     1
 10
188.405866658
 20
170.427807063
 42
0.019143001
  0
VERTEX
  8
0
  6
CONTINUOUS
 62
     1
 10
188.107768622
 20
170.485039862
 42
0.018991036
  0
VERTEX
  8
0
  6
CONTINUOUS
 62
     1
 10
187.8050451
 20
170.519554705
 42
0.018910232
  0
VERTEX
  8
0
  6
CONTINUOUS
 62
     1
 10
187.5
 20
170.531088913
 42
0.018901239
  0
VERTEX
  8
0
  6
CONTINUOUS
 62
     1
 10
187.1949549
 20
170.519554705
 42
0.018964128
  0
VERTEX
  8
0
  6
CONTINUOUS
 62
     1
 10
186.892231378
 20
170.485039862
 42
0.019098398
  0
VERTEX
  8
0
  6
CONTINUOUS
 62
     1
 10
186.594133342
 20
170.427807063
 42
0.019302905
  0
VERTEX
  8
0
  6
CONTINUOUS
 62
     1
 10
186.302929498
 20
170.348291885
 42
0.019575685
  0
VERTEX
  8
0
  6
CONTINUOUS
 62
     1
 10
186.020836084
 20
170.247099485
 42
0.019913709
  0
VERTEX
  8
0
  6
CONTINUOUS
 62
     1
 10
185.75
 20
170.125
 42
0.020312541
  0
VERTEX
  8
0
  6
CONTINUOUS
 62
     1
 10
185.492482473
 20
169.98292268
 42
0.020765948
  0
VERTEX
  8
0
  6
CONTINUOUS
 62
     1
 10
185.250243366
 20
169.821948819
 42
0.021265468
  0
VERTEX
  8
0
  6
CONTINUOUS
 62
     1
 10
185.025126266
 20
169.643303525
 42
0.021800009
  0
VERTEX
  8
0
  6
CONTINUOUS
 62
     1
 10
184.818844449
 20
169.448346397
 42
0.022355542
  0
VERTEX
  8
0
  6
CONTINUOUS
 62
     1
 10
184.632967845
 20
169.238561177
 42
0.022915011
  0
VERTEX
  8
0
  6
CONTINUOUS
 62
     1
 10
184.468911087
 20
169.015544457
 42
0.023458559
  0
VERTEX
  8
0
  6
CONTINUOUS
 62
     1
 10
184.327922745
 20
168.780993528
 42
0.023964205
  0
VERTEX
  8
0
  6
CONTINUOUS
 62
     1
 10
184.211075827
 20
168.536693465
 42
0.02440902
  0
VERTEX
  8
0
  6
CONTINUOUS
 62
     1
 10
184.119259608
 20
168.284503538
 42
0.02477078
  0
VERTEX
  8
0
  6
CONTINUOUS
 62
     1
 10
184.053172864
 20
168.026343066
 42
0.02502995
  0
VERTEX
  8
0
  6
CONTINUOUS
 62
     1
 10
184.013318557
 20
167.764176806
 42
0.025171713
  0
VERTEX
  8
0
  6
CONTINUOUS
 62
     1
 10
184.0
 20
167.5
 42
0.025187664
  0
VERTEX
  8
0
  6
CONTINUOUS
 62
     1
 10
184.013318557
 20
167.235823194
 42
0.025076847
  0
VERTEX
  8
0
  6
CONTINUOUS
 62
     1
 10
184.053172864
 20
166.973656934
 42
0.024845864
  0
VERTEX
  8
0
  6
CONTINUOUS
 62
     1
 10
184.119259608
 20
166.715496462
 42
0.024508071
  0
VERTEX
  8
0
  6
CONTINUOUS
 62
     1
 10
184.211075827
 20
166.463306535
 42
0.024082007
  0
VERTEX
  8
0
  6
CONTINUOUS
 62
     1
 10
184.327922745
 20
166.219006472
 42
0.023589414
  0
VERTEX
  8
0
  6
CONTINUOUS
 62
     1
 10
184.468911087
 20
165.984455543
 42
0.02305322
  0
VERTEX
  8
0
  6
CONTINUOUS
 62
     1
 10
184.632967845
 20
165.761438823
 42
0.022495771
  0
VERTEX
  8
0
  6
CONTINUOUS
 62
     1
 10
184.818844449
 20
165.551653603
 42
0.021937539
  0
VERTEX
  8
0
  6
CONTINUOUS
 62
     1
 10
185.025126266
 20
165.356696475
 42
0.021396316
  0
VERTEX
  8
0
  6
CONTINUOUS
 62
     1
 10
185.250243366
 20
165.178051181
 42
0.02088689
  0
VERTEX
  8
0
  6
CONTINUOUS
 62
     1
 10
185.492482473
 20
165.01707732
 42
0.020421065
  0
VERTEX
  8
0
  6
CONTINUOUS
 62
     1
 10
185.75
 20
164.875
 42
0.020007926
  0
VERTEX
  8
0
  6
CONTINUOUS
 62
     1
 10
186.020836084
 20
164.752900515
 42
0.019654221
  0
VERTEX
  8
0
  6
CONTINUOUS
 62
     1
 10
186.302929498
 20
164.651708115
 42
0.019364797
  0
VERTEX
  8
0
  6
CONTINUOUS
 62
     1
 10
186.594133342
 20
164.572192937
 42
0.019143001
  0
VERTEX
  8
0
  6
CONTINUOUS
 62
     1
 10
186.892231378
 20
164.514960138
 42
0.018991036
  0
VERTEX
  8
0
  6
CONTINUOUS
 62
     1
 10
187.1949549
 20
164.480445295
 42
0.018910232
  0
VERTEX
  8
0
  6
CONTINUOUS
 62
     1
 10
187.5
 20
164.468911087
 42
0.018901239
  0
VERTEX
  8
0
  6
CONTINUOUS
 62
     1
 10
187.8050451
 20
164.480445295
 42
0.018964128
  0
VERTEX
  8
0
  6
CONTINUOUS
 62
     1
 10
188.107768622
 20
164.514960138
 42
0.019098398
  0
VERTEX
  8
0
  6
CONTINUOUS
 62
     1
 10
188.405866658
 20
164.572192937
 42
0.019302905
  0
VERTEX
  8
0
  6
CONTINUOUS
 62
     1
 10
188.697070502
 20
164.651708115
 42
0.019575685
  0
VERTEX
  8
0
  6
CONTINUOUS
 62
     1
 10
188.979163916
 20
164.752900515
 42
0.019913709
  0
VERTEX
  8
0
  6
CONTINUOUS
 62
     1
 10
189.25
 20
164.875
 42
0.020312541
  0
VERTEX
  8
0
  6
CONTINUOUS
 62
     1
 10
189.507517527
 20
165.01707732
 42
0.020765948
  0
VERTEX
  8
0
  6
CONTINUOUS
 62
     1
 10
189.749756634
 20
165.178051181
 42
0.021265468
  0
VERTEX
  8
0
  6
CONTINUOUS
 62
     1
 10
189.974873734
 20
165.356696475
 42
0.021800009
  0
VERTEX
  8
0
  6
CONTINUOUS
 62
     1
 10
190.181155551
 20
165.551653603
 42
0.022355542
  0
VERTEX
  8
0
  6
CONTINUOUS
 62
     1
 10
190.367032155
 20
165.761438823
 42
0.022915011
  0
VERTEX
  8
0
  6
CONTINUOUS
 62
     1
 10
190.531088913
 20
165.984455543
 42
0.023458559
  0
VERTEX
  8
0
  6
CONTINUOUS
 62
     1
 10
190.672077255
 20
166.219006472
 42
0.023964205
  0
VERTEX
  8
0
  6
CONTINUOUS
 62
     1
 10
190.788924173
 20
166.463306535
 42
0.02440902
  0
VERTEX
  8
0
  6
CONTINUOUS
 62
     1
 10
190.880740392
 20
166.715496462
 42
0.02477078
  0
VERTEX
  8
0
  6
CONTINUOUS
 62
     1
 10
190.946827136
 20
166.973656934
 42
0.02502995
  0
VERTEX
  8
0
  6
CONTINUOUS
 62
     1
 10
190.986681443
 20
167.235823194
 42
0.025171713
  0
SEQEND
  8
0
  6
CONTINUOUS
 62
     1
  0
LINE
  8
寸法線
  6
CONTINUOUS
 62
     2
 10
150.0
 20
225.0
 11
139.0
 21
225.0
  0
LINE
  8
寸法線
  6
CONTINUOUS
 62
     2
 10
140.0
 20
225.0
 11
139.352952387
 21
222.585185434
  0
LINE
  8
寸法線
  6
CONTINUOUS
 62
     2
 10
140.0
 20
225.0
 11
140.647047613
 21
222.585185434
  0
LINE
  8
寸法線
  6
CONTINUOUS
 62
     2
 10
140.0
 20
225.0
 11
140.0
 21
145.0
  0
LINE
  8
寸法線
  6
CONTINUOUS
 62
     2
 10
140.0
 20
145.0
 11
140.647047613
 21
147.414814566
  0
LINE
  8
寸法線
  6
CONTINUOUS
 62
     2
 10
140.0
 20
145.0
 11
139.352952387
 21
147.414814566
  0
LINE
  8
寸法線
  6
CONTINUOUS
 62
     2
 10
150.0
 20
145.0
 11
139.0
 21
145.0
  0
TEXT
  8
寸法線
  6
CONTINUOUS
 62
     5
 10
139.0
 20
176.05
 30
0.1
 40
4.0
  1
φ８０ｇ６
 50
90.0
 41
0.875
 51
0.0
  7
KANJI11
  0
LINE
  8
寸法線
  6
CONTINUOUS
 62
     2
 10
271.0
 20
225.0
 11
287.0
 21
225.0
  0
LINE
  8
寸法線
  6
CONTINUOUS
 62
     2
 10
286.0
 20
225.0
 11
285.352952387
 21
222.585185434
  0
LINE
  8
寸法線
  6
CONTINUOUS
 62
     2
 10
286.0
 20
225.0
 11
286.647047613
 21
222.585185434
  0
LINE
  8
寸法線
  6
CONTINUOUS
 62
     2
 10
286.0
 20
225.0
 11
286.0
 21
145.0
  0
LINE
  8
寸法線
  6
CONTINUOUS
 62
     2
 10
286.0
 20
145.0
 11
286.647047613
 21
147.414814566
  0
LINE
  8
寸法線
  6
CONTINUOUS
 62
     2
 10
286.0
 20
145.0
 11
285.352952387
 21
147.414814566
  0
LINE
  8
寸法線
  6
CONTINUOUS
 62
     2
 10
271.0
 20
145.0
 11
287.0
 21
145.0
  0
TEXT
  8
寸法線
  6
CONTINUOUS
 62
     5
 10
285.0
 20
176.05
 30
0.1
 40
4.0
  1
φ８０Ｈ７
 50
90.0
 41
0.875
 51
0.0
  7
KANJI11
  0
LINE
  8
寸法線
  6
CONTINUOUS
 62
     2
 10
271.0
 20
252.5
 11
296.5
 21
252.5
  0
LINE
  8
寸法線
  6
CONTINUOUS
 62
     2
 10
295.5
 20
252.5
 11
294.852952387
 21
250.085185434
  0
LINE
  8
寸法線
  6
CONTINUOUS
 62
     2
 10
295.5
 20
252.5
 11
296.147047613
 21
250.085185434
  0
LINE
  8
寸法線
  6
CONTINUOUS
 62
     2
 10
295.5
 20
252.5
 11
295.5
 21
117.5
  0
LINE
  8
寸法線
  6
CONTINUOUS
 62
     2
 10
295.5
 20
117.5
 11
296.147047613
 21
119.914814566
  0
LINE
  8
寸法線
  6
CONTINUOUS
 62
     2
 10
295.5
 20
117.5
 11
294.852952387
 21
119.914814566
  0
LINE
  8
寸法線
  6
CONTINUOUS
 62
     2
 10
271.0
 20
117.5
 11
296.5
 21
117.5
  0
TEXT
  8
寸法線
  6
CONTINUOUS
 62
     5
 10
294.5
 20
177.85
 30
0.1
 40
4.0
  1
φ１３５
 50
90.0
 41
0.875
 51
0.0
  7
KANJI11
  0
LINE
  8
寸法線
  6
CONTINUOUS
 62
     2
 10
265.0
 20
226.0
 11
265.0
 21
263.5
  0
LINE
  8
寸法線
  6
CONTINUOUS
 62
     2
 10
265.0
 20
262.5
 11
262.585185434
 21
263.147047613
  0
LINE
  8
寸法線
  6
CONTINUOUS
 62
     2
 10
265.0
 20
262.5
 11
262.585185434
 21
261.852952387
  0
LINE
  8
寸法線
  6
CONTINUOUS
 62
     2
 10
261.25
 20
262.5
 11
265.0
 21
262.5
  0
LINE
  8
寸法線
  6
CONTINUOUS
 62
     2
 10
265.0
 20
262.5
 11
270.0
 21
262.5
  0
LINE
  8
寸法線
  6
CONTINUOUS
 62
     2
 10
270.0
 20
262.5
 11
273.75
 21
262.5
  0
LINE
  8
寸法線
  6
CONTINUOUS
 62
     2
 10
270.0
 20
262.5
 11
272.414814566
 21
261.852952387
  0
LINE
  8
寸法線
  6
CONTINUOUS
 62
     2
 10
270.0
 20
262.5
 11
272.414814566
 21
263.147047613
  0
LINE
  8
寸法線
  6
CONTINUOUS
 62
     2
 10
270.0
 20
253.5
 11
270.0
 21
263.5
  0
TEXT
  8
寸法線
  6
CONTINUOUS
 62
     5
 10
265.75
 20
263.5
 30
0.1
 40
4.0
  1
５
 50
0.0
 41
0.875
 51
0.0
  7
KANJI11
  0
POLYLINE
  8
寸法線
  6
CONTINUOUS
 62
     2
 66
     1
  0
VERTEX
  8
寸法線
  6
CONTINUOUS
 62
     2
 10
155.0
 20
102.5
  0
VERTEX
  8
寸法線
  6
CONTINUOUS
 62
     2
 10
151.0
 20
102.5
  0
VERTEX
  8
寸法線
  6
CONTINUOUS
 62
     2
 10
147.25
 20
102.5
  0
SEQEND
  0
LINE
  8
寸法線
  6
CONTINUOUS
 62
     2
 10
151.0
 20
102.5
 11
148.585185434
 21
103.147047613
  0
LINE
  8
寸法線
  6
CONTINUOUS
 62
     2
 10
151.0
 20
102.5
 11
148.585185434
 21
101.852952387
  0
LINE
  8
寸法線
  6
CONTINUOUS
 62
     2
 10
151.0
 20
144.0
 11
151.0
 21
101.5
  0
TEXT
  8
寸法線
  6
CONTINUOUS
 62
     5
 10
151.25
 20
103.5
 30
0.1
 40
4.0
  1
４
 50
0.0
 41
0.875
 51
0.0
  7
KANJI11
  0
LINE
  8
寸法線
  6
CONTINUOUS
 62
     2
 10
155.0
 20
116.5
 11
155.0
 21
101.5
  0
LINE
  8
寸法線
  6
CONTINUOUS
 62
     2
 10
155.0
 20
102.5
 11
157.414814566
 21
101.852952387
  0
LINE
  8
寸法線
  6
CONTINUOUS
 62
     2
 10
155.0
 20
102.5
 11
157.414814566
 21
103.147047613
  0
LINE
  8
寸法線
  6
CONTINUOUS
 62
     2
 10
155.0
 20
102.5
 11
177.5
 21
102.5
  0
LINE
  8
寸法線
  6
CONTINUOUS
 62
     2
 10
177.5
 20
102.5
 11
175.085185434
 21
103.147047613
  0
LINE
  8
寸法線
  6
CONTINUOUS
 62
     2
 10
177.5
 20
102.5
 11
175.085185434
 21
101.852952387
  0
LINE
  8
寸法線
  6
CONTINUOUS
 62
     2
 10
177.5
 20
116.5
 11
177.5
 21
101.5
  0
TEXT
  8
寸法線
  6
CONTINUOUS
 62
     5
 10
159.1
 20
103.5
 30
0.1
 40
4.0
  1
２２．５
 50
0.0
 41
0.875
 51
0.0
  7
KANJI11
  0
LINE
  8
寸法線
  6
CONTINUOUS
 62
     2
 10
177.5
 20
102.5
 11
179.914814566
 21
101.852952387
  0
LINE
  8
寸法線
  6
CONTINUOUS
 62
     2
 10
177.5
 20
102.5
 11
179.914814566
 21
103.147047613
  0
LINE
  8
寸法線
  6
CONTINUOUS
 62
     2
 10
177.5
 20
102.5
 11
247.5
 21
102.5
  0
LINE
  8
寸法線
  6
CONTINUOUS
 62
     2
 10
247.5
 20
102.5
 11
245.085185434
 21
103.147047613
  0
LINE
  8
寸法線
  6
CONTINUOUS
 62
     2
 10
247.5
 20
102.5
 11
245.085185434
 21
101.852952387
  0
LINE
  8
寸法線
  6
CONTINUOUS
 62
     2
 10
247.5
 20
116.5
 11
247.5
 21
101.5
  0
TEXT
  8
寸法線
  6
CONTINUOUS
 62
     5
 10
208.95
 20
103.5
 30
0.1
 40
4.0
  1
７０
 50
0.0
 41
0.875
 51
0.0
  7
KANJI11
  0
LINE
  8
寸法線
  6
CONTINUOUS
 62
     2
 10
247.5
 20
102.5
 11
249.914814566
 21
101.852952387
  0
LINE
  8
寸法線
  6
CONTINUOUS
 62
     2
 10
247.5
 20
102.5
 11
249.914814566
 21
103.147047613
  0
LINE
  8
寸法線
  6
CONTINUOUS
 62
     2
 10
247.5
 20
102.5
 11
270.0
 21
102.5
  0
LINE
  8
寸法線
  6
CONTINUOUS
 62
     2
 10
270.0
 20
102.5
 11
267.585185434
 21
103.147047613
  0
LINE
  8
寸法線
  6
CONTINUOUS
 62
     2
 10
270.0
 20
102.5
 11
267.585185434
 21
101.852952387
  0
LINE
  8
寸法線
  6
CONTINUOUS
 62
     2
 10
270.0
 20
116.5
 11
270.0
 21
101.5
  0
TEXT
  8
寸法線
  6
CONTINUOUS
 62
     5
 10
251.6
 20
103.5
 30
0.1
 40
4.0
  1
２２．５
 50
0.0
 41
0.875
 51
0.0
  7
KANJI11
  0
LINE
  8
寸法線
  6
CONTINUOUS
 62
     2
 10
270.0
 20
101.5
 11
270.0
 21
91.5
  0
LINE
  8
寸法線
  6
CONTINUOUS
 62
     2
 10
270.0
 20
92.5
 11
267.585185434
 21
93.147047613
  0
LINE
  8
寸法線
  6
CONTINUOUS
 62
     2
 10
270.0
 20
92.5
 11
267.585185434
 21
91.852952387
  0
LINE
  8
寸法線
  6
CONTINUOUS
 62
     2
 10
270.0
 20
92.5
 11
151.0
 21
92.5
  0
LINE
  8
寸法線
  6
CONTINUOUS
 62
     2
 10
151.0
 20
92.5
 11
153.414814566
 21
91.852952387
  0
LINE
  8
寸法線
  6
CONTINUOUS
 62
     2
 10
151.0
 20
92.5
 11
153.414814566
 21
93.147047613
  0
LINE
  8
寸法線
  6
CONTINUOUS
 62
     2
 10
151.0
 20
101.5
 11
151.0
 21
91.5
  0
TEXT
  8
寸法線
  6
CONTINUOUS
 62
     5
 10
205.15
 20
93.5
 30
0.1
 40
4.0
  1
１１９
 50
0.0
 41
0.875
 51
0.0
  7
KANJI11
  0
LINE
  8
寸法線
  6
CONTINUOUS
 62
     2
 10
232.5
 20
220.0
 11
231.852952387
 21
217.585185434
  0
LINE
  8
寸法線
  6
CONTINUOUS
 62
     2
 10
232.5
 20
220.0
 11
233.147047613
 21
217.585185434
  0
LINE
  8
寸法線
  6
CONTINUOUS
 62
     2
 10
232.5
 20
220.0
 11
232.5
 21
150.0
  0
LINE
  8
寸法線
  6
CONTINUOUS
 62
     2
 10
232.5
 20
150.0
 11
233.147047613
 21
152.414814566
  0
LINE
  8
寸法線
  6
CONTINUOUS
 62
     2
 10
232.5
 20
150.0
 11
231.852952387
 21
152.414814566
  0
TEXT
  8
寸法線
  6
CONTINUOUS
 62
     5
 10
231.5
 20
186.0
 30
0.1
 40
4.0
  1
φ７０
 50
90.0
 41
0.875
 51
0.0
  7
KANJI11
  0
CIRCLE
  8
0
  6
CONTINUOUS
 62
     1
 10
353.95241122
 20
235.813374288
 40
7.0
  0
CIRCLE
  8
0
  6
CONTINUOUS
 62
     1
 10
324.186625712
 20
206.04758878
 40
7.0
  0
CIRCLE
  8
0
  6
CONTINUOUS
 62
     1
 10
324.186625712
 20
163.95241122
 40
7.0
  0
CIRCLE
  8
0
  6
CONTINUOUS
 62
     1
 10
353.95241122
 20
134.186625712
 40
7.0
  0
ARC
  8
0
  6
CONTINUOUS
 62
     1
 10
375.0
 20
185.0
 40
67.5
 50
90.0
 51
270.0
  0
ARC
  8
0
  6
CONTINUOUS
 62
     1
 10
375.0
 20
185.0
 40
40.0
 50
90.0
 51
270.0
  0
ARC
  8
0
  6
CONTINUOUS
 62
     1
 10
375.0
 20
185.0
 40
17.55
 50
90.0
 51
270.0
  0
LINE
  8
0
  6
LTYPE3
 62
     2
 10
357.779245544
 20
226.574578963
 11
350.125576896
 21
245.052169613
  0
LINE
  8
0
  6
LTYPE3
 62
     2
 10
333.425421037
 20
202.220754456
 11
314.947830387
 21
209.874423104
  0
LINE
  8
0
  6
LTYPE3
 62
     2
 10
333.425421037
 20
167.779245544
 11
314.947830387
 21
160.125576896
  0
LINE
  8
0
  6
LTYPE3
 62
     2
 10
357.779245544
 20
143.425421037
 11
350.125576896
 21
124.947830387
  0
LINE
  8
0
  6
LTYPE3
 62
     2
 10
375.0
 20
112.5
 11
375.0
 21
257.5
  0
LINE
  8
0
  6
LTYPE3
 62
     2
 10
302.5
 20
185.0
 11
380.0
 21
185.0
  0
ARC
  8
0
  6
LTYPE3
 62
     2
 10
375.0
 20
185.0
 40
55.0
 50
84.805571092
 51
275.194428908
  0
LINE
  8
寸法線
  6
CONTINUOUS
 62
     2
 10
336.109127035
 20
223.890872965
 11
338.274190544
 21
222.640872965
  0
LINE
  8
寸法線
  6
CONTINUOUS
 62
     2
 10
336.109127035
 20
223.890872965
 11
337.359127035
 21
221.725809456
  0
TEXT
  8
寸法線
  6
CONTINUOUS
 62
     5
 10
379.737615434
 20
181.676598128
 30
0.1
 40
4.0
  1
Ｐ．Ｃ．Ｄ．１１０
 50
315.0
 41
0.875
 51
0.0
  7
KANJI11
  0
LINE
  8
寸法線
  6
CONTINUOUS
 62
     2
 10
398.157747084
 20
161.842252916
 11
336.109127035
 21
223.890872965
  0
LINE
  8
寸法線
  6
CONTINUOUS
 62
     2
 10
349.002663752
 20
129.236878244
 11
346.837600242
 21
127.986878244
  0
LINE
  8
寸法線
  6
CONTINUOUS
 62
     2
 10
349.002663752
 20
129.236878244
 11
347.752663752
 21
127.071814734
  0
LINE
  8
寸法線
  6
CONTINUOUS
 62
     2
 10
349.002663752
 20
129.236878244
 11
333.95241122
 21
114.186625712
  0
LINE
  8
寸法線
  6
CONTINUOUS
 62
     2
 10
333.95241122
 20
114.186625712
 11
305.25241122
 21
114.186625712
  0
TEXT
  8
寸法線
  6
CONTINUOUS
 62
     5
 10
305.25241122
 20
115.186625712
 30
0.1
 40
4.0
  1
８－φ１４取付穴
 50
0.0
 41
0.875
 51
0.0
  7
KANJI11
  0
LINE
  8
0
  6
CONTINUOUS
 62
     1
 10
191.0
 20
202.5
 11
191.0
 21
200.822949017
  0
LINE
  8
0
  6
CONTINUOUS
 62
     1
 10
184.0
 20
202.5
 11
184.0
 21
200.822949017
  0
LINE
  8
0
  6
CONTINUOUS
 62
     1
 10
191.0
 20
167.5
 11
191.0
 21
169.177050983
  0
LINE
  8
0
  6
CONTINUOUS
 62
     1
 10
184.0
 20
167.5
 11
184.0
 21
169.177050983
  0
CIRCLE
  8
0
  6
CONTINUOUS
 62
     1
 10
78.54758878
 20
235.813374288
 40
7.0
  0
CIRCLE
  8
0
  6
CONTINUOUS
 62
     1
 10
108.313374288
 20
206.04758878
 40
7.0
  0
CIRCLE
  8
0
  6
CONTINUOUS
 62
     1
 10
108.313374288
 20
163.95241122
 40
7.0
  0
CIRCLE
  8
0
  6
CONTINUOUS
 62
     1
 10
78.54758878
 20
134.186625712
 40
7.0
  0
ARC
  8
0
  6
CONTINUOUS
 62
     1
 10
57.5
 20
185.0
 40
67.5
 50
270.0
 51
90.0
  0
ARC
  8
0
  6
CONTINUOUS
 62
     1
 10
57.5
 20
185.0
 40
40.0
 50
270.0
 51
90.0
  0
ARC
  8
0
  6
CONTINUOUS
 62
     1
 10
57.5
 20
185.0
 40
17.55
 50
270.0
 51
90.0
  0
LINE
  8
0
  6
LTYPE3
 62
     2
 10
74.720754456
 20
226.574578963
 11
82.374423104
 21
245.052169613
  0
LINE
  8
0
  6
LTYPE3
 62
     2
 10
99.074578963
 20
202.220754456
 11
117.552169613
 21
209.874423104
  0
LINE
  8
0
  6
LTYPE3
 62
     2
 10
99.074578963
 20
167.779245544
 11
117.552169613
 21
160.125576896
  0
LINE
  8
0
  6
LTYPE3
 62
     2
 10
74.720754456
 20
143.425421037
 11
82.374423104
 21
124.947830387
  0
LINE
  8
0
  6
LTYPE3
 62
     2
 10
57.5
 20
112.5
 11
57.5
 21
257.5
  0
LINE
  8
0
  6
LTYPE3
 62
     2
 10
130.0
 20
185.0
 11
52.5
 21
185.0
  0
ARC
  8
0
  6
LTYPE3
 62
     2
 10
57.5
 20
185.0
 40
55.0
 50
264.805571092
 51
95.194428908
  0
LINE
  8
寸法線
  6
CONTINUOUS
 62
     2
 10
96.390872965
 20
223.890872965
 11
94.225809456
 21
222.640872965
  0
LINE
  8
寸法線
  6
CONTINUOUS
 62
     2
 10
96.390872965
 20
223.890872965
 11
95.140872965
 21
221.725809456
  0
TEXT
  8
寸法線
  6
CONTINUOUS
 62
     5
 10
33.635146135
 20
162.549359697
 30
0.1
 40
4.0
  1
Ｐ．Ｃ．Ｄ．１１０
 50
45.0
 41
0.875
 51
0.0
  7
KANJI11
  0
LINE
  8
寸法線
  6
CONTINUOUS
 62
     2
 10
34.342252916
 20
161.842252916
 11
96.390872965
 21
223.890872965
  0
LINE
  8
寸法線
  6
CONTINUOUS
 62
     2
 10
83.497336248
 20
129.236878244
 11
84.747336248
 21
127.071814734
  0
LINE
  8
寸法線
  6
CONTINUOUS
 62
     2
 10
83.497336248
 20
129.236878244
 11
85.662399758
 21
127.986878244
  0
LINE
  8
寸法線
  6
CONTINUOUS
 62
     2
 10
83.497336248
 20
129.236878244
 11
98.54758878
 21
114.186625712
  0
LINE
  8
寸法線
  6
CONTINUOUS
 62
     2
 10
98.54758878
 20
114.186625712
 11
127.24758878
 21
114.186625712
  0
TEXT
  8
寸法線
  6
CONTINUOUS
 62
     5
 10
98.54758878
 20
115.186625712
 30
0.1
 40
4.0
  1
８－φ１４取付穴
 50
0.0
 41
0.875
 51
0.0
  7
KANJI11
  0
TEXT
  8
寸法線
  6
CONTINUOUS
 62
     5
 10
347.0
 20
70.3
 30
0.1
 40
4.0
  1
５００　Ｎ・ｍ，１　ｋＮ・ｍ
 50
0.0
 41
0.875
 51
0.0
  7
KANJI11
  0
TEXT
  8
表題欄
  6
CONTINUOUS
 62
     5
 10
358.15
 20
12.0
 30
0.1
 40
4.0
  1
Ｉ－０１３５－Ａ００１
 50
0.0
 41
0.875
 51
0.0
  7
KANJI11
  0
ENDSEC
  0
EOF
