  0
SECTION
  2
HEADER
  9
$EXTMIN
 10
0.0
 20
0.0
 30
0.0
  9
$EXTMAX
 10
840.0
 20
594.0
 30
0.0
  9
$LIMMIN
 10
0.0
 20
0.0
  9
$LIMMAX
 10
840.0
 20
594.0
  9
$LTSCALE
 40
1.0
  9
$PDMODE
 70
     0
  0
ENDSEC
  0
SECTION
  2
TABLES
  0
TABLE
  2
LTYPE
 70
     5
  0
LTYPE
  2
LTYPE0
 70
    64
  3
CENTER
 72
    65
 73
     4
 40
16.0
 49
11.2
 49
-1.6
 49
1.6
 49
-1.6
  0
LTYPE
  2
CONTINUOUS
 70
    64
  3
Solid line
 72
    65
 73
     0
 40
0.0
  0
LTYPE
  2
LTYPE2
 70
    64
  3
CENTER
 72
    65
 73
     4
 40
20.0
 49
14.0
 49
-2.0
 49
2.0
 49
-2.0
  0
LTYPE
  2
LTYPE3
 70
    64
  3
PHANTOM
 72
    65
 73
     6
 40
20.0
 49
15.0
 49
-1.0
 49
1.0
 49
-1.0
 49
1.0
 49
-1.0
  0
LTYPE
  2
LTYPE4
 70
    64
  3
HIDDEN
 72
    65
 73
     2
 40
4.0
 49
2.4
 49
-1.6
  0
ENDTAB
  0
TABLE
  2
LAYER
 70
   128
  0
LAYER
  2
0
 70
     0
 62
     7
  6
CONTINUOUS
  0
LAYER
  2
ハッチング
 70
     0
 62
     7
  6
CONTINUOUS
  0
LAYER
  2
治具
 70
     0
 62
     7
  6
CONTINUOUS
  0
LAYER
  2
購入品
 70
     0
 62
     7
  6
CONTINUOUS
  0
LAYER
  2
寸法線
 70
     0
 62
     7
  6
CONTINUOUS
  0
LAYER
  2
表題欄
 70
     0
 62
     7
  6
CONTINUOUS
  0
LAYER
  2
図枠
 70
     0
 62
     7
  6
CONTINUOUS
  0
LAYER
  2
8
 70
     0
 62
     7
  6
CONTINUOUS
  0
LAYER
  2
9
 70
     0
 62
     7
  6
CONTINUOUS
  0
LAYER
  2
10
 70
     0
 62
     7
  6
CONTINUOUS
  0
LAYER
  2
11
 70
     0
 62
     7
  6
CONTINUOUS
  0
LAYER
  2
12
 70
     0
 62
     7
  6
CONTINUOUS
  0
LAYER
  2
13
 70
     0
 62
     7
  6
CONTINUOUS
  0
LAYER
  2
14
 70
     0
 62
     7
  6
CONTINUOUS
  0
LAYER
  2
15
 70
     0
 62
     7
  6
CONTINUOUS
  0
LAYER
  2
16
 70
     0
 62
     7
  6
CONTINUOUS
  0
LAYER
  2
17
 70
     0
 62
     7
  6
CONTINUOUS
  0
LAYER
  2
18
 70
     0
 62
     7
  6
CONTINUOUS
  0
LAYER
  2
19
 70
     0
 62
     7
  6
CONTINUOUS
  0
LAYER
  2
20
 70
     0
 62
     7
  6
CONTINUOUS
  0
LAYER
  2
21
 70
     0
 62
     7
  6
CONTINUOUS
  0
LAYER
  2
22
 70
     0
 62
     7
  6
CONTINUOUS
  0
LAYER
  2
23
 70
     0
 62
     7
  6
CONTINUOUS
  0
LAYER
  2
24
 70
     0
 62
     7
  6
CONTINUOUS
  0
LAYER
  2
25
 70
     0
 62
     7
  6
CONTINUOUS
  0
LAYER
  2
26
 70
     0
 62
     7
  6
CONTINUOUS
  0
LAYER
  2
27
 70
     0
 62
     7
  6
CONTINUOUS
  0
LAYER
  2
28
 70
     0
 62
     7
  6
CONTINUOUS
  0
LAYER
  2
29
 70
     0
 62
     7
  6
CONTINUOUS
  0
LAYER
  2
30
 70
     0
 62
     7
  6
CONTINUOUS
  0
LAYER
  2
31
 70
     0
 62
     7
  6
CONTINUOUS
  0
LAYER
  2
32
 70
     0
 62
     7
  6
CONTINUOUS
  0
LAYER
  2
33
 70
     0
 62
     7
  6
CONTINUOUS
  0
LAYER
  2
34
 70
     0
 62
     7
  6
CONTINUOUS
  0
LAYER
  2
35
 70
     0
 62
     7
  6
CONTINUOUS
  0
LAYER
  2
36
 70
     0
 62
     7
  6
CONTINUOUS
  0
LAYER
  2
37
 70
     0
 62
     7
  6
CONTINUOUS
  0
LAYER
  2
38
 70
     0
 62
     7
  6
CONTINUOUS
  0
LAYER
  2
39
 70
     0
 62
     7
  6
CONTINUOUS
  0
LAYER
  2
40
 70
     0
 62
     7
  6
CONTINUOUS
  0
LAYER
  2
41
 70
     0
 62
     7
  6
CONTINUOUS
  0
LAYER
  2
42
 70
     0
 62
     7
  6
CONTINUOUS
  0
LAYER
  2
43
 70
     0
 62
     7
  6
CONTINUOUS
  0
LAYER
  2
44
 70
     0
 62
     7
  6
CONTINUOUS
  0
LAYER
  2
45
 70
     0
 62
     7
  6
CONTINUOUS
  0
LAYER
  2
46
 70
     0
 62
     7
  6
CONTINUOUS
  0
LAYER
  2
47
 70
     0
 62
     7
  6
CONTINUOUS
  0
LAYER
  2
48
 70
     0
 62
     7
  6
CONTINUOUS
  0
LAYER
  2
49
 70
     0
 62
     7
  6
CONTINUOUS
  0
LAYER
  2
50
 70
     0
 62
     7
  6
CONTINUOUS
  0
LAYER
  2
51
 70
     0
 62
     7
  6
CONTINUOUS
  0
LAYER
  2
52
 70
     0
 62
     7
  6
CONTINUOUS
  0
LAYER
  2
53
 70
     0
 62
     7
  6
CONTINUOUS
  0
LAYER
  2
54
 70
     0
 62
     7
  6
CONTINUOUS
  0
LAYER
  2
55
 70
     0
 62
     7
  6
CONTINUOUS
  0
LAYER
  2
56
 70
     0
 62
     7
  6
CONTINUOUS
  0
LAYER
  2
57
 70
     0
 62
     7
  6
CONTINUOUS
  0
LAYER
  2
58
 70
     0
 62
     7
  6
CONTINUOUS
  0
LAYER
  2
59
 70
     0
 62
     7
  6
CONTINUOUS
  0
LAYER
  2
60
 70
     0
 62
     7
  6
CONTINUOUS
  0
LAYER
  2
61
 70
     0
 62
     7
  6
CONTINUOUS
  0
LAYER
  2
62
 70
     0
 62
     7
  6
CONTINUOUS
  0
LAYER
  2
63
 70
     0
 62
     7
  6
CONTINUOUS
  0
LAYER
  2
64
 70
     0
 62
     7
  6
CONTINUOUS
  0
LAYER
  2
65
 70
     0
 62
     7
  6
CONTINUOUS
  0
LAYER
  2
66
 70
     0
 62
     7
  6
CONTINUOUS
  0
LAYER
  2
67
 70
     0
 62
     7
  6
CONTINUOUS
  0
LAYER
  2
68
 70
     0
 62
     7
  6
CONTINUOUS
  0
LAYER
  2
69
 70
     0
 62
     7
  6
CONTINUOUS
  0
LAYER
  2
70
 70
     0
 62
     7
  6
CONTINUOUS
  0
LAYER
  2
71
 70
     0
 62
     7
  6
CONTINUOUS
  0
LAYER
  2
72
 70
     0
 62
     7
  6
CONTINUOUS
  0
LAYER
  2
73
 70
     0
 62
     7
  6
CONTINUOUS
  0
LAYER
  2
74
 70
     0
 62
     7
  6
CONTINUOUS
  0
LAYER
  2
75
 70
     0
 62
     7
  6
CONTINUOUS
  0
LAYER
  2
76
 70
     0
 62
     7
  6
CONTINUOUS
  0
LAYER
  2
77
 70
     0
 62
     7
  6
CONTINUOUS
  0
LAYER
  2
78
 70
     0
 62
     7
  6
CONTINUOUS
  0
LAYER
  2
79
 70
     0
 62
     7
  6
CONTINUOUS
  0
LAYER
  2
80
 70
     0
 62
     7
  6
CONTINUOUS
  0
LAYER
  2
81
 70
     0
 62
     7
  6
CONTINUOUS
  0
LAYER
  2
82
 70
     0
 62
     7
  6
CONTINUOUS
  0
LAYER
  2
83
 70
     0
 62
     7
  6
CONTINUOUS
  0
LAYER
  2
84
 70
     0
 62
     7
  6
CONTINUOUS
  0
LAYER
  2
85
 70
     0
 62
     7
  6
CONTINUOUS
  0
LAYER
  2
86
 70
     0
 62
     7
  6
CONTINUOUS
  0
LAYER
  2
87
 70
     0
 62
     7
  6
CONTINUOUS
  0
LAYER
  2
88
 70
     0
 62
     7
  6
CONTINUOUS
  0
LAYER
  2
89
 70
     0
 62
     7
  6
CONTINUOUS
  0
LAYER
  2
90
 70
     0
 62
     7
  6
CONTINUOUS
  0
LAYER
  2
91
 70
     0
 62
     7
  6
CONTINUOUS
  0
LAYER
  2
92
 70
     0
 62
     7
  6
CONTINUOUS
  0
LAYER
  2
93
 70
     0
 62
     7
  6
CONTINUOUS
  0
LAYER
  2
94
 70
     0
 62
     7
  6
CONTINUOUS
  0
LAYER
  2
95
 70
     0
 62
     7
  6
CONTINUOUS
  0
LAYER
  2
96
 70
     0
 62
     7
  6
CONTINUOUS
  0
LAYER
  2
97
 70
     0
 62
     7
  6
CONTINUOUS
  0
LAYER
  2
98
 70
     0
 62
     7
  6
CONTINUOUS
  0
LAYER
  2
99
 70
     0
 62
     7
  6
CONTINUOUS
  0
LAYER
  2
100
 70
     0
 62
     7
  6
CONTINUOUS
  0
LAYER
  2
101
 70
     0
 62
     7
  6
CONTINUOUS
  0
LAYER
  2
102
 70
     0
 62
     7
  6
CONTINUOUS
  0
LAYER
  2
103
 70
     0
 62
     7
  6
CONTINUOUS
  0
LAYER
  2
104
 70
     0
 62
     7
  6
CONTINUOUS
  0
LAYER
  2
105
 70
     0
 62
     7
  6
CONTINUOUS
  0
LAYER
  2
106
 70
     0
 62
     7
  6
CONTINUOUS
  0
LAYER
  2
107
 70
     0
 62
     7
  6
CONTINUOUS
  0
LAYER
  2
108
 70
     0
 62
     7
  6
CONTINUOUS
  0
LAYER
  2
109
 70
     0
 62
     7
  6
CONTINUOUS
  0
LAYER
  2
110
 70
     0
 62
     7
  6
CONTINUOUS
  0
LAYER
  2
111
 70
     0
 62
     7
  6
CONTINUOUS
  0
LAYER
  2
112
 70
     0
 62
     7
  6
CONTINUOUS
  0
LAYER
  2
113
 70
     0
 62
     7
  6
CONTINUOUS
  0
LAYER
  2
114
 70
     0
 62
     7
  6
CONTINUOUS
  0
LAYER
  2
115
 70
     0
 62
     7
  6
CONTINUOUS
  0
LAYER
  2
116
 70
     0
 62
     7
  6
CONTINUOUS
  0
LAYER
  2
117
 70
     0
 62
     7
  6
CONTINUOUS
  0
LAYER
  2
118
 70
     0
 62
     7
  6
CONTINUOUS
  0
LAYER
  2
119
 70
     0
 62
     7
  6
CONTINUOUS
  0
LAYER
  2
120
 70
     0
 62
     7
  6
CONTINUOUS
  0
LAYER
  2
121
 70
     0
 62
     7
  6
CONTINUOUS
  0
LAYER
  2
122
 70
     0
 62
     7
  6
CONTINUOUS
  0
LAYER
  2
123
 70
     0
 62
     7
  6
CONTINUOUS
  0
LAYER
  2
124
 70
     0
 62
     7
  6
CONTINUOUS
  0
LAYER
  2
125
 70
     0
 62
     7
  6
CONTINUOUS
  0
LAYER
  2
126
 70
     0
 62
     7
  6
CONTINUOUS
  0
LAYER
  2
127
 70
     0
 62
     7
  6
CONTINUOUS
  0
LAYER
  2
128
 70
     0
 62
     7
  6
CONTINUOUS
  0
ENDTAB
  0
TABLE
  2
STYLE
 70
    13
  0
STYLE
  2
STANDARD
 70
     0
 40
0.0
 41
1.0
 50
0.0
 71
     0
 42
0.2
  3
txt
  4

  0
STYLE
  2
KANJI0
 70
     0
 40
8.0
 41
0.875
 50
0.0
 71
     0
 42
8.0
  3

  4
bigfont
  0
STYLE
  2
KANJI1
 70
     0
 40
8.0
 41
0.875
 50
0.0
 71
     0
 42
8.0
  3

  4
bigfont
  0
STYLE
  2
KANJI2
 70
     0
 40
10.0
 41
1.0
 50
0.0
 71
     0
 42
10.0
  3

  4
bigfont
  0
STYLE
  2
KANJI3
 70
     0
 40
10.0
 41
1.2
 50
0.0
 71
     0
 42
10.0
  3

  4
bigfont
  0
STYLE
  2
KANJI4
 70
     0
 40
6.0
 41
0.666666667
 50
0.0
 71
     0
 42
6.0
  3

  4
bigfont
  0
STYLE
  2
KANJI5
 70
     0
 40
6.0
 41
1.0
 50
0.0
 71
     0
 42
6.0
  3

  4
bigfont
  0
STYLE
  2
KANJI6
 70
     0
 40
5.0
 41
1.0
 50
0.0
 71
     0
 42
5.0
  3

  4
bigfont
  0
STYLE
  2
KANJI7
 70
     0
 40
5.0
 41
1.0
 50
0.0
 71
     0
 42
5.0
  3

  4
bigfont
  0
STYLE
  2
KANJI8
 70
     0
 40
5.0
 41
1.0
 50
0.0
 71
     0
 42
5.0
  3

  4
bigfont
  0
STYLE
  2
KANJI9
 70
     0
 40
8.0
 41
1.125
 50
0.0
 71
     0
 42
8.0
  3

  4
bigfont
  0
STYLE
  2
KANJI10
 70
     0
 40
14.0
 41
0.857142857
 50
0.0
 71
     0
 42
14.0
  3

  4
bigfont
  0
STYLE
  2
KANJI11
 70
     0
 40
6.0
 41
0.833333333
 50
0.0
 71
     0
 42
6.0
  3

  4
bigfont
  0
ENDTAB
  0
TABLE
  2
VIEW
 70
     0
  0
ENDTAB
  0
ENDSEC
  0
SECTION
  2
BLOCKS
  0
ENDSEC
  0
SECTION
  2
ENTITIES
  0
LINE
  8
0
  6
LTYPE0
 62
     2
 10
213.867483764
 20
431.763338627
 11
205.448448252
 21
411.437988912
  0
LINE
  8
0
  6
LTYPE0
 62
     2
 10
261.763338627
 20
383.867483764
 11
241.437988912
 21
375.448448252
  0
LINE
  8
0
  6
LTYPE0
 62
     2
 10
261.763338627
 20
316.132516236
 11
241.437988912
 21
324.551551748
  0
LINE
  8
0
  6
LTYPE0
 62
     2
 10
213.867483764
 20
268.236661373
 11
205.448448252
 21
288.562011088
  0
CIRCLE
  8
0
  6
CONTINUOUS
 62
     1
 10
209.657966008
 20
421.60066377
 40
9.0
  0
CIRCLE
  8
0
  6
CONTINUOUS
 62
     1
 10
251.60066377
 20
379.657966008
 40
9.0
  0
CIRCLE
  8
0
  6
CONTINUOUS
 62
     1
 10
251.60066377
 20
320.342033992
 40
9.0
  0
CIRCLE
  8
0
  6
CONTINUOUS
 62
     1
 10
209.657966008
 20
278.39933623
 40
9.0
  0
CIRCLE
  8
0
  6
CONTINUOUS
 62
     1
 10
180.0
 20
350.0
 40
92.5
  0
CIRCLE
  8
0
  6
LTYPE2
 62
     2
 10
180.0
 20
350.0
 40
77.5
  0
CIRCLE
  8
0
  6
CONTINUOUS
 62
     1
 10
180.0
 20
350.0
 40
55.0
  0
CIRCLE
  8
0
  6
CONTINUOUS
 62
     1
 10
180.0
 20
350.0
 40
25.4
  0
LINE
  8
0
  6
LTYPE0
 62
     2
 10
146.132516236
 20
431.763338627
 11
154.551551748
 21
411.437988912
  0
CIRCLE
  8
0
  6
CONTINUOUS
 62
     1
 10
150.342033992
 20
421.60066377
 40
9.0
  0
LINE
  8
0
  6
LTYPE0
 62
     2
 10
98.236661373
 20
383.867483764
 11
118.562011088
 21
375.448448252
  0
CIRCLE
  8
0
  6
CONTINUOUS
 62
     1
 10
108.39933623
 20
379.657966008
 40
9.0
  0
LINE
  8
0
  6
LTYPE0
 62
     2
 10
98.236661373
 20
316.132516236
 11
118.562011088
 21
324.551551748
  0
CIRCLE
  8
0
  6
CONTINUOUS
 62
     1
 10
108.39933623
 20
320.342033992
 40
9.0
  0
LINE
  8
0
  6
LTYPE0
 62
     2
 10
146.132516236
 20
268.236661373
 11
154.551551748
 21
288.562011088
  0
CIRCLE
  8
0
  6
CONTINUOUS
 62
     1
 10
150.342033992
 20
278.39933623
 40
9.0
  0
LINE
  8
0
  6
LTYPE2
 62
     2
 10
77.5
 20
350.0
 11
282.5
 21
350.0
  0
LINE
  8
0
  6
LTYPE2
 62
     2
 10
180.0
 20
247.5
 11
180.0
 21
452.5
  0
LINE
  8
0
  6
CONTINUOUS
 62
     1
 10
340.0
 20
257.5
 11
367.5
 21
257.5
  0
LINE
  8
0
  6
CONTINUOUS
 62
     1
 10
367.5
 20
442.5
 11
340.0
 21
442.5
  0
LINE
  8
0
  6
CONTINUOUS
 62
     1
 10
340.0
 20
405.0
 11
336.0
 21
405.0
  0
LINE
  8
0
  6
CONTINUOUS
 62
     1
 10
336.0
 20
405.0
 11
336.0
 21
295.0
  0
LINE
  8
0
  6
CONTINUOUS
 62
     1
 10
336.0
 20
295.0
 11
340.0
 21
295.0
  0
POLYLINE
  8
0
  6
CONTINUOUS
 62
     1
 66
     1
  0
VERTEX
  8
0
  6
CONTINUOUS
 62
     1
 10
462.5
 20
257.5
  0
VERTEX
  8
0
  6
CONTINUOUS
 62
     1
 10
490.0
 20
257.5
  0
VERTEX
  8
0
  6
CONTINUOUS
 62
     1
 10
490.0
 20
442.5
  0
VERTEX
  8
0
  6
CONTINUOUS
 62
     1
 10
462.5
 20
442.5
  0
SEQEND
  0
ARC
  8
0
  6
CONTINUOUS
 62
     1
 10
372.5
 20
399.5
 40
5.0
 50
180.0
 51
270.0
  0
ARC
  8
0
  6
CONTINUOUS
 62
     1
 10
457.5
 20
399.5
 40
5.0
 50
270.0
 51
0.0
  0
ARC
  8
0
  6
CONTINUOUS
 62
     1
 10
372.5
 20
300.5
 40
5.0
 50
90.0
 51
180.0
  0
ARC
  8
0
  6
CONTINUOUS
 62
     1
 10
457.5
 20
300.5
 40
5.0
 50
0.0
 51
90.0
  0
LINE
  8
0
  6
CONTINUOUS
 62
     1
 10
490.0
 20
405.0
 11
485.0
 21
405.0
  0
LINE
  8
0
  6
CONTINUOUS
 62
     1
 10
462.5
 20
442.5
 11
462.5
 21
257.5
  0
LINE
  8
0
  6
CONTINUOUS
 62
     1
 10
367.5
 20
257.5
 11
367.5
 21
442.5
  0
LINE
  8
0
  6
CONTINUOUS
 62
     1
 10
340.0
 20
442.5
 11
340.0
 21
257.5
  0
LINE
  8
0
  6
CONTINUOUS
 62
     1
 10
372.5
 20
394.5
 11
372.5
 21
305.5
  0
LINE
  8
0
  6
CONTINUOUS
 62
     1
 10
457.5
 20
305.5
 11
457.5
 21
394.5
  0
LINE
  8
0
  6
CONTINUOUS
 62
     1
 10
456.5
 20
394.5
 11
456.5
 21
305.5
  0
LINE
  8
0
  6
CONTINUOUS
 62
     1
 10
456.5
 20
305.5
 11
372.5
 21
305.5
  0
LINE
  8
0
  6
CONTINUOUS
 62
     1
 10
372.5
 20
350.0
 11
456.5
 21
350.0
  0
LINE
  8
0
  6
CONTINUOUS
 62
     1
 10
456.5
 20
389.0
 11
457.5
 21
389.0
  0
LINE
  8
0
  6
CONTINUOUS
 62
     1
 10
456.5
 20
311.0
 11
457.5
 21
311.0
  0
LINE
  8
0
  6
CONTINUOUS
 62
     1
 10
490.0
 20
295.0
 11
485.0
 21
295.0
  0
LINE
  8
0
  6
CONTINUOUS
 62
     1
 10
485.0
 20
405.0
 11
485.0
 21
295.0
  0
POLYLINE
  8
0
  6
CONTINUOUS
 62
     2
 66
     1
  0
VERTEX
  8
0
  6
CONTINUOUS
 62
     2
 10
490.0
 20
425.0
  0
VERTEX
  8
0
  6
CONTINUOUS
 62
     2
 10
487.696
 20
423.836
  0
VERTEX
  8
0
  6
CONTINUOUS
 62
     2
 10
485.468
 20
422.588
  0
VERTEX
  8
0
  6
CONTINUOUS
 62
     2
 10
483.392
 20
421.172
  0
VERTEX
  8
0
  6
CONTINUOUS
 62
     2
 10
481.544
 20
419.504
  0
VERTEX
  8
0
  6
CONTINUOUS
 62
     2
 10
480.0
 20
417.5
  0
VERTEX
  8
0
  6
CONTINUOUS
 62
     2
 10
479.54
 20
414.548
  0
VERTEX
  8
0
  6
CONTINUOUS
 62
     2
 10
479.36
 20
411.224
  0
VERTEX
  8
0
  6
CONTINUOUS
 62
     2
 10
479.36
 20
407.576
  0
VERTEX
  8
0
  6
CONTINUOUS
 62
     2
 10
479.44
 20
403.652
  0
VERTEX
  8
0
  6
CONTINUOUS
 62
     2
 10
479.5
 20
399.5
  0
VERTEX
  8
0
  6
CONTINUOUS
 62
     2
 10
478.832
 20
395.328
  0
VERTEX
  8
0
  6
CONTINUOUS
 62
     2
 10
478.096
 20
390.984
  0
VERTEX
  8
0
  6
CONTINUOUS
 62
     2
 10
477.344
 20
386.476
  0
VERTEX
  8
0
  6
CONTINUOUS
 62
     2
 10
476.628
 20
381.812
  0
VERTEX
  8
0
  6
CONTINUOUS
 62
     2
 10
476.0
 20
377.0
  0
VERTEX
  8
0
  6
CONTINUOUS
 62
     2
 10
475.832
 20
371.936
  0
VERTEX
  8
0
  6
CONTINUOUS
 62
     2
 10
475.776
 20
366.768
  0
VERTEX
  8
0
  6
CONTINUOUS
 62
     2
 10
475.804
 20
361.532
  0
VERTEX
  8
0
  6
CONTINUOUS
 62
     2
 10
475.888
 20
356.264
  0
VERTEX
  8
0
  6
CONTINUOUS
 62
     2
 10
476.0
 20
351.0
  0
VERTEX
  8
0
  6
CONTINUOUS
 62
     2
 10
475.952
 20
346.176
  0
VERTEX
  8
0
  6
CONTINUOUS
 62
     2
 10
475.916
 20
341.328
  0
VERTEX
  8
0
  6
CONTINUOUS
 62
     2
 10
475.904
 20
336.392
  0
VERTEX
  8
0
  6
CONTINUOUS
 62
     2
 10
475.928
 20
331.304
  0
VERTEX
  8
0
  6
CONTINUOUS
 62
     2
 10
476.0
 20
326.0
  0
VERTEX
  8
0
  6
CONTINUOUS
 62
     2
 10
476.084
 20
319.216
  0
VERTEX
  8
0
  6
CONTINUOUS
 62
     2
 10
476.252
 20
312.388
  0
VERTEX
  8
0
  6
CONTINUOUS
 62
     2
 10
476.528
 20
305.752
  0
VERTEX
  8
0
  6
CONTINUOUS
 62
     2
 10
476.936
 20
299.544
  0
VERTEX
  8
0
  6
CONTINUOUS
 62
     2
 10
477.5
 20
294.0
  0
VERTEX
  8
0
  6
CONTINUOUS
 62
     2
 10
478.468
 20
291.02
  0
VERTEX
  8
0
  6
CONTINUOUS
 62
     2
 10
479.584
 20
288.76
  0
VERTEX
  8
0
  6
CONTINUOUS
 62
     2
 10
480.816
 20
287.04
  0
VERTEX
  8
0
  6
CONTINUOUS
 62
     2
 10
482.132
 20
285.68
  0
VERTEX
  8
0
  6
CONTINUOUS
 62
     2
 10
483.5
 20
284.5
  0
VERTEX
  8
0
  6
CONTINUOUS
 62
     2
 10
484.776
 20
282.6
  0
VERTEX
  8
0
  6
CONTINUOUS
 62
     2
 10
486.068
 20
280.7
  0
VERTEX
  8
0
  6
CONTINUOUS
 62
     2
 10
487.372
 20
278.8
  0
VERTEX
  8
0
  6
CONTINUOUS
 62
     2
 10
488.684
 20
276.9
  0
VERTEX
  8
0
  6
CONTINUOUS
 62
     2
 10
490.0
 20
275.0
  0
SEQEND
  0
LINE
  8
0
  6
CONTINUOUS
 62
     1
 10
475.946919431
 20
375.4
 11
485.0
 21
375.4
  0
LINE
  8
0
  6
CONTINUOUS
 62
     1
 10
476.017334906
 20
324.6
 11
485.0
 21
324.6
  0
CIRCLE
  8
0
  6
CONTINUOUS
 62
     1
 10
400.0
 20
342.272656094
 40
3.25
  0
CIRCLE
  8
0
  6
CONTINUOUS
 62
     1
 10
400.0
 20
342.272656094
 40
2.8
  0
LINE
  8
0
  6
CONTINUOUS
 62
     1
 10
399.2
 20
343.572656094
 11
398.5
 21
342.272656094
  0
LINE
  8
0
  6
CONTINUOUS
 62
     1
 10
398.5
 20
342.272656094
 11
399.2
 21
340.972656094
  0
LINE
  8
0
  6
CONTINUOUS
 62
     1
 10
399.2
 20
340.972656094
 11
400.8
 21
340.972656094
  0
LINE
  8
0
  6
CONTINUOUS
 62
     1
 10
400.8
 20
340.972656094
 11
401.5
 21
342.272656094
  0
LINE
  8
0
  6
CONTINUOUS
 62
     1
 10
401.5
 20
342.272656094
 11
400.8
 21
343.572656094
  0
LINE
  8
0
  6
CONTINUOUS
 62
     1
 10
400.8
 20
343.572656094
 11
399.2
 21
343.572656094
  0
LINE
  8
0
  6
LTYPE0
 62
     2
 10
395.7
 20
342.272656094
 11
404.3
 21
342.272656094
  0
LINE
  8
0
  6
LTYPE0
 62
     2
 10
400.0
 20
337.972656094
 11
400.0
 21
346.572656094
  0
CIRCLE
  8
0
  6
CONTINUOUS
 62
     1
 10
430.0
 20
342.272656094
 40
3.25
  0
CIRCLE
  8
0
  6
CONTINUOUS
 62
     1
 10
430.0
 20
342.272656094
 40
2.8
  0
LINE
  8
0
  6
CONTINUOUS
 62
     1
 10
429.2
 20
343.572656094
 11
428.5
 21
342.272656094
  0
LINE
  8
0
  6
CONTINUOUS
 62
     1
 10
428.5
 20
342.272656094
 11
429.2
 21
340.972656094
  0
LINE
  8
0
  6
CONTINUOUS
 62
     1
 10
429.2
 20
340.972656094
 11
430.8
 21
340.972656094
  0
LINE
  8
0
  6
CONTINUOUS
 62
     1
 10
430.8
 20
340.972656094
 11
431.5
 21
342.272656094
  0
LINE
  8
0
  6
CONTINUOUS
 62
     1
 10
431.5
 20
342.272656094
 11
430.8
 21
343.572656094
  0
LINE
  8
0
  6
CONTINUOUS
 62
     1
 10
430.8
 20
343.572656094
 11
429.2
 21
343.572656094
  0
LINE
  8
0
  6
LTYPE0
 62
     2
 10
425.7
 20
342.272656094
 11
434.3
 21
342.272656094
  0
LINE
  8
0
  6
LTYPE0
 62
     2
 10
430.0
 20
337.972656094
 11
430.0
 21
346.572656094
  0
LINE
  8
0
  6
CONTINUOUS
 62
     1
 10
404.0
 20
404.5
 11
426.0
 21
404.5
  0
LINE
  8
0
  6
CONTINUOUS
 62
     1
 10
407.0
 20
417.0
 11
423.0
 21
417.0
  0
LINE
  8
0
  6
CONTINUOUS
 62
     1
 10
404.5
 20
406.0
 11
425.5
 21
406.0
  0
LINE
  8
0
  6
CONTINUOUS
 62
     1
 10
404.5
 20
404.5
 11
425.5
 21
404.5
  0
LINE
  8
0
  6
CONTINUOUS
 62
     1
 10
425.5
 20
406.0
 11
425.5
 21
404.5
  0
LINE
  8
0
  6
CONTINUOUS
 62
     1
 10
404.5
 20
406.0
 11
404.5
 21
404.5
  0
ARC
  8
0
  6
CONTINUOUS
 62
     1
 10
407.0
 20
405.8975
 40
2.1025
 50
2.794362055
 51
177.205637945
  0
ARC
  8
0
  6
CONTINUOUS
 62
     1
 10
423.0
 20
405.8975
 40
2.1025
 50
2.794362055
 51
177.205637945
  0
LINE
  8
0
  6
CONTINUOUS
 62
     1
 10
407.0
 20
417.0
 11
407.0
 21
408.0
  0
LINE
  8
0
  6
CONTINUOUS
 62
     1
 10
423.0
 20
417.0
 11
423.0
 21
408.0
  0
LINE
  8
0
  6
LTYPE2
 62
     2
 10
407.0
 20
408.0
 11
407.0
 21
403.0
  0
LINE
  8
0
  6
LTYPE2
 62
     2
 10
423.0
 20
408.0
 11
423.0
 21
403.0
  0
LINE
  8
0
  6
CONTINUOUS
 62
     1
 10
426.0
 20
404.5
 11
426.0
 21
393.119021325
  0
LINE
  8
0
  6
CONTINUOUS
 62
     1
 10
404.0
 20
404.5
 11
404.0
 21
393.119021325
  0
LINE
  8
0
  6
CONTINUOUS
 62
     1
 10
405.0
 20
393.119021325
 11
425.0
 21
393.119021325
  0
LINE
  8
0
  6
CONTINUOUS
 62
     1
 10
426.0
 20
394.5
 11
456.5
 21
394.5
  0
LINE
  8
0
  6
CONTINUOUS
 62
     1
 10
372.5
 20
394.5
 11
404.0
 21
394.5
  0
LINE
  8
0
  6
LTYPE2
 62
     2
 10
500.0
 20
350.0
 11
326.0
 21
350.0
  0
LINE
  8
0
  6
LTYPE2
 62
     2
 10
415.0
 20
383.119021325
 11
415.0
 21
427.0
  0
LINE
  8
寸法線
  6
CONTINUOUS
 62
     2
 10
334.0
 20
405.0
 11
314.0
 21
405.0
  0
LINE
  8
寸法線
  6
CONTINUOUS
 62
     2
 10
316.0
 20
405.0
 11
314.705904774
 21
400.170370869
  0
LINE
  8
寸法線
  6
CONTINUOUS
 62
     2
 10
316.0
 20
405.0
 11
317.294095226
 21
400.170370869
  0
LINE
  8
寸法線
  6
CONTINUOUS
 62
     2
 10
316.0
 20
405.0
 11
316.0
 21
295.0
  0
LINE
  8
寸法線
  6
CONTINUOUS
 62
     2
 10
316.0
 20
295.0
 11
317.294095226
 21
299.829629131
  0
LINE
  8
寸法線
  6
CONTINUOUS
 62
     2
 10
316.0
 20
295.0
 11
314.705904774
 21
299.829629131
  0
LINE
  8
寸法線
  6
CONTINUOUS
 62
     2
 10
334.0
 20
295.0
 11
314.0
 21
295.0
  0
TEXT
  8
寸法線
  6
CONTINUOUS
 62
     5
 10
314.0
 20
328.5
 30
0.2
 40
8.0
  1
φ１１０ｇ６
 50
90.0
 41
0.875
 51
0.0
  7
KANJI0
  0
LINE
  8
0
  6
LTYPE0
 62
     2
 10
713.867483764
 20
431.763338627
 11
705.448448252
 21
411.437988912
  0
LINE
  8
0
  6
LTYPE0
 62
     2
 10
761.763338627
 20
383.867483764
 11
741.437988912
 21
375.448448252
  0
LINE
  8
0
  6
LTYPE0
 62
     2
 10
761.763338627
 20
316.132516236
 11
741.437988912
 21
324.551551748
  0
LINE
  8
0
  6
LTYPE0
 62
     2
 10
713.867483764
 20
268.236661373
 11
705.448448252
 21
288.562011088
  0
CIRCLE
  8
0
  6
CONTINUOUS
 62
     1
 10
709.657966008
 20
421.60066377
 40
9.0
  0
CIRCLE
  8
0
  6
CONTINUOUS
 62
     1
 10
751.60066377
 20
379.657966008
 40
9.0
  0
CIRCLE
  8
0
  6
CONTINUOUS
 62
     1
 10
751.60066377
 20
320.342033992
 40
9.0
  0
CIRCLE
  8
0
  6
CONTINUOUS
 62
     1
 10
709.657966008
 20
278.39933623
 40
9.0
  0
CIRCLE
  8
0
  6
CONTINUOUS
 62
     1
 10
680.0
 20
350.0
 40
92.5
  0
CIRCLE
  8
0
  6
LTYPE2
 62
     2
 10
680.0
 20
350.0
 40
77.5
  0
CIRCLE
  8
0
  6
CONTINUOUS
 62
     1
 10
680.0
 20
350.0
 40
55.0
  0
CIRCLE
  8
0
  6
CONTINUOUS
 62
     1
 10
680.0
 20
350.0
 40
25.4
  0
LINE
  8
0
  6
LTYPE0
 62
     2
 10
646.132516236
 20
431.763338627
 11
654.551551748
 21
411.437988912
  0
CIRCLE
  8
0
  6
CONTINUOUS
 62
     1
 10
650.342033992
 20
421.60066377
 40
9.0
  0
LINE
  8
0
  6
LTYPE0
 62
     2
 10
598.236661373
 20
383.867483764
 11
618.562011088
 21
375.448448252
  0
CIRCLE
  8
0
  6
CONTINUOUS
 62
     1
 10
608.39933623
 20
379.657966008
 40
9.0
  0
LINE
  8
0
  6
LTYPE0
 62
     2
 10
598.236661373
 20
316.132516236
 11
618.562011088
 21
324.551551748
  0
CIRCLE
  8
0
  6
CONTINUOUS
 62
     1
 10
608.39933623
 20
320.342033992
 40
9.0
  0
LINE
  8
0
  6
LTYPE0
 62
     2
 10
646.132516236
 20
268.236661373
 11
654.551551748
 21
288.562011088
  0
CIRCLE
  8
0
  6
CONTINUOUS
 62
     1
 10
650.342033992
 20
278.39933623
 40
9.0
  0
LINE
  8
0
  6
LTYPE2
 62
     2
 10
577.5
 20
350.0
 11
782.5
 21
350.0
  0
LINE
  8
0
  6
LTYPE2
 62
     2
 10
680.0
 20
247.5
 11
680.0
 21
452.5
  0
LINE
  8
寸法線
  6
CONTINUOUS
 62
     2
 10
492.0
 20
257.5
 11
542.0
 21
257.5
  0
LINE
  8
寸法線
  6
CONTINUOUS
 62
     2
 10
540.0
 20
257.5
 11
541.294095226
 21
262.329629131
  0
LINE
  8
寸法線
  6
CONTINUOUS
 62
     2
 10
540.0
 20
257.5
 11
538.705904774
 21
262.329629131
  0
LINE
  8
寸法線
  6
CONTINUOUS
 62
     2
 10
540.0
 20
257.5
 11
540.0
 21
442.5
  0
LINE
  8
寸法線
  6
CONTINUOUS
 62
     2
 10
540.0
 20
442.5
 11
538.705904774
 21
437.670370869
  0
LINE
  8
寸法線
  6
CONTINUOUS
 62
     2
 10
540.0
 20
442.5
 11
541.294095226
 21
437.670370869
  0
LINE
  8
寸法線
  6
CONTINUOUS
 62
     2
 10
492.0
 20
442.5
 11
542.0
 21
442.5
  0
TEXT
  8
寸法線
  6
CONTINUOUS
 62
     5
 10
538.0
 20
335.7
 30
0.2
 40
8.0
  1
φ１８５
 50
90.0
 41
0.875
 51
0.0
  7
KANJI0
  0
LINE
  8
寸法線
  6
CONTINUOUS
 62
     2
 10
485.0
 20
407.0
 11
485.0
 21
464.5
  0
LINE
  8
寸法線
  6
CONTINUOUS
 62
     2
 10
485.0
 20
462.5
 11
480.170370869
 21
463.794095226
  0
LINE
  8
寸法線
  6
CONTINUOUS
 62
     2
 10
485.0
 20
462.5
 11
480.170370869
 21
461.205904774
  0
LINE
  8
寸法線
  6
CONTINUOUS
 62
     2
 10
477.5
 20
462.5
 11
485.0
 21
462.5
  0
LINE
  8
寸法線
  6
CONTINUOUS
 62
     2
 10
485.0
 20
462.5
 11
490.0
 21
462.5
  0
LINE
  8
寸法線
  6
CONTINUOUS
 62
     2
 10
490.0
 20
462.5
 11
497.5
 21
462.5
  0
LINE
  8
寸法線
  6
CONTINUOUS
 62
     2
 10
490.0
 20
462.5
 11
494.829629131
 21
461.205904774
  0
LINE
  8
寸法線
  6
CONTINUOUS
 62
     2
 10
490.0
 20
462.5
 11
494.829629131
 21
463.794095226
  0
LINE
  8
寸法線
  6
CONTINUOUS
 62
     2
 10
490.0
 20
444.5
 11
490.0
 21
464.5
  0
TEXT
  8
寸法線
  6
CONTINUOUS
 62
     5
 10
484.0
 20
464.5
 30
0.2
 40
8.0
  1
５
 50
0.0
 41
0.875
 51
0.0
  7
KANJI0
  0
LINE
  8
寸法線
  6
CONTINUOUS
 62
     2
 10
336.0
 20
293.0
 11
336.0
 21
225.5
  0
LINE
  8
寸法線
  6
CONTINUOUS
 62
     2
 10
336.0
 20
227.5
 11
331.170370869
 21
228.794095226
  0
LINE
  8
寸法線
  6
CONTINUOUS
 62
     2
 10
336.0
 20
227.5
 11
331.170370869
 21
226.205904774
  0
LINE
  8
寸法線
  6
CONTINUOUS
 62
     2
 10
328.5
 20
227.5
 11
336.0
 21
227.5
  0
LINE
  8
寸法線
  6
CONTINUOUS
 62
     2
 10
336.0
 20
227.5
 11
340.0
 21
227.5
  0
TEXT
  8
寸法線
  6
CONTINUOUS
 62
     5
 10
334.5
 20
229.5
 30
0.2
 40
8.0
  1
４
 50
0.0
 41
0.875
 51
0.0
  7
KANJI0
  0
LINE
  8
寸法線
  6
CONTINUOUS
 62
     2
 10
340.0
 20
255.5
 11
340.0
 21
225.5
  0
LINE
  8
寸法線
  6
CONTINUOUS
 62
     2
 10
367.5
 20
227.5
 11
372.329629131
 21
226.205904774
  0
LINE
  8
寸法線
  6
CONTINUOUS
 62
     2
 10
367.5
 20
227.5
 11
372.329629131
 21
228.794095226
  0
LINE
  8
寸法線
  6
CONTINUOUS
 62
     2
 10
367.5
 20
227.5
 11
462.5
 21
227.5
  0
LINE
  8
寸法線
  6
CONTINUOUS
 62
     2
 10
462.5
 20
227.5
 11
457.670370869
 21
228.794095226
  0
LINE
  8
寸法線
  6
CONTINUOUS
 62
     2
 10
462.5
 20
227.5
 11
457.670370869
 21
226.205904774
  0
LINE
  8
寸法線
  6
CONTINUOUS
 62
     2
 10
462.5
 20
255.5
 11
462.5
 21
225.5
  0
TEXT
  8
寸法線
  6
CONTINUOUS
 62
     5
 10
407.9
 20
229.5
 30
0.2
 40
8.0
  1
９５
 50
0.0
 41
0.875
 51
0.0
  7
KANJI0
  0
LINE
  8
寸法線
  6
CONTINUOUS
 62
     2
 10
490.0
 20
225.5
 11
490.0
 21
205.5
  0
LINE
  8
寸法線
  6
CONTINUOUS
 62
     2
 10
490.0
 20
207.5
 11
485.170370869
 21
208.794095226
  0
LINE
  8
寸法線
  6
CONTINUOUS
 62
     2
 10
490.0
 20
207.5
 11
485.170370869
 21
206.205904774
  0
LINE
  8
寸法線
  6
CONTINUOUS
 62
     2
 10
490.0
 20
207.5
 11
336.0
 21
207.5
  0
LINE
  8
寸法線
  6
CONTINUOUS
 62
     2
 10
336.0
 20
207.5
 11
340.829629131
 21
206.205904774
  0
LINE
  8
寸法線
  6
CONTINUOUS
 62
     2
 10
336.0
 20
207.5
 11
340.829629131
 21
208.794095226
  0
LINE
  8
寸法線
  6
CONTINUOUS
 62
     2
 10
336.0
 20
225.5
 11
336.0
 21
205.5
  0
TEXT
  8
寸法線
  6
CONTINUOUS
 62
     5
 10
402.3
 20
209.5
 30
0.2
 40
8.0
  1
１５４
 50
0.0
 41
0.875
 51
0.0
  7
KANJI0
  0
LINE
  8
寸法線
  6
CONTINUOUS
 62
     2
 10
447.5
 20
394.5
 11
446.205904774
 21
389.670370869
  0
LINE
  8
寸法線
  6
CONTINUOUS
 62
     2
 10
447.5
 20
394.5
 11
448.794095226
 21
389.670370869
  0
LINE
  8
寸法線
  6
CONTINUOUS
 62
     2
 10
447.5
 20
394.5
 11
447.5
 21
305.5
  0
LINE
  8
寸法線
  6
CONTINUOUS
 62
     2
 10
447.5
 20
305.5
 11
448.794095226
 21
310.329629131
  0
LINE
  8
寸法線
  6
CONTINUOUS
 62
     2
 10
447.5
 20
305.5
 11
446.205904774
 21
310.329629131
  0
TEXT
  8
寸法線
  6
CONTINUOUS
 62
     5
 10
445.5
 20
352.0
 30
0.2
 40
8.0
  1
φ８９
 50
90.0
 41
0.875
 51
0.0
  7
KANJI0
  0
LINE
  8
寸法線
  6
CONTINUOUS
 62
     2
 10
340.0
 20
227.5
 11
344.829629131
 21
226.205904774
  0
LINE
  8
寸法線
  6
CONTINUOUS
 62
     2
 10
340.0
 20
227.5
 11
344.829629131
 21
228.794095226
  0
LINE
  8
寸法線
  6
CONTINUOUS
 62
     2
 10
340.0
 20
227.5
 11
367.5
 21
227.5
  0
LINE
  8
寸法線
  6
CONTINUOUS
 62
     2
 10
367.5
 20
227.5
 11
362.670370869
 21
228.794095226
  0
LINE
  8
寸法線
  6
CONTINUOUS
 62
     2
 10
367.5
 20
227.5
 11
362.670370869
 21
226.205904774
  0
LINE
  8
寸法線
  6
CONTINUOUS
 62
     2
 10
367.5
 20
255.5
 11
367.5
 21
225.5
  0
TEXT
  8
寸法線
  6
CONTINUOUS
 62
     5
 10
341.2
 20
229.5
 30
0.2
 40
8.0
  1
２７．５
 50
0.0
 41
0.875
 51
0.0
  7
KANJI0
  0
LINE
  8
寸法線
  6
CONTINUOUS
 62
     2
 10
462.5
 20
227.5
 11
467.329629131
 21
226.205904774
  0
LINE
  8
寸法線
  6
CONTINUOUS
 62
     2
 10
462.5
 20
227.5
 11
467.329629131
 21
228.794095226
  0
LINE
  8
寸法線
  6
CONTINUOUS
 62
     2
 10
462.5
 20
227.5
 11
490.0
 21
227.5
  0
LINE
  8
寸法線
  6
CONTINUOUS
 62
     2
 10
490.0
 20
227.5
 11
485.170370869
 21
228.794095226
  0
LINE
  8
寸法線
  6
CONTINUOUS
 62
     2
 10
490.0
 20
227.5
 11
485.170370869
 21
226.205904774
  0
LINE
  8
寸法線
  6
CONTINUOUS
 62
     2
 10
490.0
 20
255.5
 11
490.0
 21
225.5
  0
TEXT
  8
寸法線
  6
CONTINUOUS
 62
     5
 10
463.7
 20
229.5
 30
0.2
 40
8.0
  1
２７．５
 50
0.0
 41
0.875
 51
0.0
  7
KANJI0
  0
TEXT
  8
寸法線
  6
CONTINUOUS
 62
     5
 10
251.064231509
 20
423.892658634
 30
0.2
 40
8.0
  1
Ｐ．Ｃ．Ｄ．１５５
 50
45.0
 41
0.875
 51
0.0
  7
KANJI0
  0
LINE
  8
寸法線
  6
CONTINUOUS
 62
     2
 10
234.800775542
 20
404.800775542
 11
230.470648523
 21
402.300775542
  0
LINE
  8
寸法線
  6
CONTINUOUS
 62
     2
 10
234.800775542
 20
404.800775542
 11
232.300775542
 21
400.470648523
  0
LINE
  8
寸法線
  6
CONTINUOUS
 62
     2
 10
125.199224458
 20
295.199224458
 11
292.701699014
 21
462.701699014
  0
LINE
  8
寸法線
  6
CONTINUOUS
 62
     2
 10
125.199224458
 20
295.199224458
 11
129.529351477
 21
297.699224458
  0
LINE
  8
寸法線
  6
CONTINUOUS
 62
     2
 10
125.199224458
 20
295.199224458
 11
127.699224458
 21
299.529351477
  0
TEXT
  8
寸法線
  6
CONTINUOUS
 62
     5
 10
570.681291629
 20
462.147135496
 30
0.2
 40
8.0
  1
Ｐ．Ｃ．Ｄ．１５５
 50
315.0
 41
0.875
 51
0.0
  7
KANJI0
  0
LINE
  8
寸法線
  6
CONTINUOUS
 62
     2
 10
625.199224458
 20
404.800775542
 11
629.529351477
 21
402.300775542
  0
LINE
  8
寸法線
  6
CONTINUOUS
 62
     2
 10
625.199224458
 20
404.800775542
 11
627.699224458
 21
400.470648523
  0
LINE
  8
寸法線
  6
CONTINUOUS
 62
     2
 10
734.800775542
 20
295.199224458
 11
567.298300986
 21
462.701699014
  0
LINE
  8
寸法線
  6
CONTINUOUS
 62
     2
 10
734.800775542
 20
295.199224458
 11
730.470648523
 21
297.699224458
  0
LINE
  8
寸法線
  6
CONTINUOUS
 62
     2
 10
734.800775542
 20
295.199224458
 11
732.300775542
 21
299.529351477
  0
LINE
  8
寸法線
  6
CONTINUOUS
 62
     2
 10
216.021927039
 20
272.0353752
 11
218.521927039
 21
267.705248181
  0
LINE
  8
寸法線
  6
CONTINUOUS
 62
     2
 10
216.021927039
 20
272.0353752
 11
220.352054058
 21
269.5353752
  0
LINE
  8
寸法線
  6
CONTINUOUS
 62
     2
 10
216.021927039
 20
272.0353752
 11
239.657966008
 21
248.39933623
  0
LINE
  8
寸法線
  6
CONTINUOUS
 62
     2
 10
239.657966008
 20
248.39933623
 11
297.057966008
 21
248.39933623
  0
TEXT
  8
寸法線
  6
CONTINUOUS
 62
     5
 10
239.657966008
 20
250.39933623
 30
0.2
 40
8.0
  1
８－φ１８取付穴
 50
0.0
 41
0.875
 51
0.0
  7
KANJI0
  0
LINE
  8
寸法線
  6
CONTINUOUS
 62
     2
 10
643.978072961
 20
272.0353752
 11
639.647945942
 21
269.5353752
  0
LINE
  8
寸法線
  6
CONTINUOUS
 62
     2
 10
643.978072961
 20
272.0353752
 11
641.478072961
 21
267.705248181
  0
LINE
  8
寸法線
  6
CONTINUOUS
 62
     2
 10
643.978072961
 20
272.0353752
 11
620.342033992
 21
248.39933623
  0
LINE
  8
寸法線
  6
CONTINUOUS
 62
     2
 10
620.342033992
 20
248.39933623
 11
562.942033992
 21
248.39933623
  0
TEXT
  8
寸法線
  6
CONTINUOUS
 62
     5
 10
562.942033992
 20
250.39933623
 30
0.2
 40
8.0
  1
８－φ１８取付穴
 50
0.0
 41
0.875
 51
0.0
  7
KANJI0
  0
POLYLINE
  8
0
  6
CONTINUOUS
 62
     1
 66
     1
 70
     1
  0
VERTEX
  8
0
  6
CONTINUOUS
 62
     1
 10
381.0
 20
372.5
 42
0.025187664
  0
VERTEX
  8
0
  6
CONTINUOUS
 62
     1
 10
380.986681443
 20
372.764176806
 42
0.025076847
  0
VERTEX
  8
0
  6
CONTINUOUS
 62
     1
 10
380.946827136
 20
373.026343066
 42
0.024845864
  0
VERTEX
  8
0
  6
CONTINUOUS
 62
     1
 10
380.880740392
 20
373.284503538
 42
0.024508071
  0
VERTEX
  8
0
  6
CONTINUOUS
 62
     1
 10
380.788924173
 20
373.536693465
 42
0.024082007
  0
VERTEX
  8
0
  6
CONTINUOUS
 62
     1
 10
380.672077255
 20
373.780993528
 42
0.023589414
  0
VERTEX
  8
0
  6
CONTINUOUS
 62
     1
 10
380.531088913
 20
374.015544457
 42
0.02305322
  0
VERTEX
  8
0
  6
CONTINUOUS
 62
     1
 10
380.367032155
 20
374.238561177
 42
0.022495771
  0
VERTEX
  8
0
  6
CONTINUOUS
 62
     1
 10
380.181155551
 20
374.448346397
 42
0.021937539
  0
VERTEX
  8
0
  6
CONTINUOUS
 62
     1
 10
379.974873734
 20
374.643303525
 42
0.021396316
  0
VERTEX
  8
0
  6
CONTINUOUS
 62
     1
 10
379.749756634
 20
374.821948819
 42
0.02088689
  0
VERTEX
  8
0
  6
CONTINUOUS
 62
     1
 10
379.507517527
 20
374.98292268
 42
0.020421065
  0
VERTEX
  8
0
  6
CONTINUOUS
 62
     1
 10
379.25
 20
375.125
 42
0.020007926
  0
VERTEX
  8
0
  6
CONTINUOUS
 62
     1
 10
378.979163916
 20
375.247099485
 42
0.019654221
  0
VERTEX
  8
0
  6
CONTINUOUS
 62
     1
 10
378.697070502
 20
375.348291885
 42
0.019364797
  0
VERTEX
  8
0
  6
CONTINUOUS
 62
     1
 10
378.405866658
 20
375.427807063
 42
0.019143001
  0
VERTEX
  8
0
  6
CONTINUOUS
 62
     1
 10
378.107768622
 20
375.485039862
 42
0.018991036
  0
VERTEX
  8
0
  6
CONTINUOUS
 62
     1
 10
377.8050451
 20
375.519554705
 42
0.018910232
  0
VERTEX
  8
0
  6
CONTINUOUS
 62
     1
 10
377.5
 20
375.531088913
 42
0.018901239
  0
VERTEX
  8
0
  6
CONTINUOUS
 62
     1
 10
377.1949549
 20
375.519554705
 42
0.018964128
  0
VERTEX
  8
0
  6
CONTINUOUS
 62
     1
 10
376.892231378
 20
375.485039862
 42
0.019098398
  0
VERTEX
  8
0
  6
CONTINUOUS
 62
     1
 10
376.594133342
 20
375.427807063
 42
0.019302905
  0
VERTEX
  8
0
  6
CONTINUOUS
 62
     1
 10
376.302929498
 20
375.348291885
 42
0.019575685
  0
VERTEX
  8
0
  6
CONTINUOUS
 62
     1
 10
376.020836084
 20
375.247099485
 42
0.019913709
  0
VERTEX
  8
0
  6
CONTINUOUS
 62
     1
 10
375.75
 20
375.125
 42
0.020312541
  0
VERTEX
  8
0
  6
CONTINUOUS
 62
     1
 10
375.492482473
 20
374.98292268
 42
0.020765948
  0
VERTEX
  8
0
  6
CONTINUOUS
 62
     1
 10
375.250243366
 20
374.821948819
 42
0.021265468
  0
VERTEX
  8
0
  6
CONTINUOUS
 62
     1
 10
375.025126266
 20
374.643303525
 42
0.021800009
  0
VERTEX
  8
0
  6
CONTINUOUS
 62
     1
 10
374.818844449
 20
374.448346397
 42
0.022355542
  0
VERTEX
  8
0
  6
CONTINUOUS
 62
     1
 10
374.632967845
 20
374.238561177
 42
0.022915011
  0
VERTEX
  8
0
  6
CONTINUOUS
 62
     1
 10
374.468911087
 20
374.015544457
 42
0.023458559
  0
VERTEX
  8
0
  6
CONTINUOUS
 62
     1
 10
374.327922745
 20
373.780993528
 42
0.023964205
  0
VERTEX
  8
0
  6
CONTINUOUS
 62
     1
 10
374.211075827
 20
373.536693465
 42
0.02440902
  0
VERTEX
  8
0
  6
CONTINUOUS
 62
     1
 10
374.119259608
 20
373.284503538
 42
0.02477078
  0
VERTEX
  8
0
  6
CONTINUOUS
 62
     1
 10
374.053172864
 20
373.026343066
 42
0.02502995
  0
VERTEX
  8
0
  6
CONTINUOUS
 62
     1
 10
374.013318557
 20
372.764176806
 42
0.025171713
  0
VERTEX
  8
0
  6
CONTINUOUS
 62
     1
 10
374.0
 20
372.5
 42
0.025187664
  0
VERTEX
  8
0
  6
CONTINUOUS
 62
     1
 10
374.013318557
 20
372.235823194
 42
0.025076847
  0
VERTEX
  8
0
  6
CONTINUOUS
 62
     1
 10
374.053172864
 20
371.973656934
 42
0.024845864
  0
VERTEX
  8
0
  6
CONTINUOUS
 62
     1
 10
374.119259608
 20
371.715496462
 42
0.024508071
  0
VERTEX
  8
0
  6
CONTINUOUS
 62
     1
 10
374.211075827
 20
371.463306535
 42
0.024082007
  0
VERTEX
  8
0
  6
CONTINUOUS
 62
     1
 10
374.327922745
 20
371.219006472
 42
0.023589414
  0
VERTEX
  8
0
  6
CONTINUOUS
 62
     1
 10
374.468911087
 20
370.984455543
 42
0.02305322
  0
VERTEX
  8
0
  6
CONTINUOUS
 62
     1
 10
374.632967845
 20
370.761438823
 42
0.022495771
  0
VERTEX
  8
0
  6
CONTINUOUS
 62
     1
 10
374.818844449
 20
370.551653603
 42
0.021937539
  0
VERTEX
  8
0
  6
CONTINUOUS
 62
     1
 10
375.025126266
 20
370.356696475
 42
0.021396316
  0
VERTEX
  8
0
  6
CONTINUOUS
 62
     1
 10
375.250243366
 20
370.178051181
 42
0.02088689
  0
VERTEX
  8
0
  6
CONTINUOUS
 62
     1
 10
375.492482473
 20
370.01707732
 42
0.020421065
  0
VERTEX
  8
0
  6
CONTINUOUS
 62
     1
 10
375.75
 20
369.875
 42
0.020007926
  0
VERTEX
  8
0
  6
CONTINUOUS
 62
     1
 10
376.020836084
 20
369.752900515
 42
0.019654221
  0
VERTEX
  8
0
  6
CONTINUOUS
 62
     1
 10
376.302929498
 20
369.651708115
 42
0.019364797
  0
VERTEX
  8
0
  6
CONTINUOUS
 62
     1
 10
376.594133342
 20
369.572192937
 42
0.019143001
  0
VERTEX
  8
0
  6
CONTINUOUS
 62
     1
 10
376.892231378
 20
369.514960138
 42
0.018991036
  0
VERTEX
  8
0
  6
CONTINUOUS
 62
     1
 10
377.1949549
 20
369.480445295
 42
0.018910232
  0
VERTEX
  8
0
  6
CONTINUOUS
 62
     1
 10
377.5
 20
369.468911087
 42
0.018901239
  0
VERTEX
  8
0
  6
CONTINUOUS
 62
     1
 10
377.8050451
 20
369.480445295
 42
0.018964128
  0
VERTEX
  8
0
  6
CONTINUOUS
 62
     1
 10
378.107768622
 20
369.514960138
 42
0.019098398
  0
VERTEX
  8
0
  6
CONTINUOUS
 62
     1
 10
378.405866658
 20
369.572192937
 42
0.019302905
  0
VERTEX
  8
0
  6
CONTINUOUS
 62
     1
 10
378.697070502
 20
369.651708115
 42
0.019575685
  0
VERTEX
  8
0
  6
CONTINUOUS
 62
     1
 10
378.979163916
 20
369.752900515
 42
0.019913709
  0
VERTEX
  8
0
  6
CONTINUOUS
 62
     1
 10
379.25
 20
369.875
 42
0.020312541
  0
VERTEX
  8
0
  6
CONTINUOUS
 62
     1
 10
379.507517527
 20
370.01707732
 42
0.020765948
  0
VERTEX
  8
0
  6
CONTINUOUS
 62
     1
 10
379.749756634
 20
370.178051181
 42
0.021265468
  0
VERTEX
  8
0
  6
CONTINUOUS
 62
     1
 10
379.974873734
 20
370.356696475
 42
0.021800009
  0
VERTEX
  8
0
  6
CONTINUOUS
 62
     1
 10
380.181155551
 20
370.551653603
 42
0.022355542
  0
VERTEX
  8
0
  6
CONTINUOUS
 62
     1
 10
380.367032155
 20
370.761438823
 42
0.022915011
  0
VERTEX
  8
0
  6
CONTINUOUS
 62
     1
 10
380.531088913
 20
370.984455543
 42
0.023458559
  0
VERTEX
  8
0
  6
CONTINUOUS
 62
     1
 10
380.672077255
 20
371.219006472
 42
0.023964205
  0
VERTEX
  8
0
  6
CONTINUOUS
 62
     1
 10
380.788924173
 20
371.463306535
 42
0.02440902
  0
VERTEX
  8
0
  6
CONTINUOUS
 62
     1
 10
380.880740392
 20
371.715496462
 42
0.02477078
  0
VERTEX
  8
0
  6
CONTINUOUS
 62
     1
 10
380.946827136
 20
371.973656934
 42
0.02502995
  0
VERTEX
  8
0
  6
CONTINUOUS
 62
     1
 10
380.986681443
 20
372.235823194
 42
0.025171713
  0
SEQEND
  8
0
  6
CONTINUOUS
 62
     1
  0
LINE
  8
0
  6
CONTINUOUS
 62
     1
 10
375.8
 20
372.5
 11
376.6
 21
373.786394064
  0
LINE
  8
0
  6
CONTINUOUS
 62
     1
 10
376.6
 20
373.786394064
 11
378.4
 21
373.786394064
  0
LINE
  8
0
  6
CONTINUOUS
 62
     1
 10
378.4
 20
373.786394064
 11
379.2
 21
372.5
  0
LINE
  8
0
  6
CONTINUOUS
 62
     1
 10
379.2
 20
372.5
 11
378.4
 21
371.188317852
  0
LINE
  8
0
  6
CONTINUOUS
 62
     1
 10
378.4
 20
371.188317852
 11
376.6
 21
371.188317852
  0
LINE
  8
0
  6
CONTINUOUS
 62
     1
 10
376.6
 20
371.188317852
 11
375.8
 21
372.5
  0
LINE
  8
0
  6
LTYPE2
 62
     2
 10
382.0
 20
372.5
 11
373.0
 21
372.5
  0
LINE
  8
0
  6
LTYPE2
 62
     2
 10
377.5
 20
377.0
 11
377.5
 21
368.0
  0
POLYLINE
  8
0
  6
CONTINUOUS
 62
     1
 66
     1
 70
     1
  0
VERTEX
  8
0
  6
CONTINUOUS
 62
     1
 10
381.5
 20
372.25
 42
0.025187664
  0
VERTEX
  8
0
  6
CONTINUOUS
 62
     1
 10
381.484778792
 20
372.551916349
 42
0.025076847
  0
VERTEX
  8
0
  6
CONTINUOUS
 62
     1
 10
381.439231012
 20
372.851534933
 42
0.024845864
  0
VERTEX
  8
0
  6
CONTINUOUS
 62
     1
 10
381.363703305
 20
373.146575472
 42
0.024508071
  0
VERTEX
  8
0
  6
CONTINUOUS
 62
     1
 10
381.258770483
 20
373.434792531
 42
0.024082007
  0
VERTEX
  8
0
  6
CONTINUOUS
 62
     1
 10
381.125231148
 20
373.713992603
 42
0.023589414
  0
VERTEX
  8
0
  6
CONTINUOUS
 62
     1
 10
380.964101615
 20
373.982050808
 42
0.02305322
  0
VERTEX
  8
0
  6
CONTINUOUS
 62
     1
 10
380.776608177
 20
374.23692706
 42
0.022495771
  0
VERTEX
  8
0
  6
CONTINUOUS
 62
     1
 10
380.564177772
 20
374.476681597
 42
0.021937539
  0
VERTEX
  8
0
  6
CONTINUOUS
 62
     1
 10
380.328427125
 20
374.699489743
 42
0.021396316
  0
VERTEX
  8
0
  6
CONTINUOUS
 62
     1
 10
380.071150439
 20
374.903655793
 42
0.02088689
  0
VERTEX
  8
0
  6
CONTINUOUS
 62
     1
 10
379.794305745
 20
375.08762592
 42
0.020421065
  0
VERTEX
  8
0
  6
CONTINUOUS
 62
     1
 10
379.5
 20
375.25
 42
0.020007926
  0
VERTEX
  8
0
  6
CONTINUOUS
 62
     1
 10
379.190473047
 20
375.389542269
 42
0.019654221
  0
VERTEX
  8
0
  6
CONTINUOUS
 62
     1
 10
378.868080573
 20
375.505190725
 42
0.019364797
  0
VERTEX
  8
0
  6
CONTINUOUS
 62
     1
 10
378.53527618
 20
375.596065215
 42
0.019143001
  0
VERTEX
  8
0
  6
CONTINUOUS
 62
     1
 10
378.194592711
 20
375.661474128
 42
0.018991036
  0
VERTEX
  8
0
  6
CONTINUOUS
 62
     1
 10
377.848622971
 20
375.700919663
 42
0.018910232
  0
VERTEX
  8
0
  6
CONTINUOUS
 62
     1
 10
377.5
 20
375.714101615
 42
0.018901239
  0
VERTEX
  8
0
  6
CONTINUOUS
 62
     1
 10
377.151377029
 20
375.700919663
 42
0.018964128
  0
VERTEX
  8
0
  6
CONTINUOUS
 62
     1
 10
376.805407289
 20
375.661474128
 42
0.019098398
  0
VERTEX
  8
0
  6
CONTINUOUS
 62
     1
 10
376.46472382
 20
375.596065215
 42
0.019302905
  0
VERTEX
  8
0
  6
CONTINUOUS
 62
     1
 10
376.131919427
 20
375.505190725
 42
0.019575685
  0
VERTEX
  8
0
  6
CONTINUOUS
 62
     1
 10
375.809526953
 20
375.389542269
 42
0.019913709
  0
VERTEX
  8
0
  6
CONTINUOUS
 62
     1
 10
375.5
 20
375.25
 42
0.020312541
  0
VERTEX
  8
0
  6
CONTINUOUS
 62
     1
 10
375.205694255
 20
375.08762592
 42
0.020765948
  0
VERTEX
  8
0
  6
CONTINUOUS
 62
     1
 10
374.928849561
 20
374.903655793
 42
0.021265468
  0
VERTEX
  8
0
  6
CONTINUOUS
 62
     1
 10
374.671572875
 20
374.699489743
 42
0.021800009
  0
VERTEX
  8
0
  6
CONTINUOUS
 62
     1
 10
374.435822228
 20
374.476681597
 42
0.022355542
  0
VERTEX
  8
0
  6
CONTINUOUS
 62
     1
 10
374.223391823
 20
374.23692706
 42
0.022915011
  0
VERTEX
  8
0
  6
CONTINUOUS
 62
     1
 10
374.035898385
 20
373.982050808
 42
0.023458559
  0
VERTEX
  8
0
  6
CONTINUOUS
 62
     1
 10
373.874768852
 20
373.713992603
 42
0.023964205
  0
VERTEX
  8
0
  6
CONTINUOUS
 62
     1
 10
373.741229517
 20
373.434792531
 42
0.02440902
  0
VERTEX
  8
0
  6
CONTINUOUS
 62
     1
 10
373.636296695
 20
373.146575472
 42
0.02477078
  0
VERTEX
  8
0
  6
CONTINUOUS
 62
     1
 10
373.560768988
 20
372.851534933
 42
0.02502995
  0
VERTEX
  8
0
  6
CONTINUOUS
 62
     1
 10
373.515221208
 20
372.551916349
 42
0.025171713
  0
VERTEX
  8
0
  6
CONTINUOUS
 62
     1
 10
373.5
 20
372.25
 42
0.025187664
  0
VERTEX
  8
0
  6
CONTINUOUS
 62
     1
 10
373.515221208
 20
371.948083651
 42
0.025076847
  0
VERTEX
  8
0
  6
CONTINUOUS
 62
     1
 10
373.560768988
 20
371.648465067
 42
0.024845864
  0
VERTEX
  8
0
  6
CONTINUOUS
 62
     1
 10
373.636296695
 20
371.353424528
 42
0.024508071
  0
VERTEX
  8
0
  6
CONTINUOUS
 62
     1
 10
373.741229517
 20
371.065207469
 42
0.024082007
  0
VERTEX
  8
0
  6
CONTINUOUS
 62
     1
 10
373.874768852
 20
370.786007397
 42
0.023589414
  0
VERTEX
  8
0
  6
CONTINUOUS
 62
     1
 10
374.035898385
 20
370.517949192
 42
0.02305322
  0
VERTEX
  8
0
  6
CONTINUOUS
 62
     1
 10
374.223391823
 20
370.26307294
 42
0.022495771
  0
VERTEX
  8
0
  6
CONTINUOUS
 62
     1
 10
374.435822228
 20
370.023318403
 42
0.021937539
  0
VERTEX
  8
0
  6
CONTINUOUS
 62
     1
 10
374.671572875
 20
369.800510257
 42
0.021396316
  0
VERTEX
  8
0
  6
CONTINUOUS
 62
     1
 10
374.928849561
 20
369.596344207
 42
0.02088689
  0
VERTEX
  8
0
  6
CONTINUOUS
 62
     1
 10
375.205694255
 20
369.41237408
 42
0.020421065
  0
VERTEX
  8
0
  6
CONTINUOUS
 62
     1
 10
375.5
 20
369.25
 42
0.020007926
  0
VERTEX
  8
0
  6
CONTINUOUS
 62
     1
 10
375.809526953
 20
369.110457731
 42
0.019654221
  0
VERTEX
  8
0
  6
CONTINUOUS
 62
     1
 10
376.131919427
 20
368.994809275
 42
0.019364797
  0
VERTEX
  8
0
  6
CONTINUOUS
 62
     1
 10
376.46472382
 20
368.903934785
 42
0.019143001
  0
VERTEX
  8
0
  6
CONTINUOUS
 62
     1
 10
376.805407289
 20
368.838525872
 42
0.018991036
  0
VERTEX
  8
0
  6
CONTINUOUS
 62
     1
 10
377.151377029
 20
368.799080337
 42
0.018910232
  0
VERTEX
  8
0
  6
CONTINUOUS
 62
     1
 10
377.5
 20
368.785898385
 42
0.018901239
  0
VERTEX
  8
0
  6
CONTINUOUS
 62
     1
 10
377.848622971
 20
368.799080337
 42
0.018964128
  0
VERTEX
  8
0
  6
CONTINUOUS
 62
     1
 10
378.194592711
 20
368.838525872
 42
0.019098398
  0
VERTEX
  8
0
  6
CONTINUOUS
 62
     1
 10
378.53527618
 20
368.903934785
 42
0.019302905
  0
VERTEX
  8
0
  6
CONTINUOUS
 62
     1
 10
378.868080573
 20
368.994809275
 42
0.019575685
  0
VERTEX
  8
0
  6
CONTINUOUS
 62
     1
 10
379.190473047
 20
369.110457731
 42
0.019913709
  0
VERTEX
  8
0
  6
CONTINUOUS
 62
     1
 10
379.5
 20
369.25
 42
0.020312541
  0
VERTEX
  8
0
  6
CONTINUOUS
 62
     1
 10
379.794305745
 20
369.41237408
 42
0.020765948
  0
VERTEX
  8
0
  6
CONTINUOUS
 62
     1
 10
380.071150439
 20
369.596344207
 42
0.021265468
  0
VERTEX
  8
0
  6
CONTINUOUS
 62
     1
 10
380.328427125
 20
369.800510257
 42
0.021800009
  0
VERTEX
  8
0
  6
CONTINUOUS
 62
     1
 10
380.564177772
 20
370.023318403
 42
0.022355542
  0
VERTEX
  8
0
  6
CONTINUOUS
 62
     1
 10
380.776608177
 20
370.26307294
 42
0.022915011
  0
VERTEX
  8
0
  6
CONTINUOUS
 62
     1
 10
380.964101615
 20
370.517949192
 42
0.023458559
  0
VERTEX
  8
0
  6
CONTINUOUS
 62
     1
 10
381.125231148
 20
370.786007397
 42
0.023964205
  0
VERTEX
  8
0
  6
CONTINUOUS
 62
     1
 10
381.258770483
 20
371.065207469
 42
0.02440902
  0
VERTEX
  8
0
  6
CONTINUOUS
 62
     1
 10
381.363703305
 20
371.353424528
 42
0.02477078
  0
VERTEX
  8
0
  6
CONTINUOUS
 62
     1
 10
381.439231012
 20
371.648465067
 42
0.02502995
  0
VERTEX
  8
0
  6
CONTINUOUS
 62
     1
 10
381.484778792
 20
371.948083651
 42
0.025171713
  0
SEQEND
  8
0
  6
CONTINUOUS
 62
     1
  0
LINE
  8
0
  6
CONTINUOUS
 62
     1
 10
381.0
 20
372.5
 11
381.0
 21
370.572949017
  0
LINE
  8
0
  6
CONTINUOUS
 62
     1
 10
374.0
 20
372.5
 11
374.0
 21
370.572949017
  0
POLYLINE
  8
0
  6
CONTINUOUS
 62
     1
 66
     1
 70
     1
  0
VERTEX
  8
0
  6
CONTINUOUS
 62
     1
 10
381.0
 20
327.5
 42
-0.025187664
  0
VERTEX
  8
0
  6
CONTINUOUS
 62
     1
 10
380.986681443
 20
327.235823194
 42
-0.025076847
  0
VERTEX
  8
0
  6
CONTINUOUS
 62
     1
 10
380.946827136
 20
326.973656934
 42
-0.024845864
  0
VERTEX
  8
0
  6
CONTINUOUS
 62
     1
 10
380.880740392
 20
326.715496462
 42
-0.024508071
  0
VERTEX
  8
0
  6
CONTINUOUS
 62
     1
 10
380.788924173
 20
326.463306535
 42
-0.024082007
  0
VERTEX
  8
0
  6
CONTINUOUS
 62
     1
 10
380.672077255
 20
326.219006472
 42
-0.023589414
  0
VERTEX
  8
0
  6
CONTINUOUS
 62
     1
 10
380.531088913
 20
325.984455543
 42
-0.02305322
  0
VERTEX
  8
0
  6
CONTINUOUS
 62
     1
 10
380.367032155
 20
325.761438823
 42
-0.022495771
  0
VERTEX
  8
0
  6
CONTINUOUS
 62
     1
 10
380.181155551
 20
325.551653603
 42
-0.021937539
  0
VERTEX
  8
0
  6
CONTINUOUS
 62
     1
 10
379.974873734
 20
325.356696475
 42
-0.021396316
  0
VERTEX
  8
0
  6
CONTINUOUS
 62
     1
 10
379.749756634
 20
325.178051181
 42
-0.02088689
  0
VERTEX
  8
0
  6
CONTINUOUS
 62
     1
 10
379.507517527
 20
325.01707732
 42
-0.020421065
  0
VERTEX
  8
0
  6
CONTINUOUS
 62
     1
 10
379.25
 20
324.875
 42
-0.020007926
  0
VERTEX
  8
0
  6
CONTINUOUS
 62
     1
 10
378.979163916
 20
324.752900515
 42
-0.019654221
  0
VERTEX
  8
0
  6
CONTINUOUS
 62
     1
 10
378.697070502
 20
324.651708115
 42
-0.019364797
  0
VERTEX
  8
0
  6
CONTINUOUS
 62
     1
 10
378.405866658
 20
324.572192937
 42
-0.019143001
  0
VERTEX
  8
0
  6
CONTINUOUS
 62
     1
 10
378.107768622
 20
324.514960138
 42
-0.018991036
  0
VERTEX
  8
0
  6
CONTINUOUS
 62
     1
 10
377.8050451
 20
324.480445295
 42
-0.018910232
  0
VERTEX
  8
0
  6
CONTINUOUS
 62
     1
 10
377.5
 20
324.468911087
 42
-0.018901239
  0
VERTEX
  8
0
  6
CONTINUOUS
 62
     1
 10
377.1949549
 20
324.480445295
 42
-0.018964128
  0
VERTEX
  8
0
  6
CONTINUOUS
 62
     1
 10
376.892231378
 20
324.514960138
 42
-0.019098398
  0
VERTEX
  8
0
  6
CONTINUOUS
 62
     1
 10
376.594133342
 20
324.572192937
 42
-0.019302905
  0
VERTEX
  8
0
  6
CONTINUOUS
 62
     1
 10
376.302929498
 20
324.651708115
 42
-0.019575685
  0
VERTEX
  8
0
  6
CONTINUOUS
 62
     1
 10
376.020836084
 20
324.752900515
 42
-0.019913709
  0
VERTEX
  8
0
  6
CONTINUOUS
 62
     1
 10
375.75
 20
324.875
 42
-0.020312541
  0
VERTEX
  8
0
  6
CONTINUOUS
 62
     1
 10
375.492482473
 20
325.01707732
 42
-0.020765948
  0
VERTEX
  8
0
  6
CONTINUOUS
 62
     1
 10
375.250243366
 20
325.178051181
 42
-0.021265468
  0
VERTEX
  8
0
  6
CONTINUOUS
 62
     1
 10
375.025126266
 20
325.356696475
 42
-0.021800009
  0
VERTEX
  8
0
  6
CONTINUOUS
 62
     1
 10
374.818844449
 20
325.551653603
 42
-0.022355542
  0
VERTEX
  8
0
  6
CONTINUOUS
 62
     1
 10
374.632967845
 20
325.761438823
 42
-0.022915011
  0
VERTEX
  8
0
  6
CONTINUOUS
 62
     1
 10
374.468911087
 20
325.984455543
 42
-0.023458559
  0
VERTEX
  8
0
  6
CONTINUOUS
 62
     1
 10
374.327922745
 20
326.219006472
 42
-0.023964205
  0
VERTEX
  8
0
  6
CONTINUOUS
 62
     1
 10
374.211075827
 20
326.463306535
 42
-0.02440902
  0
VERTEX
  8
0
  6
CONTINUOUS
 62
     1
 10
374.119259608
 20
326.715496462
 42
-0.02477078
  0
VERTEX
  8
0
  6
CONTINUOUS
 62
     1
 10
374.053172864
 20
326.973656934
 42
-0.02502995
  0
VERTEX
  8
0
  6
CONTINUOUS
 62
     1
 10
374.013318557
 20
327.235823194
 42
-0.025171713
  0
VERTEX
  8
0
  6
CONTINUOUS
 62
     1
 10
374.0
 20
327.5
 42
-0.025187664
  0
VERTEX
  8
0
  6
CONTINUOUS
 62
     1
 10
374.013318557
 20
327.764176806
 42
-0.025076847
  0
VERTEX
  8
0
  6
CONTINUOUS
 62
     1
 10
374.053172864
 20
328.026343066
 42
-0.024845864
  0
VERTEX
  8
0
  6
CONTINUOUS
 62
     1
 10
374.119259608
 20
328.284503538
 42
-0.024508071
  0
VERTEX
  8
0
  6
CONTINUOUS
 62
     1
 10
374.211075827
 20
328.536693465
 42
-0.024082007
  0
VERTEX
  8
0
  6
CONTINUOUS
 62
     1
 10
374.327922745
 20
328.780993528
 42
-0.023589414
  0
VERTEX
  8
0
  6
CONTINUOUS
 62
     1
 10
374.468911087
 20
329.015544457
 42
-0.02305322
  0
VERTEX
  8
0
  6
CONTINUOUS
 62
     1
 10
374.632967845
 20
329.238561177
 42
-0.022495771
  0
VERTEX
  8
0
  6
CONTINUOUS
 62
     1
 10
374.818844449
 20
329.448346397
 42
-0.021937539
  0
VERTEX
  8
0
  6
CONTINUOUS
 62
     1
 10
375.025126266
 20
329.643303525
 42
-0.021396316
  0
VERTEX
  8
0
  6
CONTINUOUS
 62
     1
 10
375.250243366
 20
329.821948819
 42
-0.02088689
  0
VERTEX
  8
0
  6
CONTINUOUS
 62
     1
 10
375.492482473
 20
329.98292268
 42
-0.020421065
  0
VERTEX
  8
0
  6
CONTINUOUS
 62
     1
 10
375.75
 20
330.125
 42
-0.020007926
  0
VERTEX
  8
0
  6
CONTINUOUS
 62
     1
 10
376.020836084
 20
330.247099485
 42
-0.019654221
  0
VERTEX
  8
0
  6
CONTINUOUS
 62
     1
 10
376.302929498
 20
330.348291885
 42
-0.019364797
  0
VERTEX
  8
0
  6
CONTINUOUS
 62
     1
 10
376.594133342
 20
330.427807063
 42
-0.019143001
  0
VERTEX
  8
0
  6
CONTINUOUS
 62
     1
 10
376.892231378
 20
330.485039862
 42
-0.018991036
  0
VERTEX
  8
0
  6
CONTINUOUS
 62
     1
 10
377.1949549
 20
330.519554705
 42
-0.018910232
  0
VERTEX
  8
0
  6
CONTINUOUS
 62
     1
 10
377.5
 20
330.531088913
 42
-0.018901239
  0
VERTEX
  8
0
  6
CONTINUOUS
 62
     1
 10
377.8050451
 20
330.519554705
 42
-0.018964128
  0
VERTEX
  8
0
  6
CONTINUOUS
 62
     1
 10
378.107768622
 20
330.485039862
 42
-0.019098398
  0
VERTEX
  8
0
  6
CONTINUOUS
 62
     1
 10
378.405866658
 20
330.427807063
 42
-0.019302905
  0
VERTEX
  8
0
  6
CONTINUOUS
 62
     1
 10
378.697070502
 20
330.348291885
 42
-0.019575685
  0
VERTEX
  8
0
  6
CONTINUOUS
 62
     1
 10
378.979163916
 20
330.247099485
 42
-0.019913709
  0
VERTEX
  8
0
  6
CONTINUOUS
 62
     1
 10
379.25
 20
330.125
 42
-0.020312541
  0
VERTEX
  8
0
  6
CONTINUOUS
 62
     1
 10
379.507517527
 20
329.98292268
 42
-0.020765948
  0
VERTEX
  8
0
  6
CONTINUOUS
 62
     1
 10
379.749756634
 20
329.821948819
 42
-0.021265468
  0
VERTEX
  8
0
  6
CONTINUOUS
 62
     1
 10
379.974873734
 20
329.643303525
 42
-0.021800009
  0
VERTEX
  8
0
  6
CONTINUOUS
 62
     1
 10
380.181155551
 20
329.448346397
 42
-0.022355542
  0
VERTEX
  8
0
  6
CONTINUOUS
 62
     1
 10
380.367032155
 20
329.238561177
 42
-0.022915011
  0
VERTEX
  8
0
  6
CONTINUOUS
 62
     1
 10
380.531088913
 20
329.015544457
 42
-0.023458559
  0
VERTEX
  8
0
  6
CONTINUOUS
 62
     1
 10
380.672077255
 20
328.780993528
 42
-0.023964205
  0
VERTEX
  8
0
  6
CONTINUOUS
 62
     1
 10
380.788924173
 20
328.536693465
 42
-0.02440902
  0
VERTEX
  8
0
  6
CONTINUOUS
 62
     1
 10
380.880740392
 20
328.284503538
 42
-0.02477078
  0
VERTEX
  8
0
  6
CONTINUOUS
 62
     1
 10
380.946827136
 20
328.026343066
 42
-0.02502995
  0
VERTEX
  8
0
  6
CONTINUOUS
 62
     1
 10
380.986681443
 20
327.764176806
 42
-0.025171713
  0
SEQEND
  8
0
  6
CONTINUOUS
 62
     1
  0
LINE
  8
0
  6
CONTINUOUS
 62
     1
 10
375.8
 20
327.5
 11
376.6
 21
326.213605936
  0
LINE
  8
0
  6
CONTINUOUS
 62
     1
 10
376.6
 20
326.213605936
 11
378.4
 21
326.213605936
  0
LINE
  8
0
  6
CONTINUOUS
 62
     1
 10
378.4
 20
326.213605936
 11
379.2
 21
327.5
  0
LINE
  8
0
  6
CONTINUOUS
 62
     1
 10
379.2
 20
327.5
 11
378.4
 21
328.811682148
  0
LINE
  8
0
  6
CONTINUOUS
 62
     1
 10
378.4
 20
328.811682148
 11
376.6
 21
328.811682148
  0
LINE
  8
0
  6
CONTINUOUS
 62
     1
 10
376.6
 20
328.811682148
 11
375.8
 21
327.5
  0
LINE
  8
0
  6
LTYPE2
 62
     2
 10
382.0
 20
327.5
 11
373.0
 21
327.5
  0
LINE
  8
0
  6
LTYPE2
 62
     2
 10
377.5
 20
323.0
 11
377.5
 21
332.0
  0
POLYLINE
  8
0
  6
CONTINUOUS
 62
     1
 66
     1
 70
     1
  0
VERTEX
  8
0
  6
CONTINUOUS
 62
     1
 10
381.5
 20
327.75
 42
-0.025187664
  0
VERTEX
  8
0
  6
CONTINUOUS
 62
     1
 10
381.484778792
 20
327.448083651
 42
-0.025076847
  0
VERTEX
  8
0
  6
CONTINUOUS
 62
     1
 10
381.439231012
 20
327.148465067
 42
-0.024845864
  0
VERTEX
  8
0
  6
CONTINUOUS
 62
     1
 10
381.363703305
 20
326.853424528
 42
-0.024508071
  0
VERTEX
  8
0
  6
CONTINUOUS
 62
     1
 10
381.258770483
 20
326.565207469
 42
-0.024082007
  0
VERTEX
  8
0
  6
CONTINUOUS
 62
     1
 10
381.125231148
 20
326.286007397
 42
-0.023589414
  0
VERTEX
  8
0
  6
CONTINUOUS
 62
     1
 10
380.964101615
 20
326.017949192
 42
-0.02305322
  0
VERTEX
  8
0
  6
CONTINUOUS
 62
     1
 10
380.776608177
 20
325.76307294
 42
-0.022495771
  0
VERTEX
  8
0
  6
CONTINUOUS
 62
     1
 10
380.564177772
 20
325.523318403
 42
-0.021937539
  0
VERTEX
  8
0
  6
CONTINUOUS
 62
     1
 10
380.328427125
 20
325.300510257
 42
-0.021396316
  0
VERTEX
  8
0
  6
CONTINUOUS
 62
     1
 10
380.071150439
 20
325.096344207
 42
-0.02088689
  0
VERTEX
  8
0
  6
CONTINUOUS
 62
     1
 10
379.794305745
 20
324.91237408
 42
-0.020421065
  0
VERTEX
  8
0
  6
CONTINUOUS
 62
     1
 10
379.5
 20
324.75
 42
-0.020007926
  0
VERTEX
  8
0
  6
CONTINUOUS
 62
     1
 10
379.190473047
 20
324.610457731
 42
-0.019654221
  0
VERTEX
  8
0
  6
CONTINUOUS
 62
     1
 10
378.868080573
 20
324.494809275
 42
-0.019364797
  0
VERTEX
  8
0
  6
CONTINUOUS
 62
     1
 10
378.53527618
 20
324.403934785
 42
-0.019143001
  0
VERTEX
  8
0
  6
CONTINUOUS
 62
     1
 10
378.194592711
 20
324.338525872
 42
-0.018991036
  0
VERTEX
  8
0
  6
CONTINUOUS
 62
     1
 10
377.848622971
 20
324.299080337
 42
-0.018910232
  0
VERTEX
  8
0
  6
CONTINUOUS
 62
     1
 10
377.5
 20
324.285898385
 42
-0.018901239
  0
VERTEX
  8
0
  6
CONTINUOUS
 62
     1
 10
377.151377029
 20
324.299080337
 42
-0.018964128
  0
VERTEX
  8
0
  6
CONTINUOUS
 62
     1
 10
376.805407289
 20
324.338525872
 42
-0.019098398
  0
VERTEX
  8
0
  6
CONTINUOUS
 62
     1
 10
376.46472382
 20
324.403934785
 42
-0.019302905
  0
VERTEX
  8
0
  6
CONTINUOUS
 62
     1
 10
376.131919427
 20
324.494809275
 42
-0.019575685
  0
VERTEX
  8
0
  6
CONTINUOUS
 62
     1
 10
375.809526953
 20
324.610457731
 42
-0.019913709
  0
VERTEX
  8
0
  6
CONTINUOUS
 62
     1
 10
375.5
 20
324.75
 42
-0.020312541
  0
VERTEX
  8
0
  6
CONTINUOUS
 62
     1
 10
375.205694255
 20
324.91237408
 42
-0.020765948
  0
VERTEX
  8
0
  6
CONTINUOUS
 62
     1
 10
374.928849561
 20
325.096344207
 42
-0.021265468
  0
VERTEX
  8
0
  6
CONTINUOUS
 62
     1
 10
374.671572875
 20
325.300510257
 42
-0.021800009
  0
VERTEX
  8
0
  6
CONTINUOUS
 62
     1
 10
374.435822228
 20
325.523318403
 42
-0.022355542
  0
VERTEX
  8
0
  6
CONTINUOUS
 62
     1
 10
374.223391823
 20
325.76307294
 42
-0.022915011
  0
VERTEX
  8
0
  6
CONTINUOUS
 62
     1
 10
374.035898385
 20
326.017949192
 42
-0.023458559
  0
VERTEX
  8
0
  6
CONTINUOUS
 62
     1
 10
373.874768852
 20
326.286007397
 42
-0.023964205
  0
VERTEX
  8
0
  6
CONTINUOUS
 62
     1
 10
373.741229517
 20
326.565207469
 42
-0.02440902
  0
VERTEX
  8
0
  6
CONTINUOUS
 62
     1
 10
373.636296695
 20
326.853424528
 42
-0.02477078
  0
VERTEX
  8
0
  6
CONTINUOUS
 62
     1
 10
373.560768988
 20
327.148465067
 42
-0.02502995
  0
VERTEX
  8
0
  6
CONTINUOUS
 62
     1
 10
373.515221208
 20
327.448083651
 42
-0.025171713
  0
VERTEX
  8
0
  6
CONTINUOUS
 62
     1
 10
373.5
 20
327.75
 42
-0.025187664
  0
VERTEX
  8
0
  6
CONTINUOUS
 62
     1
 10
373.515221208
 20
328.051916349
 42
-0.025076847
  0
VERTEX
  8
0
  6
CONTINUOUS
 62
     1
 10
373.560768988
 20
328.351534933
 42
-0.024845864
  0
VERTEX
  8
0
  6
CONTINUOUS
 62
     1
 10
373.636296695
 20
328.646575472
 42
-0.024508071
  0
VERTEX
  8
0
  6
CONTINUOUS
 62
     1
 10
373.741229517
 20
328.934792531
 42
-0.024082007
  0
VERTEX
  8
0
  6
CONTINUOUS
 62
     1
 10
373.874768852
 20
329.213992603
 42
-0.023589414
  0
VERTEX
  8
0
  6
CONTINUOUS
 62
     1
 10
374.035898385
 20
329.482050808
 42
-0.02305322
  0
VERTEX
  8
0
  6
CONTINUOUS
 62
     1
 10
374.223391823
 20
329.73692706
 42
-0.022495771
  0
VERTEX
  8
0
  6
CONTINUOUS
 62
     1
 10
374.435822228
 20
329.976681597
 42
-0.021937539
  0
VERTEX
  8
0
  6
CONTINUOUS
 62
     1
 10
374.671572875
 20
330.199489743
 42
-0.021396316
  0
VERTEX
  8
0
  6
CONTINUOUS
 62
     1
 10
374.928849561
 20
330.403655793
 42
-0.02088689
  0
VERTEX
  8
0
  6
CONTINUOUS
 62
     1
 10
375.205694255
 20
330.58762592
 42
-0.020421065
  0
VERTEX
  8
0
  6
CONTINUOUS
 62
     1
 10
375.5
 20
330.75
 42
-0.020007926
  0
VERTEX
  8
0
  6
CONTINUOUS
 62
     1
 10
375.809526953
 20
330.889542269
 42
-0.019654221
  0
VERTEX
  8
0
  6
CONTINUOUS
 62
     1
 10
376.131919427
 20
331.005190725
 42
-0.019364797
  0
VERTEX
  8
0
  6
CONTINUOUS
 62
     1
 10
376.46472382
 20
331.096065215
 42
-0.019143001
  0
VERTEX
  8
0
  6
CONTINUOUS
 62
     1
 10
376.805407289
 20
331.161474128
 42
-0.018991036
  0
VERTEX
  8
0
  6
CONTINUOUS
 62
     1
 10
377.151377029
 20
331.200919663
 42
-0.018910232
  0
VERTEX
  8
0
  6
CONTINUOUS
 62
     1
 10
377.5
 20
331.214101615
 42
-0.018901239
  0
VERTEX
  8
0
  6
CONTINUOUS
 62
     1
 10
377.848622971
 20
331.200919663
 42
-0.018964128
  0
VERTEX
  8
0
  6
CONTINUOUS
 62
     1
 10
378.194592711
 20
331.161474128
 42
-0.019098398
  0
VERTEX
  8
0
  6
CONTINUOUS
 62
     1
 10
378.53527618
 20
331.096065215
 42
-0.019302905
  0
VERTEX
  8
0
  6
CONTINUOUS
 62
     1
 10
378.868080573
 20
331.005190725
 42
-0.019575685
  0
VERTEX
  8
0
  6
CONTINUOUS
 62
     1
 10
379.190473047
 20
330.889542269
 42
-0.019913709
  0
VERTEX
  8
0
  6
CONTINUOUS
 62
     1
 10
379.5
 20
330.75
 42
-0.020312541
  0
VERTEX
  8
0
  6
CONTINUOUS
 62
     1
 10
379.794305745
 20
330.58762592
 42
-0.020765948
  0
VERTEX
  8
0
  6
CONTINUOUS
 62
     1
 10
380.071150439
 20
330.403655793
 42
-0.021265468
  0
VERTEX
  8
0
  6
CONTINUOUS
 62
     1
 10
380.328427125
 20
330.199489743
 42
-0.021800009
  0
VERTEX
  8
0
  6
CONTINUOUS
 62
     1
 10
380.564177772
 20
329.976681597
 42
-0.022355542
  0
VERTEX
  8
0
  6
CONTINUOUS
 62
     1
 10
380.776608177
 20
329.73692706
 42
-0.022915011
  0
VERTEX
  8
0
  6
CONTINUOUS
 62
     1
 10
380.964101615
 20
329.482050808
 42
-0.023458559
  0
VERTEX
  8
0
  6
CONTINUOUS
 62
     1
 10
381.125231148
 20
329.213992603
 42
-0.023964205
  0
VERTEX
  8
0
  6
CONTINUOUS
 62
     1
 10
381.258770483
 20
328.934792531
 42
-0.02440902
  0
VERTEX
  8
0
  6
CONTINUOUS
 62
     1
 10
381.363703305
 20
328.646575472
 42
-0.02477078
  0
VERTEX
  8
0
  6
CONTINUOUS
 62
     1
 10
381.439231012
 20
328.351534933
 42
-0.02502995
  0
VERTEX
  8
0
  6
CONTINUOUS
 62
     1
 10
381.484778792
 20
328.051916349
 42
-0.025171713
  0
SEQEND
  8
0
  6
CONTINUOUS
 62
     1
  0
LINE
  8
0
  6
CONTINUOUS
 62
     1
 10
381.0
 20
327.5
 11
381.0
 21
329.427050983
  0
LINE
  8
0
  6
CONTINUOUS
 62
     1
 10
374.0
 20
327.5
 11
374.0
 21
329.427050983
  0
LINE
  8
0
  6
CONTINUOUS
 62
     1
 10
374.0
 20
394.5
 11
374.0
 21
395.0
  0
LINE
  8
0
  6
CONTINUOUS
 62
     1
 10
374.0
 20
395.0
 11
381.0
 21
395.0
  0
LINE
  8
0
  6
CONTINUOUS
 62
     1
 10
381.0
 20
395.0
 11
381.0
 21
394.5
  0
LINE
  8
0
  6
LTYPE2
 62
     2
 10
377.5
 20
400.0
 11
377.5
 21
389.5
  0
LINE
  8
0
  6
CONTINUOUS
 62
     1
 10
374.0
 20
305.5
 11
374.0
 21
305.0
  0
LINE
  8
0
  6
CONTINUOUS
 62
     1
 10
374.0
 20
305.0
 11
381.0
 21
305.0
  0
LINE
  8
0
  6
CONTINUOUS
 62
     1
 10
381.0
 20
305.0
 11
381.0
 21
305.5
  0
LINE
  8
0
  6
LTYPE2
 62
     2
 10
377.5
 20
300.0
 11
377.5
 21
310.5
  0
LINE
  8
寸法線
  6
CONTINUOUS
 62
     2
 10
492.0
 20
405.0
 11
522.0
 21
405.0
  0
LINE
  8
寸法線
  6
CONTINUOUS
 62
     2
 10
520.0
 20
405.0
 11
518.705904774
 21
400.170370869
  0
LINE
  8
寸法線
  6
CONTINUOUS
 62
     2
 10
520.0
 20
405.0
 11
521.294095226
 21
400.170370869
  0
LINE
  8
寸法線
  6
CONTINUOUS
 62
     2
 10
520.0
 20
405.0
 11
520.0
 21
295.0
  0
LINE
  8
寸法線
  6
CONTINUOUS
 62
     2
 10
520.0
 20
295.0
 11
521.294095226
 21
299.829629131
  0
LINE
  8
寸法線
  6
CONTINUOUS
 62
     2
 10
520.0
 20
295.0
 11
518.705904774
 21
299.829629131
  0
LINE
  8
寸法線
  6
CONTINUOUS
 62
     2
 10
492.0
 20
295.0
 11
522.0
 21
295.0
  0
TEXT
  8
寸法線
  6
CONTINUOUS
 62
     5
 10
518.0
 20
328.5
 30
0.2
 40
8.0
  1
φ１１０Ｈ７
 50
90.0
 41
0.875
 51
0.0
  7
KANJI0
  0
TEXT
  8
表題欄
  6
CONTINUOUS
 62
     5
 10
686.0
 20
46.0
 30
0.0
 40
8.0
  1
益子
 50
0.0
 41
0.875
 51
0.0
  7
KANJI1
  0
LINE
  8
図枠
  6
CONTINUOUS
 62
     2
 10
820.0
 20
397.0
 11
830.0
 21
397.0
  0
LINE
  8
図枠
  6
CONTINUOUS
 62
     2
 10
820.0
 20
497.0
 11
830.0
 21
497.0
  0
LINE
  8
図枠
  6
CONTINUOUS
 62
     2
 10
820.0
 20
197.0
 11
830.0
 21
197.0
  0
LINE
  8
図枠
  6
CONTINUOUS
 62
     2
 10
820.0
 20
97.0
 11
830.0
 21
97.0
  0
LINE
  8
図枠
  6
CONTINUOUS
 62
     2
 10
820.0
 20
150.0
 11
815.0
 21
150.0
  0
LINE
  8
図枠
  6
CONTINUOUS
 62
     2
 10
820.0
 20
166.0
 11
815.0
 21
166.0
  0
LINE
  8
図枠
  6
CONTINUOUS
 62
     2
 10
820.0
 20
182.0
 11
815.0
 21
182.0
  0
TEXT
  8
図枠
  6
CONTINUOUS
 62
     6
 10
823.0
 20
542.0
 30
0.0
 40
10.0
  1
Ａ
 50
0.0
 41
1.0
 51
0.0
  7
KANJI2
  0
TEXT
  8
図枠
  6
CONTINUOUS
 62
     6
 10
823.0
 20
442.0
 30
0.0
 40
10.0
  1
Ｂ
 50
0.0
 41
1.0
 51
0.0
  7
KANJI2
  0
TEXT
  8
図枠
  6
CONTINUOUS
 62
     6
 10
823.0
 20
342.0
 30
0.0
 40
10.0
  1
Ｃ
 50
0.0
 41
1.0
 51
0.0
  7
KANJI2
  0
TEXT
  8
図枠
  6
CONTINUOUS
 62
     6
 10
823.0
 20
242.0
 30
0.0
 40
10.0
  1
Ｄ
 50
0.0
 41
1.0
 51
0.0
  7
KANJI2
  0
TEXT
  8
図枠
  6
CONTINUOUS
 62
     6
 10
823.0
 20
142.0
 30
0.0
 40
10.0
  1
Ｅ
 50
0.0
 41
1.0
 51
0.0
  7
KANJI2
  0
TEXT
  8
図枠
  6
CONTINUOUS
 62
     6
 10
823.0
 20
42.0
 30
0.0
 40
10.0
  1
Ｆ
 50
0.0
 41
1.0
 51
0.0
  7
KANJI2
  0
LINE
  8
図枠
  6
CONTINUOUS
 62
     2
 10
50.0
 20
397.0
 11
40.0
 21
397.0
  0
LINE
  8
図枠
  6
CONTINUOUS
 62
     2
 10
50.0
 20
497.0
 11
40.0
 21
497.0
  0
LINE
  8
図枠
  6
CONTINUOUS
 62
     2
 10
50.0
 20
197.0
 11
40.0
 21
197.0
  0
LINE
  8
図枠
  6
CONTINUOUS
 62
     2
 10
50.0
 20
97.0
 11
40.0
 21
97.0
  0
TEXT
  8
図枠
  6
CONTINUOUS
 62
     6
 10
37.0
 20
542.0
 30
0.0
 40
10.0
  1
Ａ
 50
0.0
 41
1.0
 51
0.0
  7
KANJI2
  0
TEXT
  8
図枠
  6
CONTINUOUS
 62
     6
 10
37.0
 20
442.0
 30
0.0
 40
10.0
  1
Ｂ
 50
0.0
 41
1.0
 51
0.0
  7
KANJI2
  0
TEXT
  8
図枠
  6
CONTINUOUS
 62
     6
 10
37.0
 20
342.0
 30
0.0
 40
10.0
  1
Ｃ
 50
0.0
 41
1.0
 51
0.0
  7
KANJI2
  0
TEXT
  8
図枠
  6
CONTINUOUS
 62
     6
 10
37.0
 20
242.0
 30
0.0
 40
10.0
  1
Ｄ
 50
0.0
 41
1.0
 51
0.0
  7
KANJI2
  0
TEXT
  8
図枠
  6
CONTINUOUS
 62
     6
 10
37.0
 20
142.0
 30
0.0
 40
10.0
  1
Ｅ
 50
0.0
 41
1.0
 51
0.0
  7
KANJI2
  0
TEXT
  8
図枠
  6
CONTINUOUS
 62
     6
 10
37.0
 20
42.0
 30
0.0
 40
10.0
  1
Ｆ
 50
0.0
 41
1.0
 51
0.0
  7
KANJI2
  0
LINE
  8
図枠
  6
CONTINUOUS
 62
     2
 10
320.0
 20
574.0
 11
320.0
 21
584.0
  0
LINE
  8
図枠
  6
CONTINUOUS
 62
     2
 10
220.0
 20
584.0
 11
220.0
 21
574.0
  0
LINE
  8
図枠
  6
CONTINUOUS
 62
     2
 10
120.0
 20
584.0
 11
120.0
 21
574.0
  0
LINE
  8
図枠
  6
CONTINUOUS
 62
     2
 10
520.0
 20
584.0
 11
520.0
 21
574.0
  0
LINE
  8
図枠
  6
CONTINUOUS
 62
     2
 10
620.0
 20
584.0
 11
620.0
 21
574.0
  0
TEXT
  8
図枠
  6
CONTINUOUS
 62
     6
 10
64.0
 20
577.0
 30
0.0
 40
10.0
  1
１
 50
0.0
 41
1.2
 51
0.0
  7
KANJI3
  0
TEXT
  8
図枠
  6
CONTINUOUS
 62
     6
 10
164.0
 20
577.0
 30
0.0
 40
10.0
  1
２
 50
0.0
 41
1.2
 51
0.0
  7
KANJI3
  0
TEXT
  8
図枠
  6
CONTINUOUS
 62
     6
 10
264.0
 20
577.0
 30
0.0
 40
10.0
  1
３
 50
0.0
 41
1.2
 51
0.0
  7
KANJI3
  0
TEXT
  8
図枠
  6
CONTINUOUS
 62
     6
 10
364.0
 20
577.0
 30
0.0
 40
10.0
  1
４
 50
0.0
 41
1.2
 51
0.0
  7
KANJI3
  0
TEXT
  8
図枠
  6
CONTINUOUS
 62
     6
 10
464.0
 20
577.0
 30
0.0
 40
10.0
  1
５
 50
0.0
 41
1.2
 51
0.0
  7
KANJI3
  0
TEXT
  8
図枠
  6
CONTINUOUS
 62
     6
 10
564.0
 20
577.0
 30
0.0
 40
10.0
  1
６
 50
0.0
 41
1.2
 51
0.0
  7
KANJI3
  0
TEXT
  8
図枠
  6
CONTINUOUS
 62
     6
 10
664.0
 20
577.0
 30
0.0
 40
10.0
  1
７
 50
0.0
 41
1.2
 51
0.0
  7
KANJI3
  0
TEXT
  8
図枠
  6
CONTINUOUS
 62
     6
 10
764.0
 20
577.0
 30
0.0
 40
10.0
  1
８
 50
0.0
 41
1.2
 51
0.0
  7
KANJI3
  0
LINE
  8
図枠
  6
CONTINUOUS
 62
     2
 10
220.0
 20
10.0
 11
220.0
 21
20.0
  0
LINE
  8
図枠
  6
CONTINUOUS
 62
     2
 10
120.0
 20
10.0
 11
120.0
 21
20.0
  0
TEXT
  8
図枠
  6
CONTINUOUS
 62
     6
 10
64.0
 20
7.0
 30
0.0
 40
10.0
  1
１
 50
0.0
 41
1.2
 51
0.0
  7
KANJI3
  0
TEXT
  8
図枠
  6
CONTINUOUS
 62
     6
 10
164.0
 20
7.0
 30
0.0
 40
10.0
  1
２
 50
0.0
 41
1.2
 51
0.0
  7
KANJI3
  0
TEXT
  8
図枠
  6
CONTINUOUS
 62
     6
 10
264.0
 20
7.0
 30
0.0
 40
10.0
  1
３
 50
0.0
 41
1.2
 51
0.0
  7
KANJI3
  0
LINE
  8
図枠
  6
CONTINUOUS
 62
     2
 10
720.0
 20
574.0
 11
720.0
 21
584.0
  0
LINE
  8
図枠
  6
CONTINUOUS
 62
     6
 10
50.0
 20
574.0
 11
50.0
 21
20.0
  0
LINE
  8
図枠
  6
CONTINUOUS
 62
     6
 10
420.0
 20
20.0
 11
420.0
 21
0.0
  0
LINE
  8
図枠
  6
CONTINUOUS
 62
     6
 10
320.0
 20
20.0
 11
320.0
 21
10.0
  0
LINE
  8
図枠
  6
CONTINUOUS
 62
     6
 10
340.0
 20
20.0
 11
340.0
 21
10.0
  0
LINE
  8
図枠
  6
CONTINUOUS
 62
     6
 10
360.0
 20
20.0
 11
360.0
 21
10.0
  0
LINE
  8
図枠
  6
CONTINUOUS
 62
     6
 10
380.0
 20
20.0
 11
380.0
 21
10.0
  0
LINE
  8
図枠
  6
CONTINUOUS
 62
     6
 10
400.0
 20
20.0
 11
400.0
 21
10.0
  0
LINE
  8
図枠
  6
CONTINUOUS
 62
     6
 10
50.0
 20
20.0
 11
820.0
 21
20.0
  0
LINE
  8
図枠
  6
CONTINUOUS
 62
     6
 10
520.0
 20
10.0
 11
520.0
 21
20.0
  0
LINE
  8
図枠
  6
CONTINUOUS
 62
     6
 10
500.0
 20
10.0
 11
500.0
 21
20.0
  0
LINE
  8
図枠
  6
CONTINUOUS
 62
     6
 10
480.0
 20
10.0
 11
480.0
 21
20.0
  0
LINE
  8
図枠
  6
CONTINUOUS
 62
     6
 10
460.0
 20
10.0
 11
460.0
 21
20.0
  0
LINE
  8
図枠
  6
CONTINUOUS
 62
     6
 10
440.0
 20
10.0
 11
440.0
 21
20.0
  0
LINE
  8
図枠
  6
CONTINUOUS
 62
     6
 10
320.0
 20
10.0
 11
520.0
 21
10.0
  0
LINE
  8
図枠
  6
CONTINUOUS
 62
     6
 10
50.0
 20
297.0
 11
0.0
 21
297.0
  0
LINE
  8
図枠
  6
CONTINUOUS
 62
     6
 10
420.0
 20
574.0
 11
420.0
 21
594.0
  0
LINE
  8
図枠
  6
CONTINUOUS
 62
     6
 10
820.0
 20
574.0
 11
50.0
 21
574.0
  0
LINE
  8
図枠
  6
CONTINUOUS
 62
     6
 10
820.0
 20
297.0
 11
840.0
 21
297.0
  0
LINE
  8
図枠
  6
CONTINUOUS
 62
     6
 10
820.0
 20
20.0
 11
820.0
 21
574.0
  0
TEXT
  8
図枠
  6
CONTINUOUS
 62
     6
 10
570.0
 20
7.0
 30
0.0
 40
10.0
  1
６
 50
0.0
 41
1.2
 51
0.0
  7
KANJI3
  0
TEXT
  8
図枠
  6
CONTINUOUS
 62
     6
 10
670.0
 20
7.0
 30
0.0
 40
10.0
  1
７
 50
0.0
 41
1.2
 51
0.0
  7
KANJI3
  0
TEXT
  8
図枠
  6
CONTINUOUS
 62
     6
 10
770.0
 20
7.0
 30
0.0
 40
10.0
  1
８
 50
0.0
 41
1.2
 51
0.0
  7
KANJI3
  0
LINE
  8
図枠
  6
CONTINUOUS
 62
     2
 10
620.0
 20
10.0
 11
620.0
 21
20.0
  0
LINE
  8
図枠
  6
CONTINUOUS
 62
     2
 10
720.0
 20
10.0
 11
720.0
 21
20.0
  0
LINE
  8
図枠
  6
CONTINUOUS
 62
     2
 10
482.0
 20
134.0
 11
482.0
 21
20.0
  0
LINE
  8
図枠
  6
CONTINUOUS
 62
     2
 10
496.0
 20
134.0
 11
496.0
 21
20.0
  0
LINE
  8
図枠
  6
CONTINUOUS
 62
     2
 10
510.0
 20
134.0
 11
510.0
 21
20.0
  0
LINE
  8
図枠
  6
CONTINUOUS
 62
     2
 10
524.0
 20
134.0
 11
524.0
 21
20.0
  0
LINE
  8
図枠
  6
CONTINUOUS
 62
     2
 10
646.0
 20
86.0
 11
646.0
 21
42.0
  0
LINE
  8
図枠
  6
CONTINUOUS
 62
     2
 10
678.0
 20
86.0
 11
678.0
 21
42.0
  0
LINE
  8
図枠
  6
CONTINUOUS
 62
     2
 10
598.0
 20
86.0
 11
598.0
 21
64.0
  0
LINE
  8
図枠
  6
CONTINUOUS
 62
     2
 10
538.0
 20
134.0
 11
538.0
 21
20.0
  0
LINE
  8
図枠
  6
CONTINUOUS
 62
     2
 10
582.0
 20
64.0
 11
582.0
 21
20.0
  0
LINE
  8
図枠
  6
CONTINUOUS
 62
     2
 10
614.0
 20
64.0
 11
614.0
 21
20.0
  0
LINE
  8
図枠
  6
CONTINUOUS
 62
     2
 10
710.0
 20
86.0
 11
710.0
 21
20.0
  0
LINE
  8
図枠
  6
LTYPE3
 62
     2
 10
626.0
 20
27.0
 11
634.0
 21
27.0
  0
LINE
  8
図枠
  6
LTYPE3
 62
     2
 10
634.0
 20
27.0
 11
634.0
 21
35.0
  0
LINE
  8
図枠
  6
LTYPE3
 62
     2
 10
634.0
 20
35.0
 11
626.0
 21
35.0
  0
LINE
  8
図枠
  6
LTYPE3
 62
     2
 10
626.0
 20
35.0
 11
626.0
 21
27.0
  0
TEXT
  8
図枠
  6
CONTINUOUS
 62
     4
 10
712.0
 20
94.0
 30
-1.0
 40
6.0
  1
１セット分
 50
0.0
 41
0.666666667
 51
0.0
  7
KANJI4
  0
TEXT
  8
図枠
  6
CONTINUOUS
 62
     4
 10
690.0
 20
94.0
 30
0.0
 40
6.0
  1
１台分
 50
0.0
 41
1.0
 51
0.0
  7
KANJI5
  0
TEXT
  8
図枠
  6
CONTINUOUS
 62
     4
 10
694.0
 20
88.0
 30
0.0
 40
6.0
  1
個数
 50
0.0
 41
1.0
 51
0.0
  7
KANJI5
  0
TEXT
  8
図枠
  6
CONTINUOUS
 62
     4
 10
714.0
 20
88.0
 30
0.0
 40
6.0
  1
個数
 50
0.0
 41
1.0
 51
0.0
  7
KANJI5
  0
TEXT
  8
図枠
  6
CONTINUOUS
 62
     4
 10
733.0
 20
90.0
 30
0.0
 40
8.0
  1
総数
 50
0.0
 41
0.875
 51
0.0
  7
KANJI1
  0
TEXT
  8
図枠
  6
CONTINUOUS
 62
     4
 10
546.3
 20
105.0
 30
0.6
 40
5.0
  1
氏名
 50
90.0
 41
1.0
 51
0.0
  7
KANJI6
  0
TEXT
  8
図枠
  6
CONTINUOUS
 62
     4
 10
546.3
 20
80.85
 30
2.0
 40
5.0
  1
年月日
 50
90.0
 41
1.0
 51
0.0
  7
KANJI7
  0
TEXT
  8
図枠
  6
CONTINUOUS
 62
     4
 10
546.3
 20
120.75
 30
0.6
 40
5.0
  1
承認
 50
90.0
 41
1.0
 51
0.0
  7
KANJI6
  0
TEXT
  8
図枠
  6
CONTINUOUS
 62
     4
 10
552.0
 20
79.0
 30
0.0
 40
5.0
  1
熱処理
 50
0.0
 41
1.0
 51
0.0
  7
KANJI8
  0
TEXT
  8
図枠
  6
CONTINUOUS
 62
     4
 10
600.0
 20
79.0
 30
0.0
 40
5.0
  1
表面処理
 50
0.0
 41
1.0
 51
0.0
  7
KANJI8
  0
TEXT
  8
図枠
  6
CONTINUOUS
 62
     4
 10
648.0
 20
79.0
 30
0.0
 40
5.0
  1
台数
 50
0.0
 41
1.0
 51
0.0
  7
KANJI8
  0
TEXT
  8
図枠
  6
CONTINUOUS
 62
     4
 10
680.0
 20
79.0
 30
0.0
 40
5.0
  1
作成日付
 50
0.0
 41
1.0
 51
0.0
  7
KANJI8
  0
TEXT
  8
図枠
  6
CONTINUOUS
 62
     4
 10
712.0
 20
79.0
 30
0.0
 40
5.0
  1
名称
 50
0.0
 41
1.0
 51
0.0
  7
KANJI8
  0
TEXT
  8
図枠
  6
CONTINUOUS
 62
     4
 10
552.0
 20
57.0
 30
0.0
 40
5.0
  1
尺度
 50
0.0
 41
1.0
 51
0.0
  7
KANJI8
  0
TEXT
  8
図枠
  6
CONTINUOUS
 62
     4
 10
584.0
 20
57.0
 30
0.0
 40
5.0
  1
承認
 50
0.0
 41
1.0
 51
0.0
  7
KANJI8
  0
TEXT
  8
図枠
  6
CONTINUOUS
 62
     4
 10
616.0
 20
57.0
 30
0.0
 40
5.0
  1
検図
 50
0.0
 41
1.0
 51
0.0
  7
KANJI8
  0
TEXT
  8
図枠
  6
CONTINUOUS
 62
     4
 10
648.0
 20
57.0
 30
0.0
 40
5.0
  1
設計
 50
0.0
 41
1.0
 51
0.0
  7
KANJI8
  0
TEXT
  8
図枠
  6
CONTINUOUS
 62
     4
 10
680.0
 20
57.0
 30
0.0
 40
5.0
  1
製図
 50
0.0
 41
1.0
 51
0.0
  7
KANJI8
  0
TEXT
  8
図枠
  6
CONTINUOUS
 62
     4
 10
712.0
 20
57.0
 30
0.0
 40
5.0
  1
機名
 50
0.0
 41
1.0
 51
0.0
  7
KANJI8
  0
TEXT
  8
図枠
  6
CONTINUOUS
 62
     4
 10
546.3
 20
21.75
 30
0.6
 40
5.0
  1
記号
 50
90.0
 41
1.0
 51
0.0
  7
KANJI6
  0
TEXT
  8
図枠
  6
CONTINUOUS
 62
     4
 10
712.0
 20
35.0
 30
0.0
 40
5.0
  1
図面番号
 50
0.0
 41
1.0
 51
0.0
  7
KANJI8
  0
TEXT
  8
図枠
  6
CONTINUOUS
 62
     4
 10
638.0
 20
28.5
 30
0.0
 40
5.0
  1
株式会社
 50
0.0
 41
1.0
 51
0.0
  7
KANJI8
  0
TEXT
  8
図枠
  6
CONTINUOUS
 62
     4
 10
662.0
 20
27.0
 30
0.0
 40
8.0
  1
昭和測器
 50
0.0
 41
1.125
 51
0.0
  7
KANJI9
  0
TEXT
  8
図枠
  6
CONTINUOUS
 62
     4
 10
546.3
 20
36.75
 30
0.6
 40
5.0
  1
来歴・改訂記事
 50
90.0
 41
1.0
 51
0.0
  7
KANJI6
  0
TEXT
  8
図枠
  6
CONTINUOUS
 62
     1
 10
556.0
 20
31.0
 30
0.0
 40
10.0
  1
第３
 50
0.0
 41
1.0
 51
0.0
  7
KANJI2
  0
TEXT
  8
図枠
  6
CONTINUOUS
 62
     1
 10
556.0
 20
21.0
 30
0.0
 40
10.0
  1
角法
 50
0.0
 41
1.0
 51
0.0
  7
KANJI2
  0
LINE
  8
図枠
  6
CONTINUOUS
 62
     2
 10
468.0
 20
134.0
 11
468.0
 21
20.0
  0
LINE
  8
図枠
  6
CONTINUOUS
 62
     2
 10
466.0
 20
34.0
 11
550.0
 21
34.0
  0
TEXT
  8
図枠
  6
CONTINUOUS
 62
     4
 10
652.0
 20
90.0
 30
0.0
 40
8.0
  1
材　　質
 50
0.0
 41
0.875
 51
0.0
  7
KANJI1
  0
TEXT
  8
図枠
  6
CONTINUOUS
 62
     4
 10
766.5
 20
90.0
 30
0.0
 40
8.0
  1
摘　　　要
 50
0.0
 41
0.875
 51
0.0
  7
KANJI1
  0
TEXT
  8
図枠
  6
CONTINUOUS
 62
     4
 10
553.0
 20
90.0
 30
0.0
 40
8.0
  1
番号
 50
0.0
 41
0.875
 51
0.0
  7
KANJI1
  0
TEXT
  8
図枠
  6
CONTINUOUS
 62
     4
 10
588.5
 20
90.0
 30
0.0
 40
8.0
  1
部　品　名
 50
0.0
 41
0.875
 51
0.0
  7
KANJI1
  0
CIRCLE
  8
図枠
  6
CONTINUOUS
 62
     6
 10
566.0
 20
52.0
 40
0.4
  0
CIRCLE
  8
図枠
  6
CONTINUOUS
 62
     6
 10
566.0
 20
47.0
 40
0.4
  0
TEXT
  8
図枠
  6
CONTINUOUS
 62
     6
 10
587.45
 20
24.05
 30
-2.0
 40
14.0
  1
Ａ３
 50
0.0
 41
0.857142857
 51
0.0
  7
KANJI10
  0
LINE
  8
図枠
  6
CONTINUOUS
 62
     2
 10
466.0
 20
134.0
 11
550.0
 21
134.0
  0
LINE
  8
図枠
  6
CONTINUOUS
 62
     2
 10
466.0
 20
118.0
 11
550.0
 21
118.0
  0
LINE
  8
図枠
  6
CONTINUOUS
 62
     2
 10
570.0
 20
102.0
 11
570.0
 21
86.0
  0
LINE
  8
図枠
  6
CONTINUOUS
 62
     2
 10
570.0
 20
134.0
 11
570.0
 21
102.0
  0
LINE
  8
図枠
  6
CONTINUOUS
 62
     2
 10
642.0
 20
102.0
 11
642.0
 21
86.0
  0
LINE
  8
図枠
  6
CONTINUOUS
 62
     2
 10
642.0
 20
134.0
 11
642.0
 21
102.0
  0
LINE
  8
図枠
  6
CONTINUOUS
 62
     2
 10
690.0
 20
102.0
 11
690.0
 21
86.0
  0
LINE
  8
図枠
  6
CONTINUOUS
 62
     2
 10
690.0
 20
134.0
 11
690.0
 21
102.0
  0
LINE
  8
図枠
  6
CONTINUOUS
 62
     2
 10
710.0
 20
102.0
 11
710.0
 21
86.0
  0
LINE
  8
図枠
  6
CONTINUOUS
 62
     2
 10
710.0
 20
134.0
 11
710.0
 21
102.0
  0
LINE
  8
図枠
  6
CONTINUOUS
 62
     2
 10
730.0
 20
102.0
 11
730.0
 21
86.0
  0
LINE
  8
図枠
  6
CONTINUOUS
 62
     2
 10
730.0
 20
134.0
 11
730.0
 21
102.0
  0
LINE
  8
図枠
  6
CONTINUOUS
 62
     2
 10
750.0
 20
102.0
 11
750.0
 21
86.0
  0
LINE
  8
図枠
  6
CONTINUOUS
 62
     2
 10
750.0
 20
134.0
 11
750.0
 21
102.0
  0
LINE
  8
図枠
  6
CONTINUOUS
 62
     2
 10
550.0
 20
102.0
 11
550.0
 21
20.0
  0
LINE
  8
図枠
  6
CONTINUOUS
 62
     2
 10
550.0
 20
134.0
 11
550.0
 21
102.0
  0
LINE
  8
図枠
  6
CONTINUOUS
 62
     2
 10
466.0
 20
78.0
 11
550.0
 21
78.0
  0
LINE
  8
図枠
  6
CONTINUOUS
 62
     2
 10
466.0
 20
102.0
 11
550.0
 21
102.0
  0
LINE
  8
図枠
  6
LTYPE4
 62
     2
 10
800.0
 20
42.0
 11
800.0
 21
20.0
  0
LINE
  8
図枠
  6
CONTINUOUS
 62
     2
 10
550.0
 20
134.0
 11
820.0
 21
134.0
  0
LINE
  8
図枠
  6
CONTINUOUS
 62
     2
 10
550.0
 20
118.0
 11
820.0
 21
118.0
  0
LINE
  8
図枠
  6
CONTINUOUS
 62
     2
 10
550.0
 20
102.0
 11
820.0
 21
102.0
  0
LINE
  8
図枠
  6
CONTINUOUS
 62
     2
 10
550.0
 20
86.0
 11
820.0
 21
86.0
  0
LINE
  8
図枠
  6
CONTINUOUS
 62
     2
 10
550.0
 20
64.0
 11
820.0
 21
64.0
  0
LINE
  8
図枠
  6
CONTINUOUS
 62
     2
 10
550.0
 20
42.0
 11
820.0
 21
42.0
  0
TEXT
  8
表題欄
  6
CONTINUOUS
 62
     5
 10
556.0
 20
46.0
 30
0.0
 40
8.0
  1
１
 50
0.0
 41
0.875
 51
0.0
  7
KANJI1
  0
TEXT
  8
表題欄
  6
CONTINUOUS
 62
     5
 10
681.0
 20
72.0
 30
-1.0
 40
6.0
  1
２０１７．
 50
0.0
 41
0.833333333
 51
0.0
  7
KANJI11
  0
TEXT
  8
表題欄
  6
CONTINUOUS
 62
     5
 10
686.0
 20
66.0
 30
-1.0
 40
6.0
  1
０７．１２
 50
0.0
 41
0.833333333
 51
0.0
  7
KANJI11
  0
TEXT
  8
表題欄
  6
CONTINUOUS
 62
     5
 10
754.8
 20
68.0
 30
0.2
 40
8.0
  1
外観図
 50
0.0
 41
0.875
 51
0.0
  7
KANJI0
  0
TEXT
  8
表題欄
  6
CONTINUOUS
 62
     5
 10
722.4
 20
46.0
 30
0.2
 40
8.0
  1
ＴＰ－□Ｎ
 50
0.0
 41
0.875
 51
0.0
  7
KANJI0
  0
TEXT
  8
寸法線
  6
CONTINUOUS
 62
     5
 10
726.0
 20
179.6
 30
0.0
 40
8.0
  1
時計回り　（＋）
 50
0.0
 41
0.875
 51
0.0
  7
KANJI1
  0
TEXT
  8
寸法線
  6
CONTINUOUS
 62
     5
 10
726.0
 20
169.6
 30
0.0
 40
8.0
  1
反時計回り（－）
 50
0.0
 41
0.875
 51
0.0
  7
KANJI1
  0
LINE
  8
寸法線
  6
CONTINUOUS
 62
     2
 10
736.0
 20
189.6
 11
764.0
 21
189.6
  0
TEXT
  8
寸法線
  6
CONTINUOUS
 62
     5
 10
736.0
 20
191.6
 30
0.0
 40
8.0
  1
負荷方向
 50
0.0
 41
0.875
 51
0.0
  7
KANJI1
  0
TEXT
  8
表題欄
  6
CONTINUOUS
 62
     5
 10
716.3
 20
24.0
 30
0.2
 40
8.0
  1
Ｉ－０１３６－Ａ００１
 50
0.0
 41
0.875
 51
0.0
  7
KANJI0
  0
TEXT
  8
表題欄
  6
CONTINUOUS
 62
     5
 10
720.0
 20
140.0
 30
0.2
 40
8.0
  1
２，３　ｋＮ・ｍ
 50
0.0
 41
0.875
 51
0.0
  7
KANJI0
  0
TEXT
  8
表題欄
  6
CONTINUOUS
 62
     5
 10
569.0
 20
46.0
 30
0.0
 40
8.0
  1
２
 50
0.0
 41
0.875
 51
0.0
  7
KANJI1
  0
ENDSEC
  0
EOF
