  0
SECTION
  2
HEADER
  9
$EXTMIN
 10
0.0
 20
0.0
 30
0.0
  9
$EXTMAX
 10
1260.0
 20
891.0
 30
0.0
  9
$LIMMIN
 10
0.0
 20
0.0
  9
$LIMMAX
 10
1260.0
 20
891.0
  9
$LTSCALE
 40
1.0
  9
$PDMODE
 70
     0
  0
ENDSEC
  0
SECTION
  2
TABLES
  0
TABLE
  2
LTYPE
 70
     6
  0
LTYPE
  2
CONTINUOUS
 70
    64
  3
Solid line
 72
    65
 73
     0
 40
0.0
  0
LTYPE
  2
LTYPE1
 70
    64
  3
CENTER
 72
    65
 73
     4
 40
24.0
 49
16.8
 49
-2.4
 49
2.4
 49
-2.4
  0
LTYPE
  2
LTYPE2
 70
    64
  3
CENTER
 72
    65
 73
     4
 40
30.0
 49
21.0
 49
-3.0
 49
3.0
 49
-3.0
  0
LTYPE
  2
LTYPE3
 70
    64
  3
HIDDEN
 72
    65
 73
     2
 40
6.0
 49
3.6
 49
-2.4
  0
LTYPE
  2
LTYPE4
 70
    64
  3
CENTER
 72
    65
 73
     4
 40
15.0
 49
10.5
 49
-1.5
 49
1.5
 49
-1.5
  0
LTYPE
  2
LTYPE5
 70
    64
  3
PHANTOM
 72
    65
 73
     6
 40
30.0
 49
22.5
 49
-1.5
 49
1.5
 49
-1.5
 49
1.5
 49
-1.5
  0
ENDTAB
  0
TABLE
  2
LAYER
 70
   128
  0
LAYER
  2
0
 70
     0
 62
     7
  6
CONTINUOUS
  0
LAYER
  2
ハッチング
 70
     0
 62
     7
  6
CONTINUOUS
  0
LAYER
  2
治具
 70
     0
 62
     7
  6
CONTINUOUS
  0
LAYER
  2
購入品
 70
     0
 62
     7
  6
CONTINUOUS
  0
LAYER
  2
寸法線
 70
     0
 62
     7
  6
CONTINUOUS
  0
LAYER
  2
表題欄
 70
     0
 62
     7
  6
CONTINUOUS
  0
LAYER
  2
図枠
 70
     0
 62
     7
  6
CONTINUOUS
  0
LAYER
  2
8
 70
     0
 62
     7
  6
CONTINUOUS
  0
LAYER
  2
9
 70
     0
 62
     7
  6
CONTINUOUS
  0
LAYER
  2
10
 70
     0
 62
     7
  6
CONTINUOUS
  0
LAYER
  2
11
 70
     0
 62
     7
  6
CONTINUOUS
  0
LAYER
  2
12
 70
     0
 62
     7
  6
CONTINUOUS
  0
LAYER
  2
13
 70
     0
 62
     7
  6
CONTINUOUS
  0
LAYER
  2
14
 70
     0
 62
     7
  6
CONTINUOUS
  0
LAYER
  2
15
 70
     0
 62
     7
  6
CONTINUOUS
  0
LAYER
  2
16
 70
     0
 62
     7
  6
CONTINUOUS
  0
LAYER
  2
17
 70
     0
 62
     7
  6
CONTINUOUS
  0
LAYER
  2
18
 70
     0
 62
     7
  6
CONTINUOUS
  0
LAYER
  2
19
 70
     0
 62
     7
  6
CONTINUOUS
  0
LAYER
  2
20
 70
     0
 62
     7
  6
CONTINUOUS
  0
LAYER
  2
21
 70
     0
 62
     7
  6
CONTINUOUS
  0
LAYER
  2
22
 70
     0
 62
     7
  6
CONTINUOUS
  0
LAYER
  2
23
 70
     0
 62
     7
  6
CONTINUOUS
  0
LAYER
  2
24
 70
     0
 62
     7
  6
CONTINUOUS
  0
LAYER
  2
25
 70
     0
 62
     7
  6
CONTINUOUS
  0
LAYER
  2
26
 70
     0
 62
     7
  6
CONTINUOUS
  0
LAYER
  2
27
 70
     0
 62
     7
  6
CONTINUOUS
  0
LAYER
  2
28
 70
     0
 62
     7
  6
CONTINUOUS
  0
LAYER
  2
29
 70
     0
 62
     7
  6
CONTINUOUS
  0
LAYER
  2
30
 70
     0
 62
     7
  6
CONTINUOUS
  0
LAYER
  2
31
 70
     0
 62
     7
  6
CONTINUOUS
  0
LAYER
  2
32
 70
     0
 62
     7
  6
CONTINUOUS
  0
LAYER
  2
33
 70
     0
 62
     7
  6
CONTINUOUS
  0
LAYER
  2
34
 70
     0
 62
     7
  6
CONTINUOUS
  0
LAYER
  2
35
 70
     0
 62
     7
  6
CONTINUOUS
  0
LAYER
  2
36
 70
     0
 62
     7
  6
CONTINUOUS
  0
LAYER
  2
37
 70
     0
 62
     7
  6
CONTINUOUS
  0
LAYER
  2
38
 70
     0
 62
     7
  6
CONTINUOUS
  0
LAYER
  2
39
 70
     0
 62
     7
  6
CONTINUOUS
  0
LAYER
  2
40
 70
     0
 62
     7
  6
CONTINUOUS
  0
LAYER
  2
41
 70
     0
 62
     7
  6
CONTINUOUS
  0
LAYER
  2
42
 70
     0
 62
     7
  6
CONTINUOUS
  0
LAYER
  2
43
 70
     0
 62
     7
  6
CONTINUOUS
  0
LAYER
  2
44
 70
     0
 62
     7
  6
CONTINUOUS
  0
LAYER
  2
45
 70
     0
 62
     7
  6
CONTINUOUS
  0
LAYER
  2
46
 70
     0
 62
     7
  6
CONTINUOUS
  0
LAYER
  2
47
 70
     0
 62
     7
  6
CONTINUOUS
  0
LAYER
  2
48
 70
     0
 62
     7
  6
CONTINUOUS
  0
LAYER
  2
49
 70
     0
 62
     7
  6
CONTINUOUS
  0
LAYER
  2
50
 70
     0
 62
     7
  6
CONTINUOUS
  0
LAYER
  2
51
 70
     0
 62
     7
  6
CONTINUOUS
  0
LAYER
  2
52
 70
     0
 62
     7
  6
CONTINUOUS
  0
LAYER
  2
53
 70
     0
 62
     7
  6
CONTINUOUS
  0
LAYER
  2
54
 70
     0
 62
     7
  6
CONTINUOUS
  0
LAYER
  2
55
 70
     0
 62
     7
  6
CONTINUOUS
  0
LAYER
  2
56
 70
     0
 62
     7
  6
CONTINUOUS
  0
LAYER
  2
57
 70
     0
 62
     7
  6
CONTINUOUS
  0
LAYER
  2
58
 70
     0
 62
     7
  6
CONTINUOUS
  0
LAYER
  2
59
 70
     0
 62
     7
  6
CONTINUOUS
  0
LAYER
  2
60
 70
     0
 62
     7
  6
CONTINUOUS
  0
LAYER
  2
61
 70
     0
 62
     7
  6
CONTINUOUS
  0
LAYER
  2
62
 70
     0
 62
     7
  6
CONTINUOUS
  0
LAYER
  2
63
 70
     0
 62
     7
  6
CONTINUOUS
  0
LAYER
  2
64
 70
     0
 62
     7
  6
CONTINUOUS
  0
LAYER
  2
65
 70
     0
 62
     7
  6
CONTINUOUS
  0
LAYER
  2
66
 70
     0
 62
     7
  6
CONTINUOUS
  0
LAYER
  2
67
 70
     0
 62
     7
  6
CONTINUOUS
  0
LAYER
  2
68
 70
     0
 62
     7
  6
CONTINUOUS
  0
LAYER
  2
69
 70
     0
 62
     7
  6
CONTINUOUS
  0
LAYER
  2
70
 70
     0
 62
     7
  6
CONTINUOUS
  0
LAYER
  2
71
 70
     0
 62
     7
  6
CONTINUOUS
  0
LAYER
  2
72
 70
     0
 62
     7
  6
CONTINUOUS
  0
LAYER
  2
73
 70
     0
 62
     7
  6
CONTINUOUS
  0
LAYER
  2
74
 70
     0
 62
     7
  6
CONTINUOUS
  0
LAYER
  2
75
 70
     0
 62
     7
  6
CONTINUOUS
  0
LAYER
  2
76
 70
     0
 62
     7
  6
CONTINUOUS
  0
LAYER
  2
77
 70
     0
 62
     7
  6
CONTINUOUS
  0
LAYER
  2
78
 70
     0
 62
     7
  6
CONTINUOUS
  0
LAYER
  2
79
 70
     0
 62
     7
  6
CONTINUOUS
  0
LAYER
  2
80
 70
     0
 62
     7
  6
CONTINUOUS
  0
LAYER
  2
81
 70
     0
 62
     7
  6
CONTINUOUS
  0
LAYER
  2
82
 70
     0
 62
     7
  6
CONTINUOUS
  0
LAYER
  2
83
 70
     0
 62
     7
  6
CONTINUOUS
  0
LAYER
  2
84
 70
     0
 62
     7
  6
CONTINUOUS
  0
LAYER
  2
85
 70
     0
 62
     7
  6
CONTINUOUS
  0
LAYER
  2
86
 70
     0
 62
     7
  6
CONTINUOUS
  0
LAYER
  2
87
 70
     0
 62
     7
  6
CONTINUOUS
  0
LAYER
  2
88
 70
     0
 62
     7
  6
CONTINUOUS
  0
LAYER
  2
89
 70
     0
 62
     7
  6
CONTINUOUS
  0
LAYER
  2
90
 70
     0
 62
     7
  6
CONTINUOUS
  0
LAYER
  2
91
 70
     0
 62
     7
  6
CONTINUOUS
  0
LAYER
  2
92
 70
     0
 62
     7
  6
CONTINUOUS
  0
LAYER
  2
93
 70
     0
 62
     7
  6
CONTINUOUS
  0
LAYER
  2
94
 70
     0
 62
     7
  6
CONTINUOUS
  0
LAYER
  2
95
 70
     0
 62
     7
  6
CONTINUOUS
  0
LAYER
  2
96
 70
     0
 62
     7
  6
CONTINUOUS
  0
LAYER
  2
97
 70
     0
 62
     7
  6
CONTINUOUS
  0
LAYER
  2
98
 70
     0
 62
     7
  6
CONTINUOUS
  0
LAYER
  2
99
 70
     0
 62
     7
  6
CONTINUOUS
  0
LAYER
  2
100
 70
     0
 62
     7
  6
CONTINUOUS
  0
LAYER
  2
101
 70
     0
 62
     7
  6
CONTINUOUS
  0
LAYER
  2
102
 70
     0
 62
     7
  6
CONTINUOUS
  0
LAYER
  2
103
 70
     0
 62
     7
  6
CONTINUOUS
  0
LAYER
  2
104
 70
     0
 62
     7
  6
CONTINUOUS
  0
LAYER
  2
105
 70
     0
 62
     7
  6
CONTINUOUS
  0
LAYER
  2
106
 70
     0
 62
     7
  6
CONTINUOUS
  0
LAYER
  2
107
 70
     0
 62
     7
  6
CONTINUOUS
  0
LAYER
  2
108
 70
     0
 62
     7
  6
CONTINUOUS
  0
LAYER
  2
109
 70
     0
 62
     7
  6
CONTINUOUS
  0
LAYER
  2
110
 70
     0
 62
     7
  6
CONTINUOUS
  0
LAYER
  2
111
 70
     0
 62
     7
  6
CONTINUOUS
  0
LAYER
  2
112
 70
     0
 62
     7
  6
CONTINUOUS
  0
LAYER
  2
113
 70
     0
 62
     7
  6
CONTINUOUS
  0
LAYER
  2
114
 70
     0
 62
     7
  6
CONTINUOUS
  0
LAYER
  2
115
 70
     0
 62
     7
  6
CONTINUOUS
  0
LAYER
  2
116
 70
     0
 62
     7
  6
CONTINUOUS
  0
LAYER
  2
117
 70
     0
 62
     7
  6
CONTINUOUS
  0
LAYER
  2
118
 70
     0
 62
     7
  6
CONTINUOUS
  0
LAYER
  2
119
 70
     0
 62
     7
  6
CONTINUOUS
  0
LAYER
  2
120
 70
     0
 62
     7
  6
CONTINUOUS
  0
LAYER
  2
121
 70
     0
 62
     7
  6
CONTINUOUS
  0
LAYER
  2
122
 70
     0
 62
     7
  6
CONTINUOUS
  0
LAYER
  2
123
 70
     0
 62
     7
  6
CONTINUOUS
  0
LAYER
  2
124
 70
     0
 62
     7
  6
CONTINUOUS
  0
LAYER
  2
125
 70
     0
 62
     7
  6
CONTINUOUS
  0
LAYER
  2
126
 70
     0
 62
     7
  6
CONTINUOUS
  0
LAYER
  2
127
 70
     0
 62
     7
  6
CONTINUOUS
  0
LAYER
  2
128
 70
     0
 62
     7
  6
CONTINUOUS
  0
ENDTAB
  0
TABLE
  2
STYLE
 70
    13
  0
STYLE
  2
STANDARD
 70
     0
 40
0.0
 41
1.0
 50
0.0
 71
     0
 42
0.2
  3
txt
  4

  0
STYLE
  2
KANJI0
 70
     0
 40
12.0
 41
0.875
 50
0.0
 71
     0
 42
12.0
  3

  4
bigfont
  0
STYLE
  2
KANJI1
 70
     0
 40
12.0
 41
0.875
 50
0.0
 71
     0
 42
12.0
  3

  4
bigfont
  0
STYLE
  2
KANJI2
 70
     0
 40
15.0
 41
1.0
 50
0.0
 71
     0
 42
15.0
  3

  4
bigfont
  0
STYLE
  2
KANJI3
 70
     0
 40
15.0
 41
1.2
 50
0.0
 71
     0
 42
15.0
  3

  4
bigfont
  0
STYLE
  2
KANJI4
 70
     0
 40
9.0
 41
0.666666667
 50
0.0
 71
     0
 42
9.0
  3

  4
bigfont
  0
STYLE
  2
KANJI5
 70
     0
 40
9.0
 41
1.0
 50
0.0
 71
     0
 42
9.0
  3

  4
bigfont
  0
STYLE
  2
KANJI6
 70
     0
 40
7.5
 41
1.0
 50
0.0
 71
     0
 42
7.5
  3

  4
bigfont
  0
STYLE
  2
KANJI7
 70
     0
 40
7.5
 41
1.0
 50
0.0
 71
     0
 42
7.5
  3

  4
bigfont
  0
STYLE
  2
KANJI8
 70
     0
 40
7.5
 41
1.0
 50
0.0
 71
     0
 42
7.5
  3

  4
bigfont
  0
STYLE
  2
KANJI9
 70
     0
 40
12.0
 41
1.125
 50
0.0
 71
     0
 42
12.0
  3

  4
bigfont
  0
STYLE
  2
KANJI10
 70
     0
 40
21.0
 41
0.857142857
 50
0.0
 71
     0
 42
21.0
  3

  4
bigfont
  0
STYLE
  2
KANJI11
 70
     0
 40
9.0
 41
0.833333333
 50
0.0
 71
     0
 42
9.0
  3

  4
bigfont
  0
ENDTAB
  0
TABLE
  2
VIEW
 70
     0
  0
ENDTAB
  0
ENDSEC
  0
SECTION
  2
BLOCKS
  0
ENDSEC
  0
SECTION
  2
ENTITIES
  0
LINE
  8
寸法線
  6
CONTINUOUS
 62
     2
 10
-24.2127394
 20
300.561548699
 11
-28.986727963
 21
299.075267027
  0
LINE
  8
寸法線
  6
CONTINUOUS
 62
     2
 10
-24.2127394
 20
300.561548699
 11
-27.603993937
 21
296.887396733
  0
LINE
  8
寸法線
  6
CONTINUOUS
 62
     2
 10
-30.552700666
 20
296.554693179
 11
-24.2127394
 21
300.561548699
  0
ARC
  8
0
  6
CONTINUOUS
 62
     1
 10
1100.0
 20
550.0
 40
170.0
 50
90.0
 51
270.0
  0
ARC
  8
0
  6
CONTINUOUS
 62
     1
 10
1100.0
 20
550.0
 40
105.0
 50
90.0
 51
270.0
  0
LINE
  8
0
  6
LTYPE1
 62
     2
 10
1058.330133738
 20
394.485941967
 11
1069.200533633
 21
435.054826672
  0
LINE
  8
0
  6
LTYPE1
 62
     2
 10
986.155808229
 20
436.155808229
 11
1015.854293039
 21
465.854293039
  0
LINE
  8
0
  6
LTYPE1
 62
     2
 10
944.485941967
 20
591.669866262
 11
985.054826672
 21
580.799466367
  0
LINE
  8
0
  6
LTYPE1
 62
     2
 10
986.155808229
 20
663.844191771
 11
1015.854293039
 21
634.145706961
  0
LINE
  8
0
  6
LTYPE1
 62
     2
 10
1058.330133738
 20
705.514058033
 11
1069.200533633
 21
664.945173328
  0
CIRCLE
  8
0
  6
CONTINUOUS
 62
     1
 10
1063.765333686
 20
685.22961568
 40
16.5
  0
CIRCLE
  8
0
  6
CONTINUOUS
 62
     1
 10
1001.005050634
 20
648.994949366
 40
16.5
  0
CIRCLE
  8
0
  6
CONTINUOUS
 62
     1
 10
964.77038432
 20
586.234666314
 40
16.5
  0
CIRCLE
  8
0
  6
CONTINUOUS
 62
     1
 10
1001.005050634
 20
451.005050634
 40
16.5
  0
CIRCLE
  8
0
  6
CONTINUOUS
 62
     1
 10
1063.765333686
 20
414.77038432
 40
16.5
  0
LINE
  8
0
  6
LTYPE1
 62
     2
 10
944.485941967
 20
508.330133738
 11
985.054826672
 21
519.200533633
  0
CIRCLE
  8
0
  6
CONTINUOUS
 62
     1
 10
964.77038432
 20
513.765333686
 40
16.5
  0
LINE
  8
0
  6
LTYPE2
 62
     2
 10
915.0
 20
550.0
 11
1115.0
 21
550.0
  0
ARC
  8
0
  6
LTYPE2
 62
     2
 10
1100.0
 20
550.0
 40
140.0
 50
83.884496434
 51
276.115503566
  0
LINE
  8
0
  6
LTYPE2
 62
     2
 10
1100.0
 20
365.0
 11
1100.0
 21
735.0
  0
TEXT
  8
寸法線
  6
CONTINUOUS
 62
     5
 10
1120.639161424
 20
541.548076211
 30
0.3
 40
12.0
  1
Ｐ．Ｃ．Ｄ．２８０
 50
330.0
 41
0.875
 51
0.0
  7
KANJI0
  0
LINE
  8
寸法線
  6
CONTINUOUS
 62
     2
 10
1188.421193726
 20
498.95
 11
978.75644347
 21
620.0
  0
LINE
  8
寸法線
  6
CONTINUOUS
 62
     2
 10
978.75644347
 20
620.0
 11
984.059744329
 21
614.696699141
  0
LINE
  8
寸法線
  6
CONTINUOUS
 62
     2
 10
978.75644347
 20
620.0
 11
986.000887167
 21
618.058857162
  0
LINE
  8
0
  6
CONTINUOUS
 62
     1
 10
465.0
 20
720.0
 11
520.0
 21
720.0
  0
LINE
  8
0
  6
CONTINUOUS
 62
     1
 10
461.0
 20
655.0
 11
465.0
 21
655.0
  0
LINE
  8
0
  6
CONTINUOUS
 62
     1
 10
465.0
 20
445.0
 11
461.0
 21
445.0
  0
LINE
  8
0
  6
CONTINUOUS
 62
     1
 10
461.0
 20
445.0
 11
461.0
 21
655.0
  0
ARC
  8
0
  6
CONTINUOUS
 62
     1
 10
530.0
 20
640.0
 40
10.0
 50
180.0
 51
270.0
  0
ARC
  8
0
  6
CONTINUOUS
 62
     1
 10
530.0
 20
460.0
 40
10.0
 50
90.0
 51
180.0
  0
LINE
  8
0
  6
CONTINUOUS
 62
     1
 10
745.0
 20
720.0
 11
800.0
 21
720.0
  0
LINE
  8
0
  6
CONTINUOUS
 62
     1
 10
745.0
 20
380.0
 11
800.0
 21
380.0
  0
LINE
  8
0
  6
CONTINUOUS
 62
     1
 10
800.0
 20
380.0
 11
800.0
 21
720.0
  0
LINE
  8
0
  6
CONTINUOUS
 62
     1
 10
800.0
 20
655.0
 11
795.0
 21
655.0
  0
ARC
  8
0
  6
CONTINUOUS
 62
     1
 10
735.0
 20
640.0
 40
10.0
 50
270.0
 51
0.0
  0
ARC
  8
0
  6
CONTINUOUS
 62
     1
 10
735.0
 20
460.0
 40
10.0
 50
0.0
 51
90.0
  0
LINE
  8
0
  6
CONTINUOUS
 62
     1
 10
465.0
 20
380.0
 11
520.0
 21
380.0
  0
LINE
  8
0
  6
CONTINUOUS
 62
     1
 10
465.0
 20
380.0
 11
465.0
 21
720.0
  0
LINE
  8
0
  6
CONTINUOUS
 62
     1
 10
520.0
 20
720.0
 11
520.0
 21
380.0
  0
LINE
  8
0
  6
CONTINUOUS
 62
     1
 10
745.0
 20
380.0
 11
745.0
 21
720.0
  0
LINE
  8
0
  6
CONTINUOUS
 62
     1
 10
735.0
 20
630.0
 11
735.0
 21
470.0
  0
LINE
  8
0
  6
CONTINUOUS
 62
     1
 10
530.0
 20
630.0
 11
530.0
 21
470.0
  0
LINE
  8
0
  6
CONTINUOUS
 62
     1
 10
733.0
 20
630.0
 11
733.0
 21
470.0
  0
LINE
  8
0
  6
CONTINUOUS
 62
     1
 10
733.0
 20
470.0
 11
530.0
 21
470.0
  0
LINE
  8
0
  6
CONTINUOUS
 62
     1
 10
733.0
 20
476.0
 11
735.0
 21
476.0
  0
LINE
  8
0
  6
CONTINUOUS
 62
     1
 10
733.0
 20
624.0
 11
735.0
 21
624.0
  0
LINE
  8
0
  6
CONTINUOUS
 62
     1
 10
530.0
 20
550.0
 11
733.0
 21
550.0
  0
LINE
  8
0
  6
CONTINUOUS
 62
     1
 10
800.0
 20
445.0
 11
795.0
 21
445.0
  0
LINE
  8
0
  6
CONTINUOUS
 62
     1
 10
795.0
 20
655.0
 11
795.0
 21
445.0
  0
POLYLINE
  8
0
  6
CONTINUOUS
 62
     2
 66
     1
  0
VERTEX
  8
0
  6
CONTINUOUS
 62
     2
 10
800.0
 20
675.0
  0
VERTEX
  8
0
  6
CONTINUOUS
 62
     2
 10
797.508
 20
673.032
  0
VERTEX
  8
0
  6
CONTINUOUS
 62
     2
 10
795.064
 20
670.956
  0
VERTEX
  8
0
  6
CONTINUOUS
 62
     2
 10
792.716
 20
668.664
  0
VERTEX
  8
0
  6
CONTINUOUS
 62
     2
 10
790.512
 20
666.048
  0
VERTEX
  8
0
  6
CONTINUOUS
 62
     2
 10
788.5
 20
663.0
  0
VERTEX
  8
0
  6
CONTINUOUS
 62
     2
 10
786.968
 20
659.412
  0
VERTEX
  8
0
  6
CONTINUOUS
 62
     2
 10
785.664
 20
655.176
  0
VERTEX
  8
0
  6
CONTINUOUS
 62
     2
 10
784.576
 20
650.184
  0
VERTEX
  8
0
  6
CONTINUOUS
 62
     2
 10
783.692
 20
644.328
  0
VERTEX
  8
0
  6
CONTINUOUS
 62
     2
 10
783.0
 20
637.5
  0
VERTEX
  8
0
  6
CONTINUOUS
 62
     2
 10
782.76
 20
627.56
  0
VERTEX
  8
0
  6
CONTINUOUS
 62
     2
 10
782.62
 20
616.94
  0
VERTEX
  8
0
  6
CONTINUOUS
 62
     2
 10
782.5
 20
606.04
  0
VERTEX
  8
0
  6
CONTINUOUS
 62
     2
 10
782.32
 20
595.26
  0
VERTEX
  8
0
  6
CONTINUOUS
 62
     2
 10
782.0
 20
585.0
  0
VERTEX
  8
0
  6
CONTINUOUS
 62
     2
 10
780.644
 20
578.348
  0
VERTEX
  8
0
  6
CONTINUOUS
 62
     2
 10
779.192
 20
572.344
  0
VERTEX
  8
0
  6
CONTINUOUS
 62
     2
 10
777.768
 20
566.716
  0
VERTEX
  8
0
  6
CONTINUOUS
 62
     2
 10
776.496
 20
561.192
  0
VERTEX
  8
0
  6
CONTINUOUS
 62
     2
 10
775.5
 20
555.5
  0
VERTEX
  8
0
  6
CONTINUOUS
 62
     2
 10
775.752
 20
548.088
  0
VERTEX
  8
0
  6
CONTINUOUS
 62
     2
 10
776.316
 20
540.284
  0
VERTEX
  8
0
  6
CONTINUOUS
 62
     2
 10
777.104
 20
532.136
  0
VERTEX
  8
0
  6
CONTINUOUS
 62
     2
 10
778.028
 20
523.692
  0
VERTEX
  8
0
  6
CONTINUOUS
 62
     2
 10
779.0
 20
515.0
  0
VERTEX
  8
0
  6
CONTINUOUS
 62
     2
 10
779.436
 20
505.564
  0
VERTEX
  8
0
  6
CONTINUOUS
 62
     2
 10
779.868
 20
496.112
  0
VERTEX
  8
0
  6
CONTINUOUS
 62
     2
 10
780.332
 20
486.828
  0
VERTEX
  8
0
  6
CONTINUOUS
 62
     2
 10
780.864
 20
477.896
  0
VERTEX
  8
0
  6
CONTINUOUS
 62
     2
 10
781.5
 20
469.5
  0
VERTEX
  8
0
  6
CONTINUOUS
 62
     2
 10
782.324
 20
462.8
  0
VERTEX
  8
0
  6
CONTINUOUS
 62
     2
 10
783.312
 20
456.76
  0
VERTEX
  8
0
  6
CONTINUOUS
 62
     2
 10
784.488
 20
451.32
  0
VERTEX
  8
0
  6
CONTINUOUS
 62
     2
 10
785.876
 20
446.42
  0
VERTEX
  8
0
  6
CONTINUOUS
 62
     2
 10
787.5
 20
442.0
  0
VERTEX
  8
0
  6
CONTINUOUS
 62
     2
 10
789.688
 20
438.096
  0
VERTEX
  8
0
  6
CONTINUOUS
 62
     2
 10
792.084
 20
434.528
  0
VERTEX
  8
0
  6
CONTINUOUS
 62
     2
 10
794.636
 20
431.212
  0
VERTEX
  8
0
  6
CONTINUOUS
 62
     2
 10
797.292
 20
428.064
  0
VERTEX
  8
0
  6
CONTINUOUS
 62
     2
 10
800.0
 20
425.0
  0
SEQEND
  0
LINE
  8
0
  6
LTYPE3
 62
     2
 10
496.2
 20
695.0
 11
496.2
 21
720.0
  0
LINE
  8
0
  6
LTYPE3
 62
     2
 10
492.0
 20
692.6
 11
496.2
 21
695.0
  0
LINE
  8
0
  6
LTYPE3
 62
     2
 10
497.0
 20
720.0
 11
497.0
 21
700.0
  0
LINE
  8
0
  6
LTYPE3
 62
     2
 10
496.2
 20
698.6
 11
497.0
 21
700.0
  0
POLYLINE
  8
0
  6
LTYPE3
 62
     2
 66
     1
  0
VERTEX
  8
0
  6
LTYPE3
 62
     2
 10
487.8
 20
720.0
  0
VERTEX
  8
0
  6
LTYPE3
 62
     2
 10
487.8
 20
695.0
  0
VERTEX
  8
0
  6
LTYPE3
 62
     2
 10
492.0
 20
692.6
  0
SEQEND
  0
LINE
  8
0
  6
LTYPE3
 62
     2
 10
487.0
 20
720.0
 11
487.0
 21
700.0
  0
LINE
  8
0
  6
LTYPE3
 62
     2
 10
487.8
 20
698.6
 11
487.0
 21
700.0
  0
LINE
  8
0
  6
LTYPE3
 62
     2
 10
487.8
 20
695.0
 11
496.2
 21
695.0
  0
LINE
  8
0
  6
LTYPE3
 62
     2
 10
487.0
 20
700.0
 11
497.0
 21
700.0
  0
LINE
  8
0
  6
LTYPE3
 62
     2
 10
777.2
 20
695.0
 11
777.2
 21
720.0
  0
LINE
  8
0
  6
LTYPE3
 62
     2
 10
778.0
 20
720.0
 11
778.0
 21
700.0
  0
LINE
  8
0
  6
LTYPE3
 62
     2
 10
777.2
 20
698.6
 11
778.0
 21
700.0
  0
POLYLINE
  8
0
  6
LTYPE3
 62
     2
 66
     1
  0
VERTEX
  8
0
  6
LTYPE3
 62
     2
 10
768.8
 20
720.0
  0
VERTEX
  8
0
  6
LTYPE3
 62
     2
 10
768.8
 20
695.0
  0
VERTEX
  8
0
  6
LTYPE3
 62
     2
 10
773.0
 20
692.6
  0
SEQEND
  0
LINE
  8
0
  6
LTYPE3
 62
     2
 10
768.0
 20
720.0
 11
768.0
 21
700.0
  0
LINE
  8
0
  6
LTYPE3
 62
     2
 10
768.8
 20
698.6
 11
768.0
 21
700.0
  0
LINE
  8
0
  6
LTYPE3
 62
     2
 10
768.8
 20
695.0
 11
777.2
 21
695.0
  0
LINE
  8
0
  6
LTYPE3
 62
     2
 10
773.0
 20
692.6
 11
777.2
 21
695.0
  0
LINE
  8
0
  6
LTYPE3
 62
     2
 10
768.0
 20
700.0
 11
778.0
 21
700.0
  0
CIRCLE
  8
0
  6
CONTINUOUS
 62
     1
 10
570.0
 20
536.108145787
 40
4.0
  0
LINE
  8
0
  6
LTYPE1
 62
     2
 10
575.5
 20
536.108145787
 11
564.5
 21
536.108145787
  0
LINE
  8
0
  6
LTYPE1
 62
     2
 10
570.0
 20
530.608145787
 11
570.0
 21
541.608145787
  0
CIRCLE
  8
0
  6
CONTINUOUS
 62
     1
 10
570.0
 20
536.108145787
 40
3.5
  0
LINE
  8
0
  6
CONTINUOUS
 62
     1
 10
569.1
 20
537.608145787
 11
568.3
 21
536.108145787
  0
LINE
  8
0
  6
CONTINUOUS
 62
     1
 10
568.3
 20
536.108145787
 11
569.1
 21
534.608145787
  0
LINE
  8
0
  6
CONTINUOUS
 62
     1
 10
569.1
 20
534.608145787
 11
570.9
 21
534.608145787
  0
LINE
  8
0
  6
CONTINUOUS
 62
     1
 10
570.9
 20
534.608145787
 11
571.7
 21
536.108145787
  0
LINE
  8
0
  6
CONTINUOUS
 62
     1
 10
571.7
 20
536.108145787
 11
570.9
 21
537.608145787
  0
LINE
  8
0
  6
CONTINUOUS
 62
     1
 10
570.9
 20
537.608145787
 11
569.1
 21
537.608145787
  0
CIRCLE
  8
0
  6
CONTINUOUS
 62
     1
 10
695.0
 20
536.108145787
 40
4.0
  0
LINE
  8
0
  6
LTYPE1
 62
     2
 10
700.5
 20
536.108145787
 11
689.5
 21
536.108145787
  0
LINE
  8
0
  6
LTYPE1
 62
     2
 10
695.0
 20
530.608145787
 11
695.0
 21
541.608145787
  0
CIRCLE
  8
0
  6
CONTINUOUS
 62
     1
 10
695.0
 20
536.108145787
 40
3.5
  0
LINE
  8
0
  6
CONTINUOUS
 62
     1
 10
694.1
 20
537.608145787
 11
693.3
 21
536.108145787
  0
LINE
  8
0
  6
CONTINUOUS
 62
     1
 10
693.3
 20
536.108145787
 11
694.1
 21
534.608145787
  0
LINE
  8
0
  6
CONTINUOUS
 62
     1
 10
694.1
 20
534.608145787
 11
695.9
 21
534.608145787
  0
LINE
  8
0
  6
CONTINUOUS
 62
     1
 10
695.9
 20
534.608145787
 11
696.7
 21
536.108145787
  0
LINE
  8
0
  6
CONTINUOUS
 62
     1
 10
696.7
 20
536.108145787
 11
695.9
 21
537.608145787
  0
LINE
  8
0
  6
CONTINUOUS
 62
     1
 10
695.9
 20
537.608145787
 11
694.1
 21
537.608145787
  0
LINE
  8
0
  6
CONTINUOUS
 62
     1
 10
619.0
 20
640.0
 11
641.0
 21
640.0
  0
LINE
  8
0
  6
CONTINUOUS
 62
     1
 10
619.0
 20
630.0
 11
600.0
 21
630.0
  0
LINE
  8
0
  6
CONTINUOUS
 62
     1
 10
659.0
 20
630.0
 11
641.0
 21
630.0
  0
LINE
  8
0
  6
CONTINUOUS
 62
     1
 10
622.0
 20
652.5
 11
638.0
 21
652.5
  0
LINE
  8
0
  6
CONTINUOUS
 62
     1
 10
619.5
 20
641.5
 11
640.5
 21
641.5
  0
LINE
  8
0
  6
CONTINUOUS
 62
     1
 10
619.5
 20
640.0
 11
640.5
 21
640.0
  0
LINE
  8
0
  6
CONTINUOUS
 62
     1
 10
640.5
 20
641.5
 11
640.5
 21
640.0
  0
LINE
  8
0
  6
CONTINUOUS
 62
     1
 10
619.5
 20
641.5
 11
619.5
 21
640.0
  0
ARC
  8
0
  6
CONTINUOUS
 62
     1
 10
622.0
 20
641.3975
 40
2.1025
 50
2.794362055
 51
177.205637945
  0
ARC
  8
0
  6
CONTINUOUS
 62
     1
 10
638.0
 20
641.3975
 40
2.1025
 50
2.794362055
 51
177.205637945
  0
LINE
  8
0
  6
CONTINUOUS
 62
     1
 10
622.0
 20
652.5
 11
622.0
 21
643.5
  0
LINE
  8
0
  6
CONTINUOUS
 62
     1
 10
638.0
 20
652.5
 11
638.0
 21
643.5
  0
LINE
  8
0
  6
LTYPE4
 62
     2
 10
622.0
 20
643.5
 11
622.0
 21
638.5
  0
LINE
  8
0
  6
LTYPE4
 62
     2
 10
638.0
 20
643.5
 11
638.0
 21
638.5
  0
LINE
  8
0
  6
CONTINUOUS
 62
     1
 10
641.0
 20
640.0
 11
641.0
 21
629.240141343
  0
LINE
  8
0
  6
CONTINUOUS
 62
     1
 10
619.0
 20
640.0
 11
619.0
 21
629.240141343
  0
LINE
  8
0
  6
CONTINUOUS
 62
     1
 10
620.0
 20
629.240141343
 11
640.0
 21
629.240141343
  0
LINE
  8
0
  6
CONTINUOUS
 62
     1
 10
641.0
 20
630.0
 11
733.0
 21
630.0
  0
LINE
  8
0
  6
CONTINUOUS
 62
     1
 10
530.0
 20
630.0
 11
619.0
 21
630.0
  0
LINE
  8
0
  6
LTYPE2
 62
     2
 10
446.0
 20
550.0
 11
815.0
 21
550.0
  0
LINE
  8
0
  6
LTYPE4
 62
     2
 10
630.0
 20
614.240141343
 11
630.0
 21
667.5
  0
LINE
  8
0
  6
LTYPE3
 62
     2
 10
773.0
 20
677.6
 11
773.0
 21
735.0
  0
LINE
  8
0
  6
LTYPE1
 62
     2
 10
492.0
 20
677.6
 11
492.0
 21
735.0
  0
LINE
  8
寸法線
  6
CONTINUOUS
 62
     2
 10
458.0
 20
655.0
 11
428.0
 21
655.0
  0
LINE
  8
寸法線
  6
CONTINUOUS
 62
     2
 10
431.0
 20
655.0
 11
429.058857162
 21
647.755556303
  0
LINE
  8
寸法線
  6
CONTINUOUS
 62
     2
 10
431.0
 20
655.0
 11
432.941142838
 21
647.755556303
  0
LINE
  8
寸法線
  6
CONTINUOUS
 62
     2
 10
431.0
 20
655.0
 11
431.0
 21
445.0
  0
LINE
  8
寸法線
  6
CONTINUOUS
 62
     2
 10
431.0
 20
445.0
 11
432.941142838
 21
452.244443697
  0
LINE
  8
寸法線
  6
CONTINUOUS
 62
     2
 10
431.0
 20
445.0
 11
429.058857162
 21
452.244443697
  0
LINE
  8
寸法線
  6
CONTINUOUS
 62
     2
 10
458.0
 20
445.0
 11
428.0
 21
445.0
  0
TEXT
  8
寸法線
  6
CONTINUOUS
 62
     5
 10
428.0
 20
517.75
 30
0.3
 40
12.0
  1
φ２１０ｇ６
 50
90.0
 41
0.875
 51
0.0
  7
KANJI0
  0
LINE
  8
寸法線
  6
CONTINUOUS
 62
     2
 10
803.0
 20
655.0
 11
848.0
 21
655.0
  0
LINE
  8
寸法線
  6
CONTINUOUS
 62
     2
 10
845.0
 20
655.0
 11
843.058857162
 21
647.755556303
  0
LINE
  8
寸法線
  6
CONTINUOUS
 62
     2
 10
845.0
 20
655.0
 11
846.941142838
 21
647.755556303
  0
LINE
  8
寸法線
  6
CONTINUOUS
 62
     2
 10
845.0
 20
655.0
 11
845.0
 21
445.0
  0
LINE
  8
寸法線
  6
CONTINUOUS
 62
     2
 10
845.0
 20
445.0
 11
846.941142838
 21
452.244443697
  0
LINE
  8
寸法線
  6
CONTINUOUS
 62
     2
 10
845.0
 20
445.0
 11
843.058857162
 21
452.244443697
  0
LINE
  8
寸法線
  6
CONTINUOUS
 62
     2
 10
803.0
 20
445.0
 11
848.0
 21
445.0
  0
TEXT
  8
寸法線
  6
CONTINUOUS
 62
     5
 10
842.0
 20
517.75
 30
0.3
 40
12.0
  1
φ２１０Ｈ７
 50
90.0
 41
0.875
 51
0.0
  7
KANJI0
  0
LINE
  8
寸法線
  6
CONTINUOUS
 62
     2
 10
803.0
 20
380.0
 11
878.0
 21
380.0
  0
LINE
  8
寸法線
  6
CONTINUOUS
 62
     2
 10
875.0
 20
380.0
 11
876.941142838
 21
387.244443697
  0
LINE
  8
寸法線
  6
CONTINUOUS
 62
     2
 10
875.0
 20
380.0
 11
873.058857162
 21
387.244443697
  0
LINE
  8
寸法線
  6
CONTINUOUS
 62
     2
 10
875.0
 20
380.0
 11
875.0
 21
720.0
  0
LINE
  8
寸法線
  6
CONTINUOUS
 62
     2
 10
875.0
 20
720.0
 11
873.058857162
 21
712.755556303
  0
LINE
  8
寸法線
  6
CONTINUOUS
 62
     2
 10
875.0
 20
720.0
 11
876.941142838
 21
712.755556303
  0
LINE
  8
寸法線
  6
CONTINUOUS
 62
     2
 10
803.0
 20
720.0
 11
878.0
 21
720.0
  0
TEXT
  8
寸法線
  6
CONTINUOUS
 62
     5
 10
872.0
 20
528.55
 30
0.3
 40
12.0
  1
φ３４０
 50
90.0
 41
0.875
 51
0.0
  7
KANJI0
  0
LINE
  8
寸法線
  6
CONTINUOUS
 62
     2
 10
675.0
 20
630.0
 11
673.058857162
 21
622.755556303
  0
LINE
  8
寸法線
  6
CONTINUOUS
 62
     2
 10
675.0
 20
630.0
 11
676.941142838
 21
622.755556303
  0
LINE
  8
寸法線
  6
CONTINUOUS
 62
     2
 10
675.0
 20
630.0
 11
675.0
 21
470.0
  0
LINE
  8
寸法線
  6
CONTINUOUS
 62
     2
 10
675.0
 20
470.0
 11
676.941142838
 21
477.244443697
  0
LINE
  8
寸法線
  6
CONTINUOUS
 62
     2
 10
675.0
 20
470.0
 11
673.058857162
 21
477.244443697
  0
TEXT
  8
寸法線
  6
CONTINUOUS
 62
     5
 10
672.0
 20
553.0
 30
0.3
 40
12.0
  1
φ１６０
 50
90.0
 41
0.875
 51
0.0
  7
KANJI0
  0
LINE
  8
寸法線
  6
CONTINUOUS
 62
     2
 10
800.0
 20
723.0
 11
800.0
 21
753.0
  0
LINE
  8
寸法線
  6
CONTINUOUS
 62
     2
 10
800.0
 20
750.0
 11
807.244443697
 21
748.058857162
  0
LINE
  8
寸法線
  6
CONTINUOUS
 62
     2
 10
800.0
 20
750.0
 11
807.244443697
 21
751.941142838
  0
LINE
  8
寸法線
  6
CONTINUOUS
 62
     2
 10
811.25
 20
750.0
 11
800.0
 21
750.0
  0
LINE
  8
寸法線
  6
CONTINUOUS
 62
     2
 10
800.0
 20
750.0
 11
795.0
 21
750.0
  0
LINE
  8
寸法線
  6
CONTINUOUS
 62
     2
 10
795.0
 20
750.0
 11
783.75
 21
750.0
  0
LINE
  8
寸法線
  6
CONTINUOUS
 62
     2
 10
795.0
 20
750.0
 11
787.755556303
 21
751.941142838
  0
LINE
  8
寸法線
  6
CONTINUOUS
 62
     2
 10
795.0
 20
750.0
 11
787.755556303
 21
748.058857162
  0
LINE
  8
寸法線
  6
CONTINUOUS
 62
     2
 10
795.0
 20
658.0
 11
795.0
 21
753.0
  0
TEXT
  8
寸法線
  6
CONTINUOUS
 62
     5
 10
792.25
 20
753.0
 30
0.3
 40
12.0
  1
５
 50
0.0
 41
0.875
 51
0.0
  7
KANJI0
  0
LINE
  8
寸法線
  6
CONTINUOUS
 62
     2
 10
461.0
 20
442.0
 11
461.0
 21
332.0
  0
LINE
  8
寸法線
  6
CONTINUOUS
 62
     2
 10
461.0
 20
335.0
 11
453.755556303
 21
336.941142838
  0
LINE
  8
寸法線
  6
CONTINUOUS
 62
     2
 10
461.0
 20
335.0
 11
453.755556303
 21
333.058857162
  0
LINE
  8
寸法線
  6
CONTINUOUS
 62
     2
 10
439.25
 20
335.0
 11
461.0
 21
335.0
  0
LINE
  8
寸法線
  6
CONTINUOUS
 62
     2
 10
461.0
 20
335.0
 11
465.0
 21
335.0
  0
TEXT
  8
寸法線
  6
CONTINUOUS
 62
     5
 10
439.25
 20
338.0
 30
0.3
 40
12.0
  1
４
 50
0.0
 41
0.875
 51
0.0
  7
KANJI0
  0
LINE
  8
寸法線
  6
CONTINUOUS
 62
     2
 10
465.0
 20
377.0
 11
465.0
 21
332.0
  0
LINE
  8
寸法線
  6
CONTINUOUS
 62
     2
 10
465.0
 20
335.0
 11
472.244443697
 21
333.058857162
  0
LINE
  8
寸法線
  6
CONTINUOUS
 62
     2
 10
465.0
 20
335.0
 11
472.244443697
 21
336.941142838
  0
LINE
  8
寸法線
  6
CONTINUOUS
 62
     2
 10
465.0
 20
335.0
 11
520.0
 21
335.0
  0
LINE
  8
寸法線
  6
CONTINUOUS
 62
     2
 10
520.0
 20
335.0
 11
512.755556303
 21
336.941142838
  0
LINE
  8
寸法線
  6
CONTINUOUS
 62
     2
 10
520.0
 20
335.0
 11
512.755556303
 21
333.058857162
  0
LINE
  8
寸法線
  6
CONTINUOUS
 62
     2
 10
520.0
 20
377.0
 11
520.0
 21
332.0
  0
TEXT
  8
寸法線
  6
CONTINUOUS
 62
     5
 10
481.85
 20
338.0
 30
0.3
 40
12.0
  1
５５
 50
0.0
 41
0.875
 51
0.0
  7
KANJI0
  0
LINE
  8
寸法線
  6
CONTINUOUS
 62
     2
 10
520.0
 20
335.0
 11
527.244443697
 21
333.058857162
  0
LINE
  8
寸法線
  6
CONTINUOUS
 62
     2
 10
520.0
 20
335.0
 11
527.244443697
 21
336.941142838
  0
LINE
  8
寸法線
  6
CONTINUOUS
 62
     2
 10
520.0
 20
335.0
 11
745.0
 21
335.0
  0
LINE
  8
寸法線
  6
CONTINUOUS
 62
     2
 10
745.0
 20
335.0
 11
737.755556303
 21
336.941142838
  0
LINE
  8
寸法線
  6
CONTINUOUS
 62
     2
 10
745.0
 20
335.0
 11
737.755556303
 21
333.058857162
  0
LINE
  8
寸法線
  6
CONTINUOUS
 62
     2
 10
745.0
 20
377.0
 11
745.0
 21
332.0
  0
TEXT
  8
寸法線
  6
CONTINUOUS
 62
     5
 10
616.45
 20
338.0
 30
0.3
 40
12.0
  1
２２５
 50
0.0
 41
0.875
 51
0.0
  7
KANJI0
  0
LINE
  8
寸法線
  6
CONTINUOUS
 62
     2
 10
745.0
 20
335.0
 11
752.244443697
 21
333.058857162
  0
LINE
  8
寸法線
  6
CONTINUOUS
 62
     2
 10
745.0
 20
335.0
 11
752.244443697
 21
336.941142838
  0
LINE
  8
寸法線
  6
CONTINUOUS
 62
     2
 10
745.0
 20
335.0
 11
800.0
 21
335.0
  0
LINE
  8
寸法線
  6
CONTINUOUS
 62
     2
 10
800.0
 20
335.0
 11
792.755556303
 21
336.941142838
  0
LINE
  8
寸法線
  6
CONTINUOUS
 62
     2
 10
800.0
 20
335.0
 11
792.755556303
 21
333.058857162
  0
LINE
  8
寸法線
  6
CONTINUOUS
 62
     2
 10
800.0
 20
377.0
 11
800.0
 21
332.0
  0
TEXT
  8
寸法線
  6
CONTINUOUS
 62
     5
 10
761.85
 20
338.0
 30
0.3
 40
12.0
  1
５５
 50
0.0
 41
0.875
 51
0.0
  7
KANJI0
  0
LINE
  8
寸法線
  6
CONTINUOUS
 62
     2
 10
800.0
 20
332.0
 11
800.0
 21
302.0
  0
LINE
  8
寸法線
  6
CONTINUOUS
 62
     2
 10
800.0
 20
305.0
 11
792.755556303
 21
306.941142838
  0
LINE
  8
寸法線
  6
CONTINUOUS
 62
     2
 10
800.0
 20
305.0
 11
792.755556303
 21
303.058857162
  0
LINE
  8
寸法線
  6
CONTINUOUS
 62
     2
 10
800.0
 20
305.0
 11
461.0
 21
305.0
  0
LINE
  8
寸法線
  6
CONTINUOUS
 62
     2
 10
461.0
 20
305.0
 11
468.244443697
 21
303.058857162
  0
LINE
  8
寸法線
  6
CONTINUOUS
 62
     2
 10
461.0
 20
305.0
 11
468.244443697
 21
306.941142838
  0
LINE
  8
寸法線
  6
CONTINUOUS
 62
     2
 10
461.0
 20
332.0
 11
461.0
 21
302.0
  0
TEXT
  8
寸法線
  6
CONTINUOUS
 62
     5
 10
614.45
 20
308.0
 30
0.3
 40
12.0
  1
３３９
 50
0.0
 41
0.875
 51
0.0
  7
KANJI0
  0
ARC
  8
0
  6
CONTINUOUS
 62
     1
 10
200.0
 20
550.0
 40
170.0
 50
270.0
 51
90.0
  0
ARC
  8
0
  6
CONTINUOUS
 62
     1
 10
200.0
 20
550.0
 40
105.0
 50
270.0
 51
90.0
  0
LINE
  8
0
  6
LTYPE1
 62
     2
 10
241.669866262
 20
394.485941967
 11
230.799466367
 21
435.054826672
  0
LINE
  8
0
  6
LTYPE1
 62
     2
 10
313.844191771
 20
436.155808229
 11
284.145706961
 21
465.854293039
  0
LINE
  8
0
  6
LTYPE1
 62
     2
 10
355.514058033
 20
591.669866262
 11
314.945173328
 21
580.799466367
  0
LINE
  8
0
  6
LTYPE1
 62
     2
 10
313.844191771
 20
663.844191771
 11
284.145706961
 21
634.145706961
  0
LINE
  8
0
  6
LTYPE1
 62
     2
 10
241.669866262
 20
705.514058033
 11
230.799466367
 21
664.945173328
  0
CIRCLE
  8
0
  6
CONTINUOUS
 62
     1
 10
236.234666314
 20
685.22961568
 40
16.5
  0
CIRCLE
  8
0
  6
CONTINUOUS
 62
     1
 10
298.994949366
 20
648.994949366
 40
16.5
  0
CIRCLE
  8
0
  6
CONTINUOUS
 62
     1
 10
335.22961568
 20
586.234666314
 40
16.5
  0
CIRCLE
  8
0
  6
CONTINUOUS
 62
     1
 10
298.994949366
 20
451.005050634
 40
16.5
  0
CIRCLE
  8
0
  6
CONTINUOUS
 62
     1
 10
236.234666314
 20
414.77038432
 40
16.5
  0
LINE
  8
0
  6
LTYPE1
 62
     2
 10
355.514058033
 20
508.330133738
 11
314.945173328
 21
519.200533633
  0
CIRCLE
  8
0
  6
CONTINUOUS
 62
     1
 10
335.22961568
 20
513.765333686
 40
16.5
  0
LINE
  8
0
  6
LTYPE2
 62
     2
 10
385.0
 20
550.0
 11
185.0
 21
550.0
  0
ARC
  8
0
  6
LTYPE2
 62
     2
 10
200.0
 20
550.0
 40
140.0
 50
263.884496434
 51
96.115503566
  0
LINE
  8
0
  6
LTYPE2
 62
     2
 10
200.0
 20
365.0
 11
200.0
 21
735.0
  0
TEXT
  8
寸法線
  6
CONTINUOUS
 62
     5
 10
109.082877059
 20
500.973076211
 30
0.3
 40
12.0
  1
Ｐ．Ｃ．Ｄ．２８０
 50
30.0
 41
0.875
 51
0.0
  7
KANJI0
  0
LINE
  8
寸法線
  6
CONTINUOUS
 62
     2
 10
111.578806274
 20
498.95
 11
321.24355653
 21
620.0
  0
LINE
  8
寸法線
  6
CONTINUOUS
 62
     2
 10
321.24355653
 20
620.0
 11
315.940255671
 21
614.696699141
  0
LINE
  8
寸法線
  6
CONTINUOUS
 62
     2
 10
321.24355653
 20
620.0
 11
313.999112833
 21
618.058857162
  0
LINE
  8
寸法線
  6
CONTINUOUS
 62
     2
 10
247.901928204
 20
403.10312243
 11
251.651928204
 21
396.607931902
  0
LINE
  8
寸法線
  6
CONTINUOUS
 62
     2
 10
247.901928204
 20
403.10312243
 11
254.397118732
 21
399.35312243
  0
LINE
  8
寸法線
  6
CONTINUOUS
 62
     2
 10
247.901928204
 20
403.10312243
 11
286.234666314
 21
364.77038432
  0
LINE
  8
寸法線
  6
CONTINUOUS
 62
     2
 10
286.234666314
 20
364.77038432
 11
383.134666314
 21
364.77038432
  0
TEXT
  8
寸法線
  6
CONTINUOUS
 62
     5
 10
286.234666314
 20
367.77038432
 30
0.3
 40
12.0
  1
１２－φ３３取付穴
 50
0.0
 41
0.875
 51
0.0
  7
KANJI0
  0
LINE
  8
寸法線
  6
CONTINUOUS
 62
     2
 10
1052.098071796
 20
403.10312243
 11
1045.602881268
 21
399.35312243
  0
LINE
  8
寸法線
  6
CONTINUOUS
 62
     2
 10
1052.098071796
 20
403.10312243
 11
1048.348071796
 21
396.607931902
  0
LINE
  8
寸法線
  6
CONTINUOUS
 62
     2
 10
1052.098071796
 20
403.10312243
 11
1013.765333686
 21
364.77038432
  0
LINE
  8
寸法線
  6
CONTINUOUS
 62
     2
 10
1013.765333686
 20
364.77038432
 11
916.865333686
 21
364.77038432
  0
TEXT
  8
寸法線
  6
CONTINUOUS
 62
     5
 10
916.865333686
 20
367.77038432
 30
0.3
 40
12.0
  1
１２－φ３３取付穴
 50
0.0
 41
0.875
 51
0.0
  7
KANJI0
  0
LINE
  8
寸法線
  6
CONTINUOUS
 62
     2
 10
492.0
 20
720.0
 11
488.25
 21
726.495190528
  0
LINE
  8
寸法線
  6
CONTINUOUS
 62
     2
 10
492.0
 20
720.0
 11
485.504809472
 21
723.75
  0
LINE
  8
寸法線
  6
CONTINUOUS
 62
     2
 10
492.0
 20
720.0
 11
452.0
 21
760.0
  0
LINE
  8
寸法線
  6
CONTINUOUS
 62
     2
 10
452.0
 20
760.0
 11
301.1
 21
760.0
  0
TEXT
  8
寸法線
  6
CONTINUOUS
 62
     5
 10
301.1
 20
763.0
 30
0.3
 40
12.0
  1
２－Ｍ１０アイボルト用ネジ穴
 50
0.0
 41
0.875
 51
0.0
  7
KANJI0
  0
TEXT
  8
寸法線
  6
CONTINUOUS
 62
     5
 10
1089.0
 20
239.4
 30
0.0
 40
12.0
  1
時計回り　（＋）
 50
0.0
 41
0.875
 51
0.0
  7
KANJI1
  0
TEXT
  8
寸法線
  6
CONTINUOUS
 62
     5
 10
1089.0
 20
224.4
 30
0.0
 40
12.0
  1
反時計回り（－）
 50
0.0
 41
0.875
 51
0.0
  7
KANJI1
  0
LINE
  8
寸法線
  6
CONTINUOUS
 62
     2
 10
1104.0
 20
254.4
 11
1146.0
 21
254.4
  0
TEXT
  8
寸法線
  6
CONTINUOUS
 62
     5
 10
1104.0
 20
257.4
 30
0.0
 40
12.0
  1
負荷方向
 50
0.0
 41
0.875
 51
0.0
  7
KANJI1
  0
LINE
  8
0
  6
LTYPE2
 62
     2
 10
537.0
 20
465.0
 11
537.0
 21
480.0
  0
LINE
  8
0
  6
LTYPE2
 62
     2
 10
537.0
 20
635.0
 11
537.0
 21
620.0
  0
POLYLINE
  8
0
  6
CONTINUOUS
 62
     1
 66
     1
 70
     1
  0
VERTEX
  8
0
  6
CONTINUOUS
 62
     1
 10
540.5
 20
590.0
 42
0.025187664
  0
VERTEX
  8
0
  6
CONTINUOUS
 62
     1
 10
540.486681443
 20
590.264176806
 42
0.025076847
  0
VERTEX
  8
0
  6
CONTINUOUS
 62
     1
 10
540.446827136
 20
590.526343066
 42
0.024845864
  0
VERTEX
  8
0
  6
CONTINUOUS
 62
     1
 10
540.380740392
 20
590.784503538
 42
0.024508071
  0
VERTEX
  8
0
  6
CONTINUOUS
 62
     1
 10
540.288924173
 20
591.036693465
 42
0.024082007
  0
VERTEX
  8
0
  6
CONTINUOUS
 62
     1
 10
540.172077255
 20
591.280993528
 42
0.023589414
  0
VERTEX
  8
0
  6
CONTINUOUS
 62
     1
 10
540.031088913
 20
591.515544457
 42
0.02305322
  0
VERTEX
  8
0
  6
CONTINUOUS
 62
     1
 10
539.867032155
 20
591.738561177
 42
0.022495771
  0
VERTEX
  8
0
  6
CONTINUOUS
 62
     1
 10
539.681155551
 20
591.948346397
 42
0.021937539
  0
VERTEX
  8
0
  6
CONTINUOUS
 62
     1
 10
539.474873734
 20
592.143303525
 42
0.021396316
  0
VERTEX
  8
0
  6
CONTINUOUS
 62
     1
 10
539.249756634
 20
592.321948819
 42
0.02088689
  0
VERTEX
  8
0
  6
CONTINUOUS
 62
     1
 10
539.007517527
 20
592.48292268
 42
0.020421065
  0
VERTEX
  8
0
  6
CONTINUOUS
 62
     1
 10
538.75
 20
592.625
 42
0.020007926
  0
VERTEX
  8
0
  6
CONTINUOUS
 62
     1
 10
538.479163916
 20
592.747099485
 42
0.019654221
  0
VERTEX
  8
0
  6
CONTINUOUS
 62
     1
 10
538.197070502
 20
592.848291885
 42
0.019364797
  0
VERTEX
  8
0
  6
CONTINUOUS
 62
     1
 10
537.905866658
 20
592.927807063
 42
0.019143001
  0
VERTEX
  8
0
  6
CONTINUOUS
 62
     1
 10
537.607768622
 20
592.985039862
 42
0.018991036
  0
VERTEX
  8
0
  6
CONTINUOUS
 62
     1
 10
537.3050451
 20
593.019554705
 42
0.018910232
  0
VERTEX
  8
0
  6
CONTINUOUS
 62
     1
 10
537.0
 20
593.031088913
 42
0.018901239
  0
VERTEX
  8
0
  6
CONTINUOUS
 62
     1
 10
536.6949549
 20
593.019554705
 42
0.018964128
  0
VERTEX
  8
0
  6
CONTINUOUS
 62
     1
 10
536.392231378
 20
592.985039862
 42
0.019098398
  0
VERTEX
  8
0
  6
CONTINUOUS
 62
     1
 10
536.094133342
 20
592.927807063
 42
0.019302905
  0
VERTEX
  8
0
  6
CONTINUOUS
 62
     1
 10
535.802929498
 20
592.848291885
 42
0.019575685
  0
VERTEX
  8
0
  6
CONTINUOUS
 62
     1
 10
535.520836084
 20
592.747099485
 42
0.019913709
  0
VERTEX
  8
0
  6
CONTINUOUS
 62
     1
 10
535.25
 20
592.625
 42
0.020312541
  0
VERTEX
  8
0
  6
CONTINUOUS
 62
     1
 10
534.992482473
 20
592.48292268
 42
0.020765948
  0
VERTEX
  8
0
  6
CONTINUOUS
 62
     1
 10
534.750243366
 20
592.321948819
 42
0.021265468
  0
VERTEX
  8
0
  6
CONTINUOUS
 62
     1
 10
534.525126266
 20
592.143303525
 42
0.021800009
  0
VERTEX
  8
0
  6
CONTINUOUS
 62
     1
 10
534.318844449
 20
591.948346397
 42
0.022355542
  0
VERTEX
  8
0
  6
CONTINUOUS
 62
     1
 10
534.132967845
 20
591.738561177
 42
0.022915011
  0
VERTEX
  8
0
  6
CONTINUOUS
 62
     1
 10
533.968911087
 20
591.515544457
 42
0.023458559
  0
VERTEX
  8
0
  6
CONTINUOUS
 62
     1
 10
533.827922745
 20
591.280993528
 42
0.023964205
  0
VERTEX
  8
0
  6
CONTINUOUS
 62
     1
 10
533.711075827
 20
591.036693465
 42
0.02440902
  0
VERTEX
  8
0
  6
CONTINUOUS
 62
     1
 10
533.619259608
 20
590.784503538
 42
0.02477078
  0
VERTEX
  8
0
  6
CONTINUOUS
 62
     1
 10
533.553172864
 20
590.526343066
 42
0.02502995
  0
VERTEX
  8
0
  6
CONTINUOUS
 62
     1
 10
533.513318557
 20
590.264176806
 42
0.025171713
  0
VERTEX
  8
0
  6
CONTINUOUS
 62
     1
 10
533.5
 20
590.0
 42
0.025187664
  0
VERTEX
  8
0
  6
CONTINUOUS
 62
     1
 10
533.513318557
 20
589.735823194
 42
0.025076847
  0
VERTEX
  8
0
  6
CONTINUOUS
 62
     1
 10
533.553172864
 20
589.473656934
 42
0.024845864
  0
VERTEX
  8
0
  6
CONTINUOUS
 62
     1
 10
533.619259608
 20
589.215496462
 42
0.024508071
  0
VERTEX
  8
0
  6
CONTINUOUS
 62
     1
 10
533.711075827
 20
588.963306535
 42
0.024082007
  0
VERTEX
  8
0
  6
CONTINUOUS
 62
     1
 10
533.827922745
 20
588.719006472
 42
0.023589414
  0
VERTEX
  8
0
  6
CONTINUOUS
 62
     1
 10
533.968911087
 20
588.484455543
 42
0.02305322
  0
VERTEX
  8
0
  6
CONTINUOUS
 62
     1
 10
534.132967845
 20
588.261438823
 42
0.022495771
  0
VERTEX
  8
0
  6
CONTINUOUS
 62
     1
 10
534.318844449
 20
588.051653603
 42
0.021937539
  0
VERTEX
  8
0
  6
CONTINUOUS
 62
     1
 10
534.525126266
 20
587.856696475
 42
0.021396316
  0
VERTEX
  8
0
  6
CONTINUOUS
 62
     1
 10
534.750243366
 20
587.678051181
 42
0.02088689
  0
VERTEX
  8
0
  6
CONTINUOUS
 62
     1
 10
534.992482473
 20
587.51707732
 42
0.020421065
  0
VERTEX
  8
0
  6
CONTINUOUS
 62
     1
 10
535.25
 20
587.375
 42
0.020007926
  0
VERTEX
  8
0
  6
CONTINUOUS
 62
     1
 10
535.520836084
 20
587.252900515
 42
0.019654221
  0
VERTEX
  8
0
  6
CONTINUOUS
 62
     1
 10
535.802929498
 20
587.151708115
 42
0.019364797
  0
VERTEX
  8
0
  6
CONTINUOUS
 62
     1
 10
536.094133342
 20
587.072192937
 42
0.019143001
  0
VERTEX
  8
0
  6
CONTINUOUS
 62
     1
 10
536.392231378
 20
587.014960138
 42
0.018991036
  0
VERTEX
  8
0
  6
CONTINUOUS
 62
     1
 10
536.6949549
 20
586.980445295
 42
0.018910232
  0
VERTEX
  8
0
  6
CONTINUOUS
 62
     1
 10
537.0
 20
586.968911087
 42
0.018901239
  0
VERTEX
  8
0
  6
CONTINUOUS
 62
     1
 10
537.3050451
 20
586.980445295
 42
0.018964128
  0
VERTEX
  8
0
  6
CONTINUOUS
 62
     1
 10
537.607768622
 20
587.014960138
 42
0.019098398
  0
VERTEX
  8
0
  6
CONTINUOUS
 62
     1
 10
537.905866658
 20
587.072192937
 42
0.019302905
  0
VERTEX
  8
0
  6
CONTINUOUS
 62
     1
 10
538.197070502
 20
587.151708115
 42
0.019575685
  0
VERTEX
  8
0
  6
CONTINUOUS
 62
     1
 10
538.479163916
 20
587.252900515
 42
0.019913709
  0
VERTEX
  8
0
  6
CONTINUOUS
 62
     1
 10
538.75
 20
587.375
 42
0.020312541
  0
VERTEX
  8
0
  6
CONTINUOUS
 62
     1
 10
539.007517527
 20
587.51707732
 42
0.020765948
  0
VERTEX
  8
0
  6
CONTINUOUS
 62
     1
 10
539.249756634
 20
587.678051181
 42
0.021265468
  0
VERTEX
  8
0
  6
CONTINUOUS
 62
     1
 10
539.474873734
 20
587.856696475
 42
0.021800009
  0
VERTEX
  8
0
  6
CONTINUOUS
 62
     1
 10
539.681155551
 20
588.051653603
 42
0.022355542
  0
VERTEX
  8
0
  6
CONTINUOUS
 62
     1
 10
539.867032155
 20
588.261438823
 42
0.022915011
  0
VERTEX
  8
0
  6
CONTINUOUS
 62
     1
 10
540.031088913
 20
588.484455543
 42
0.023458559
  0
VERTEX
  8
0
  6
CONTINUOUS
 62
     1
 10
540.172077255
 20
588.719006472
 42
0.023964205
  0
VERTEX
  8
0
  6
CONTINUOUS
 62
     1
 10
540.288924173
 20
588.963306535
 42
0.02440902
  0
VERTEX
  8
0
  6
CONTINUOUS
 62
     1
 10
540.380740392
 20
589.215496462
 42
0.02477078
  0
VERTEX
  8
0
  6
CONTINUOUS
 62
     1
 10
540.446827136
 20
589.473656934
 42
0.02502995
  0
VERTEX
  8
0
  6
CONTINUOUS
 62
     1
 10
540.486681443
 20
589.735823194
 42
0.025171713
  0
SEQEND
  8
0
  6
CONTINUOUS
 62
     1
  0
LINE
  8
0
  6
CONTINUOUS
 62
     1
 10
535.3
 20
590.0
 11
536.1
 21
591.292006238
  0
LINE
  8
0
  6
CONTINUOUS
 62
     1
 10
536.1
 20
591.292006238
 11
537.9
 21
591.292006238
  0
LINE
  8
0
  6
CONTINUOUS
 62
     1
 10
537.9
 20
591.292006238
 11
538.7
 21
590.0
  0
LINE
  8
0
  6
CONTINUOUS
 62
     1
 10
538.7
 20
590.0
 11
537.9
 21
588.693930026
  0
LINE
  8
0
  6
CONTINUOUS
 62
     1
 10
537.9
 20
588.693930026
 11
536.1
 21
588.693930026
  0
LINE
  8
0
  6
CONTINUOUS
 62
     1
 10
536.1
 20
588.693930026
 11
535.3
 21
590.0
  0
LINE
  8
0
  6
LTYPE2
 62
     2
 10
543.0
 20
590.0
 11
531.0
 21
590.0
  0
LINE
  8
0
  6
LTYPE2
 62
     2
 10
537.0
 20
595.0
 11
537.0
 21
585.0
  0
POLYLINE
  8
0
  6
CONTINUOUS
 62
     1
 66
     1
 70
     1
  0
VERTEX
  8
0
  6
CONTINUOUS
 62
     1
 10
541.0
 20
590.0
 42
0.025187664
  0
VERTEX
  8
0
  6
CONTINUOUS
 62
     1
 10
540.984778792
 20
590.301916349
 42
0.025076847
  0
VERTEX
  8
0
  6
CONTINUOUS
 62
     1
 10
540.939231012
 20
590.601534933
 42
0.024845864
  0
VERTEX
  8
0
  6
CONTINUOUS
 62
     1
 10
540.863703305
 20
590.896575472
 42
0.024508071
  0
VERTEX
  8
0
  6
CONTINUOUS
 62
     1
 10
540.758770483
 20
591.184792531
 42
0.024082007
  0
VERTEX
  8
0
  6
CONTINUOUS
 62
     1
 10
540.625231148
 20
591.463992603
 42
0.023589414
  0
VERTEX
  8
0
  6
CONTINUOUS
 62
     1
 10
540.464101615
 20
591.732050808
 42
0.02305322
  0
VERTEX
  8
0
  6
CONTINUOUS
 62
     1
 10
540.276608177
 20
591.98692706
 42
0.022495771
  0
VERTEX
  8
0
  6
CONTINUOUS
 62
     1
 10
540.064177772
 20
592.226681597
 42
0.021937539
  0
VERTEX
  8
0
  6
CONTINUOUS
 62
     1
 10
539.828427125
 20
592.449489743
 42
0.021396316
  0
VERTEX
  8
0
  6
CONTINUOUS
 62
     1
 10
539.571150439
 20
592.653655793
 42
0.02088689
  0
VERTEX
  8
0
  6
CONTINUOUS
 62
     1
 10
539.294305745
 20
592.83762592
 42
0.020421065
  0
VERTEX
  8
0
  6
CONTINUOUS
 62
     1
 10
539.0
 20
593.0
 42
0.020007926
  0
VERTEX
  8
0
  6
CONTINUOUS
 62
     1
 10
538.690473047
 20
593.139542269
 42
0.019654221
  0
VERTEX
  8
0
  6
CONTINUOUS
 62
     1
 10
538.368080573
 20
593.255190725
 42
0.019364797
  0
VERTEX
  8
0
  6
CONTINUOUS
 62
     1
 10
538.03527618
 20
593.346065215
 42
0.019143001
  0
VERTEX
  8
0
  6
CONTINUOUS
 62
     1
 10
537.694592711
 20
593.411474128
 42
0.018991036
  0
VERTEX
  8
0
  6
CONTINUOUS
 62
     1
 10
537.348622971
 20
593.450919663
 42
0.018910232
  0
VERTEX
  8
0
  6
CONTINUOUS
 62
     1
 10
537.0
 20
593.464101615
 42
0.018901239
  0
VERTEX
  8
0
  6
CONTINUOUS
 62
     1
 10
536.651377029
 20
593.450919663
 42
0.018964128
  0
VERTEX
  8
0
  6
CONTINUOUS
 62
     1
 10
536.305407289
 20
593.411474128
 42
0.019098398
  0
VERTEX
  8
0
  6
CONTINUOUS
 62
     1
 10
535.96472382
 20
593.346065215
 42
0.019302905
  0
VERTEX
  8
0
  6
CONTINUOUS
 62
     1
 10
535.631919427
 20
593.255190725
 42
0.019575685
  0
VERTEX
  8
0
  6
CONTINUOUS
 62
     1
 10
535.309526953
 20
593.139542269
 42
0.019913709
  0
VERTEX
  8
0
  6
CONTINUOUS
 62
     1
 10
535.0
 20
593.0
 42
0.020312541
  0
VERTEX
  8
0
  6
CONTINUOUS
 62
     1
 10
534.705694255
 20
592.83762592
 42
0.020765948
  0
VERTEX
  8
0
  6
CONTINUOUS
 62
     1
 10
534.428849561
 20
592.653655793
 42
0.021265468
  0
VERTEX
  8
0
  6
CONTINUOUS
 62
     1
 10
534.171572875
 20
592.449489743
 42
0.021800009
  0
VERTEX
  8
0
  6
CONTINUOUS
 62
     1
 10
533.935822228
 20
592.226681597
 42
0.022355542
  0
VERTEX
  8
0
  6
CONTINUOUS
 62
     1
 10
533.723391823
 20
591.98692706
 42
0.022915011
  0
VERTEX
  8
0
  6
CONTINUOUS
 62
     1
 10
533.535898385
 20
591.732050808
 42
0.023458559
  0
VERTEX
  8
0
  6
CONTINUOUS
 62
     1
 10
533.374768852
 20
591.463992603
 42
0.023964205
  0
VERTEX
  8
0
  6
CONTINUOUS
 62
     1
 10
533.241229517
 20
591.184792531
 42
0.02440902
  0
VERTEX
  8
0
  6
CONTINUOUS
 62
     1
 10
533.136296695
 20
590.896575472
 42
0.02477078
  0
VERTEX
  8
0
  6
CONTINUOUS
 62
     1
 10
533.060768988
 20
590.601534933
 42
0.02502995
  0
VERTEX
  8
0
  6
CONTINUOUS
 62
     1
 10
533.015221208
 20
590.301916349
 42
0.025171713
  0
VERTEX
  8
0
  6
CONTINUOUS
 62
     1
 10
533.0
 20
590.0
 42
0.025187664
  0
VERTEX
  8
0
  6
CONTINUOUS
 62
     1
 10
533.015221208
 20
589.698083651
 42
0.025076847
  0
VERTEX
  8
0
  6
CONTINUOUS
 62
     1
 10
533.060768988
 20
589.398465067
 42
0.024845864
  0
VERTEX
  8
0
  6
CONTINUOUS
 62
     1
 10
533.136296695
 20
589.103424528
 42
0.024508071
  0
VERTEX
  8
0
  6
CONTINUOUS
 62
     1
 10
533.241229517
 20
588.815207469
 42
0.024082007
  0
VERTEX
  8
0
  6
CONTINUOUS
 62
     1
 10
533.374768852
 20
588.536007397
 42
0.023589414
  0
VERTEX
  8
0
  6
CONTINUOUS
 62
     1
 10
533.535898385
 20
588.267949192
 42
0.02305322
  0
VERTEX
  8
0
  6
CONTINUOUS
 62
     1
 10
533.723391823
 20
588.01307294
 42
0.022495771
  0
VERTEX
  8
0
  6
CONTINUOUS
 62
     1
 10
533.935822228
 20
587.773318403
 42
0.021937539
  0
VERTEX
  8
0
  6
CONTINUOUS
 62
     1
 10
534.171572875
 20
587.550510257
 42
0.021396316
  0
VERTEX
  8
0
  6
CONTINUOUS
 62
     1
 10
534.428849561
 20
587.346344207
 42
0.02088689
  0
VERTEX
  8
0
  6
CONTINUOUS
 62
     1
 10
534.705694255
 20
587.16237408
 42
0.020421065
  0
VERTEX
  8
0
  6
CONTINUOUS
 62
     1
 10
535.0
 20
587.0
 42
0.020007926
  0
VERTEX
  8
0
  6
CONTINUOUS
 62
     1
 10
535.309526953
 20
586.860457731
 42
0.019654221
  0
VERTEX
  8
0
  6
CONTINUOUS
 62
     1
 10
535.631919427
 20
586.744809275
 42
0.019364797
  0
VERTEX
  8
0
  6
CONTINUOUS
 62
     1
 10
535.96472382
 20
586.653934785
 42
0.019143001
  0
VERTEX
  8
0
  6
CONTINUOUS
 62
     1
 10
536.305407289
 20
586.588525872
 42
0.018991036
  0
VERTEX
  8
0
  6
CONTINUOUS
 62
     1
 10
536.651377029
 20
586.549080337
 42
0.018910232
  0
VERTEX
  8
0
  6
CONTINUOUS
 62
     1
 10
537.0
 20
586.535898385
 42
0.018901239
  0
VERTEX
  8
0
  6
CONTINUOUS
 62
     1
 10
537.348622971
 20
586.549080337
 42
0.018964128
  0
VERTEX
  8
0
  6
CONTINUOUS
 62
     1
 10
537.694592711
 20
586.588525872
 42
0.019098398
  0
VERTEX
  8
0
  6
CONTINUOUS
 62
     1
 10
538.03527618
 20
586.653934785
 42
0.019302905
  0
VERTEX
  8
0
  6
CONTINUOUS
 62
     1
 10
538.368080573
 20
586.744809275
 42
0.019575685
  0
VERTEX
  8
0
  6
CONTINUOUS
 62
     1
 10
538.690473047
 20
586.860457731
 42
0.019913709
  0
VERTEX
  8
0
  6
CONTINUOUS
 62
     1
 10
539.0
 20
587.0
 42
0.020312541
  0
VERTEX
  8
0
  6
CONTINUOUS
 62
     1
 10
539.294305745
 20
587.16237408
 42
0.020765948
  0
VERTEX
  8
0
  6
CONTINUOUS
 62
     1
 10
539.571150439
 20
587.346344207
 42
0.021265468
  0
VERTEX
  8
0
  6
CONTINUOUS
 62
     1
 10
539.828427125
 20
587.550510257
 42
0.021800009
  0
VERTEX
  8
0
  6
CONTINUOUS
 62
     1
 10
540.064177772
 20
587.773318403
 42
0.022355542
  0
VERTEX
  8
0
  6
CONTINUOUS
 62
     1
 10
540.276608177
 20
588.01307294
 42
0.022915011
  0
VERTEX
  8
0
  6
CONTINUOUS
 62
     1
 10
540.464101615
 20
588.267949192
 42
0.023458559
  0
VERTEX
  8
0
  6
CONTINUOUS
 62
     1
 10
540.625231148
 20
588.536007397
 42
0.023964205
  0
VERTEX
  8
0
  6
CONTINUOUS
 62
     1
 10
540.758770483
 20
588.815207469
 42
0.02440902
  0
VERTEX
  8
0
  6
CONTINUOUS
 62
     1
 10
540.863703305
 20
589.103424528
 42
0.02477078
  0
VERTEX
  8
0
  6
CONTINUOUS
 62
     1
 10
540.939231012
 20
589.398465067
 42
0.02502995
  0
VERTEX
  8
0
  6
CONTINUOUS
 62
     1
 10
540.984778792
 20
589.698083651
 42
0.025171713
  0
SEQEND
  8
0
  6
CONTINUOUS
 62
     1
  0
LINE
  8
0
  6
CONTINUOUS
 62
     1
 10
540.5
 20
590.0
 11
540.5
 21
588.322949017
  0
LINE
  8
0
  6
CONTINUOUS
 62
     1
 10
533.5
 20
590.0
 11
533.5
 21
588.322949017
  0
POLYLINE
  8
0
  6
CONTINUOUS
 62
     1
 66
     1
 70
     1
  0
VERTEX
  8
0
  6
CONTINUOUS
 62
     1
 10
540.5
 20
510.0
 42
-0.025187664
  0
VERTEX
  8
0
  6
CONTINUOUS
 62
     1
 10
540.486681443
 20
509.735823194
 42
-0.025076847
  0
VERTEX
  8
0
  6
CONTINUOUS
 62
     1
 10
540.446827136
 20
509.473656934
 42
-0.024845864
  0
VERTEX
  8
0
  6
CONTINUOUS
 62
     1
 10
540.380740392
 20
509.215496462
 42
-0.024508071
  0
VERTEX
  8
0
  6
CONTINUOUS
 62
     1
 10
540.288924173
 20
508.963306535
 42
-0.024082007
  0
VERTEX
  8
0
  6
CONTINUOUS
 62
     1
 10
540.172077255
 20
508.719006472
 42
-0.023589414
  0
VERTEX
  8
0
  6
CONTINUOUS
 62
     1
 10
540.031088913
 20
508.484455543
 42
-0.02305322
  0
VERTEX
  8
0
  6
CONTINUOUS
 62
     1
 10
539.867032155
 20
508.261438823
 42
-0.022495771
  0
VERTEX
  8
0
  6
CONTINUOUS
 62
     1
 10
539.681155551
 20
508.051653603
 42
-0.021937539
  0
VERTEX
  8
0
  6
CONTINUOUS
 62
     1
 10
539.474873734
 20
507.856696475
 42
-0.021396316
  0
VERTEX
  8
0
  6
CONTINUOUS
 62
     1
 10
539.249756634
 20
507.678051181
 42
-0.02088689
  0
VERTEX
  8
0
  6
CONTINUOUS
 62
     1
 10
539.007517527
 20
507.51707732
 42
-0.020421065
  0
VERTEX
  8
0
  6
CONTINUOUS
 62
     1
 10
538.75
 20
507.375
 42
-0.020007926
  0
VERTEX
  8
0
  6
CONTINUOUS
 62
     1
 10
538.479163916
 20
507.252900515
 42
-0.019654221
  0
VERTEX
  8
0
  6
CONTINUOUS
 62
     1
 10
538.197070502
 20
507.151708115
 42
-0.019364797
  0
VERTEX
  8
0
  6
CONTINUOUS
 62
     1
 10
537.905866658
 20
507.072192937
 42
-0.019143001
  0
VERTEX
  8
0
  6
CONTINUOUS
 62
     1
 10
537.607768622
 20
507.014960138
 42
-0.018991036
  0
VERTEX
  8
0
  6
CONTINUOUS
 62
     1
 10
537.3050451
 20
506.980445295
 42
-0.018910232
  0
VERTEX
  8
0
  6
CONTINUOUS
 62
     1
 10
537.0
 20
506.968911087
 42
-0.018901239
  0
VERTEX
  8
0
  6
CONTINUOUS
 62
     1
 10
536.6949549
 20
506.980445295
 42
-0.018964128
  0
VERTEX
  8
0
  6
CONTINUOUS
 62
     1
 10
536.392231378
 20
507.014960138
 42
-0.019098398
  0
VERTEX
  8
0
  6
CONTINUOUS
 62
     1
 10
536.094133342
 20
507.072192937
 42
-0.019302905
  0
VERTEX
  8
0
  6
CONTINUOUS
 62
     1
 10
535.802929498
 20
507.151708115
 42
-0.019575685
  0
VERTEX
  8
0
  6
CONTINUOUS
 62
     1
 10
535.520836084
 20
507.252900515
 42
-0.019913709
  0
VERTEX
  8
0
  6
CONTINUOUS
 62
     1
 10
535.25
 20
507.375
 42
-0.020312541
  0
VERTEX
  8
0
  6
CONTINUOUS
 62
     1
 10
534.992482473
 20
507.51707732
 42
-0.020765948
  0
VERTEX
  8
0
  6
CONTINUOUS
 62
     1
 10
534.750243366
 20
507.678051181
 42
-0.021265468
  0
VERTEX
  8
0
  6
CONTINUOUS
 62
     1
 10
534.525126266
 20
507.856696475
 42
-0.021800009
  0
VERTEX
  8
0
  6
CONTINUOUS
 62
     1
 10
534.318844449
 20
508.051653603
 42
-0.022355542
  0
VERTEX
  8
0
  6
CONTINUOUS
 62
     1
 10
534.132967845
 20
508.261438823
 42
-0.022915011
  0
VERTEX
  8
0
  6
CONTINUOUS
 62
     1
 10
533.968911087
 20
508.484455543
 42
-0.023458559
  0
VERTEX
  8
0
  6
CONTINUOUS
 62
     1
 10
533.827922745
 20
508.719006472
 42
-0.023964205
  0
VERTEX
  8
0
  6
CONTINUOUS
 62
     1
 10
533.711075827
 20
508.963306535
 42
-0.02440902
  0
VERTEX
  8
0
  6
CONTINUOUS
 62
     1
 10
533.619259608
 20
509.215496462
 42
-0.02477078
  0
VERTEX
  8
0
  6
CONTINUOUS
 62
     1
 10
533.553172864
 20
509.473656934
 42
-0.02502995
  0
VERTEX
  8
0
  6
CONTINUOUS
 62
     1
 10
533.513318557
 20
509.735823194
 42
-0.025171713
  0
VERTEX
  8
0
  6
CONTINUOUS
 62
     1
 10
533.5
 20
510.0
 42
-0.025187664
  0
VERTEX
  8
0
  6
CONTINUOUS
 62
     1
 10
533.513318557
 20
510.264176806
 42
-0.025076847
  0
VERTEX
  8
0
  6
CONTINUOUS
 62
     1
 10
533.553172864
 20
510.526343066
 42
-0.024845864
  0
VERTEX
  8
0
  6
CONTINUOUS
 62
     1
 10
533.619259608
 20
510.784503538
 42
-0.024508071
  0
VERTEX
  8
0
  6
CONTINUOUS
 62
     1
 10
533.711075827
 20
511.036693465
 42
-0.024082007
  0
VERTEX
  8
0
  6
CONTINUOUS
 62
     1
 10
533.827922745
 20
511.280993528
 42
-0.023589414
  0
VERTEX
  8
0
  6
CONTINUOUS
 62
     1
 10
533.968911087
 20
511.515544457
 42
-0.02305322
  0
VERTEX
  8
0
  6
CONTINUOUS
 62
     1
 10
534.132967845
 20
511.738561177
 42
-0.022495771
  0
VERTEX
  8
0
  6
CONTINUOUS
 62
     1
 10
534.318844449
 20
511.948346397
 42
-0.021937539
  0
VERTEX
  8
0
  6
CONTINUOUS
 62
     1
 10
534.525126266
 20
512.143303525
 42
-0.021396316
  0
VERTEX
  8
0
  6
CONTINUOUS
 62
     1
 10
534.750243366
 20
512.321948819
 42
-0.02088689
  0
VERTEX
  8
0
  6
CONTINUOUS
 62
     1
 10
534.992482473
 20
512.48292268
 42
-0.020421065
  0
VERTEX
  8
0
  6
CONTINUOUS
 62
     1
 10
535.25
 20
512.625
 42
-0.020007926
  0
VERTEX
  8
0
  6
CONTINUOUS
 62
     1
 10
535.520836084
 20
512.747099485
 42
-0.019654221
  0
VERTEX
  8
0
  6
CONTINUOUS
 62
     1
 10
535.802929498
 20
512.848291885
 42
-0.019364797
  0
VERTEX
  8
0
  6
CONTINUOUS
 62
     1
 10
536.094133342
 20
512.927807063
 42
-0.019143001
  0
VERTEX
  8
0
  6
CONTINUOUS
 62
     1
 10
536.392231378
 20
512.985039862
 42
-0.018991036
  0
VERTEX
  8
0
  6
CONTINUOUS
 62
     1
 10
536.6949549
 20
513.019554705
 42
-0.018910232
  0
VERTEX
  8
0
  6
CONTINUOUS
 62
     1
 10
537.0
 20
513.031088913
 42
-0.018901239
  0
VERTEX
  8
0
  6
CONTINUOUS
 62
     1
 10
537.3050451
 20
513.019554705
 42
-0.018964128
  0
VERTEX
  8
0
  6
CONTINUOUS
 62
     1
 10
537.607768622
 20
512.985039862
 42
-0.019098398
  0
VERTEX
  8
0
  6
CONTINUOUS
 62
     1
 10
537.905866658
 20
512.927807063
 42
-0.019302905
  0
VERTEX
  8
0
  6
CONTINUOUS
 62
     1
 10
538.197070502
 20
512.848291885
 42
-0.019575685
  0
VERTEX
  8
0
  6
CONTINUOUS
 62
     1
 10
538.479163916
 20
512.747099485
 42
-0.019913709
  0
VERTEX
  8
0
  6
CONTINUOUS
 62
     1
 10
538.75
 20
512.625
 42
-0.020312541
  0
VERTEX
  8
0
  6
CONTINUOUS
 62
     1
 10
539.007517527
 20
512.48292268
 42
-0.020765948
  0
VERTEX
  8
0
  6
CONTINUOUS
 62
     1
 10
539.249756634
 20
512.321948819
 42
-0.021265468
  0
VERTEX
  8
0
  6
CONTINUOUS
 62
     1
 10
539.474873734
 20
512.143303525
 42
-0.021800009
  0
VERTEX
  8
0
  6
CONTINUOUS
 62
     1
 10
539.681155551
 20
511.948346397
 42
-0.022355542
  0
VERTEX
  8
0
  6
CONTINUOUS
 62
     1
 10
539.867032155
 20
511.738561177
 42
-0.022915011
  0
VERTEX
  8
0
  6
CONTINUOUS
 62
     1
 10
540.031088913
 20
511.515544457
 42
-0.023458559
  0
VERTEX
  8
0
  6
CONTINUOUS
 62
     1
 10
540.172077255
 20
511.280993528
 42
-0.023964205
  0
VERTEX
  8
0
  6
CONTINUOUS
 62
     1
 10
540.288924173
 20
511.036693465
 42
-0.02440902
  0
VERTEX
  8
0
  6
CONTINUOUS
 62
     1
 10
540.380740392
 20
510.784503538
 42
-0.02477078
  0
VERTEX
  8
0
  6
CONTINUOUS
 62
     1
 10
540.446827136
 20
510.526343066
 42
-0.02502995
  0
VERTEX
  8
0
  6
CONTINUOUS
 62
     1
 10
540.486681443
 20
510.264176806
 42
-0.025171713
  0
SEQEND
  8
0
  6
CONTINUOUS
 62
     1
  0
LINE
  8
0
  6
CONTINUOUS
 62
     1
 10
535.3
 20
510.0
 11
536.1
 21
508.707993762
  0
LINE
  8
0
  6
CONTINUOUS
 62
     1
 10
536.1
 20
508.707993762
 11
537.9
 21
508.707993762
  0
LINE
  8
0
  6
CONTINUOUS
 62
     1
 10
537.9
 20
508.707993762
 11
538.7
 21
510.0
  0
LINE
  8
0
  6
CONTINUOUS
 62
     1
 10
538.7
 20
510.0
 11
537.9
 21
511.306069974
  0
LINE
  8
0
  6
CONTINUOUS
 62
     1
 10
537.9
 20
511.306069974
 11
536.1
 21
511.306069974
  0
LINE
  8
0
  6
CONTINUOUS
 62
     1
 10
536.1
 20
511.306069974
 11
535.3
 21
510.0
  0
LINE
  8
0
  6
LTYPE2
 62
     2
 10
543.0
 20
510.0
 11
531.0
 21
510.0
  0
LINE
  8
0
  6
LTYPE2
 62
     2
 10
537.0
 20
505.0
 11
537.0
 21
515.0
  0
POLYLINE
  8
0
  6
CONTINUOUS
 62
     1
 66
     1
 70
     1
  0
VERTEX
  8
0
  6
CONTINUOUS
 62
     1
 10
541.0
 20
510.0
 42
-0.025187664
  0
VERTEX
  8
0
  6
CONTINUOUS
 62
     1
 10
540.984778792
 20
509.698083651
 42
-0.025076847
  0
VERTEX
  8
0
  6
CONTINUOUS
 62
     1
 10
540.939231012
 20
509.398465067
 42
-0.024845864
  0
VERTEX
  8
0
  6
CONTINUOUS
 62
     1
 10
540.863703305
 20
509.103424528
 42
-0.024508071
  0
VERTEX
  8
0
  6
CONTINUOUS
 62
     1
 10
540.758770483
 20
508.815207469
 42
-0.024082007
  0
VERTEX
  8
0
  6
CONTINUOUS
 62
     1
 10
540.625231148
 20
508.536007397
 42
-0.023589414
  0
VERTEX
  8
0
  6
CONTINUOUS
 62
     1
 10
540.464101615
 20
508.267949192
 42
-0.02305322
  0
VERTEX
  8
0
  6
CONTINUOUS
 62
     1
 10
540.276608177
 20
508.01307294
 42
-0.022495771
  0
VERTEX
  8
0
  6
CONTINUOUS
 62
     1
 10
540.064177772
 20
507.773318403
 42
-0.021937539
  0
VERTEX
  8
0
  6
CONTINUOUS
 62
     1
 10
539.828427125
 20
507.550510257
 42
-0.021396316
  0
VERTEX
  8
0
  6
CONTINUOUS
 62
     1
 10
539.571150439
 20
507.346344207
 42
-0.02088689
  0
VERTEX
  8
0
  6
CONTINUOUS
 62
     1
 10
539.294305745
 20
507.16237408
 42
-0.020421065
  0
VERTEX
  8
0
  6
CONTINUOUS
 62
     1
 10
539.0
 20
507.0
 42
-0.020007926
  0
VERTEX
  8
0
  6
CONTINUOUS
 62
     1
 10
538.690473047
 20
506.860457731
 42
-0.019654221
  0
VERTEX
  8
0
  6
CONTINUOUS
 62
     1
 10
538.368080573
 20
506.744809275
 42
-0.019364797
  0
VERTEX
  8
0
  6
CONTINUOUS
 62
     1
 10
538.03527618
 20
506.653934785
 42
-0.019143001
  0
VERTEX
  8
0
  6
CONTINUOUS
 62
     1
 10
537.694592711
 20
506.588525872
 42
-0.018991036
  0
VERTEX
  8
0
  6
CONTINUOUS
 62
     1
 10
537.348622971
 20
506.549080337
 42
-0.018910232
  0
VERTEX
  8
0
  6
CONTINUOUS
 62
     1
 10
537.0
 20
506.535898385
 42
-0.018901239
  0
VERTEX
  8
0
  6
CONTINUOUS
 62
     1
 10
536.651377029
 20
506.549080337
 42
-0.018964128
  0
VERTEX
  8
0
  6
CONTINUOUS
 62
     1
 10
536.305407289
 20
506.588525872
 42
-0.019098398
  0
VERTEX
  8
0
  6
CONTINUOUS
 62
     1
 10
535.96472382
 20
506.653934785
 42
-0.019302905
  0
VERTEX
  8
0
  6
CONTINUOUS
 62
     1
 10
535.631919427
 20
506.744809275
 42
-0.019575685
  0
VERTEX
  8
0
  6
CONTINUOUS
 62
     1
 10
535.309526953
 20
506.860457731
 42
-0.019913709
  0
VERTEX
  8
0
  6
CONTINUOUS
 62
     1
 10
535.0
 20
507.0
 42
-0.020312541
  0
VERTEX
  8
0
  6
CONTINUOUS
 62
     1
 10
534.705694255
 20
507.16237408
 42
-0.020765948
  0
VERTEX
  8
0
  6
CONTINUOUS
 62
     1
 10
534.428849561
 20
507.346344207
 42
-0.021265468
  0
VERTEX
  8
0
  6
CONTINUOUS
 62
     1
 10
534.171572875
 20
507.550510257
 42
-0.021800009
  0
VERTEX
  8
0
  6
CONTINUOUS
 62
     1
 10
533.935822228
 20
507.773318403
 42
-0.022355542
  0
VERTEX
  8
0
  6
CONTINUOUS
 62
     1
 10
533.723391823
 20
508.01307294
 42
-0.022915011
  0
VERTEX
  8
0
  6
CONTINUOUS
 62
     1
 10
533.535898385
 20
508.267949192
 42
-0.023458559
  0
VERTEX
  8
0
  6
CONTINUOUS
 62
     1
 10
533.374768852
 20
508.536007397
 42
-0.023964205
  0
VERTEX
  8
0
  6
CONTINUOUS
 62
     1
 10
533.241229517
 20
508.815207469
 42
-0.02440902
  0
VERTEX
  8
0
  6
CONTINUOUS
 62
     1
 10
533.136296695
 20
509.103424528
 42
-0.02477078
  0
VERTEX
  8
0
  6
CONTINUOUS
 62
     1
 10
533.060768988
 20
509.398465067
 42
-0.02502995
  0
VERTEX
  8
0
  6
CONTINUOUS
 62
     1
 10
533.015221208
 20
509.698083651
 42
-0.025171713
  0
VERTEX
  8
0
  6
CONTINUOUS
 62
     1
 10
533.0
 20
510.0
 42
-0.025187664
  0
VERTEX
  8
0
  6
CONTINUOUS
 62
     1
 10
533.015221208
 20
510.301916349
 42
-0.025076847
  0
VERTEX
  8
0
  6
CONTINUOUS
 62
     1
 10
533.060768988
 20
510.601534933
 42
-0.024845864
  0
VERTEX
  8
0
  6
CONTINUOUS
 62
     1
 10
533.136296695
 20
510.896575472
 42
-0.024508071
  0
VERTEX
  8
0
  6
CONTINUOUS
 62
     1
 10
533.241229517
 20
511.184792531
 42
-0.024082007
  0
VERTEX
  8
0
  6
CONTINUOUS
 62
     1
 10
533.374768852
 20
511.463992603
 42
-0.023589414
  0
VERTEX
  8
0
  6
CONTINUOUS
 62
     1
 10
533.535898385
 20
511.732050808
 42
-0.02305322
  0
VERTEX
  8
0
  6
CONTINUOUS
 62
     1
 10
533.723391823
 20
511.98692706
 42
-0.022495771
  0
VERTEX
  8
0
  6
CONTINUOUS
 62
     1
 10
533.935822228
 20
512.226681597
 42
-0.021937539
  0
VERTEX
  8
0
  6
CONTINUOUS
 62
     1
 10
534.171572875
 20
512.449489743
 42
-0.021396316
  0
VERTEX
  8
0
  6
CONTINUOUS
 62
     1
 10
534.428849561
 20
512.653655793
 42
-0.02088689
  0
VERTEX
  8
0
  6
CONTINUOUS
 62
     1
 10
534.705694255
 20
512.83762592
 42
-0.020421065
  0
VERTEX
  8
0
  6
CONTINUOUS
 62
     1
 10
535.0
 20
513.0
 42
-0.020007926
  0
VERTEX
  8
0
  6
CONTINUOUS
 62
     1
 10
535.309526953
 20
513.139542269
 42
-0.019654221
  0
VERTEX
  8
0
  6
CONTINUOUS
 62
     1
 10
535.631919427
 20
513.255190725
 42
-0.019364797
  0
VERTEX
  8
0
  6
CONTINUOUS
 62
     1
 10
535.96472382
 20
513.346065215
 42
-0.019143001
  0
VERTEX
  8
0
  6
CONTINUOUS
 62
     1
 10
536.305407289
 20
513.411474128
 42
-0.018991036
  0
VERTEX
  8
0
  6
CONTINUOUS
 62
     1
 10
536.651377029
 20
513.450919663
 42
-0.018910232
  0
VERTEX
  8
0
  6
CONTINUOUS
 62
     1
 10
537.0
 20
513.464101615
 42
-0.018901239
  0
VERTEX
  8
0
  6
CONTINUOUS
 62
     1
 10
537.348622971
 20
513.450919663
 42
-0.018964128
  0
VERTEX
  8
0
  6
CONTINUOUS
 62
     1
 10
537.694592711
 20
513.411474128
 42
-0.019098398
  0
VERTEX
  8
0
  6
CONTINUOUS
 62
     1
 10
538.03527618
 20
513.346065215
 42
-0.019302905
  0
VERTEX
  8
0
  6
CONTINUOUS
 62
     1
 10
538.368080573
 20
513.255190725
 42
-0.019575685
  0
VERTEX
  8
0
  6
CONTINUOUS
 62
     1
 10
538.690473047
 20
513.139542269
 42
-0.019913709
  0
VERTEX
  8
0
  6
CONTINUOUS
 62
     1
 10
539.0
 20
513.0
 42
-0.020312541
  0
VERTEX
  8
0
  6
CONTINUOUS
 62
     1
 10
539.294305745
 20
512.83762592
 42
-0.020765948
  0
VERTEX
  8
0
  6
CONTINUOUS
 62
     1
 10
539.571150439
 20
512.653655793
 42
-0.021265468
  0
VERTEX
  8
0
  6
CONTINUOUS
 62
     1
 10
539.828427125
 20
512.449489743
 42
-0.021800009
  0
VERTEX
  8
0
  6
CONTINUOUS
 62
     1
 10
540.064177772
 20
512.226681597
 42
-0.022355542
  0
VERTEX
  8
0
  6
CONTINUOUS
 62
     1
 10
540.276608177
 20
511.98692706
 42
-0.022915011
  0
VERTEX
  8
0
  6
CONTINUOUS
 62
     1
 10
540.464101615
 20
511.732050808
 42
-0.023458559
  0
VERTEX
  8
0
  6
CONTINUOUS
 62
     1
 10
540.625231148
 20
511.463992603
 42
-0.023964205
  0
VERTEX
  8
0
  6
CONTINUOUS
 62
     1
 10
540.758770483
 20
511.184792531
 42
-0.02440902
  0
VERTEX
  8
0
  6
CONTINUOUS
 62
     1
 10
540.863703305
 20
510.896575472
 42
-0.02477078
  0
VERTEX
  8
0
  6
CONTINUOUS
 62
     1
 10
540.939231012
 20
510.601534933
 42
-0.02502995
  0
VERTEX
  8
0
  6
CONTINUOUS
 62
     1
 10
540.984778792
 20
510.301916349
 42
-0.025171713
  0
SEQEND
  8
0
  6
CONTINUOUS
 62
     1
  0
LINE
  8
0
  6
CONTINUOUS
 62
     1
 10
540.5
 20
510.0
 11
540.5
 21
511.677050983
  0
LINE
  8
0
  6
CONTINUOUS
 62
     1
 10
533.5
 20
510.0
 11
533.5
 21
511.677050983
  0
TEXT
  8
表題欄
  6
CONTINUOUS
 62
     5
 10
1029.0
 20
69.0
 30
0.0
 40
12.0
  1
益子
 50
0.0
 41
0.875
 51
0.0
  7
KANJI1
  0
LINE
  8
図枠
  6
CONTINUOUS
 62
     2
 10
1230.0
 20
595.5
 11
1245.0
 21
595.5
  0
LINE
  8
図枠
  6
CONTINUOUS
 62
     2
 10
1230.0
 20
745.5
 11
1245.0
 21
745.5
  0
LINE
  8
図枠
  6
CONTINUOUS
 62
     2
 10
1230.0
 20
295.5
 11
1245.0
 21
295.5
  0
LINE
  8
図枠
  6
CONTINUOUS
 62
     2
 10
1230.0
 20
145.5
 11
1245.0
 21
145.5
  0
LINE
  8
図枠
  6
CONTINUOUS
 62
     2
 10
1230.0
 20
225.0
 11
1222.5
 21
225.0
  0
LINE
  8
図枠
  6
CONTINUOUS
 62
     2
 10
1230.0
 20
249.0
 11
1222.5
 21
249.0
  0
LINE
  8
図枠
  6
CONTINUOUS
 62
     2
 10
1230.0
 20
273.0
 11
1222.5
 21
273.0
  0
TEXT
  8
図枠
  6
CONTINUOUS
 62
     6
 10
1234.5
 20
813.0
 30
0.0
 40
15.0
  1
Ａ
 50
0.0
 41
1.0
 51
0.0
  7
KANJI2
  0
TEXT
  8
図枠
  6
CONTINUOUS
 62
     6
 10
1234.5
 20
663.0
 30
0.0
 40
15.0
  1
Ｂ
 50
0.0
 41
1.0
 51
0.0
  7
KANJI2
  0
TEXT
  8
図枠
  6
CONTINUOUS
 62
     6
 10
1234.5
 20
513.0
 30
0.0
 40
15.0
  1
Ｃ
 50
0.0
 41
1.0
 51
0.0
  7
KANJI2
  0
TEXT
  8
図枠
  6
CONTINUOUS
 62
     6
 10
1234.5
 20
363.0
 30
0.0
 40
15.0
  1
Ｄ
 50
0.0
 41
1.0
 51
0.0
  7
KANJI2
  0
TEXT
  8
図枠
  6
CONTINUOUS
 62
     6
 10
1234.5
 20
213.0
 30
0.0
 40
15.0
  1
Ｅ
 50
0.0
 41
1.0
 51
0.0
  7
KANJI2
  0
TEXT
  8
図枠
  6
CONTINUOUS
 62
     6
 10
1234.5
 20
63.0
 30
0.0
 40
15.0
  1
Ｆ
 50
0.0
 41
1.0
 51
0.0
  7
KANJI2
  0
LINE
  8
図枠
  6
CONTINUOUS
 62
     2
 10
75.0
 20
595.5
 11
60.0
 21
595.5
  0
LINE
  8
図枠
  6
CONTINUOUS
 62
     2
 10
75.0
 20
745.5
 11
60.0
 21
745.5
  0
LINE
  8
図枠
  6
CONTINUOUS
 62
     2
 10
75.0
 20
295.5
 11
60.0
 21
295.5
  0
LINE
  8
図枠
  6
CONTINUOUS
 62
     2
 10
75.0
 20
145.5
 11
60.0
 21
145.5
  0
TEXT
  8
図枠
  6
CONTINUOUS
 62
     6
 10
55.5
 20
813.0
 30
0.0
 40
15.0
  1
Ａ
 50
0.0
 41
1.0
 51
0.0
  7
KANJI2
  0
TEXT
  8
図枠
  6
CONTINUOUS
 62
     6
 10
55.5
 20
663.0
 30
0.0
 40
15.0
  1
Ｂ
 50
0.0
 41
1.0
 51
0.0
  7
KANJI2
  0
TEXT
  8
図枠
  6
CONTINUOUS
 62
     6
 10
55.5
 20
513.0
 30
0.0
 40
15.0
  1
Ｃ
 50
0.0
 41
1.0
 51
0.0
  7
KANJI2
  0
TEXT
  8
図枠
  6
CONTINUOUS
 62
     6
 10
55.5
 20
363.0
 30
0.0
 40
15.0
  1
Ｄ
 50
0.0
 41
1.0
 51
0.0
  7
KANJI2
  0
TEXT
  8
図枠
  6
CONTINUOUS
 62
     6
 10
55.5
 20
213.0
 30
0.0
 40
15.0
  1
Ｅ
 50
0.0
 41
1.0
 51
0.0
  7
KANJI2
  0
TEXT
  8
図枠
  6
CONTINUOUS
 62
     6
 10
55.5
 20
63.0
 30
0.0
 40
15.0
  1
Ｆ
 50
0.0
 41
1.0
 51
0.0
  7
KANJI2
  0
LINE
  8
図枠
  6
CONTINUOUS
 62
     2
 10
480.0
 20
861.0
 11
480.0
 21
876.0
  0
LINE
  8
図枠
  6
CONTINUOUS
 62
     2
 10
330.0
 20
876.0
 11
330.0
 21
861.0
  0
LINE
  8
図枠
  6
CONTINUOUS
 62
     2
 10
180.0
 20
876.0
 11
180.0
 21
861.0
  0
LINE
  8
図枠
  6
CONTINUOUS
 62
     2
 10
780.0
 20
876.0
 11
780.0
 21
861.0
  0
LINE
  8
図枠
  6
CONTINUOUS
 62
     2
 10
930.0
 20
876.0
 11
930.0
 21
861.0
  0
TEXT
  8
図枠
  6
CONTINUOUS
 62
     6
 10
96.0
 20
865.5
 30
0.0
 40
15.0
  1
１
 50
0.0
 41
1.2
 51
0.0
  7
KANJI3
  0
TEXT
  8
図枠
  6
CONTINUOUS
 62
     6
 10
246.0
 20
865.5
 30
0.0
 40
15.0
  1
２
 50
0.0
 41
1.2
 51
0.0
  7
KANJI3
  0
TEXT
  8
図枠
  6
CONTINUOUS
 62
     6
 10
396.0
 20
865.5
 30
0.0
 40
15.0
  1
３
 50
0.0
 41
1.2
 51
0.0
  7
KANJI3
  0
TEXT
  8
図枠
  6
CONTINUOUS
 62
     6
 10
546.0
 20
865.5
 30
0.0
 40
15.0
  1
４
 50
0.0
 41
1.2
 51
0.0
  7
KANJI3
  0
TEXT
  8
図枠
  6
CONTINUOUS
 62
     6
 10
696.0
 20
865.5
 30
0.0
 40
15.0
  1
５
 50
0.0
 41
1.2
 51
0.0
  7
KANJI3
  0
TEXT
  8
図枠
  6
CONTINUOUS
 62
     6
 10
846.0
 20
865.5
 30
0.0
 40
15.0
  1
６
 50
0.0
 41
1.2
 51
0.0
  7
KANJI3
  0
TEXT
  8
図枠
  6
CONTINUOUS
 62
     6
 10
996.0
 20
865.5
 30
0.0
 40
15.0
  1
７
 50
0.0
 41
1.2
 51
0.0
  7
KANJI3
  0
TEXT
  8
図枠
  6
CONTINUOUS
 62
     6
 10
1146.0
 20
865.5
 30
0.0
 40
15.0
  1
８
 50
0.0
 41
1.2
 51
0.0
  7
KANJI3
  0
LINE
  8
図枠
  6
CONTINUOUS
 62
     2
 10
330.0
 20
15.0
 11
330.0
 21
30.0
  0
LINE
  8
図枠
  6
CONTINUOUS
 62
     2
 10
180.0
 20
15.0
 11
180.0
 21
30.0
  0
TEXT
  8
図枠
  6
CONTINUOUS
 62
     6
 10
96.0
 20
10.5
 30
0.0
 40
15.0
  1
１
 50
0.0
 41
1.2
 51
0.0
  7
KANJI3
  0
TEXT
  8
図枠
  6
CONTINUOUS
 62
     6
 10
246.0
 20
10.5
 30
0.0
 40
15.0
  1
２
 50
0.0
 41
1.2
 51
0.0
  7
KANJI3
  0
TEXT
  8
図枠
  6
CONTINUOUS
 62
     6
 10
396.0
 20
10.5
 30
0.0
 40
15.0
  1
３
 50
0.0
 41
1.2
 51
0.0
  7
KANJI3
  0
LINE
  8
図枠
  6
CONTINUOUS
 62
     2
 10
1080.0
 20
861.0
 11
1080.0
 21
876.0
  0
LINE
  8
図枠
  6
CONTINUOUS
 62
     6
 10
75.0
 20
861.0
 11
75.0
 21
30.0
  0
LINE
  8
図枠
  6
CONTINUOUS
 62
     6
 10
630.0
 20
30.0
 11
630.0
 21
0.0
  0
LINE
  8
図枠
  6
CONTINUOUS
 62
     6
 10
480.0
 20
30.0
 11
480.0
 21
15.0
  0
LINE
  8
図枠
  6
CONTINUOUS
 62
     6
 10
510.0
 20
30.0
 11
510.0
 21
15.0
  0
LINE
  8
図枠
  6
CONTINUOUS
 62
     6
 10
540.0
 20
30.0
 11
540.0
 21
15.0
  0
LINE
  8
図枠
  6
CONTINUOUS
 62
     6
 10
570.0
 20
30.0
 11
570.0
 21
15.0
  0
LINE
  8
図枠
  6
CONTINUOUS
 62
     6
 10
600.0
 20
30.0
 11
600.0
 21
15.0
  0
LINE
  8
図枠
  6
CONTINUOUS
 62
     6
 10
75.0
 20
30.0
 11
1230.0
 21
30.0
  0
LINE
  8
図枠
  6
CONTINUOUS
 62
     6
 10
780.0
 20
15.0
 11
780.0
 21
30.0
  0
LINE
  8
図枠
  6
CONTINUOUS
 62
     6
 10
750.0
 20
15.0
 11
750.0
 21
30.0
  0
LINE
  8
図枠
  6
CONTINUOUS
 62
     6
 10
720.0
 20
15.0
 11
720.0
 21
30.0
  0
LINE
  8
図枠
  6
CONTINUOUS
 62
     6
 10
690.0
 20
15.0
 11
690.0
 21
30.0
  0
LINE
  8
図枠
  6
CONTINUOUS
 62
     6
 10
660.0
 20
15.0
 11
660.0
 21
30.0
  0
LINE
  8
図枠
  6
CONTINUOUS
 62
     6
 10
480.0
 20
15.0
 11
780.0
 21
15.0
  0
LINE
  8
図枠
  6
CONTINUOUS
 62
     6
 10
75.0
 20
445.5
 11
0.0
 21
445.5
  0
LINE
  8
図枠
  6
CONTINUOUS
 62
     6
 10
630.0
 20
861.0
 11
630.0
 21
891.0
  0
LINE
  8
図枠
  6
CONTINUOUS
 62
     6
 10
1230.0
 20
861.0
 11
75.0
 21
861.0
  0
LINE
  8
図枠
  6
CONTINUOUS
 62
     6
 10
1230.0
 20
445.5
 11
1260.0
 21
445.5
  0
LINE
  8
図枠
  6
CONTINUOUS
 62
     6
 10
1230.0
 20
30.0
 11
1230.0
 21
861.0
  0
TEXT
  8
図枠
  6
CONTINUOUS
 62
     6
 10
855.0
 20
10.5
 30
0.0
 40
15.0
  1
６
 50
0.0
 41
1.2
 51
0.0
  7
KANJI3
  0
TEXT
  8
図枠
  6
CONTINUOUS
 62
     6
 10
1005.0
 20
10.5
 30
0.0
 40
15.0
  1
７
 50
0.0
 41
1.2
 51
0.0
  7
KANJI3
  0
TEXT
  8
図枠
  6
CONTINUOUS
 62
     6
 10
1155.0
 20
10.5
 30
0.0
 40
15.0
  1
８
 50
0.0
 41
1.2
 51
0.0
  7
KANJI3
  0
LINE
  8
図枠
  6
CONTINUOUS
 62
     2
 10
930.0
 20
15.0
 11
930.0
 21
30.0
  0
LINE
  8
図枠
  6
CONTINUOUS
 62
     2
 10
1080.0
 20
15.0
 11
1080.0
 21
30.0
  0
LINE
  8
図枠
  6
CONTINUOUS
 62
     2
 10
723.0
 20
201.0
 11
723.0
 21
30.0
  0
LINE
  8
図枠
  6
CONTINUOUS
 62
     2
 10
744.0
 20
201.0
 11
744.0
 21
30.0
  0
LINE
  8
図枠
  6
CONTINUOUS
 62
     2
 10
765.0
 20
201.0
 11
765.0
 21
30.0
  0
LINE
  8
図枠
  6
CONTINUOUS
 62
     2
 10
786.0
 20
201.0
 11
786.0
 21
30.0
  0
LINE
  8
図枠
  6
CONTINUOUS
 62
     2
 10
969.0
 20
129.0
 11
969.0
 21
63.0
  0
LINE
  8
図枠
  6
CONTINUOUS
 62
     2
 10
1017.0
 20
129.0
 11
1017.0
 21
63.0
  0
LINE
  8
図枠
  6
CONTINUOUS
 62
     2
 10
897.0
 20
129.0
 11
897.0
 21
96.0
  0
LINE
  8
図枠
  6
CONTINUOUS
 62
     2
 10
807.0
 20
201.0
 11
807.0
 21
30.0
  0
LINE
  8
図枠
  6
CONTINUOUS
 62
     2
 10
873.0
 20
96.0
 11
873.0
 21
30.0
  0
LINE
  8
図枠
  6
CONTINUOUS
 62
     2
 10
921.0
 20
96.0
 11
921.0
 21
30.0
  0
LINE
  8
図枠
  6
CONTINUOUS
 62
     2
 10
1065.0
 20
129.0
 11
1065.0
 21
30.0
  0
LINE
  8
図枠
  6
LTYPE5
 62
     2
 10
939.0
 20
40.5
 11
951.0
 21
40.5
  0
LINE
  8
図枠
  6
LTYPE5
 62
     2
 10
951.0
 20
40.5
 11
951.0
 21
52.5
  0
LINE
  8
図枠
  6
LTYPE5
 62
     2
 10
951.0
 20
52.5
 11
939.0
 21
52.5
  0
LINE
  8
図枠
  6
LTYPE5
 62
     2
 10
939.0
 20
52.5
 11
939.0
 21
40.5
  0
TEXT
  8
図枠
  6
CONTINUOUS
 62
     4
 10
1068.0
 20
141.0
 30
-1.5
 40
9.0
  1
１セット分
 50
0.0
 41
0.666666667
 51
0.0
  7
KANJI4
  0
TEXT
  8
図枠
  6
CONTINUOUS
 62
     4
 10
1035.0
 20
141.0
 30
0.0
 40
9.0
  1
１台分
 50
0.0
 41
1.0
 51
0.0
  7
KANJI5
  0
TEXT
  8
図枠
  6
CONTINUOUS
 62
     4
 10
1041.0
 20
132.0
 30
0.0
 40
9.0
  1
個数
 50
0.0
 41
1.0
 51
0.0
  7
KANJI5
  0
TEXT
  8
図枠
  6
CONTINUOUS
 62
     4
 10
1071.0
 20
132.0
 30
0.0
 40
9.0
  1
個数
 50
0.0
 41
1.0
 51
0.0
  7
KANJI5
  0
TEXT
  8
図枠
  6
CONTINUOUS
 62
     4
 10
1099.5
 20
135.0
 30
0.0
 40
12.0
  1
総数
 50
0.0
 41
0.875
 51
0.0
  7
KANJI1
  0
TEXT
  8
図枠
  6
CONTINUOUS
 62
     4
 10
819.45
 20
157.5
 30
0.9
 40
7.5
  1
氏名
 50
90.0
 41
1.0
 51
0.0
  7
KANJI6
  0
TEXT
  8
図枠
  6
CONTINUOUS
 62
     4
 10
819.45
 20
121.275
 30
3.0
 40
7.5
  1
年月日
 50
90.0
 41
1.0
 51
0.0
  7
KANJI7
  0
TEXT
  8
図枠
  6
CONTINUOUS
 62
     4
 10
819.45
 20
181.125
 30
0.9
 40
7.5
  1
承認
 50
90.0
 41
1.0
 51
0.0
  7
KANJI6
  0
TEXT
  8
図枠
  6
CONTINUOUS
 62
     4
 10
828.0
 20
118.5
 30
0.0
 40
7.5
  1
熱処理
 50
0.0
 41
1.0
 51
0.0
  7
KANJI8
  0
TEXT
  8
図枠
  6
CONTINUOUS
 62
     4
 10
900.0
 20
118.5
 30
0.0
 40
7.5
  1
表面処理
 50
0.0
 41
1.0
 51
0.0
  7
KANJI8
  0
TEXT
  8
図枠
  6
CONTINUOUS
 62
     4
 10
972.0
 20
118.5
 30
0.0
 40
7.5
  1
台数
 50
0.0
 41
1.0
 51
0.0
  7
KANJI8
  0
TEXT
  8
図枠
  6
CONTINUOUS
 62
     4
 10
1020.0
 20
118.5
 30
0.0
 40
7.5
  1
作成日付
 50
0.0
 41
1.0
 51
0.0
  7
KANJI8
  0
TEXT
  8
図枠
  6
CONTINUOUS
 62
     4
 10
1068.0
 20
118.5
 30
0.0
 40
7.5
  1
名称
 50
0.0
 41
1.0
 51
0.0
  7
KANJI8
  0
TEXT
  8
図枠
  6
CONTINUOUS
 62
     4
 10
828.0
 20
85.5
 30
0.0
 40
7.5
  1
尺度
 50
0.0
 41
1.0
 51
0.0
  7
KANJI8
  0
TEXT
  8
図枠
  6
CONTINUOUS
 62
     4
 10
876.0
 20
85.5
 30
0.0
 40
7.5
  1
承認
 50
0.0
 41
1.0
 51
0.0
  7
KANJI8
  0
TEXT
  8
図枠
  6
CONTINUOUS
 62
     4
 10
924.0
 20
85.5
 30
0.0
 40
7.5
  1
検図
 50
0.0
 41
1.0
 51
0.0
  7
KANJI8
  0
TEXT
  8
図枠
  6
CONTINUOUS
 62
     4
 10
972.0
 20
85.5
 30
0.0
 40
7.5
  1
設計
 50
0.0
 41
1.0
 51
0.0
  7
KANJI8
  0
TEXT
  8
図枠
  6
CONTINUOUS
 62
     4
 10
1020.0
 20
85.5
 30
0.0
 40
7.5
  1
製図
 50
0.0
 41
1.0
 51
0.0
  7
KANJI8
  0
TEXT
  8
図枠
  6
CONTINUOUS
 62
     4
 10
1068.0
 20
85.5
 30
0.0
 40
7.5
  1
機名
 50
0.0
 41
1.0
 51
0.0
  7
KANJI8
  0
TEXT
  8
図枠
  6
CONTINUOUS
 62
     4
 10
819.45
 20
32.625
 30
0.9
 40
7.5
  1
記号
 50
90.0
 41
1.0
 51
0.0
  7
KANJI6
  0
TEXT
  8
図枠
  6
CONTINUOUS
 62
     4
 10
1068.0
 20
52.5
 30
0.0
 40
7.5
  1
図面番号
 50
0.0
 41
1.0
 51
0.0
  7
KANJI8
  0
TEXT
  8
図枠
  6
CONTINUOUS
 62
     4
 10
957.0
 20
42.75
 30
0.0
 40
7.5
  1
株式会社
 50
0.0
 41
1.0
 51
0.0
  7
KANJI8
  0
TEXT
  8
図枠
  6
CONTINUOUS
 62
     4
 10
993.0
 20
40.5
 30
0.0
 40
12.0
  1
昭和測器
 50
0.0
 41
1.125
 51
0.0
  7
KANJI9
  0
TEXT
  8
図枠
  6
CONTINUOUS
 62
     4
 10
819.45
 20
55.125
 30
0.9
 40
7.5
  1
来歴・改訂記事
 50
90.0
 41
1.0
 51
0.0
  7
KANJI6
  0
TEXT
  8
図枠
  6
CONTINUOUS
 62
     1
 10
834.0
 20
46.5
 30
0.0
 40
15.0
  1
第３
 50
0.0
 41
1.0
 51
0.0
  7
KANJI2
  0
TEXT
  8
図枠
  6
CONTINUOUS
 62
     1
 10
834.0
 20
31.5
 30
0.0
 40
15.0
  1
角法
 50
0.0
 41
1.0
 51
0.0
  7
KANJI2
  0
LINE
  8
図枠
  6
CONTINUOUS
 62
     2
 10
702.0
 20
201.0
 11
702.0
 21
30.0
  0
LINE
  8
図枠
  6
CONTINUOUS
 62
     2
 10
699.0
 20
51.0
 11
825.0
 21
51.0
  0
TEXT
  8
図枠
  6
CONTINUOUS
 62
     4
 10
978.0
 20
135.0
 30
0.0
 40
12.0
  1
材　　質
 50
0.0
 41
0.875
 51
0.0
  7
KANJI1
  0
TEXT
  8
図枠
  6
CONTINUOUS
 62
     4
 10
1149.75
 20
135.0
 30
0.0
 40
12.0
  1
摘　　　要
 50
0.0
 41
0.875
 51
0.0
  7
KANJI1
  0
TEXT
  8
図枠
  6
CONTINUOUS
 62
     4
 10
829.5
 20
135.0
 30
0.0
 40
12.0
  1
番号
 50
0.0
 41
0.875
 51
0.0
  7
KANJI1
  0
TEXT
  8
図枠
  6
CONTINUOUS
 62
     4
 10
882.75
 20
135.0
 30
0.0
 40
12.0
  1
部　品　名
 50
0.0
 41
0.875
 51
0.0
  7
KANJI1
  0
CIRCLE
  8
図枠
  6
CONTINUOUS
 62
     6
 10
849.0
 20
78.0
 40
0.6
  0
CIRCLE
  8
図枠
  6
CONTINUOUS
 62
     6
 10
849.0
 20
70.5
 40
0.6
  0
TEXT
  8
図枠
  6
CONTINUOUS
 62
     6
 10
881.175
 20
36.075
 30
-3.0
 40
21.0
  1
Ａ３
 50
0.0
 41
0.857142857
 51
0.0
  7
KANJI10
  0
LINE
  8
図枠
  6
CONTINUOUS
 62
     2
 10
699.0
 20
201.0
 11
825.0
 21
201.0
  0
LINE
  8
図枠
  6
CONTINUOUS
 62
     2
 10
699.0
 20
177.0
 11
825.0
 21
177.0
  0
LINE
  8
図枠
  6
CONTINUOUS
 62
     2
 10
855.0
 20
153.0
 11
855.0
 21
129.0
  0
LINE
  8
図枠
  6
CONTINUOUS
 62
     2
 10
855.0
 20
201.0
 11
855.0
 21
153.0
  0
LINE
  8
図枠
  6
CONTINUOUS
 62
     2
 10
963.0
 20
153.0
 11
963.0
 21
129.0
  0
LINE
  8
図枠
  6
CONTINUOUS
 62
     2
 10
963.0
 20
201.0
 11
963.0
 21
153.0
  0
LINE
  8
図枠
  6
CONTINUOUS
 62
     2
 10
1035.0
 20
153.0
 11
1035.0
 21
129.0
  0
LINE
  8
図枠
  6
CONTINUOUS
 62
     2
 10
1035.0
 20
201.0
 11
1035.0
 21
153.0
  0
LINE
  8
図枠
  6
CONTINUOUS
 62
     2
 10
1065.0
 20
153.0
 11
1065.0
 21
129.0
  0
LINE
  8
図枠
  6
CONTINUOUS
 62
     2
 10
1065.0
 20
201.0
 11
1065.0
 21
153.0
  0
LINE
  8
図枠
  6
CONTINUOUS
 62
     2
 10
1095.0
 20
153.0
 11
1095.0
 21
129.0
  0
LINE
  8
図枠
  6
CONTINUOUS
 62
     2
 10
1095.0
 20
201.0
 11
1095.0
 21
153.0
  0
LINE
  8
図枠
  6
CONTINUOUS
 62
     2
 10
1125.0
 20
153.0
 11
1125.0
 21
129.0
  0
LINE
  8
図枠
  6
CONTINUOUS
 62
     2
 10
1125.0
 20
201.0
 11
1125.0
 21
153.0
  0
LINE
  8
図枠
  6
CONTINUOUS
 62
     2
 10
825.0
 20
153.0
 11
825.0
 21
30.0
  0
LINE
  8
図枠
  6
CONTINUOUS
 62
     2
 10
825.0
 20
201.0
 11
825.0
 21
153.0
  0
LINE
  8
図枠
  6
CONTINUOUS
 62
     2
 10
699.0
 20
117.0
 11
825.0
 21
117.0
  0
LINE
  8
図枠
  6
CONTINUOUS
 62
     2
 10
699.0
 20
153.0
 11
825.0
 21
153.0
  0
LINE
  8
図枠
  6
LTYPE3
 62
     2
 10
1200.0
 20
63.0
 11
1200.0
 21
30.0
  0
LINE
  8
図枠
  6
CONTINUOUS
 62
     2
 10
825.0
 20
201.0
 11
1230.0
 21
201.0
  0
LINE
  8
図枠
  6
CONTINUOUS
 62
     2
 10
825.0
 20
177.0
 11
1230.0
 21
177.0
  0
LINE
  8
図枠
  6
CONTINUOUS
 62
     2
 10
825.0
 20
153.0
 11
1230.0
 21
153.0
  0
LINE
  8
図枠
  6
CONTINUOUS
 62
     2
 10
825.0
 20
129.0
 11
1230.0
 21
129.0
  0
LINE
  8
図枠
  6
CONTINUOUS
 62
     2
 10
825.0
 20
96.0
 11
1230.0
 21
96.0
  0
LINE
  8
図枠
  6
CONTINUOUS
 62
     2
 10
825.0
 20
63.0
 11
1230.0
 21
63.0
  0
TEXT
  8
表題欄
  6
CONTINUOUS
 62
     5
 10
834.0
 20
69.0
 30
0.0
 40
12.0
  1
１
 50
0.0
 41
0.875
 51
0.0
  7
KANJI1
  0
TEXT
  8
表題欄
  6
CONTINUOUS
 62
     5
 10
853.5
 20
69.0
 30
0.0
 40
12.0
  1
１
 50
0.0
 41
0.875
 51
0.0
  7
KANJI1
  0
TEXT
  8
表題欄
  6
CONTINUOUS
 62
     5
 10
1021.5
 20
108.0
 30
-1.5
 40
9.0
  1
２０１７．
 50
0.0
 41
0.833333333
 51
0.0
  7
KANJI11
  0
TEXT
  8
表題欄
  6
CONTINUOUS
 62
     5
 10
1029.0
 20
99.0
 30
-1.5
 40
9.0
  1
０７．１２
 50
0.0
 41
0.833333333
 51
0.0
  7
KANJI11
  0
TEXT
  8
表題欄
  6
CONTINUOUS
 62
     5
 10
1132.2
 20
102.0
 30
0.3
 40
12.0
  1
外観図
 50
0.0
 41
0.875
 51
0.0
  7
KANJI0
  0
TEXT
  8
表題欄
  6
CONTINUOUS
 62
     5
 10
1083.6
 20
69.0
 30
0.3
 40
12.0
  1
ＴＰ－２０ＫＮ
 50
0.0
 41
0.875
 51
0.0
  7
KANJI0
  0
TEXT
  8
表題欄
  6
CONTINUOUS
 62
     5
 10
1074.45
 20
36.0
 30
0.3
 40
12.0
  1
Ｉ－０１３９－Ａ００１
 50
0.0
 41
0.875
 51
0.0
  7
KANJI0
  0
ENDSEC
  0
EOF
