  0
SECTION
  2
HEADER
  9
$EXTMIN
 10
0.0
 20
0.0
 30
0.0
  9
$EXTMAX
 10
840.0
 20
594.0
 30
0.0
  9
$LIMMIN
 10
0.0
 20
0.0
  9
$LIMMAX
 10
840.0
 20
594.0
  9
$LTSCALE
 40
1.0
  9
$PDMODE
 70
     0
  0
ENDSEC
  0
SECTION
  2
TABLES
  0
TABLE
  2
LTYPE
 70
     4
  0
LTYPE
  2
CONTINUOUS
 70
    64
  3
Solid line
 72
    65
 73
     0
 40
0.0
  0
LTYPE
  2
LTYPE1
 70
    64
  3
PHANTOM
 72
    65
 73
     6
 40
20.0
 49
15.0
 49
-1.0
 49
1.0
 49
-1.0
 49
1.0
 49
-1.0
  0
LTYPE
  2
LTYPE2
 70
    64
  3
HIDDEN
 72
    65
 73
     2
 40
4.0
 49
2.4
 49
-1.6
  0
LTYPE
  2
LTYPE3
 70
    64
  3
CENTER
 72
    65
 73
     4
 40
20.0
 49
14.0
 49
-2.0
 49
2.0
 49
-2.0
  0
ENDTAB
  0
TABLE
  2
LAYER
 70
   128
  0
LAYER
  2
0
 70
     0
 62
     7
  6
CONTINUOUS
  0
LAYER
  2
ハッチング
 70
     0
 62
     7
  6
CONTINUOUS
  0
LAYER
  2
治具
 70
     0
 62
     7
  6
CONTINUOUS
  0
LAYER
  2
購入品
 70
     0
 62
     7
  6
CONTINUOUS
  0
LAYER
  2
寸法線
 70
     0
 62
     7
  6
CONTINUOUS
  0
LAYER
  2
表題欄
 70
     0
 62
     7
  6
CONTINUOUS
  0
LAYER
  2
図枠
 70
     0
 62
     7
  6
CONTINUOUS
  0
LAYER
  2
8
 70
     0
 62
     7
  6
CONTINUOUS
  0
LAYER
  2
9
 70
     0
 62
     7
  6
CONTINUOUS
  0
LAYER
  2
10
 70
     0
 62
     7
  6
CONTINUOUS
  0
LAYER
  2
11
 70
     0
 62
     7
  6
CONTINUOUS
  0
LAYER
  2
12
 70
     0
 62
     7
  6
CONTINUOUS
  0
LAYER
  2
13
 70
     0
 62
     7
  6
CONTINUOUS
  0
LAYER
  2
14
 70
     0
 62
     7
  6
CONTINUOUS
  0
LAYER
  2
15
 70
     0
 62
     7
  6
CONTINUOUS
  0
LAYER
  2
16
 70
     0
 62
     7
  6
CONTINUOUS
  0
LAYER
  2
17
 70
     0
 62
     7
  6
CONTINUOUS
  0
LAYER
  2
18
 70
     0
 62
     7
  6
CONTINUOUS
  0
LAYER
  2
19
 70
     0
 62
     7
  6
CONTINUOUS
  0
LAYER
  2
20
 70
     0
 62
     7
  6
CONTINUOUS
  0
LAYER
  2
21
 70
     0
 62
     7
  6
CONTINUOUS
  0
LAYER
  2
22
 70
     0
 62
     7
  6
CONTINUOUS
  0
LAYER
  2
23
 70
     0
 62
     7
  6
CONTINUOUS
  0
LAYER
  2
24
 70
     0
 62
     7
  6
CONTINUOUS
  0
LAYER
  2
25
 70
     0
 62
     7
  6
CONTINUOUS
  0
LAYER
  2
26
 70
     0
 62
     7
  6
CONTINUOUS
  0
LAYER
  2
27
 70
     0
 62
     7
  6
CONTINUOUS
  0
LAYER
  2
28
 70
     0
 62
     7
  6
CONTINUOUS
  0
LAYER
  2
29
 70
     0
 62
     7
  6
CONTINUOUS
  0
LAYER
  2
30
 70
     0
 62
     7
  6
CONTINUOUS
  0
LAYER
  2
31
 70
     0
 62
     7
  6
CONTINUOUS
  0
LAYER
  2
32
 70
     0
 62
     7
  6
CONTINUOUS
  0
LAYER
  2
33
 70
     0
 62
     7
  6
CONTINUOUS
  0
LAYER
  2
34
 70
     0
 62
     7
  6
CONTINUOUS
  0
LAYER
  2
35
 70
     0
 62
     7
  6
CONTINUOUS
  0
LAYER
  2
36
 70
     0
 62
     7
  6
CONTINUOUS
  0
LAYER
  2
37
 70
     0
 62
     7
  6
CONTINUOUS
  0
LAYER
  2
38
 70
     0
 62
     7
  6
CONTINUOUS
  0
LAYER
  2
39
 70
     0
 62
     7
  6
CONTINUOUS
  0
LAYER
  2
40
 70
     0
 62
     7
  6
CONTINUOUS
  0
LAYER
  2
41
 70
     0
 62
     7
  6
CONTINUOUS
  0
LAYER
  2
42
 70
     0
 62
     7
  6
CONTINUOUS
  0
LAYER
  2
43
 70
     0
 62
     7
  6
CONTINUOUS
  0
LAYER
  2
44
 70
     0
 62
     7
  6
CONTINUOUS
  0
LAYER
  2
45
 70
     0
 62
     7
  6
CONTINUOUS
  0
LAYER
  2
46
 70
     0
 62
     7
  6
CONTINUOUS
  0
LAYER
  2
47
 70
     0
 62
     7
  6
CONTINUOUS
  0
LAYER
  2
48
 70
     0
 62
     7
  6
CONTINUOUS
  0
LAYER
  2
49
 70
     0
 62
     7
  6
CONTINUOUS
  0
LAYER
  2
50
 70
     0
 62
     7
  6
CONTINUOUS
  0
LAYER
  2
51
 70
     0
 62
     7
  6
CONTINUOUS
  0
LAYER
  2
52
 70
     0
 62
     7
  6
CONTINUOUS
  0
LAYER
  2
53
 70
     0
 62
     7
  6
CONTINUOUS
  0
LAYER
  2
54
 70
     0
 62
     7
  6
CONTINUOUS
  0
LAYER
  2
55
 70
     0
 62
     7
  6
CONTINUOUS
  0
LAYER
  2
56
 70
     0
 62
     7
  6
CONTINUOUS
  0
LAYER
  2
57
 70
     0
 62
     7
  6
CONTINUOUS
  0
LAYER
  2
58
 70
     0
 62
     7
  6
CONTINUOUS
  0
LAYER
  2
59
 70
     0
 62
     7
  6
CONTINUOUS
  0
LAYER
  2
60
 70
     0
 62
     7
  6
CONTINUOUS
  0
LAYER
  2
61
 70
     0
 62
     7
  6
CONTINUOUS
  0
LAYER
  2
62
 70
     0
 62
     7
  6
CONTINUOUS
  0
LAYER
  2
63
 70
     0
 62
     7
  6
CONTINUOUS
  0
LAYER
  2
64
 70
     0
 62
     7
  6
CONTINUOUS
  0
LAYER
  2
65
 70
     0
 62
     7
  6
CONTINUOUS
  0
LAYER
  2
66
 70
     0
 62
     7
  6
CONTINUOUS
  0
LAYER
  2
67
 70
     0
 62
     7
  6
CONTINUOUS
  0
LAYER
  2
68
 70
     0
 62
     7
  6
CONTINUOUS
  0
LAYER
  2
69
 70
     0
 62
     7
  6
CONTINUOUS
  0
LAYER
  2
70
 70
     0
 62
     7
  6
CONTINUOUS
  0
LAYER
  2
71
 70
     0
 62
     7
  6
CONTINUOUS
  0
LAYER
  2
72
 70
     0
 62
     7
  6
CONTINUOUS
  0
LAYER
  2
73
 70
     0
 62
     7
  6
CONTINUOUS
  0
LAYER
  2
74
 70
     0
 62
     7
  6
CONTINUOUS
  0
LAYER
  2
75
 70
     0
 62
     7
  6
CONTINUOUS
  0
LAYER
  2
76
 70
     0
 62
     7
  6
CONTINUOUS
  0
LAYER
  2
77
 70
     0
 62
     7
  6
CONTINUOUS
  0
LAYER
  2
78
 70
     0
 62
     7
  6
CONTINUOUS
  0
LAYER
  2
79
 70
     0
 62
     7
  6
CONTINUOUS
  0
LAYER
  2
80
 70
     0
 62
     7
  6
CONTINUOUS
  0
LAYER
  2
81
 70
     0
 62
     7
  6
CONTINUOUS
  0
LAYER
  2
82
 70
     0
 62
     7
  6
CONTINUOUS
  0
LAYER
  2
83
 70
     0
 62
     7
  6
CONTINUOUS
  0
LAYER
  2
84
 70
     0
 62
     7
  6
CONTINUOUS
  0
LAYER
  2
85
 70
     0
 62
     7
  6
CONTINUOUS
  0
LAYER
  2
86
 70
     0
 62
     7
  6
CONTINUOUS
  0
LAYER
  2
87
 70
     0
 62
     7
  6
CONTINUOUS
  0
LAYER
  2
88
 70
     0
 62
     7
  6
CONTINUOUS
  0
LAYER
  2
89
 70
     0
 62
     7
  6
CONTINUOUS
  0
LAYER
  2
90
 70
     0
 62
     7
  6
CONTINUOUS
  0
LAYER
  2
91
 70
     0
 62
     7
  6
CONTINUOUS
  0
LAYER
  2
92
 70
     0
 62
     7
  6
CONTINUOUS
  0
LAYER
  2
93
 70
     0
 62
     7
  6
CONTINUOUS
  0
LAYER
  2
94
 70
     0
 62
     7
  6
CONTINUOUS
  0
LAYER
  2
95
 70
     0
 62
     7
  6
CONTINUOUS
  0
LAYER
  2
96
 70
     0
 62
     7
  6
CONTINUOUS
  0
LAYER
  2
97
 70
     0
 62
     7
  6
CONTINUOUS
  0
LAYER
  2
98
 70
     0
 62
     7
  6
CONTINUOUS
  0
LAYER
  2
99
 70
     0
 62
     7
  6
CONTINUOUS
  0
LAYER
  2
100
 70
     0
 62
     7
  6
CONTINUOUS
  0
LAYER
  2
101
 70
     0
 62
     7
  6
CONTINUOUS
  0
LAYER
  2
102
 70
     0
 62
     7
  6
CONTINUOUS
  0
LAYER
  2
103
 70
     0
 62
     7
  6
CONTINUOUS
  0
LAYER
  2
104
 70
     0
 62
     7
  6
CONTINUOUS
  0
LAYER
  2
105
 70
     0
 62
     7
  6
CONTINUOUS
  0
LAYER
  2
106
 70
     0
 62
     7
  6
CONTINUOUS
  0
LAYER
  2
107
 70
     0
 62
     7
  6
CONTINUOUS
  0
LAYER
  2
108
 70
     0
 62
     7
  6
CONTINUOUS
  0
LAYER
  2
109
 70
     0
 62
     7
  6
CONTINUOUS
  0
LAYER
  2
110
 70
     0
 62
     7
  6
CONTINUOUS
  0
LAYER
  2
111
 70
     0
 62
     7
  6
CONTINUOUS
  0
LAYER
  2
112
 70
     0
 62
     7
  6
CONTINUOUS
  0
LAYER
  2
113
 70
     0
 62
     7
  6
CONTINUOUS
  0
LAYER
  2
114
 70
     0
 62
     7
  6
CONTINUOUS
  0
LAYER
  2
115
 70
     0
 62
     7
  6
CONTINUOUS
  0
LAYER
  2
116
 70
     0
 62
     7
  6
CONTINUOUS
  0
LAYER
  2
117
 70
     0
 62
     7
  6
CONTINUOUS
  0
LAYER
  2
118
 70
     0
 62
     7
  6
CONTINUOUS
  0
LAYER
  2
119
 70
     0
 62
     7
  6
CONTINUOUS
  0
LAYER
  2
120
 70
     0
 62
     7
  6
CONTINUOUS
  0
LAYER
  2
121
 70
     0
 62
     7
  6
CONTINUOUS
  0
LAYER
  2
122
 70
     0
 62
     7
  6
CONTINUOUS
  0
LAYER
  2
123
 70
     0
 62
     7
  6
CONTINUOUS
  0
LAYER
  2
124
 70
     0
 62
     7
  6
CONTINUOUS
  0
LAYER
  2
125
 70
     0
 62
     7
  6
CONTINUOUS
  0
LAYER
  2
126
 70
     0
 62
     7
  6
CONTINUOUS
  0
LAYER
  2
127
 70
     0
 62
     7
  6
CONTINUOUS
  0
LAYER
  2
128
 70
     0
 62
     7
  6
CONTINUOUS
  0
ENDTAB
  0
TABLE
  2
STYLE
 70
    13
  0
STYLE
  2
STANDARD
 70
     0
 40
0.0
 41
1.0
 50
0.0
 71
     0
 42
0.2
  3
txt
  4

  0
STYLE
  2
KANJI0
 70
     0
 40
8.0
 41
0.875
 50
0.0
 71
     0
 42
8.0
  3

  4
bigfont
  0
STYLE
  2
KANJI1
 70
     0
 40
10.0
 41
1.0
 50
0.0
 71
     0
 42
10.0
  3

  4
bigfont
  0
STYLE
  2
KANJI2
 70
     0
 40
10.0
 41
1.2
 50
0.0
 71
     0
 42
10.0
  3

  4
bigfont
  0
STYLE
  2
KANJI3
 70
     0
 40
6.0
 41
0.666666667
 50
0.0
 71
     0
 42
6.0
  3

  4
bigfont
  0
STYLE
  2
KANJI4
 70
     0
 40
6.0
 41
1.0
 50
0.0
 71
     0
 42
6.0
  3

  4
bigfont
  0
STYLE
  2
KANJI5
 70
     0
 40
5.0
 41
1.0
 50
0.0
 71
     0
 42
5.0
  3

  4
bigfont
  0
STYLE
  2
KANJI6
 70
     0
 40
5.0
 41
1.0
 50
0.0
 71
     0
 42
5.0
  3

  4
bigfont
  0
STYLE
  2
KANJI7
 70
     0
 40
5.0
 41
1.0
 50
0.0
 71
     0
 42
5.0
  3

  4
bigfont
  0
STYLE
  2
KANJI8
 70
     0
 40
8.0
 41
1.125
 50
0.0
 71
     0
 42
8.0
  3

  4
bigfont
  0
STYLE
  2
KANJI9
 70
     0
 40
14.0
 41
0.857142857
 50
0.0
 71
     0
 42
14.0
  3

  4
bigfont
  0
STYLE
  2
KANJI10
 70
     0
 40
6.0
 41
0.833333333
 50
0.0
 71
     0
 42
6.0
  3

  4
bigfont
  0
STYLE
  2
KANJI11
 70
     0
 40
8.0
 41
0.875
 50
0.0
 71
     0
 42
8.0
  3

  4
bigfont
  0
ENDTAB
  0
TABLE
  2
VIEW
 70
     0
  0
ENDTAB
  0
ENDSEC
  0
SECTION
  2
BLOCKS
  0
ENDSEC
  0
SECTION
  2
ENTITIES
  0
LINE
  8
図枠
  6
CONTINUOUS
 62
     6
 10
811.0
 20
297.0
 11
840.0
 21
297.0
  0
TEXT
  8
表題欄
  6
CONTINUOUS
 62
     5
 10
686.0
 20
46.0
 30
0.0
 40
8.0
  1
益子
 50
0.0
 41
0.875
 51
0.0
  7
KANJI0
  0
LINE
  8
図枠
  6
CONTINUOUS
 62
     2
 10
820.0
 20
397.0
 11
830.0
 21
397.0
  0
LINE
  8
図枠
  6
CONTINUOUS
 62
     2
 10
820.0
 20
497.0
 11
830.0
 21
497.0
  0
LINE
  8
図枠
  6
CONTINUOUS
 62
     2
 10
820.0
 20
197.0
 11
830.0
 21
197.0
  0
LINE
  8
図枠
  6
CONTINUOUS
 62
     2
 10
820.0
 20
97.0
 11
830.0
 21
97.0
  0
LINE
  8
図枠
  6
CONTINUOUS
 62
     2
 10
820.0
 20
150.0
 11
815.0
 21
150.0
  0
LINE
  8
図枠
  6
CONTINUOUS
 62
     2
 10
820.0
 20
166.0
 11
815.0
 21
166.0
  0
LINE
  8
図枠
  6
CONTINUOUS
 62
     2
 10
820.0
 20
182.0
 11
815.0
 21
182.0
  0
TEXT
  8
図枠
  6
CONTINUOUS
 62
     6
 10
823.0
 20
542.0
 30
0.0
 40
10.0
  1
Ａ
 50
0.0
 41
1.0
 51
0.0
  7
KANJI1
  0
TEXT
  8
図枠
  6
CONTINUOUS
 62
     6
 10
823.0
 20
442.0
 30
0.0
 40
10.0
  1
Ｂ
 50
0.0
 41
1.0
 51
0.0
  7
KANJI1
  0
TEXT
  8
図枠
  6
CONTINUOUS
 62
     6
 10
823.0
 20
342.0
 30
0.0
 40
10.0
  1
Ｃ
 50
0.0
 41
1.0
 51
0.0
  7
KANJI1
  0
TEXT
  8
図枠
  6
CONTINUOUS
 62
     6
 10
823.0
 20
242.0
 30
0.0
 40
10.0
  1
Ｄ
 50
0.0
 41
1.0
 51
0.0
  7
KANJI1
  0
TEXT
  8
図枠
  6
CONTINUOUS
 62
     6
 10
823.0
 20
142.0
 30
0.0
 40
10.0
  1
Ｅ
 50
0.0
 41
1.0
 51
0.0
  7
KANJI1
  0
TEXT
  8
図枠
  6
CONTINUOUS
 62
     6
 10
823.0
 20
42.0
 30
0.0
 40
10.0
  1
Ｆ
 50
0.0
 41
1.0
 51
0.0
  7
KANJI1
  0
LINE
  8
図枠
  6
CONTINUOUS
 62
     2
 10
50.0
 20
397.0
 11
40.0
 21
397.0
  0
LINE
  8
図枠
  6
CONTINUOUS
 62
     2
 10
50.0
 20
497.0
 11
40.0
 21
497.0
  0
LINE
  8
図枠
  6
CONTINUOUS
 62
     2
 10
50.0
 20
197.0
 11
40.0
 21
197.0
  0
LINE
  8
図枠
  6
CONTINUOUS
 62
     2
 10
50.0
 20
97.0
 11
40.0
 21
97.0
  0
TEXT
  8
図枠
  6
CONTINUOUS
 62
     6
 10
37.0
 20
542.0
 30
0.0
 40
10.0
  1
Ａ
 50
0.0
 41
1.0
 51
0.0
  7
KANJI1
  0
TEXT
  8
図枠
  6
CONTINUOUS
 62
     6
 10
37.0
 20
442.0
 30
0.0
 40
10.0
  1
Ｂ
 50
0.0
 41
1.0
 51
0.0
  7
KANJI1
  0
TEXT
  8
図枠
  6
CONTINUOUS
 62
     6
 10
37.0
 20
342.0
 30
0.0
 40
10.0
  1
Ｃ
 50
0.0
 41
1.0
 51
0.0
  7
KANJI1
  0
TEXT
  8
図枠
  6
CONTINUOUS
 62
     6
 10
37.0
 20
242.0
 30
0.0
 40
10.0
  1
Ｄ
 50
0.0
 41
1.0
 51
0.0
  7
KANJI1
  0
TEXT
  8
図枠
  6
CONTINUOUS
 62
     6
 10
37.0
 20
142.0
 30
0.0
 40
10.0
  1
Ｅ
 50
0.0
 41
1.0
 51
0.0
  7
KANJI1
  0
TEXT
  8
図枠
  6
CONTINUOUS
 62
     6
 10
37.0
 20
42.0
 30
0.0
 40
10.0
  1
Ｆ
 50
0.0
 41
1.0
 51
0.0
  7
KANJI1
  0
LINE
  8
図枠
  6
CONTINUOUS
 62
     2
 10
320.0
 20
574.0
 11
320.0
 21
584.0
  0
LINE
  8
図枠
  6
CONTINUOUS
 62
     2
 10
220.0
 20
584.0
 11
220.0
 21
574.0
  0
LINE
  8
図枠
  6
CONTINUOUS
 62
     2
 10
120.0
 20
584.0
 11
120.0
 21
574.0
  0
LINE
  8
図枠
  6
CONTINUOUS
 62
     2
 10
520.0
 20
584.0
 11
520.0
 21
574.0
  0
LINE
  8
図枠
  6
CONTINUOUS
 62
     2
 10
620.0
 20
584.0
 11
620.0
 21
574.0
  0
TEXT
  8
図枠
  6
CONTINUOUS
 62
     6
 10
64.0
 20
577.0
 30
0.0
 40
10.0
  1
１
 50
0.0
 41
1.2
 51
0.0
  7
KANJI2
  0
TEXT
  8
図枠
  6
CONTINUOUS
 62
     6
 10
164.0
 20
577.0
 30
0.0
 40
10.0
  1
２
 50
0.0
 41
1.2
 51
0.0
  7
KANJI2
  0
TEXT
  8
図枠
  6
CONTINUOUS
 62
     6
 10
264.0
 20
577.0
 30
0.0
 40
10.0
  1
３
 50
0.0
 41
1.2
 51
0.0
  7
KANJI2
  0
TEXT
  8
図枠
  6
CONTINUOUS
 62
     6
 10
364.0
 20
577.0
 30
0.0
 40
10.0
  1
４
 50
0.0
 41
1.2
 51
0.0
  7
KANJI2
  0
TEXT
  8
図枠
  6
CONTINUOUS
 62
     6
 10
464.0
 20
577.0
 30
0.0
 40
10.0
  1
５
 50
0.0
 41
1.2
 51
0.0
  7
KANJI2
  0
TEXT
  8
図枠
  6
CONTINUOUS
 62
     6
 10
564.0
 20
577.0
 30
0.0
 40
10.0
  1
６
 50
0.0
 41
1.2
 51
0.0
  7
KANJI2
  0
TEXT
  8
図枠
  6
CONTINUOUS
 62
     6
 10
664.0
 20
577.0
 30
0.0
 40
10.0
  1
７
 50
0.0
 41
1.2
 51
0.0
  7
KANJI2
  0
TEXT
  8
図枠
  6
CONTINUOUS
 62
     6
 10
764.0
 20
577.0
 30
0.0
 40
10.0
  1
８
 50
0.0
 41
1.2
 51
0.0
  7
KANJI2
  0
LINE
  8
図枠
  6
CONTINUOUS
 62
     2
 10
220.0
 20
10.0
 11
220.0
 21
20.0
  0
LINE
  8
図枠
  6
CONTINUOUS
 62
     2
 10
120.0
 20
10.0
 11
120.0
 21
20.0
  0
TEXT
  8
図枠
  6
CONTINUOUS
 62
     6
 10
64.0
 20
7.0
 30
0.0
 40
10.0
  1
１
 50
0.0
 41
1.2
 51
0.0
  7
KANJI2
  0
TEXT
  8
図枠
  6
CONTINUOUS
 62
     6
 10
164.0
 20
7.0
 30
0.0
 40
10.0
  1
２
 50
0.0
 41
1.2
 51
0.0
  7
KANJI2
  0
TEXT
  8
図枠
  6
CONTINUOUS
 62
     6
 10
264.0
 20
7.0
 30
0.0
 40
10.0
  1
３
 50
0.0
 41
1.2
 51
0.0
  7
KANJI2
  0
LINE
  8
図枠
  6
CONTINUOUS
 62
     2
 10
720.0
 20
574.0
 11
720.0
 21
584.0
  0
LINE
  8
図枠
  6
CONTINUOUS
 62
     6
 10
50.0
 20
574.0
 11
50.0
 21
20.0
  0
LINE
  8
図枠
  6
CONTINUOUS
 62
     6
 10
420.0
 20
20.0
 11
420.0
 21
0.0
  0
LINE
  8
図枠
  6
CONTINUOUS
 62
     6
 10
320.0
 20
20.0
 11
320.0
 21
10.0
  0
LINE
  8
図枠
  6
CONTINUOUS
 62
     6
 10
340.0
 20
20.0
 11
340.0
 21
10.0
  0
LINE
  8
図枠
  6
CONTINUOUS
 62
     6
 10
360.0
 20
20.0
 11
360.0
 21
10.0
  0
LINE
  8
図枠
  6
CONTINUOUS
 62
     6
 10
380.0
 20
20.0
 11
380.0
 21
10.0
  0
LINE
  8
図枠
  6
CONTINUOUS
 62
     6
 10
400.0
 20
20.0
 11
400.0
 21
10.0
  0
LINE
  8
図枠
  6
CONTINUOUS
 62
     6
 10
50.0
 20
20.0
 11
820.0
 21
20.0
  0
LINE
  8
図枠
  6
CONTINUOUS
 62
     6
 10
520.0
 20
10.0
 11
520.0
 21
20.0
  0
LINE
  8
図枠
  6
CONTINUOUS
 62
     6
 10
500.0
 20
10.0
 11
500.0
 21
20.0
  0
LINE
  8
図枠
  6
CONTINUOUS
 62
     6
 10
480.0
 20
10.0
 11
480.0
 21
20.0
  0
LINE
  8
図枠
  6
CONTINUOUS
 62
     6
 10
460.0
 20
10.0
 11
460.0
 21
20.0
  0
LINE
  8
図枠
  6
CONTINUOUS
 62
     6
 10
440.0
 20
10.0
 11
440.0
 21
20.0
  0
LINE
  8
図枠
  6
CONTINUOUS
 62
     6
 10
320.0
 20
10.0
 11
520.0
 21
10.0
  0
LINE
  8
図枠
  6
CONTINUOUS
 62
     6
 10
50.0
 20
297.0
 11
0.0
 21
297.0
  0
LINE
  8
図枠
  6
CONTINUOUS
 62
     6
 10
420.0
 20
574.0
 11
420.0
 21
594.0
  0
LINE
  8
図枠
  6
CONTINUOUS
 62
     6
 10
820.0
 20
574.0
 11
50.0
 21
574.0
  0
LINE
  8
図枠
  6
CONTINUOUS
 62
     6
 10
820.0
 20
297.0
 11
840.0
 21
297.0
  0
LINE
  8
図枠
  6
CONTINUOUS
 62
     6
 10
820.0
 20
20.0
 11
820.0
 21
574.0
  0
TEXT
  8
図枠
  6
CONTINUOUS
 62
     6
 10
570.0
 20
7.0
 30
0.0
 40
10.0
  1
６
 50
0.0
 41
1.2
 51
0.0
  7
KANJI2
  0
TEXT
  8
図枠
  6
CONTINUOUS
 62
     6
 10
670.0
 20
7.0
 30
0.0
 40
10.0
  1
７
 50
0.0
 41
1.2
 51
0.0
  7
KANJI2
  0
TEXT
  8
図枠
  6
CONTINUOUS
 62
     6
 10
770.0
 20
7.0
 30
0.0
 40
10.0
  1
８
 50
0.0
 41
1.2
 51
0.0
  7
KANJI2
  0
LINE
  8
図枠
  6
CONTINUOUS
 62
     2
 10
620.0
 20
10.0
 11
620.0
 21
20.0
  0
LINE
  8
図枠
  6
CONTINUOUS
 62
     2
 10
720.0
 20
10.0
 11
720.0
 21
20.0
  0
LINE
  8
図枠
  6
CONTINUOUS
 62
     2
 10
482.0
 20
134.0
 11
482.0
 21
20.0
  0
LINE
  8
図枠
  6
CONTINUOUS
 62
     2
 10
496.0
 20
134.0
 11
496.0
 21
20.0
  0
LINE
  8
図枠
  6
CONTINUOUS
 62
     2
 10
510.0
 20
134.0
 11
510.0
 21
20.0
  0
LINE
  8
図枠
  6
CONTINUOUS
 62
     2
 10
524.0
 20
134.0
 11
524.0
 21
20.0
  0
LINE
  8
図枠
  6
CONTINUOUS
 62
     2
 10
646.0
 20
86.0
 11
646.0
 21
42.0
  0
LINE
  8
図枠
  6
CONTINUOUS
 62
     2
 10
678.0
 20
86.0
 11
678.0
 21
42.0
  0
LINE
  8
図枠
  6
CONTINUOUS
 62
     2
 10
598.0
 20
86.0
 11
598.0
 21
64.0
  0
LINE
  8
図枠
  6
CONTINUOUS
 62
     2
 10
538.0
 20
134.0
 11
538.0
 21
20.0
  0
LINE
  8
図枠
  6
CONTINUOUS
 62
     2
 10
582.0
 20
64.0
 11
582.0
 21
20.0
  0
LINE
  8
図枠
  6
CONTINUOUS
 62
     2
 10
614.0
 20
64.0
 11
614.0
 21
20.0
  0
LINE
  8
図枠
  6
CONTINUOUS
 62
     2
 10
710.0
 20
86.0
 11
710.0
 21
20.0
  0
LINE
  8
図枠
  6
LTYPE1
 62
     2
 10
626.0
 20
27.0
 11
634.0
 21
27.0
  0
LINE
  8
図枠
  6
LTYPE1
 62
     2
 10
634.0
 20
27.0
 11
634.0
 21
35.0
  0
LINE
  8
図枠
  6
LTYPE1
 62
     2
 10
634.0
 20
35.0
 11
626.0
 21
35.0
  0
LINE
  8
図枠
  6
LTYPE1
 62
     2
 10
626.0
 20
35.0
 11
626.0
 21
27.0
  0
TEXT
  8
図枠
  6
CONTINUOUS
 62
     4
 10
712.0
 20
94.0
 30
-1.0
 40
6.0
  1
１セット分
 50
0.0
 41
0.666666667
 51
0.0
  7
KANJI3
  0
TEXT
  8
図枠
  6
CONTINUOUS
 62
     4
 10
690.0
 20
94.0
 30
0.0
 40
6.0
  1
１台分
 50
0.0
 41
1.0
 51
0.0
  7
KANJI4
  0
TEXT
  8
図枠
  6
CONTINUOUS
 62
     4
 10
694.0
 20
88.0
 30
0.0
 40
6.0
  1
個数
 50
0.0
 41
1.0
 51
0.0
  7
KANJI4
  0
TEXT
  8
図枠
  6
CONTINUOUS
 62
     4
 10
714.0
 20
88.0
 30
0.0
 40
6.0
  1
個数
 50
0.0
 41
1.0
 51
0.0
  7
KANJI4
  0
TEXT
  8
図枠
  6
CONTINUOUS
 62
     4
 10
733.0
 20
90.0
 30
0.0
 40
8.0
  1
総数
 50
0.0
 41
0.875
 51
0.0
  7
KANJI0
  0
TEXT
  8
図枠
  6
CONTINUOUS
 62
     4
 10
546.3
 20
105.0
 30
0.6
 40
5.0
  1
氏名
 50
90.0
 41
1.0
 51
0.0
  7
KANJI5
  0
TEXT
  8
図枠
  6
CONTINUOUS
 62
     4
 10
546.3
 20
80.85
 30
2.0
 40
5.0
  1
年月日
 50
90.0
 41
1.0
 51
0.0
  7
KANJI6
  0
TEXT
  8
図枠
  6
CONTINUOUS
 62
     4
 10
546.3
 20
120.75
 30
0.6
 40
5.0
  1
承認
 50
90.0
 41
1.0
 51
0.0
  7
KANJI5
  0
TEXT
  8
図枠
  6
CONTINUOUS
 62
     4
 10
552.0
 20
79.0
 30
0.0
 40
5.0
  1
熱処理
 50
0.0
 41
1.0
 51
0.0
  7
KANJI7
  0
TEXT
  8
図枠
  6
CONTINUOUS
 62
     4
 10
600.0
 20
79.0
 30
0.0
 40
5.0
  1
表面処理
 50
0.0
 41
1.0
 51
0.0
  7
KANJI7
  0
TEXT
  8
図枠
  6
CONTINUOUS
 62
     4
 10
648.0
 20
79.0
 30
0.0
 40
5.0
  1
台数
 50
0.0
 41
1.0
 51
0.0
  7
KANJI7
  0
TEXT
  8
図枠
  6
CONTINUOUS
 62
     4
 10
680.0
 20
79.0
 30
0.0
 40
5.0
  1
作成日付
 50
0.0
 41
1.0
 51
0.0
  7
KANJI7
  0
TEXT
  8
図枠
  6
CONTINUOUS
 62
     4
 10
712.0
 20
79.0
 30
0.0
 40
5.0
  1
名称
 50
0.0
 41
1.0
 51
0.0
  7
KANJI7
  0
TEXT
  8
図枠
  6
CONTINUOUS
 62
     4
 10
552.0
 20
57.0
 30
0.0
 40
5.0
  1
尺度
 50
0.0
 41
1.0
 51
0.0
  7
KANJI7
  0
TEXT
  8
図枠
  6
CONTINUOUS
 62
     4
 10
584.0
 20
57.0
 30
0.0
 40
5.0
  1
承認
 50
0.0
 41
1.0
 51
0.0
  7
KANJI7
  0
TEXT
  8
図枠
  6
CONTINUOUS
 62
     4
 10
616.0
 20
57.0
 30
0.0
 40
5.0
  1
検図
 50
0.0
 41
1.0
 51
0.0
  7
KANJI7
  0
TEXT
  8
図枠
  6
CONTINUOUS
 62
     4
 10
648.0
 20
57.0
 30
0.0
 40
5.0
  1
設計
 50
0.0
 41
1.0
 51
0.0
  7
KANJI7
  0
TEXT
  8
図枠
  6
CONTINUOUS
 62
     4
 10
680.0
 20
57.0
 30
0.0
 40
5.0
  1
製図
 50
0.0
 41
1.0
 51
0.0
  7
KANJI7
  0
TEXT
  8
図枠
  6
CONTINUOUS
 62
     4
 10
712.0
 20
57.0
 30
0.0
 40
5.0
  1
機名
 50
0.0
 41
1.0
 51
0.0
  7
KANJI7
  0
TEXT
  8
図枠
  6
CONTINUOUS
 62
     4
 10
546.3
 20
21.75
 30
0.6
 40
5.0
  1
記号
 50
90.0
 41
1.0
 51
0.0
  7
KANJI5
  0
TEXT
  8
図枠
  6
CONTINUOUS
 62
     4
 10
712.0
 20
35.0
 30
0.0
 40
5.0
  1
図面番号
 50
0.0
 41
1.0
 51
0.0
  7
KANJI7
  0
TEXT
  8
図枠
  6
CONTINUOUS
 62
     4
 10
638.0
 20
28.5
 30
0.0
 40
5.0
  1
株式会社
 50
0.0
 41
1.0
 51
0.0
  7
KANJI7
  0
TEXT
  8
図枠
  6
CONTINUOUS
 62
     4
 10
662.0
 20
27.0
 30
0.0
 40
8.0
  1
昭和測器
 50
0.0
 41
1.125
 51
0.0
  7
KANJI8
  0
TEXT
  8
図枠
  6
CONTINUOUS
 62
     4
 10
546.3
 20
36.75
 30
0.6
 40
5.0
  1
来歴・改訂記事
 50
90.0
 41
1.0
 51
0.0
  7
KANJI5
  0
TEXT
  8
図枠
  6
CONTINUOUS
 62
     1
 10
556.0
 20
31.0
 30
0.0
 40
10.0
  1
第３
 50
0.0
 41
1.0
 51
0.0
  7
KANJI1
  0
TEXT
  8
図枠
  6
CONTINUOUS
 62
     1
 10
556.0
 20
21.0
 30
0.0
 40
10.0
  1
角法
 50
0.0
 41
1.0
 51
0.0
  7
KANJI1
  0
LINE
  8
図枠
  6
CONTINUOUS
 62
     2
 10
468.0
 20
134.0
 11
468.0
 21
20.0
  0
LINE
  8
図枠
  6
CONTINUOUS
 62
     2
 10
466.0
 20
34.0
 11
550.0
 21
34.0
  0
TEXT
  8
図枠
  6
CONTINUOUS
 62
     4
 10
652.0
 20
90.0
 30
0.0
 40
8.0
  1
材　　質
 50
0.0
 41
0.875
 51
0.0
  7
KANJI0
  0
TEXT
  8
図枠
  6
CONTINUOUS
 62
     4
 10
766.5
 20
90.0
 30
0.0
 40
8.0
  1
摘　　　要
 50
0.0
 41
0.875
 51
0.0
  7
KANJI0
  0
TEXT
  8
図枠
  6
CONTINUOUS
 62
     4
 10
553.0
 20
90.0
 30
0.0
 40
8.0
  1
番号
 50
0.0
 41
0.875
 51
0.0
  7
KANJI0
  0
TEXT
  8
図枠
  6
CONTINUOUS
 62
     4
 10
588.5
 20
90.0
 30
0.0
 40
8.0
  1
部　品　名
 50
0.0
 41
0.875
 51
0.0
  7
KANJI0
  0
CIRCLE
  8
図枠
  6
CONTINUOUS
 62
     6
 10
566.0
 20
52.0
 40
0.4
  0
CIRCLE
  8
図枠
  6
CONTINUOUS
 62
     6
 10
566.0
 20
47.0
 40
0.4
  0
TEXT
  8
図枠
  6
CONTINUOUS
 62
     6
 10
587.45
 20
24.05
 30
-2.0
 40
14.0
  1
Ａ３
 50
0.0
 41
0.857142857
 51
0.0
  7
KANJI9
  0
LINE
  8
図枠
  6
CONTINUOUS
 62
     2
 10
466.0
 20
134.0
 11
550.0
 21
134.0
  0
LINE
  8
図枠
  6
CONTINUOUS
 62
     2
 10
466.0
 20
118.0
 11
550.0
 21
118.0
  0
LINE
  8
図枠
  6
CONTINUOUS
 62
     2
 10
570.0
 20
102.0
 11
570.0
 21
86.0
  0
LINE
  8
図枠
  6
CONTINUOUS
 62
     2
 10
570.0
 20
134.0
 11
570.0
 21
102.0
  0
LINE
  8
図枠
  6
CONTINUOUS
 62
     2
 10
642.0
 20
102.0
 11
642.0
 21
86.0
  0
LINE
  8
図枠
  6
CONTINUOUS
 62
     2
 10
642.0
 20
134.0
 11
642.0
 21
102.0
  0
LINE
  8
図枠
  6
CONTINUOUS
 62
     2
 10
690.0
 20
102.0
 11
690.0
 21
86.0
  0
LINE
  8
図枠
  6
CONTINUOUS
 62
     2
 10
690.0
 20
134.0
 11
690.0
 21
102.0
  0
LINE
  8
図枠
  6
CONTINUOUS
 62
     2
 10
710.0
 20
102.0
 11
710.0
 21
86.0
  0
LINE
  8
図枠
  6
CONTINUOUS
 62
     2
 10
710.0
 20
134.0
 11
710.0
 21
102.0
  0
LINE
  8
図枠
  6
CONTINUOUS
 62
     2
 10
730.0
 20
102.0
 11
730.0
 21
86.0
  0
LINE
  8
図枠
  6
CONTINUOUS
 62
     2
 10
730.0
 20
134.0
 11
730.0
 21
102.0
  0
LINE
  8
図枠
  6
CONTINUOUS
 62
     2
 10
750.0
 20
102.0
 11
750.0
 21
86.0
  0
LINE
  8
図枠
  6
CONTINUOUS
 62
     2
 10
750.0
 20
134.0
 11
750.0
 21
102.0
  0
LINE
  8
図枠
  6
CONTINUOUS
 62
     2
 10
550.0
 20
102.0
 11
550.0
 21
20.0
  0
LINE
  8
図枠
  6
CONTINUOUS
 62
     2
 10
550.0
 20
134.0
 11
550.0
 21
102.0
  0
LINE
  8
図枠
  6
CONTINUOUS
 62
     2
 10
466.0
 20
78.0
 11
550.0
 21
78.0
  0
LINE
  8
図枠
  6
CONTINUOUS
 62
     2
 10
466.0
 20
102.0
 11
550.0
 21
102.0
  0
LINE
  8
図枠
  6
LTYPE2
 62
     2
 10
800.0
 20
42.0
 11
800.0
 21
20.0
  0
LINE
  8
図枠
  6
CONTINUOUS
 62
     2
 10
550.0
 20
134.0
 11
820.0
 21
134.0
  0
LINE
  8
図枠
  6
CONTINUOUS
 62
     2
 10
550.0
 20
118.0
 11
820.0
 21
118.0
  0
LINE
  8
図枠
  6
CONTINUOUS
 62
     2
 10
550.0
 20
102.0
 11
820.0
 21
102.0
  0
LINE
  8
図枠
  6
CONTINUOUS
 62
     2
 10
550.0
 20
86.0
 11
820.0
 21
86.0
  0
LINE
  8
図枠
  6
CONTINUOUS
 62
     2
 10
550.0
 20
64.0
 11
820.0
 21
64.0
  0
LINE
  8
図枠
  6
CONTINUOUS
 62
     2
 10
550.0
 20
42.0
 11
820.0
 21
42.0
  0
TEXT
  8
表題欄
  6
CONTINUOUS
 62
     5
 10
556.0
 20
46.0
 30
0.0
 40
8.0
  1
１
 50
0.0
 41
0.875
 51
0.0
  7
KANJI0
  0
TEXT
  8
表題欄
  6
CONTINUOUS
 62
     5
 10
681.0
 20
72.0
 30
-1.0
 40
6.0
  1
２０１７．
 50
0.0
 41
0.833333333
 51
0.0
  7
KANJI10
  0
TEXT
  8
表題欄
  6
CONTINUOUS
 62
     5
 10
686.0
 20
66.0
 30
-1.0
 40
6.0
  1
０７．１２
 50
0.0
 41
0.833333333
 51
0.0
  7
KANJI10
  0
TEXT
  8
表題欄
  6
CONTINUOUS
 62
     5
 10
754.8
 20
68.0
 30
0.2
 40
8.0
  1
外観図
 50
0.0
 41
0.875
 51
0.0
  7
KANJI11
  0
TEXT
  8
表題欄
  6
CONTINUOUS
 62
     5
 10
722.4
 20
46.0
 30
0.2
 40
8.0
  1
ＴＰ－□Ｎ
 50
0.0
 41
0.875
 51
0.0
  7
KANJI11
  0
TEXT
  8
寸法線
  6
CONTINUOUS
 62
     5
 10
726.0
 20
179.6
 30
0.0
 40
8.0
  1
時計回り　（＋）
 50
0.0
 41
0.875
 51
0.0
  7
KANJI0
  0
TEXT
  8
寸法線
  6
CONTINUOUS
 62
     5
 10
726.0
 20
169.6
 30
0.0
 40
8.0
  1
反時計回り（－）
 50
0.0
 41
0.875
 51
0.0
  7
KANJI0
  0
LINE
  8
寸法線
  6
CONTINUOUS
 62
     2
 10
736.0
 20
189.6
 11
764.0
 21
189.6
  0
TEXT
  8
寸法線
  6
CONTINUOUS
 62
     5
 10
736.0
 20
191.6
 30
0.0
 40
8.0
  1
負荷方向
 50
0.0
 41
0.875
 51
0.0
  7
KANJI0
  0
POLYLINE
  8
0
  6
CONTINUOUS
 62
     1
 66
     1
 70
     1
  0
VERTEX
  8
0
  6
CONTINUOUS
 62
     1
 10
310.0
 20
235.0
  0
VERTEX
  8
0
  6
CONTINUOUS
 62
     1
 10
350.0
 20
235.0
  0
VERTEX
  8
0
  6
CONTINUOUS
 62
     1
 10
350.0
 20
505.0
  0
VERTEX
  8
0
  6
CONTINUOUS
 62
     1
 10
310.0
 20
505.0
  0
SEQEND
  0
LINE
  8
0
  6
CONTINUOUS
 62
     1
 10
310.0
 20
450.0
 11
306.0
 21
450.0
  0
LINE
  8
0
  6
CONTINUOUS
 62
     1
 10
306.0
 20
450.0
 11
306.0
 21
290.0
  0
LINE
  8
0
  6
CONTINUOUS
 62
     1
 10
306.0
 20
290.0
 11
310.0
 21
290.0
  0
LINE
  8
0
  6
CONTINUOUS
 62
     1
 10
545.0
 20
505.0
 11
545.0
 21
235.0
  0
LINE
  8
0
  6
CONTINUOUS
 62
     1
 10
505.0
 20
505.0
 11
505.0
 21
235.0
  0
LINE
  8
0
  6
CONTINUOUS
 62
     1
 10
505.0
 20
505.0
 11
545.0
 21
505.0
  0
LINE
  8
0
  6
CONTINUOUS
 62
     1
 10
505.0
 20
235.0
 11
545.0
 21
235.0
  0
LINE
  8
0
  6
CONTINUOUS
 62
     1
 10
545.0
 20
450.0
 11
540.0
 21
450.0
  0
LINE
  8
0
  6
CONTINUOUS
 62
     1
 10
540.0
 20
450.0
 11
540.0
 21
290.0
  0
LINE
  8
0
  6
CONTINUOUS
 62
     1
 10
540.0
 20
290.0
 11
545.0
 21
290.0
  0
LINE
  8
0
  6
CONTINUOUS
 62
     1
 10
355.0
 20
313.0
 11
499.0
 21
313.0
  0
LINE
  8
0
  6
CONTINUOUS
 62
     1
 10
499.0
 20
427.0
 11
499.0
 21
313.0
  0
LINE
  8
0
  6
CONTINUOUS
 62
     1
 10
500.0
 20
427.0
 11
500.0
 21
313.0
  0
LINE
  8
0
  6
CONTINUOUS
 62
     1
 10
355.0
 20
427.0
 11
355.0
 21
313.0
  0
ARC
  8
0
  6
CONTINUOUS
 62
     1
 10
355.0
 20
432.0
 40
5.0
 50
180.0
 51
270.0
  0
ARC
  8
0
  6
CONTINUOUS
 62
     1
 10
355.0
 20
308.0
 40
5.0
 50
90.0
 51
180.0
  0
ARC
  8
0
  6
CONTINUOUS
 62
     1
 10
500.0
 20
432.0
 40
5.0
 50
270.0
 51
0.0
  0
ARC
  8
0
  6
CONTINUOUS
 62
     1
 10
500.0
 20
308.0
 40
5.0
 50
0.0
 51
90.0
  0
LINE
  8
0
  6
CONTINUOUS
 62
     1
 10
499.0
 20
420.0
 11
500.0
 21
420.0
  0
LINE
  8
0
  6
CONTINUOUS
 62
     1
 10
499.0
 20
320.0
 11
500.0
 21
320.0
  0
LINE
  8
0
  6
CONTINUOUS
 62
     1
 10
355.0
 20
370.0
 11
499.0
 21
370.0
  0
LINE
  8
0
  6
LTYPE2
 62
     2
 10
334.2
 20
480.0
 11
334.2
 21
505.0
  0
LINE
  8
0
  6
LTYPE2
 62
     2
 10
330.0
 20
477.6
 11
334.2
 21
480.0
  0
LINE
  8
0
  6
LTYPE2
 62
     2
 10
335.0
 20
505.0
 11
335.0
 21
485.0
  0
LINE
  8
0
  6
LTYPE2
 62
     2
 10
334.2
 20
483.6
 11
335.0
 21
485.0
  0
LINE
  8
0
  6
LTYPE2
 62
     2
 10
325.8
 20
505.0
 11
325.8
 21
480.0
  0
LINE
  8
0
  6
LTYPE2
 62
     2
 10
325.0
 20
505.0
 11
325.0
 21
485.0
  0
LINE
  8
0
  6
LTYPE2
 62
     2
 10
325.8
 20
483.6
 11
325.0
 21
485.0
  0
LINE
  8
0
  6
LTYPE2
 62
     2
 10
325.8
 20
480.0
 11
330.0
 21
477.6
  0
LINE
  8
0
  6
LTYPE2
 62
     2
 10
325.8
 20
480.0
 11
334.2
 21
480.0
  0
LINE
  8
0
  6
LTYPE2
 62
     2
 10
325.0
 20
485.0
 11
335.0
 21
485.0
  0
LINE
  8
0
  6
LTYPE2
 62
     2
 10
529.2
 20
480.0
 11
529.2
 21
505.0
  0
LINE
  8
0
  6
LTYPE2
 62
     2
 10
525.0
 20
477.6
 11
529.2
 21
480.0
  0
LINE
  8
0
  6
LTYPE2
 62
     2
 10
530.0
 20
505.0
 11
530.0
 21
485.0
  0
LINE
  8
0
  6
LTYPE2
 62
     2
 10
529.2
 20
483.6
 11
530.0
 21
485.0
  0
LINE
  8
0
  6
LTYPE2
 62
     2
 10
520.8
 20
505.0
 11
520.8
 21
480.0
  0
LINE
  8
0
  6
LTYPE2
 62
     2
 10
520.0
 20
505.0
 11
520.0
 21
485.0
  0
LINE
  8
0
  6
LTYPE2
 62
     2
 10
520.8
 20
483.6
 11
520.0
 21
485.0
  0
LINE
  8
0
  6
LTYPE2
 62
     2
 10
520.8
 20
480.0
 11
525.0
 21
477.6
  0
LINE
  8
0
  6
LTYPE2
 62
     2
 10
520.8
 20
480.0
 11
529.2
 21
480.0
  0
LINE
  8
0
  6
LTYPE2
 62
     2
 10
520.0
 20
485.0
 11
530.0
 21
485.0
  0
LINE
  8
0
  6
CONTINUOUS
 62
     1
 10
411.5
 20
425.928525816
 11
411.5
 21
437.0
  0
LINE
  8
0
  6
CONTINUOUS
 62
     1
 10
433.5
 20
437.0
 11
411.5
 21
437.0
  0
LINE
  8
0
  6
CONTINUOUS
 62
     1
 10
433.5
 20
425.928525816
 11
433.5
 21
437.0
  0
LINE
  8
0
  6
CONTINUOUS
 62
     1
 10
433.5
 20
427.0
 11
499.0
 21
427.0
  0
LINE
  8
0
  6
CONTINUOUS
 62
     1
 10
355.0
 20
427.0
 11
411.5
 21
427.0
  0
LINE
  8
0
  6
CONTINUOUS
 62
     1
 10
413.5
 20
425.928525816
 11
431.5
 21
425.928525816
  0
LINE
  8
0
  6
CONTINUOUS
 62
     1
 10
414.5
 20
449.5
 11
430.5
 21
449.5
  0
LINE
  8
0
  6
CONTINUOUS
 62
     1
 10
412.0
 20
438.5
 11
433.0
 21
438.5
  0
LINE
  8
0
  6
CONTINUOUS
 62
     1
 10
412.0
 20
437.0
 11
433.0
 21
437.0
  0
LINE
  8
0
  6
CONTINUOUS
 62
     1
 10
433.0
 20
438.5
 11
433.0
 21
437.0
  0
LINE
  8
0
  6
CONTINUOUS
 62
     1
 10
412.0
 20
438.5
 11
412.0
 21
437.0
  0
ARC
  8
0
  6
CONTINUOUS
 62
     1
 10
414.5
 20
438.3975
 40
2.1025
 50
2.794362055
 51
177.205637945
  0
ARC
  8
0
  6
CONTINUOUS
 62
     1
 10
430.5
 20
438.3975
 40
2.1025
 50
2.794362055
 51
177.205637945
  0
LINE
  8
0
  6
CONTINUOUS
 62
     1
 10
414.5
 20
449.5
 11
414.5
 21
440.5
  0
LINE
  8
0
  6
CONTINUOUS
 62
     1
 10
430.5
 20
449.5
 11
430.5
 21
440.5
  0
POLYLINE
  8
0
  6
CONTINUOUS
 62
     1
 66
     1
 70
     1
  0
VERTEX
  8
0
  6
CONTINUOUS
 62
     1
 10
367.0
 20
398.429737952
 42
0.025187664
  0
VERTEX
  8
0
  6
CONTINUOUS
 62
     1
 10
366.984778792
 20
398.731654301
 42
0.025076847
  0
VERTEX
  8
0
  6
CONTINUOUS
 62
     1
 10
366.939231012
 20
399.031272884
 42
0.024845864
  0
VERTEX
  8
0
  6
CONTINUOUS
 62
     1
 10
366.863703305
 20
399.326313424
 42
0.024508071
  0
VERTEX
  8
0
  6
CONTINUOUS
 62
     1
 10
366.758770483
 20
399.614530483
 42
0.024082007
  0
VERTEX
  8
0
  6
CONTINUOUS
 62
     1
 10
366.625231148
 20
399.893730555
 42
0.023589414
  0
VERTEX
  8
0
  6
CONTINUOUS
 62
     1
 10
366.464101615
 20
400.161788759
 42
0.02305322
  0
VERTEX
  8
0
  6
CONTINUOUS
 62
     1
 10
366.276608177
 20
400.416665011
 42
0.022495771
  0
VERTEX
  8
0
  6
CONTINUOUS
 62
     1
 10
366.064177772
 20
400.656419549
 42
0.021937539
  0
VERTEX
  8
0
  6
CONTINUOUS
 62
     1
 10
365.828427125
 20
400.879227694
 42
0.021396316
  0
VERTEX
  8
0
  6
CONTINUOUS
 62
     1
 10
365.571150439
 20
401.083393744
 42
0.02088689
  0
VERTEX
  8
0
  6
CONTINUOUS
 62
     1
 10
365.294305745
 20
401.267363871
 42
0.020421065
  0
VERTEX
  8
0
  6
CONTINUOUS
 62
     1
 10
365.0
 20
401.429737952
 42
0.020007926
  0
VERTEX
  8
0
  6
CONTINUOUS
 62
     1
 10
364.690473047
 20
401.569280221
 42
0.019654221
  0
VERTEX
  8
0
  6
CONTINUOUS
 62
     1
 10
364.368080573
 20
401.684928677
 42
0.019364797
  0
VERTEX
  8
0
  6
CONTINUOUS
 62
     1
 10
364.03527618
 20
401.775803167
 42
0.019143001
  0
VERTEX
  8
0
  6
CONTINUOUS
 62
     1
 10
363.694592711
 20
401.841212079
 42
0.018991036
  0
VERTEX
  8
0
  6
CONTINUOUS
 62
     1
 10
363.348622971
 20
401.880657614
 42
0.018910232
  0
VERTEX
  8
0
  6
CONTINUOUS
 62
     1
 10
363.0
 20
401.893839567
 42
0.018901239
  0
VERTEX
  8
0
  6
CONTINUOUS
 62
     1
 10
362.651377029
 20
401.880657614
 42
0.018964128
  0
VERTEX
  8
0
  6
CONTINUOUS
 62
     1
 10
362.305407289
 20
401.841212079
 42
0.019098398
  0
VERTEX
  8
0
  6
CONTINUOUS
 62
     1
 10
361.96472382
 20
401.775803167
 42
0.019302905
  0
VERTEX
  8
0
  6
CONTINUOUS
 62
     1
 10
361.631919427
 20
401.684928677
 42
0.019575685
  0
VERTEX
  8
0
  6
CONTINUOUS
 62
     1
 10
361.309526953
 20
401.569280221
 42
0.019913709
  0
VERTEX
  8
0
  6
CONTINUOUS
 62
     1
 10
361.0
 20
401.429737952
 42
0.020312541
  0
VERTEX
  8
0
  6
CONTINUOUS
 62
     1
 10
360.705694255
 20
401.267363871
 42
0.020765948
  0
VERTEX
  8
0
  6
CONTINUOUS
 62
     1
 10
360.428849561
 20
401.083393744
 42
0.021265468
  0
VERTEX
  8
0
  6
CONTINUOUS
 62
     1
 10
360.171572875
 20
400.879227694
 42
0.021800009
  0
VERTEX
  8
0
  6
CONTINUOUS
 62
     1
 10
359.935822228
 20
400.656419549
 42
0.022355542
  0
VERTEX
  8
0
  6
CONTINUOUS
 62
     1
 10
359.723391823
 20
400.416665011
 42
0.022915011
  0
VERTEX
  8
0
  6
CONTINUOUS
 62
     1
 10
359.535898385
 20
400.161788759
 42
0.023458559
  0
VERTEX
  8
0
  6
CONTINUOUS
 62
     1
 10
359.374768852
 20
399.893730555
 42
0.023964205
  0
VERTEX
  8
0
  6
CONTINUOUS
 62
     1
 10
359.241229517
 20
399.614530483
 42
0.02440902
  0
VERTEX
  8
0
  6
CONTINUOUS
 62
     1
 10
359.136296695
 20
399.326313424
 42
0.02477078
  0
VERTEX
  8
0
  6
CONTINUOUS
 62
     1
 10
359.060768988
 20
399.031272884
 42
0.02502995
  0
VERTEX
  8
0
  6
CONTINUOUS
 62
     1
 10
359.015221208
 20
398.731654301
 42
0.025171713
  0
VERTEX
  8
0
  6
CONTINUOUS
 62
     1
 10
359.0
 20
398.429737952
 42
0.025187664
  0
VERTEX
  8
0
  6
CONTINUOUS
 62
     1
 10
359.015221208
 20
398.127821602
 42
0.025076847
  0
VERTEX
  8
0
  6
CONTINUOUS
 62
     1
 10
359.060768988
 20
397.828203019
 42
0.024845864
  0
VERTEX
  8
0
  6
CONTINUOUS
 62
     1
 10
359.136296695
 20
397.533162479
 42
0.024508071
  0
VERTEX
  8
0
  6
CONTINUOUS
 62
     1
 10
359.241229517
 20
397.244945421
 42
0.024082007
  0
VERTEX
  8
0
  6
CONTINUOUS
 62
     1
 10
359.374768852
 20
396.965745349
 42
0.023589414
  0
VERTEX
  8
0
  6
CONTINUOUS
 62
     1
 10
359.535898385
 20
396.697687144
 42
0.02305322
  0
VERTEX
  8
0
  6
CONTINUOUS
 62
     1
 10
359.723391823
 20
396.442810892
 42
0.022495771
  0
VERTEX
  8
0
  6
CONTINUOUS
 62
     1
 10
359.935822228
 20
396.203056355
 42
0.021937539
  0
VERTEX
  8
0
  6
CONTINUOUS
 62
     1
 10
360.171572875
 20
395.980248209
 42
0.021396316
  0
VERTEX
  8
0
  6
CONTINUOUS
 62
     1
 10
360.428849561
 20
395.776082159
 42
0.02088689
  0
VERTEX
  8
0
  6
CONTINUOUS
 62
     1
 10
360.705694255
 20
395.592112032
 42
0.020421065
  0
VERTEX
  8
0
  6
CONTINUOUS
 62
     1
 10
361.0
 20
395.429737952
 42
0.020007926
  0
VERTEX
  8
0
  6
CONTINUOUS
 62
     1
 10
361.309526953
 20
395.290195683
 42
0.019654221
  0
VERTEX
  8
0
  6
CONTINUOUS
 62
     1
 10
361.631919427
 20
395.174547226
 42
0.019364797
  0
VERTEX
  8
0
  6
CONTINUOUS
 62
     1
 10
361.96472382
 20
395.083672737
 42
0.019143001
  0
VERTEX
  8
0
  6
CONTINUOUS
 62
     1
 10
362.305407289
 20
395.018263824
 42
0.018991036
  0
VERTEX
  8
0
  6
CONTINUOUS
 62
     1
 10
362.651377029
 20
394.978818289
 42
0.018910232
  0
VERTEX
  8
0
  6
CONTINUOUS
 62
     1
 10
363.0
 20
394.965636337
 42
0.018901239
  0
VERTEX
  8
0
  6
CONTINUOUS
 62
     1
 10
363.348622971
 20
394.978818289
 42
0.018964128
  0
VERTEX
  8
0
  6
CONTINUOUS
 62
     1
 10
363.694592711
 20
395.018263824
 42
0.019098398
  0
VERTEX
  8
0
  6
CONTINUOUS
 62
     1
 10
364.03527618
 20
395.083672737
 42
0.019302905
  0
VERTEX
  8
0
  6
CONTINUOUS
 62
     1
 10
364.368080573
 20
395.174547226
 42
0.019575685
  0
VERTEX
  8
0
  6
CONTINUOUS
 62
     1
 10
364.690473047
 20
395.290195683
 42
0.019913709
  0
VERTEX
  8
0
  6
CONTINUOUS
 62
     1
 10
365.0
 20
395.429737952
 42
0.020312541
  0
VERTEX
  8
0
  6
CONTINUOUS
 62
     1
 10
365.294305745
 20
395.592112032
 42
0.020765948
  0
VERTEX
  8
0
  6
CONTINUOUS
 62
     1
 10
365.571150439
 20
395.776082159
 42
0.021265468
  0
VERTEX
  8
0
  6
CONTINUOUS
 62
     1
 10
365.828427125
 20
395.980248209
 42
0.021800009
  0
VERTEX
  8
0
  6
CONTINUOUS
 62
     1
 10
366.064177772
 20
396.203056355
 42
0.022355542
  0
VERTEX
  8
0
  6
CONTINUOUS
 62
     1
 10
366.276608177
 20
396.442810892
 42
0.022915011
  0
VERTEX
  8
0
  6
CONTINUOUS
 62
     1
 10
366.464101615
 20
396.697687144
 42
0.023458559
  0
VERTEX
  8
0
  6
CONTINUOUS
 62
     1
 10
366.625231148
 20
396.965745349
 42
0.023964205
  0
VERTEX
  8
0
  6
CONTINUOUS
 62
     1
 10
366.758770483
 20
397.244945421
 42
0.02440902
  0
VERTEX
  8
0
  6
CONTINUOUS
 62
     1
 10
366.863703305
 20
397.533162479
 42
0.02477078
  0
VERTEX
  8
0
  6
CONTINUOUS
 62
     1
 10
366.939231012
 20
397.828203019
 42
0.02502995
  0
VERTEX
  8
0
  6
CONTINUOUS
 62
     1
 10
366.984778792
 20
398.127821602
 42
0.025171713
  0
SEQEND
  8
0
  6
CONTINUOUS
 62
     1
  0
POLYLINE
  8
0
  6
CONTINUOUS
 62
     1
 66
     1
 70
     1
  0
VERTEX
  8
0
  6
CONTINUOUS
 62
     1
 10
366.5
 20
398.429737952
 42
0.025187664
  0
VERTEX
  8
0
  6
CONTINUOUS
 62
     1
 10
366.486681443
 20
398.693914757
 42
0.025076847
  0
VERTEX
  8
0
  6
CONTINUOUS
 62
     1
 10
366.446827136
 20
398.956081018
 42
0.024845864
  0
VERTEX
  8
0
  6
CONTINUOUS
 62
     1
 10
366.380740392
 20
399.21424149
 42
0.024508071
  0
VERTEX
  8
0
  6
CONTINUOUS
 62
     1
 10
366.288924173
 20
399.466431416
 42
0.024082007
  0
VERTEX
  8
0
  6
CONTINUOUS
 62
     1
 10
366.172077255
 20
399.710731479
 42
0.023589414
  0
VERTEX
  8
0
  6
CONTINUOUS
 62
     1
 10
366.031088913
 20
399.945282408
 42
0.02305322
  0
VERTEX
  8
0
  6
CONTINUOUS
 62
     1
 10
365.867032155
 20
400.168299129
 42
0.022495771
  0
VERTEX
  8
0
  6
CONTINUOUS
 62
     1
 10
365.681155551
 20
400.378084349
 42
0.021937539
  0
VERTEX
  8
0
  6
CONTINUOUS
 62
     1
 10
365.474873734
 20
400.573041477
 42
0.021396316
  0
VERTEX
  8
0
  6
CONTINUOUS
 62
     1
 10
365.249756634
 20
400.75168677
 42
0.02088689
  0
VERTEX
  8
0
  6
CONTINUOUS
 62
     1
 10
365.007517527
 20
400.912660631
 42
0.020421065
  0
VERTEX
  8
0
  6
CONTINUOUS
 62
     1
 10
364.75
 20
401.054737952
 42
0.020007926
  0
VERTEX
  8
0
  6
CONTINUOUS
 62
     1
 10
364.479163916
 20
401.176837437
 42
0.019654221
  0
VERTEX
  8
0
  6
CONTINUOUS
 62
     1
 10
364.197070502
 20
401.278029836
 42
0.019364797
  0
VERTEX
  8
0
  6
CONTINUOUS
 62
     1
 10
363.905866658
 20
401.357545015
 42
0.019143001
  0
VERTEX
  8
0
  6
CONTINUOUS
 62
     1
 10
363.607768622
 20
401.414777813
 42
0.018991036
  0
VERTEX
  8
0
  6
CONTINUOUS
 62
     1
 10
363.3050451
 20
401.449292656
 42
0.018910232
  0
VERTEX
  8
0
  6
CONTINUOUS
 62
     1
 10
363.0
 20
401.460826865
 42
0.018901239
  0
VERTEX
  8
0
  6
CONTINUOUS
 62
     1
 10
362.6949549
 20
401.449292656
 42
0.018964128
  0
VERTEX
  8
0
  6
CONTINUOUS
 62
     1
 10
362.392231378
 20
401.414777813
 42
0.019098398
  0
VERTEX
  8
0
  6
CONTINUOUS
 62
     1
 10
362.094133342
 20
401.357545015
 42
0.019302905
  0
VERTEX
  8
0
  6
CONTINUOUS
 62
     1
 10
361.802929498
 20
401.278029836
 42
0.019575685
  0
VERTEX
  8
0
  6
CONTINUOUS
 62
     1
 10
361.520836084
 20
401.176837437
 42
0.019913709
  0
VERTEX
  8
0
  6
CONTINUOUS
 62
     1
 10
361.25
 20
401.054737952
 42
0.020312541
  0
VERTEX
  8
0
  6
CONTINUOUS
 62
     1
 10
360.992482473
 20
400.912660631
 42
0.020765948
  0
VERTEX
  8
0
  6
CONTINUOUS
 62
     1
 10
360.750243366
 20
400.75168677
 42
0.021265468
  0
VERTEX
  8
0
  6
CONTINUOUS
 62
     1
 10
360.525126266
 20
400.573041477
 42
0.021800009
  0
VERTEX
  8
0
  6
CONTINUOUS
 62
     1
 10
360.318844449
 20
400.378084349
 42
0.022355542
  0
VERTEX
  8
0
  6
CONTINUOUS
 62
     1
 10
360.132967845
 20
400.168299129
 42
0.022915011
  0
VERTEX
  8
0
  6
CONTINUOUS
 62
     1
 10
359.968911087
 20
399.945282408
 42
0.023458559
  0
VERTEX
  8
0
  6
CONTINUOUS
 62
     1
 10
359.827922745
 20
399.710731479
 42
0.023964205
  0
VERTEX
  8
0
  6
CONTINUOUS
 62
     1
 10
359.711075827
 20
399.466431416
 42
0.02440902
  0
VERTEX
  8
0
  6
CONTINUOUS
 62
     1
 10
359.619259608
 20
399.21424149
 42
0.02477078
  0
VERTEX
  8
0
  6
CONTINUOUS
 62
     1
 10
359.553172864
 20
398.956081018
 42
0.02502995
  0
VERTEX
  8
0
  6
CONTINUOUS
 62
     1
 10
359.513318557
 20
398.693914757
 42
0.025171713
  0
VERTEX
  8
0
  6
CONTINUOUS
 62
     1
 10
359.5
 20
398.429737952
 42
0.025187664
  0
VERTEX
  8
0
  6
CONTINUOUS
 62
     1
 10
359.513318557
 20
398.165561146
 42
0.025076847
  0
VERTEX
  8
0
  6
CONTINUOUS
 62
     1
 10
359.553172864
 20
397.903394886
 42
0.024845864
  0
VERTEX
  8
0
  6
CONTINUOUS
 62
     1
 10
359.619259608
 20
397.645234414
 42
0.024508071
  0
VERTEX
  8
0
  6
CONTINUOUS
 62
     1
 10
359.711075827
 20
397.393044487
 42
0.024082007
  0
VERTEX
  8
0
  6
CONTINUOUS
 62
     1
 10
359.827922745
 20
397.148744424
 42
0.023589414
  0
VERTEX
  8
0
  6
CONTINUOUS
 62
     1
 10
359.968911087
 20
396.914193495
 42
0.02305322
  0
VERTEX
  8
0
  6
CONTINUOUS
 62
     1
 10
360.132967845
 20
396.691176775
 42
0.022495771
  0
VERTEX
  8
0
  6
CONTINUOUS
 62
     1
 10
360.318844449
 20
396.481391554
 42
0.021937539
  0
VERTEX
  8
0
  6
CONTINUOUS
 62
     1
 10
360.525126266
 20
396.286434427
 42
0.021396316
  0
VERTEX
  8
0
  6
CONTINUOUS
 62
     1
 10
360.750243366
 20
396.107789133
 42
0.02088689
  0
VERTEX
  8
0
  6
CONTINUOUS
 62
     1
 10
360.992482473
 20
395.946815272
 42
0.020421065
  0
VERTEX
  8
0
  6
CONTINUOUS
 62
     1
 10
361.25
 20
395.804737952
 42
0.020007926
  0
VERTEX
  8
0
  6
CONTINUOUS
 62
     1
 10
361.520836084
 20
395.682638466
 42
0.019654221
  0
VERTEX
  8
0
  6
CONTINUOUS
 62
     1
 10
361.802929498
 20
395.581446067
 42
0.019364797
  0
VERTEX
  8
0
  6
CONTINUOUS
 62
     1
 10
362.094133342
 20
395.501930889
 42
0.019143001
  0
VERTEX
  8
0
  6
CONTINUOUS
 62
     1
 10
362.392231378
 20
395.44469809
 42
0.018991036
  0
VERTEX
  8
0
  6
CONTINUOUS
 62
     1
 10
362.6949549
 20
395.410183247
 42
0.018910232
  0
VERTEX
  8
0
  6
CONTINUOUS
 62
     1
 10
363.0
 20
395.398649038
 42
0.018901239
  0
VERTEX
  8
0
  6
CONTINUOUS
 62
     1
 10
363.3050451
 20
395.410183247
 42
0.018964128
  0
VERTEX
  8
0
  6
CONTINUOUS
 62
     1
 10
363.607768622
 20
395.44469809
 42
0.019098398
  0
VERTEX
  8
0
  6
CONTINUOUS
 62
     1
 10
363.905866658
 20
395.501930889
 42
0.019302905
  0
VERTEX
  8
0
  6
CONTINUOUS
 62
     1
 10
364.197070502
 20
395.581446067
 42
0.019575685
  0
VERTEX
  8
0
  6
CONTINUOUS
 62
     1
 10
364.479163916
 20
395.682638466
 42
0.019913709
  0
VERTEX
  8
0
  6
CONTINUOUS
 62
     1
 10
364.75
 20
395.804737952
 42
0.020312541
  0
VERTEX
  8
0
  6
CONTINUOUS
 62
     1
 10
365.007517527
 20
395.946815272
 42
0.020765948
  0
VERTEX
  8
0
  6
CONTINUOUS
 62
     1
 10
365.249756634
 20
396.107789133
 42
0.021265468
  0
VERTEX
  8
0
  6
CONTINUOUS
 62
     1
 10
365.474873734
 20
396.286434427
 42
0.021800009
  0
VERTEX
  8
0
  6
CONTINUOUS
 62
     1
 10
365.681155551
 20
396.481391554
 42
0.022355542
  0
VERTEX
  8
0
  6
CONTINUOUS
 62
     1
 10
365.867032155
 20
396.691176775
 42
0.022915011
  0
VERTEX
  8
0
  6
CONTINUOUS
 62
     1
 10
366.031088913
 20
396.914193495
 42
0.023458559
  0
VERTEX
  8
0
  6
CONTINUOUS
 62
     1
 10
366.172077255
 20
397.148744424
 42
0.023964205
  0
VERTEX
  8
0
  6
CONTINUOUS
 62
     1
 10
366.288924173
 20
397.393044487
 42
0.02440902
  0
VERTEX
  8
0
  6
CONTINUOUS
 62
     1
 10
366.380740392
 20
397.645234414
 42
0.02477078
  0
VERTEX
  8
0
  6
CONTINUOUS
 62
     1
 10
366.446827136
 20
397.903394886
 42
0.02502995
  0
VERTEX
  8
0
  6
CONTINUOUS
 62
     1
 10
366.486681443
 20
398.165561146
 42
0.025171713
  0
SEQEND
  8
0
  6
CONTINUOUS
 62
     1
  0
LINE
  8
0
  6
CONTINUOUS
 62
     1
 10
361.0
 20
398.5
 11
362.0
 21
399.929737952
  0
LINE
  8
0
  6
CONTINUOUS
 62
     1
 10
362.0
 20
399.929737952
 11
364.0
 21
399.929737952
  0
LINE
  8
0
  6
CONTINUOUS
 62
     1
 10
364.0
 20
399.929737952
 11
365.0
 21
398.5
  0
LINE
  8
0
  6
CONTINUOUS
 62
     1
 10
365.0
 20
398.5
 11
364.0
 21
396.929737952
  0
LINE
  8
0
  6
CONTINUOUS
 62
     1
 10
364.0
 20
396.929737952
 11
362.0
 21
396.929737952
  0
LINE
  8
0
  6
CONTINUOUS
 62
     1
 10
362.0
 20
396.929737952
 11
361.0
 21
398.5
  0
POLYLINE
  8
0
  6
CONTINUOUS
 62
     1
 66
     1
 70
     1
  0
VERTEX
  8
0
  6
CONTINUOUS
 62
     1
 10
367.0
 20
341.570262048
 42
-0.025187664
  0
VERTEX
  8
0
  6
CONTINUOUS
 62
     1
 10
366.984778792
 20
341.268345699
 42
-0.025076847
  0
VERTEX
  8
0
  6
CONTINUOUS
 62
     1
 10
366.939231012
 20
340.968727116
 42
-0.024845864
  0
VERTEX
  8
0
  6
CONTINUOUS
 62
     1
 10
366.863703305
 20
340.673686576
 42
-0.024508071
  0
VERTEX
  8
0
  6
CONTINUOUS
 62
     1
 10
366.758770483
 20
340.385469517
 42
-0.024082007
  0
VERTEX
  8
0
  6
CONTINUOUS
 62
     1
 10
366.625231148
 20
340.106269445
 42
-0.023589414
  0
VERTEX
  8
0
  6
CONTINUOUS
 62
     1
 10
366.464101615
 20
339.838211241
 42
-0.02305322
  0
VERTEX
  8
0
  6
CONTINUOUS
 62
     1
 10
366.276608177
 20
339.583334989
 42
-0.022495771
  0
VERTEX
  8
0
  6
CONTINUOUS
 62
     1
 10
366.064177772
 20
339.343580451
 42
-0.021937539
  0
VERTEX
  8
0
  6
CONTINUOUS
 62
     1
 10
365.828427125
 20
339.120772306
 42
-0.021396316
  0
VERTEX
  8
0
  6
CONTINUOUS
 62
     1
 10
365.571150439
 20
338.916606256
 42
-0.02088689
  0
VERTEX
  8
0
  6
CONTINUOUS
 62
     1
 10
365.294305745
 20
338.732636129
 42
-0.020421065
  0
VERTEX
  8
0
  6
CONTINUOUS
 62
     1
 10
365.0
 20
338.570262048
 42
-0.020007926
  0
VERTEX
  8
0
  6
CONTINUOUS
 62
     1
 10
364.690473047
 20
338.430719779
 42
-0.019654221
  0
VERTEX
  8
0
  6
CONTINUOUS
 62
     1
 10
364.368080573
 20
338.315071323
 42
-0.019364797
  0
VERTEX
  8
0
  6
CONTINUOUS
 62
     1
 10
364.03527618
 20
338.224196833
 42
-0.019143001
  0
VERTEX
  8
0
  6
CONTINUOUS
 62
     1
 10
363.694592711
 20
338.158787921
 42
-0.018991036
  0
VERTEX
  8
0
  6
CONTINUOUS
 62
     1
 10
363.348622971
 20
338.119342386
 42
-0.018910232
  0
VERTEX
  8
0
  6
CONTINUOUS
 62
     1
 10
363.0
 20
338.106160433
 42
-0.018901239
  0
VERTEX
  8
0
  6
CONTINUOUS
 62
     1
 10
362.651377029
 20
338.119342386
 42
-0.018964128
  0
VERTEX
  8
0
  6
CONTINUOUS
 62
     1
 10
362.305407289
 20
338.158787921
 42
-0.019098398
  0
VERTEX
  8
0
  6
CONTINUOUS
 62
     1
 10
361.96472382
 20
338.224196833
 42
-0.019302905
  0
VERTEX
  8
0
  6
CONTINUOUS
 62
     1
 10
361.631919427
 20
338.315071323
 42
-0.019575685
  0
VERTEX
  8
0
  6
CONTINUOUS
 62
     1
 10
361.309526953
 20
338.430719779
 42
-0.019913709
  0
VERTEX
  8
0
  6
CONTINUOUS
 62
     1
 10
361.0
 20
338.570262048
 42
-0.020312541
  0
VERTEX
  8
0
  6
CONTINUOUS
 62
     1
 10
360.705694255
 20
338.732636129
 42
-0.020765948
  0
VERTEX
  8
0
  6
CONTINUOUS
 62
     1
 10
360.428849561
 20
338.916606256
 42
-0.021265468
  0
VERTEX
  8
0
  6
CONTINUOUS
 62
     1
 10
360.171572875
 20
339.120772306
 42
-0.021800009
  0
VERTEX
  8
0
  6
CONTINUOUS
 62
     1
 10
359.935822228
 20
339.343580451
 42
-0.022355542
  0
VERTEX
  8
0
  6
CONTINUOUS
 62
     1
 10
359.723391823
 20
339.583334989
 42
-0.022915011
  0
VERTEX
  8
0
  6
CONTINUOUS
 62
     1
 10
359.535898385
 20
339.838211241
 42
-0.023458559
  0
VERTEX
  8
0
  6
CONTINUOUS
 62
     1
 10
359.374768852
 20
340.106269445
 42
-0.023964205
  0
VERTEX
  8
0
  6
CONTINUOUS
 62
     1
 10
359.241229517
 20
340.385469517
 42
-0.02440902
  0
VERTEX
  8
0
  6
CONTINUOUS
 62
     1
 10
359.136296695
 20
340.673686576
 42
-0.02477078
  0
VERTEX
  8
0
  6
CONTINUOUS
 62
     1
 10
359.060768988
 20
340.968727116
 42
-0.02502995
  0
VERTEX
  8
0
  6
CONTINUOUS
 62
     1
 10
359.015221208
 20
341.268345699
 42
-0.025171713
  0
VERTEX
  8
0
  6
CONTINUOUS
 62
     1
 10
359.0
 20
341.570262048
 42
-0.025187664
  0
VERTEX
  8
0
  6
CONTINUOUS
 62
     1
 10
359.015221208
 20
341.872178398
 42
-0.025076847
  0
VERTEX
  8
0
  6
CONTINUOUS
 62
     1
 10
359.060768988
 20
342.171796981
 42
-0.024845864
  0
VERTEX
  8
0
  6
CONTINUOUS
 62
     1
 10
359.136296695
 20
342.466837521
 42
-0.024508071
  0
VERTEX
  8
0
  6
CONTINUOUS
 62
     1
 10
359.241229517
 20
342.755054579
 42
-0.024082007
  0
VERTEX
  8
0
  6
CONTINUOUS
 62
     1
 10
359.374768852
 20
343.034254651
 42
-0.023589414
  0
VERTEX
  8
0
  6
CONTINUOUS
 62
     1
 10
359.535898385
 20
343.302312856
 42
-0.02305322
  0
VERTEX
  8
0
  6
CONTINUOUS
 62
     1
 10
359.723391823
 20
343.557189108
 42
-0.022495771
  0
VERTEX
  8
0
  6
CONTINUOUS
 62
     1
 10
359.935822228
 20
343.796943645
 42
-0.021937539
  0
VERTEX
  8
0
  6
CONTINUOUS
 62
     1
 10
360.171572875
 20
344.019751791
 42
-0.021396316
  0
VERTEX
  8
0
  6
CONTINUOUS
 62
     1
 10
360.428849561
 20
344.223917841
 42
-0.02088689
  0
VERTEX
  8
0
  6
CONTINUOUS
 62
     1
 10
360.705694255
 20
344.407887968
 42
-0.020421065
  0
VERTEX
  8
0
  6
CONTINUOUS
 62
     1
 10
361.0
 20
344.570262048
 42
-0.020007926
  0
VERTEX
  8
0
  6
CONTINUOUS
 62
     1
 10
361.309526953
 20
344.709804317
 42
-0.019654221
  0
VERTEX
  8
0
  6
CONTINUOUS
 62
     1
 10
361.631919427
 20
344.825452774
 42
-0.019364797
  0
VERTEX
  8
0
  6
CONTINUOUS
 62
     1
 10
361.96472382
 20
344.916327263
 42
-0.019143001
  0
VERTEX
  8
0
  6
CONTINUOUS
 62
     1
 10
362.305407289
 20
344.981736176
 42
-0.018991036
  0
VERTEX
  8
0
  6
CONTINUOUS
 62
     1
 10
362.651377029
 20
345.021181711
 42
-0.018910232
  0
VERTEX
  8
0
  6
CONTINUOUS
 62
     1
 10
363.0
 20
345.034363663
 42
-0.018901239
  0
VERTEX
  8
0
  6
CONTINUOUS
 62
     1
 10
363.348622971
 20
345.021181711
 42
-0.018964128
  0
VERTEX
  8
0
  6
CONTINUOUS
 62
     1
 10
363.694592711
 20
344.981736176
 42
-0.019098398
  0
VERTEX
  8
0
  6
CONTINUOUS
 62
     1
 10
364.03527618
 20
344.916327263
 42
-0.019302905
  0
VERTEX
  8
0
  6
CONTINUOUS
 62
     1
 10
364.368080573
 20
344.825452774
 42
-0.019575685
  0
VERTEX
  8
0
  6
CONTINUOUS
 62
     1
 10
364.690473047
 20
344.709804317
 42
-0.019913709
  0
VERTEX
  8
0
  6
CONTINUOUS
 62
     1
 10
365.0
 20
344.570262048
 42
-0.020312541
  0
VERTEX
  8
0
  6
CONTINUOUS
 62
     1
 10
365.294305745
 20
344.407887968
 42
-0.020765948
  0
VERTEX
  8
0
  6
CONTINUOUS
 62
     1
 10
365.571150439
 20
344.223917841
 42
-0.021265468
  0
VERTEX
  8
0
  6
CONTINUOUS
 62
     1
 10
365.828427125
 20
344.019751791
 42
-0.021800009
  0
VERTEX
  8
0
  6
CONTINUOUS
 62
     1
 10
366.064177772
 20
343.796943645
 42
-0.022355542
  0
VERTEX
  8
0
  6
CONTINUOUS
 62
     1
 10
366.276608177
 20
343.557189108
 42
-0.022915011
  0
VERTEX
  8
0
  6
CONTINUOUS
 62
     1
 10
366.464101615
 20
343.302312856
 42
-0.023458559
  0
VERTEX
  8
0
  6
CONTINUOUS
 62
     1
 10
366.625231148
 20
343.034254651
 42
-0.023964205
  0
VERTEX
  8
0
  6
CONTINUOUS
 62
     1
 10
366.758770483
 20
342.755054579
 42
-0.02440902
  0
VERTEX
  8
0
  6
CONTINUOUS
 62
     1
 10
366.863703305
 20
342.466837521
 42
-0.02477078
  0
VERTEX
  8
0
  6
CONTINUOUS
 62
     1
 10
366.939231012
 20
342.171796981
 42
-0.02502995
  0
VERTEX
  8
0
  6
CONTINUOUS
 62
     1
 10
366.984778792
 20
341.872178398
 42
-0.025171713
  0
SEQEND
  8
0
  6
CONTINUOUS
 62
     1
  0
POLYLINE
  8
0
  6
CONTINUOUS
 62
     1
 66
     1
 70
     1
  0
VERTEX
  8
0
  6
CONTINUOUS
 62
     1
 10
366.5
 20
341.570262048
 42
-0.025187664
  0
VERTEX
  8
0
  6
CONTINUOUS
 62
     1
 10
366.486681443
 20
341.306085243
 42
-0.025076847
  0
VERTEX
  8
0
  6
CONTINUOUS
 62
     1
 10
366.446827136
 20
341.043918982
 42
-0.024845864
  0
VERTEX
  8
0
  6
CONTINUOUS
 62
     1
 10
366.380740392
 20
340.78575851
 42
-0.024508071
  0
VERTEX
  8
0
  6
CONTINUOUS
 62
     1
 10
366.288924173
 20
340.533568584
 42
-0.024082007
  0
VERTEX
  8
0
  6
CONTINUOUS
 62
     1
 10
366.172077255
 20
340.289268521
 42
-0.023589414
  0
VERTEX
  8
0
  6
CONTINUOUS
 62
     1
 10
366.031088913
 20
340.054717592
 42
-0.02305322
  0
VERTEX
  8
0
  6
CONTINUOUS
 62
     1
 10
365.867032155
 20
339.831700871
 42
-0.022495771
  0
VERTEX
  8
0
  6
CONTINUOUS
 62
     1
 10
365.681155551
 20
339.621915651
 42
-0.021937539
  0
VERTEX
  8
0
  6
CONTINUOUS
 62
     1
 10
365.474873734
 20
339.426958523
 42
-0.021396316
  0
VERTEX
  8
0
  6
CONTINUOUS
 62
     1
 10
365.249756634
 20
339.24831323
 42
-0.02088689
  0
VERTEX
  8
0
  6
CONTINUOUS
 62
     1
 10
365.007517527
 20
339.087339369
 42
-0.020421065
  0
VERTEX
  8
0
  6
CONTINUOUS
 62
     1
 10
364.75
 20
338.945262048
 42
-0.020007926
  0
VERTEX
  8
0
  6
CONTINUOUS
 62
     1
 10
364.479163916
 20
338.823162563
 42
-0.019654221
  0
VERTEX
  8
0
  6
CONTINUOUS
 62
     1
 10
364.197070502
 20
338.721970164
 42
-0.019364797
  0
VERTEX
  8
0
  6
CONTINUOUS
 62
     1
 10
363.905866658
 20
338.642454985
 42
-0.019143001
  0
VERTEX
  8
0
  6
CONTINUOUS
 62
     1
 10
363.607768622
 20
338.585222187
 42
-0.018991036
  0
VERTEX
  8
0
  6
CONTINUOUS
 62
     1
 10
363.3050451
 20
338.550707344
 42
-0.018910232
  0
VERTEX
  8
0
  6
CONTINUOUS
 62
     1
 10
363.0
 20
338.539173135
 42
-0.018901239
  0
VERTEX
  8
0
  6
CONTINUOUS
 62
     1
 10
362.6949549
 20
338.550707344
 42
-0.018964128
  0
VERTEX
  8
0
  6
CONTINUOUS
 62
     1
 10
362.392231378
 20
338.585222187
 42
-0.019098398
  0
VERTEX
  8
0
  6
CONTINUOUS
 62
     1
 10
362.094133342
 20
338.642454985
 42
-0.019302905
  0
VERTEX
  8
0
  6
CONTINUOUS
 62
     1
 10
361.802929498
 20
338.721970164
 42
-0.019575685
  0
VERTEX
  8
0
  6
CONTINUOUS
 62
     1
 10
361.520836084
 20
338.823162563
 42
-0.019913709
  0
VERTEX
  8
0
  6
CONTINUOUS
 62
     1
 10
361.25
 20
338.945262048
 42
-0.020312541
  0
VERTEX
  8
0
  6
CONTINUOUS
 62
     1
 10
360.992482473
 20
339.087339369
 42
-0.020765948
  0
VERTEX
  8
0
  6
CONTINUOUS
 62
     1
 10
360.750243366
 20
339.24831323
 42
-0.021265468
  0
VERTEX
  8
0
  6
CONTINUOUS
 62
     1
 10
360.525126266
 20
339.426958523
 42
-0.021800009
  0
VERTEX
  8
0
  6
CONTINUOUS
 62
     1
 10
360.318844449
 20
339.621915651
 42
-0.022355542
  0
VERTEX
  8
0
  6
CONTINUOUS
 62
     1
 10
360.132967845
 20
339.831700871
 42
-0.022915011
  0
VERTEX
  8
0
  6
CONTINUOUS
 62
     1
 10
359.968911087
 20
340.054717592
 42
-0.023458559
  0
VERTEX
  8
0
  6
CONTINUOUS
 62
     1
 10
359.827922745
 20
340.289268521
 42
-0.023964205
  0
VERTEX
  8
0
  6
CONTINUOUS
 62
     1
 10
359.711075827
 20
340.533568584
 42
-0.02440902
  0
VERTEX
  8
0
  6
CONTINUOUS
 62
     1
 10
359.619259608
 20
340.78575851
 42
-0.02477078
  0
VERTEX
  8
0
  6
CONTINUOUS
 62
     1
 10
359.553172864
 20
341.043918982
 42
-0.02502995
  0
VERTEX
  8
0
  6
CONTINUOUS
 62
     1
 10
359.513318557
 20
341.306085243
 42
-0.025171713
  0
VERTEX
  8
0
  6
CONTINUOUS
 62
     1
 10
359.5
 20
341.570262048
 42
-0.025187664
  0
VERTEX
  8
0
  6
CONTINUOUS
 62
     1
 10
359.513318557
 20
341.834438854
 42
-0.025076847
  0
VERTEX
  8
0
  6
CONTINUOUS
 62
     1
 10
359.553172864
 20
342.096605114
 42
-0.024845864
  0
VERTEX
  8
0
  6
CONTINUOUS
 62
     1
 10
359.619259608
 20
342.354765586
 42
-0.024508071
  0
VERTEX
  8
0
  6
CONTINUOUS
 62
     1
 10
359.711075827
 20
342.606955513
 42
-0.024082007
  0
VERTEX
  8
0
  6
CONTINUOUS
 62
     1
 10
359.827922745
 20
342.851255576
 42
-0.023589414
  0
VERTEX
  8
0
  6
CONTINUOUS
 62
     1
 10
359.968911087
 20
343.085806505
 42
-0.02305322
  0
VERTEX
  8
0
  6
CONTINUOUS
 62
     1
 10
360.132967845
 20
343.308823225
 42
-0.022495771
  0
VERTEX
  8
0
  6
CONTINUOUS
 62
     1
 10
360.318844449
 20
343.518608446
 42
-0.021937539
  0
VERTEX
  8
0
  6
CONTINUOUS
 62
     1
 10
360.525126266
 20
343.713565573
 42
-0.021396316
  0
VERTEX
  8
0
  6
CONTINUOUS
 62
     1
 10
360.750243366
 20
343.892210867
 42
-0.02088689
  0
VERTEX
  8
0
  6
CONTINUOUS
 62
     1
 10
360.992482473
 20
344.053184728
 42
-0.020421065
  0
VERTEX
  8
0
  6
CONTINUOUS
 62
     1
 10
361.25
 20
344.195262048
 42
-0.020007926
  0
VERTEX
  8
0
  6
CONTINUOUS
 62
     1
 10
361.520836084
 20
344.317361534
 42
-0.019654221
  0
VERTEX
  8
0
  6
CONTINUOUS
 62
     1
 10
361.802929498
 20
344.418553933
 42
-0.019364797
  0
VERTEX
  8
0
  6
CONTINUOUS
 62
     1
 10
362.094133342
 20
344.498069111
 42
-0.019143001
  0
VERTEX
  8
0
  6
CONTINUOUS
 62
     1
 10
362.392231378
 20
344.55530191
 42
-0.018991036
  0
VERTEX
  8
0
  6
CONTINUOUS
 62
     1
 10
362.6949549
 20
344.589816753
 42
-0.018910232
  0
VERTEX
  8
0
  6
CONTINUOUS
 62
     1
 10
363.0
 20
344.601350962
 42
-0.018901239
  0
VERTEX
  8
0
  6
CONTINUOUS
 62
     1
 10
363.3050451
 20
344.589816753
 42
-0.018964128
  0
VERTEX
  8
0
  6
CONTINUOUS
 62
     1
 10
363.607768622
 20
344.55530191
 42
-0.019098398
  0
VERTEX
  8
0
  6
CONTINUOUS
 62
     1
 10
363.905866658
 20
344.498069111
 42
-0.019302905
  0
VERTEX
  8
0
  6
CONTINUOUS
 62
     1
 10
364.197070502
 20
344.418553933
 42
-0.019575685
  0
VERTEX
  8
0
  6
CONTINUOUS
 62
     1
 10
364.479163916
 20
344.317361534
 42
-0.019913709
  0
VERTEX
  8
0
  6
CONTINUOUS
 62
     1
 10
364.75
 20
344.195262048
 42
-0.020312541
  0
VERTEX
  8
0
  6
CONTINUOUS
 62
     1
 10
365.007517527
 20
344.053184728
 42
-0.020765948
  0
VERTEX
  8
0
  6
CONTINUOUS
 62
     1
 10
365.249756634
 20
343.892210867
 42
-0.021265468
  0
VERTEX
  8
0
  6
CONTINUOUS
 62
     1
 10
365.474873734
 20
343.713565573
 42
-0.021800009
  0
VERTEX
  8
0
  6
CONTINUOUS
 62
     1
 10
365.681155551
 20
343.518608446
 42
-0.022355542
  0
VERTEX
  8
0
  6
CONTINUOUS
 62
     1
 10
365.867032155
 20
343.308823225
 42
-0.022915011
  0
VERTEX
  8
0
  6
CONTINUOUS
 62
     1
 10
366.031088913
 20
343.085806505
 42
-0.023458559
  0
VERTEX
  8
0
  6
CONTINUOUS
 62
     1
 10
366.172077255
 20
342.851255576
 42
-0.023964205
  0
VERTEX
  8
0
  6
CONTINUOUS
 62
     1
 10
366.288924173
 20
342.606955513
 42
-0.02440902
  0
VERTEX
  8
0
  6
CONTINUOUS
 62
     1
 10
366.380740392
 20
342.354765586
 42
-0.02477078
  0
VERTEX
  8
0
  6
CONTINUOUS
 62
     1
 10
366.446827136
 20
342.096605114
 42
-0.02502995
  0
VERTEX
  8
0
  6
CONTINUOUS
 62
     1
 10
366.486681443
 20
341.834438854
 42
-0.025171713
  0
SEQEND
  8
0
  6
CONTINUOUS
 62
     1
  0
LINE
  8
0
  6
CONTINUOUS
 62
     1
 10
361.0
 20
341.5
 11
362.0
 21
340.070262048
  0
LINE
  8
0
  6
CONTINUOUS
 62
     1
 10
362.0
 20
340.070262048
 11
364.0
 21
340.070262048
  0
LINE
  8
0
  6
CONTINUOUS
 62
     1
 10
364.0
 20
340.070262048
 11
365.0
 21
341.5
  0
LINE
  8
0
  6
CONTINUOUS
 62
     1
 10
365.0
 20
341.5
 11
364.0
 21
343.070262048
  0
LINE
  8
0
  6
CONTINUOUS
 62
     1
 10
364.0
 20
343.070262048
 11
362.0
 21
343.070262048
  0
LINE
  8
0
  6
CONTINUOUS
 62
     1
 10
362.0
 20
343.070262048
 11
361.0
 21
341.5
  0
CIRCLE
  8
0
  6
CONTINUOUS
 62
     1
 10
390.0
 20
362.560007043
 40
4.0
  0
CIRCLE
  8
0
  6
CONTINUOUS
 62
     1
 10
390.0
 20
362.560007043
 40
3.5
  0
POLYLINE
  8
0
  6
CONTINUOUS
 62
     1
 66
     1
 70
     1
  0
VERTEX
  8
0
  6
CONTINUOUS
 62
     1
 10
392.0
 20
362.560007043
  0
VERTEX
  8
0
  6
CONTINUOUS
 62
     1
 10
391.0
 20
364.292057851
  0
VERTEX
  8
0
  6
CONTINUOUS
 62
     1
 10
389.0
 20
364.292057851
  0
VERTEX
  8
0
  6
CONTINUOUS
 62
     1
 10
388.0
 20
362.560007043
  0
VERTEX
  8
0
  6
CONTINUOUS
 62
     1
 10
389.0
 20
360.827956236
  0
VERTEX
  8
0
  6
CONTINUOUS
 62
     1
 10
391.0
 20
360.827956236
  0
SEQEND
  0
CIRCLE
  8
0
  6
CONTINUOUS
 62
     1
 10
465.0
 20
362.560007043
 40
4.0
  0
CIRCLE
  8
0
  6
CONTINUOUS
 62
     1
 10
465.0
 20
362.560007043
 40
3.5
  0
POLYLINE
  8
0
  6
CONTINUOUS
 62
     1
 66
     1
 70
     1
  0
VERTEX
  8
0
  6
CONTINUOUS
 62
     1
 10
467.0
 20
362.560007043
  0
VERTEX
  8
0
  6
CONTINUOUS
 62
     1
 10
466.0
 20
364.292057851
  0
VERTEX
  8
0
  6
CONTINUOUS
 62
     1
 10
464.0
 20
364.292057851
  0
VERTEX
  8
0
  6
CONTINUOUS
 62
     1
 10
463.0
 20
362.560007043
  0
VERTEX
  8
0
  6
CONTINUOUS
 62
     1
 10
464.0
 20
360.827956236
  0
VERTEX
  8
0
  6
CONTINUOUS
 62
     1
 10
466.0
 20
360.827956236
  0
SEQEND
  0
LINE
  8
0
  6
LTYPE3
 62
     2
 10
414.5
 20
440.5
 11
414.5
 21
435.5
  0
LINE
  8
0
  6
LTYPE3
 62
     2
 10
430.5
 20
440.5
 11
430.5
 21
435.5
  0
LINE
  8
0
  6
LTYPE3
 62
     2
 10
296.0
 20
370.0
 11
555.0
 21
370.0
  0
POLYLINE
  8
0
  6
CONTINUOUS
 62
     2
 66
     1
  0
VERTEX
  8
0
  6
CONTINUOUS
 62
     2
 10
545.0
 20
470.0
  0
VERTEX
  8
0
  6
CONTINUOUS
 62
     2
 10
542.8
 20
469.292
  0
VERTEX
  8
0
  6
CONTINUOUS
 62
     2
 10
540.6
 20
468.436
  0
VERTEX
  8
0
  6
CONTINUOUS
 62
     2
 10
538.4
 20
467.284
  0
VERTEX
  8
0
  6
CONTINUOUS
 62
     2
 10
536.2
 20
465.688
  0
VERTEX
  8
0
  6
CONTINUOUS
 62
     2
 10
534.0
 20
463.5
  0
VERTEX
  8
0
  6
CONTINUOUS
 62
     2
 10
531.448
 20
459.964
  0
VERTEX
  8
0
  6
CONTINUOUS
 62
     2
 10
528.984
 20
455.692
  0
VERTEX
  8
0
  6
CONTINUOUS
 62
     2
 10
526.696
 20
450.688
  0
VERTEX
  8
0
  6
CONTINUOUS
 62
     2
 10
524.672
 20
444.956
  0
VERTEX
  8
0
  6
CONTINUOUS
 62
     2
 10
523.0
 20
438.5
  0
VERTEX
  8
0
  6
CONTINUOUS
 62
     2
 10
522.456
 20
430.668
  0
VERTEX
  8
0
  6
CONTINUOUS
 62
     2
 10
522.268
 20
422.284
  0
VERTEX
  8
0
  6
CONTINUOUS
 62
     2
 10
522.352
 20
413.516
  0
VERTEX
  8
0
  6
CONTINUOUS
 62
     2
 10
522.624
 20
404.532
  0
VERTEX
  8
0
  6
CONTINUOUS
 62
     2
 10
523.0
 20
395.5
  0
VERTEX
  8
0
  6
CONTINUOUS
 62
     2
 10
523.044
 20
387.068
  0
VERTEX
  8
0
  6
CONTINUOUS
 62
     2
 10
523.112
 20
378.804
  0
VERTEX
  8
0
  6
CONTINUOUS
 62
     2
 10
523.208
 20
370.756
  0
VERTEX
  8
0
  6
CONTINUOUS
 62
     2
 10
523.336
 20
362.972
  0
VERTEX
  8
0
  6
CONTINUOUS
 62
     2
 10
523.5
 20
355.5
  0
VERTEX
  8
0
  6
CONTINUOUS
 62
     2
 10
523.704
 20
348.708
  0
VERTEX
  8
0
  6
CONTINUOUS
 62
     2
 10
523.952
 20
342.244
  0
VERTEX
  8
0
  6
CONTINUOUS
 62
     2
 10
524.248
 20
336.076
  0
VERTEX
  8
0
  6
CONTINUOUS
 62
     2
 10
524.596
 20
330.172
  0
VERTEX
  8
0
  6
CONTINUOUS
 62
     2
 10
525.0
 20
324.5
  0
VERTEX
  8
0
  6
CONTINUOUS
 62
     2
 10
525.416
 20
318.66
  0
VERTEX
  8
0
  6
CONTINUOUS
 62
     2
 10
525.908
 20
313.08
  0
VERTEX
  8
0
  6
CONTINUOUS
 62
     2
 10
526.492
 20
307.82
  0
VERTEX
  8
0
  6
CONTINUOUS
 62
     2
 10
527.184
 20
302.94
  0
VERTEX
  8
0
  6
CONTINUOUS
 62
     2
 10
528.0
 20
298.5
  0
VERTEX
  8
0
  6
CONTINUOUS
 62
     2
 10
529.004
 20
295.248
  0
VERTEX
  8
0
  6
CONTINUOUS
 62
     2
 10
530.152
 20
292.384
  0
VERTEX
  8
0
  6
CONTINUOUS
 62
     2
 10
531.448
 20
289.796
  0
VERTEX
  8
0
  6
CONTINUOUS
 62
     2
 10
532.896
 20
287.372
  0
VERTEX
  8
0
  6
CONTINUOUS
 62
     2
 10
534.5
 20
285.0
  0
VERTEX
  8
0
  6
CONTINUOUS
 62
     2
 10
536.408
 20
282.072
  0
VERTEX
  8
0
  6
CONTINUOUS
 62
     2
 10
538.444
 20
279.096
  0
VERTEX
  8
0
  6
CONTINUOUS
 62
     2
 10
540.576
 20
276.084
  0
VERTEX
  8
0
  6
CONTINUOUS
 62
     2
 10
542.772
 20
273.048
  0
VERTEX
  8
0
  6
CONTINUOUS
 62
     2
 10
545.0
 20
270.0
  0
SEQEND
  0
LINE
  8
0
  6
LTYPE3
 62
     2
 10
422.5
 20
415.928525816
 11
422.5
 21
459.5
  0
LINE
  8
寸法線
  6
CONTINUOUS
 62
     2
 10
304.0
 20
450.0
 11
284.0
 21
450.0
  0
LINE
  8
寸法線
  6
CONTINUOUS
 62
     2
 10
286.0
 20
450.0
 11
284.705904774
 21
445.170370869
  0
LINE
  8
寸法線
  6
CONTINUOUS
 62
     2
 10
286.0
 20
450.0
 11
287.294095226
 21
445.170370869
  0
LINE
  8
寸法線
  6
CONTINUOUS
 62
     2
 10
286.0
 20
450.0
 11
286.0
 21
290.0
  0
LINE
  8
寸法線
  6
CONTINUOUS
 62
     2
 10
286.0
 20
290.0
 11
287.294095226
 21
294.829629131
  0
LINE
  8
寸法線
  6
CONTINUOUS
 62
     2
 10
286.0
 20
290.0
 11
284.705904774
 21
294.829629131
  0
LINE
  8
寸法線
  6
CONTINUOUS
 62
     2
 10
304.0
 20
290.0
 11
284.0
 21
290.0
  0
TEXT
  8
寸法線
  6
CONTINUOUS
 62
     5
 10
284.0
 20
348.5
 30
0.2
 40
8.0
  1
φ１６０ｇ６
 50
90.0
 41
0.875
 51
0.0
  7
KANJI11
  0
LINE
  8
寸法線
  6
CONTINUOUS
 62
     2
 10
547.0
 20
450.0
 11
577.0
 21
450.0
  0
LINE
  8
寸法線
  6
CONTINUOUS
 62
     2
 10
575.0
 20
450.0
 11
573.705904774
 21
445.170370869
  0
LINE
  8
寸法線
  6
CONTINUOUS
 62
     2
 10
575.0
 20
450.0
 11
576.294095226
 21
445.170370869
  0
LINE
  8
寸法線
  6
CONTINUOUS
 62
     2
 10
575.0
 20
450.0
 11
575.0
 21
290.0
  0
LINE
  8
寸法線
  6
CONTINUOUS
 62
     2
 10
575.0
 20
290.0
 11
576.294095226
 21
294.829629131
  0
LINE
  8
寸法線
  6
CONTINUOUS
 62
     2
 10
575.0
 20
290.0
 11
573.705904774
 21
294.829629131
  0
LINE
  8
寸法線
  6
CONTINUOUS
 62
     2
 10
547.0
 20
290.0
 11
577.0
 21
290.0
  0
TEXT
  8
寸法線
  6
CONTINUOUS
 62
     5
 10
573.0
 20
348.5
 30
0.2
 40
8.0
  1
φ１６０Ｈ７
 50
90.0
 41
0.875
 51
0.0
  7
KANJI11
  0
LINE
  8
寸法線
  6
CONTINUOUS
 62
     2
 10
547.0
 20
505.0
 11
597.0
 21
505.0
  0
LINE
  8
寸法線
  6
CONTINUOUS
 62
     2
 10
595.0
 20
505.0
 11
593.705904774
 21
500.170370869
  0
LINE
  8
寸法線
  6
CONTINUOUS
 62
     2
 10
595.0
 20
505.0
 11
596.294095226
 21
500.170370869
  0
LINE
  8
寸法線
  6
CONTINUOUS
 62
     2
 10
595.0
 20
505.0
 11
595.0
 21
235.0
  0
LINE
  8
寸法線
  6
CONTINUOUS
 62
     2
 10
595.0
 20
235.0
 11
596.294095226
 21
239.829629131
  0
LINE
  8
寸法線
  6
CONTINUOUS
 62
     2
 10
595.0
 20
235.0
 11
593.705904774
 21
239.829629131
  0
LINE
  8
寸法線
  6
CONTINUOUS
 62
     2
 10
547.0
 20
235.0
 11
597.0
 21
235.0
  0
TEXT
  8
寸法線
  6
CONTINUOUS
 62
     5
 10
593.0
 20
355.7
 30
0.2
 40
8.0
  1
φ２７０
 50
90.0
 41
0.875
 51
0.0
  7
KANJI11
  0
LINE
  8
0
  6
LTYPE3
 62
     2
 10
330.0
 20
467.6
 11
330.0
 21
515.0
  0
LINE
  8
0
  6
LTYPE3
 62
     2
 10
525.0
 20
467.6
 11
525.0
 21
515.0
  0
LINE
  8
寸法線
  6
CONTINUOUS
 62
     2
 10
545.0
 20
507.0
 11
545.0
 21
527.0
  0
LINE
  8
寸法線
  6
CONTINUOUS
 62
     2
 10
545.0
 20
525.0
 11
549.829629131
 21
523.705904774
  0
LINE
  8
寸法線
  6
CONTINUOUS
 62
     2
 10
545.0
 20
525.0
 11
549.829629131
 21
526.294095226
  0
LINE
  8
寸法線
  6
CONTINUOUS
 62
     2
 10
552.5
 20
525.0
 11
545.0
 21
525.0
  0
LINE
  8
寸法線
  6
CONTINUOUS
 62
     2
 10
545.0
 20
525.0
 11
540.0
 21
525.0
  0
LINE
  8
寸法線
  6
CONTINUOUS
 62
     2
 10
540.0
 20
525.0
 11
532.5
 21
525.0
  0
LINE
  8
寸法線
  6
CONTINUOUS
 62
     2
 10
540.0
 20
525.0
 11
535.170370869
 21
526.294095226
  0
LINE
  8
寸法線
  6
CONTINUOUS
 62
     2
 10
540.0
 20
525.0
 11
535.170370869
 21
523.705904774
  0
LINE
  8
寸法線
  6
CONTINUOUS
 62
     2
 10
540.0
 20
452.0
 11
540.0
 21
527.0
  0
TEXT
  8
寸法線
  6
CONTINUOUS
 62
     5
 10
539.0
 20
527.0
 30
0.2
 40
8.0
  1
５
 50
0.0
 41
0.875
 51
0.0
  7
KANJI11
  0
POLYLINE
  8
寸法線
  6
CONTINUOUS
 62
     2
 66
     1
  0
VERTEX
  8
寸法線
  6
CONTINUOUS
 62
     2
 10
310.0
 20
205.0
  0
VERTEX
  8
寸法線
  6
CONTINUOUS
 62
     2
 10
306.0
 20
205.0
  0
VERTEX
  8
寸法線
  6
CONTINUOUS
 62
     2
 10
291.5
 20
205.0
  0
SEQEND
  0
LINE
  8
寸法線
  6
CONTINUOUS
 62
     2
 10
306.0
 20
205.0
 11
301.170370869
 21
206.294095226
  0
LINE
  8
寸法線
  6
CONTINUOUS
 62
     2
 10
306.0
 20
205.0
 11
301.170370869
 21
203.705904774
  0
LINE
  8
寸法線
  6
CONTINUOUS
 62
     2
 10
306.0
 20
288.0
 11
306.0
 21
203.0
  0
TEXT
  8
寸法線
  6
CONTINUOUS
 62
     5
 10
291.5
 20
207.0
 30
0.2
 40
8.0
  1
４
 50
0.0
 41
0.875
 51
0.0
  7
KANJI11
  0
LINE
  8
寸法線
  6
CONTINUOUS
 62
     2
 10
310.0
 20
233.0
 11
310.0
 21
203.0
  0
LINE
  8
寸法線
  6
CONTINUOUS
 62
     2
 10
310.0
 20
205.0
 11
314.829629131
 21
203.705904774
  0
LINE
  8
寸法線
  6
CONTINUOUS
 62
     2
 10
310.0
 20
205.0
 11
314.829629131
 21
206.294095226
  0
LINE
  8
寸法線
  6
CONTINUOUS
 62
     2
 10
310.0
 20
205.0
 11
350.0
 21
205.0
  0
LINE
  8
寸法線
  6
CONTINUOUS
 62
     2
 10
350.0
 20
205.0
 11
345.170370869
 21
206.294095226
  0
LINE
  8
寸法線
  6
CONTINUOUS
 62
     2
 10
350.0
 20
205.0
 11
345.170370869
 21
203.705904774
  0
LINE
  8
寸法線
  6
CONTINUOUS
 62
     2
 10
350.0
 20
233.0
 11
350.0
 21
203.0
  0
TEXT
  8
寸法線
  6
CONTINUOUS
 62
     5
 10
322.9
 20
207.0
 30
0.2
 40
8.0
  1
４０
 50
0.0
 41
0.875
 51
0.0
  7
KANJI11
  0
LINE
  8
寸法線
  6
CONTINUOUS
 62
     2
 10
350.0
 20
205.0
 11
354.829629131
 21
203.705904774
  0
LINE
  8
寸法線
  6
CONTINUOUS
 62
     2
 10
350.0
 20
205.0
 11
354.829629131
 21
206.294095226
  0
LINE
  8
寸法線
  6
CONTINUOUS
 62
     2
 10
350.0
 20
205.0
 11
505.0
 21
205.0
  0
LINE
  8
寸法線
  6
CONTINUOUS
 62
     2
 10
505.0
 20
205.0
 11
500.170370869
 21
206.294095226
  0
LINE
  8
寸法線
  6
CONTINUOUS
 62
     2
 10
505.0
 20
205.0
 11
500.170370869
 21
203.705904774
  0
LINE
  8
寸法線
  6
CONTINUOUS
 62
     2
 10
505.0
 20
233.0
 11
505.0
 21
203.0
  0
TEXT
  8
寸法線
  6
CONTINUOUS
 62
     5
 10
416.8
 20
207.0
 30
0.2
 40
8.0
  1
１５５
 50
0.0
 41
0.875
 51
0.0
  7
KANJI11
  0
LINE
  8
寸法線
  6
CONTINUOUS
 62
     2
 10
505.0
 20
205.0
 11
509.829629131
 21
203.705904774
  0
LINE
  8
寸法線
  6
CONTINUOUS
 62
     2
 10
505.0
 20
205.0
 11
509.829629131
 21
206.294095226
  0
LINE
  8
寸法線
  6
CONTINUOUS
 62
     2
 10
505.0
 20
205.0
 11
545.0
 21
205.0
  0
LINE
  8
寸法線
  6
CONTINUOUS
 62
     2
 10
545.0
 20
205.0
 11
540.170370869
 21
206.294095226
  0
LINE
  8
寸法線
  6
CONTINUOUS
 62
     2
 10
545.0
 20
205.0
 11
540.170370869
 21
203.705904774
  0
LINE
  8
寸法線
  6
CONTINUOUS
 62
     2
 10
545.0
 20
233.0
 11
545.0
 21
203.0
  0
TEXT
  8
寸法線
  6
CONTINUOUS
 62
     5
 10
517.9
 20
207.0
 30
0.2
 40
8.0
  1
４０
 50
0.0
 41
0.875
 51
0.0
  7
KANJI11
  0
LINE
  8
寸法線
  6
CONTINUOUS
 62
     2
 10
306.0
 20
203.0
 11
306.0
 21
183.0
  0
LINE
  8
寸法線
  6
CONTINUOUS
 62
     2
 10
306.0
 20
185.0
 11
310.829629131
 21
183.705904774
  0
LINE
  8
寸法線
  6
CONTINUOUS
 62
     2
 10
306.0
 20
185.0
 11
310.829629131
 21
186.294095226
  0
LINE
  8
寸法線
  6
CONTINUOUS
 62
     2
 10
306.0
 20
185.0
 11
545.0
 21
185.0
  0
LINE
  8
寸法線
  6
CONTINUOUS
 62
     2
 10
545.0
 20
185.0
 11
540.170370869
 21
186.294095226
  0
LINE
  8
寸法線
  6
CONTINUOUS
 62
     2
 10
545.0
 20
185.0
 11
540.170370869
 21
183.705904774
  0
LINE
  8
寸法線
  6
CONTINUOUS
 62
     2
 10
545.0
 20
203.0
 11
545.0
 21
183.0
  0
TEXT
  8
寸法線
  6
CONTINUOUS
 62
     5
 10
414.8
 20
187.0
 30
0.2
 40
8.0
  1
２３９
 50
0.0
 41
0.875
 51
0.0
  7
KANJI11
  0
CIRCLE
  8
0
  6
CONTINUOUS
 62
     1
 10
720.235809813
 20
481.081470023
 40
11.0
  0
CIRCLE
  8
0
  6
CONTINUOUS
 62
     1
 10
668.682720164
 20
451.317279836
 40
11.0
  0
CIRCLE
  8
0
  6
CONTINUOUS
 62
     1
 10
638.918529977
 20
399.764190187
 40
11.0
  0
CIRCLE
  8
0
  6
CONTINUOUS
 62
     1
 10
638.918529977
 20
340.235809813
 40
11.0
  0
CIRCLE
  8
0
  6
CONTINUOUS
 62
     1
 10
668.682720164
 20
288.682720164
 40
11.0
  0
CIRCLE
  8
0
  6
CONTINUOUS
 62
     1
 10
720.235809813
 20
258.918529977
 40
11.0
  0
ARC
  8
0
  6
CONTINUOUS
 62
     1
 10
750.0
 20
370.0
 40
135.0
 50
90.0
 51
270.0
  0
ARC
  8
0
  6
CONTINUOUS
 62
     1
 10
750.0
 20
370.0
 40
80.0
 50
90.0
 51
270.0
  0
LINE
  8
0
  6
LTYPE3
 62
     2
 10
716.094705092
 20
496.536283244
 11
724.376914535
 21
465.626656803
  0
LINE
  8
0
  6
LTYPE3
 62
     2
 10
657.369011665
 20
462.630988335
 11
679.996428663
 21
440.003571337
  0
LINE
  8
0
  6
LTYPE3
 62
     2
 10
623.463716756
 20
403.905294908
 11
654.373343197
 21
395.623085465
  0
LINE
  8
0
  6
LTYPE3
 62
     2
 10
623.463716756
 20
336.094705092
 11
654.373343197
 21
344.376914535
  0
LINE
  8
0
  6
LTYPE3
 62
     2
 10
657.369011665
 20
277.369011665
 11
679.996428663
 21
299.996428663
  0
LINE
  8
0
  6
LTYPE3
 62
     2
 10
716.094705092
 20
243.463716756
 11
724.376914535
 21
274.373343197
  0
ARC
  8
0
  6
LTYPE3
 62
     2
 10
750.0
 20
370.0
 40
115.0
 50
90.0
 51
270.0
  0
LINE
  8
0
  6
LTYPE3
 62
     2
 10
750.0
 20
515.0
 11
750.0
 21
225.0
  0
LINE
  8
0
  6
LTYPE3
 62
     2
 10
760.0
 20
370.0
 11
605.0
 21
370.0
  0
CIRCLE
  8
0
  6
CONTINUOUS
 62
     1
 10
149.764190187
 20
481.081470023
 40
11.0
  0
CIRCLE
  8
0
  6
CONTINUOUS
 62
     1
 10
201.317279836
 20
451.317279836
 40
11.0
  0
CIRCLE
  8
0
  6
CONTINUOUS
 62
     1
 10
231.081470023
 20
399.764190187
 40
11.0
  0
CIRCLE
  8
0
  6
CONTINUOUS
 62
     1
 10
231.081470023
 20
340.235809813
 40
11.0
  0
CIRCLE
  8
0
  6
CONTINUOUS
 62
     1
 10
201.317279836
 20
288.682720164
 40
11.0
  0
CIRCLE
  8
0
  6
CONTINUOUS
 62
     1
 10
149.764190187
 20
258.918529977
 40
11.0
  0
ARC
  8
0
  6
CONTINUOUS
 62
     1
 10
120.0
 20
370.0
 40
135.0
 50
270.0
 51
90.0
  0
ARC
  8
0
  6
CONTINUOUS
 62
     1
 10
120.0
 20
370.0
 40
80.0
 50
270.0
 51
90.0
  0
LINE
  8
0
  6
LTYPE3
 62
     2
 10
153.905294908
 20
496.536283244
 11
145.623085465
 21
465.626656803
  0
LINE
  8
0
  6
LTYPE3
 62
     2
 10
212.630988335
 20
462.630988335
 11
190.003571337
 21
440.003571337
  0
LINE
  8
0
  6
LTYPE3
 62
     2
 10
246.536283244
 20
403.905294908
 11
215.626656803
 21
395.623085465
  0
LINE
  8
0
  6
LTYPE3
 62
     2
 10
246.536283244
 20
336.094705092
 11
215.626656803
 21
344.376914535
  0
LINE
  8
0
  6
LTYPE3
 62
     2
 10
212.630988335
 20
277.369011665
 11
190.003571337
 21
299.996428663
  0
LINE
  8
0
  6
LTYPE3
 62
     2
 10
153.905294908
 20
243.463716756
 11
145.623085465
 21
274.373343197
  0
ARC
  8
0
  6
LTYPE3
 62
     2
 10
120.0
 20
370.0
 40
115.0
 50
270.0
 51
90.0
  0
LINE
  8
0
  6
LTYPE3
 62
     2
 10
120.0
 20
515.0
 11
120.0
 21
225.0
  0
LINE
  8
0
  6
LTYPE3
 62
     2
 10
110.0
 20
370.0
 11
265.0
 21
370.0
  0
LINE
  8
寸法線
  6
CONTINUOUS
 62
     2
 10
655.797514907
 20
435.96129018
 11
659.011452955
 21
432.131067965
  0
LINE
  8
寸法線
  6
CONTINUOUS
 62
     2
 10
655.797514907
 20
435.96129018
 11
660.495978011
 21
434.251189464
  0
TEXT
  8
寸法線
  6
CONTINUOUS
 62
     5
 10
760.485486178
 20
365.099532714
 30
0.2
 40
8.0
  1
Ｐ．Ｃ．Ｄ．２３０
 50
325.0
 41
0.875
 51
0.0
  7
KANJI11
  0
LINE
  8
寸法線
  6
CONTINUOUS
 62
     2
 10
804.391695741
 20
331.914524626
 11
655.797514907
 21
435.96129018
  0
LINE
  8
寸法線
  6
CONTINUOUS
 62
     2
 10
214.202485093
 20
435.96129018
 11
210.988547045
 21
432.131067965
  0
LINE
  8
寸法線
  6
CONTINUOUS
 62
     2
 10
214.202485093
 20
435.96129018
 11
209.504021989
 21
434.251189464
  0
TEXT
  8
寸法線
  6
CONTINUOUS
 62
     5
 10
65.198388226
 20
334.069047508
 30
0.2
 40
8.0
  1
Ｐ．Ｃ．Ｄ．２３０
 50
35.0
 41
0.875
 51
0.0
  7
KANJI11
  0
LINE
  8
寸法線
  6
CONTINUOUS
 62
     2
 10
65.608304259
 20
331.914524626
 11
214.202485093
 21
435.96129018
  0
LINE
  8
寸法線
  6
CONTINUOUS
 62
     2
 10
157.54236478
 20
251.140355384
 11
160.04236478
 21
246.810228365
  0
LINE
  8
寸法線
  6
CONTINUOUS
 62
     2
 10
157.54236478
 20
251.140355384
 11
161.872491799
 21
248.640355384
  0
LINE
  8
寸法線
  6
CONTINUOUS
 62
     2
 10
157.54236478
 20
251.140355384
 11
189.764190187
 21
218.918529977
  0
LINE
  8
寸法線
  6
CONTINUOUS
 62
     2
 10
189.764190187
 20
218.918529977
 11
254.364190187
 21
218.918529977
  0
TEXT
  8
寸法線
  6
CONTINUOUS
 62
     5
 10
189.764190187
 20
220.918529977
 30
0.2
 40
8.0
  1
１２－φ２２取付穴
 50
0.0
 41
0.875
 51
0.0
  7
KANJI11
  0
LINE
  8
寸法線
  6
CONTINUOUS
 62
     2
 10
712.45763522
 20
251.140355384
 11
708.127508201
 21
248.640355384
  0
LINE
  8
寸法線
  6
CONTINUOUS
 62
     2
 10
712.45763522
 20
251.140355384
 11
709.95763522
 21
246.810228365
  0
LINE
  8
寸法線
  6
CONTINUOUS
 62
     2
 10
712.45763522
 20
251.140355384
 11
680.235809813
 21
218.918529977
  0
LINE
  8
寸法線
  6
CONTINUOUS
 62
     2
 10
680.235809813
 20
218.918529977
 11
615.635809813
 21
218.918529977
  0
TEXT
  8
寸法線
  6
CONTINUOUS
 62
     5
 10
615.635809813
 20
220.918529977
 30
0.2
 40
8.0
  1
１２－φ２２取付穴
 50
0.0
 41
0.875
 51
0.0
  7
KANJI11
  0
LINE
  8
寸法線
  6
CONTINUOUS
 62
     2
 10
330.0
 20
505.0
 11
327.5
 21
509.330127019
  0
LINE
  8
寸法線
  6
CONTINUOUS
 62
     2
 10
330.0
 20
505.0
 11
325.669872981
 21
507.5
  0
LINE
  8
寸法線
  6
CONTINUOUS
 62
     2
 10
330.0
 20
505.0
 11
300.0
 21
535.0
  0
LINE
  8
寸法線
  6
CONTINUOUS
 62
     2
 10
300.0
 20
535.0
 11
199.4
 21
535.0
  0
TEXT
  8
寸法線
  6
CONTINUOUS
 62
     5
 10
199.4
 20
537.0
 30
0.2
 40
8.0
  1
２－Ｍ１０アイボルト用ネジ穴
 50
0.0
 41
0.875
 51
0.0
  7
KANJI11
  0
LINE
  8
0
  6
LTYPE3
 62
     2
 10
368.0
 20
398.429737952
 11
358.0
 21
398.429737952
  0
LINE
  8
0
  6
LTYPE3
 62
     2
 10
363.0
 20
403.429737952
 11
363.0
 21
393.429737952
  0
LINE
  8
0
  6
LTYPE3
 62
     2
 10
368.0
 20
341.570262048
 11
358.0
 21
341.570262048
  0
LINE
  8
0
  6
LTYPE3
 62
     2
 10
363.0
 20
346.570262048
 11
363.0
 21
336.570262048
  0
LINE
  8
0
  6
LTYPE3
 62
     2
 10
395.0
 20
362.560007043
 11
385.0
 21
362.560007043
  0
LINE
  8
0
  6
LTYPE3
 62
     2
 10
390.0
 20
367.560007043
 11
390.0
 21
357.560007043
  0
LINE
  8
0
  6
LTYPE3
 62
     2
 10
470.0
 20
362.560007043
 11
460.0
 21
362.560007043
  0
LINE
  8
0
  6
LTYPE3
 62
     2
 10
465.0
 20
367.560007043
 11
465.0
 21
357.560007043
  0
LINE
  8
0
  6
CONTINUOUS
 62
     1
 10
366.5
 20
398.429737952
 11
366.5
 21
396.752686969
  0
LINE
  8
0
  6
CONTINUOUS
 62
     1
 10
359.5
 20
398.429737952
 11
359.5
 21
396.752686969
  0
LINE
  8
0
  6
CONTINUOUS
 62
     1
 10
366.5
 20
341.570262048
 11
366.5
 21
343.247313031
  0
LINE
  8
0
  6
CONTINUOUS
 62
     1
 10
359.5
 20
341.570262048
 11
359.5
 21
343.247313031
  0
TEXT
  8
表題欄
  6
CONTINUOUS
 62
     5
 10
569.0
 20
46.0
 30
0.0
 40
8.0
  1
２
 50
0.0
 41
0.875
 51
0.0
  7
KANJI0
  0
TEXT
  8
表題欄
  6
CONTINUOUS
 62
     5
 10
720.0
 20
140.0
 30
0.2
 40
8.0
  1
８，１０　ｋＮ・ｍ
 50
0.0
 41
0.875
 51
0.0
  7
KANJI11
  0
TEXT
  8
表題欄
  6
CONTINUOUS
 62
     5
 10
716.3
 20
24.0
 30
0.2
 40
8.0
  1
Ｉ－０１３８－Ａ００１
 50
0.0
 41
0.875
 51
0.0
  7
KANJI11
  0
ENDSEC
  0
EOF
