  0
SECTION
  2
HEADER
  9
$EXTMIN
 10
0.0
 20
0.0
 30
0.0
  9
$EXTMAX
 10
105.0
 20
148.5
 30
0.0
  9
$LIMMIN
 10
0.0
 20
0.0
  9
$LIMMAX
 10
105.0
 20
148.5
  9
$LTSCALE
 40
1.0
  9
$PDMODE
 70
     0
  0
ENDSEC
  0
SECTION
  2
TABLES
  0
TABLE
  2
LTYPE
 70
     4
  0
LTYPE
  2
CONTINUOUS
 70
    64
  3
Solid line
 72
    65
 73
     0
 40
0.0
  0
LTYPE
  2
LTYPE1
 70
    64
  3
HIDDEN
 72
    65
 73
     2
 40
1.0
 49
0.6
 49
-0.4
  0
LTYPE
  2
LTYPE2
 70
    64
  3
PHANTOM
 72
    65
 73
     6
 40
5.0
 49
3.75
 49
-0.25
 49
0.25
 49
-0.25
 49
0.25
 49
-0.25
  0
LTYPE
  2
LTYPE3
 70
    64
  3
CENTER
 72
    65
 73
     4
 40
5.0
 49
3.5
 49
-0.5
 49
0.5
 49
-0.5
  0
ENDTAB
  0
TABLE
  2
LAYER
 70
   128
  0
LAYER
  2
0
 70
     0
 62
     7
  6
CONTINUOUS
  0
LAYER
  2
2
 70
     0
 62
     7
  6
CONTINUOUS
  0
LAYER
  2
3
 70
     0
 62
     7
  6
CONTINUOUS
  0
LAYER
  2
4
 70
     0
 62
     7
  6
CONTINUOUS
  0
LAYER
  2
5
 70
     0
 62
     7
  6
CONTINUOUS
  0
LAYER
  2
6
 70
     0
 62
     7
  6
CONTINUOUS
  0
LAYER
  2
7
 70
     0
 62
     7
  6
CONTINUOUS
  0
LAYER
  2
8
 70
     0
 62
     7
  6
CONTINUOUS
  0
LAYER
  2
9
 70
     0
 62
     7
  6
CONTINUOUS
  0
LAYER
  2
10
 70
     0
 62
     7
  6
CONTINUOUS
  0
LAYER
  2
11
 70
     0
 62
     7
  6
CONTINUOUS
  0
LAYER
  2
12
 70
     0
 62
     7
  6
CONTINUOUS
  0
LAYER
  2
13
 70
     0
 62
     7
  6
CONTINUOUS
  0
LAYER
  2
14
 70
     0
 62
     7
  6
CONTINUOUS
  0
LAYER
  2
15
 70
     0
 62
     7
  6
CONTINUOUS
  0
LAYER
  2
16
 70
     0
 62
     7
  6
CONTINUOUS
  0
LAYER
  2
17
 70
     0
 62
     7
  6
CONTINUOUS
  0
LAYER
  2
18
 70
     0
 62
     7
  6
CONTINUOUS
  0
LAYER
  2
19
 70
     0
 62
     7
  6
CONTINUOUS
  0
LAYER
  2
20
 70
     0
 62
     7
  6
CONTINUOUS
  0
LAYER
  2
21
 70
     0
 62
     7
  6
CONTINUOUS
  0
LAYER
  2
22
 70
     0
 62
     7
  6
CONTINUOUS
  0
LAYER
  2
23
 70
     0
 62
     7
  6
CONTINUOUS
  0
LAYER
  2
24
 70
     0
 62
     7
  6
CONTINUOUS
  0
LAYER
  2
25
 70
     0
 62
     7
  6
CONTINUOUS
  0
LAYER
  2
26
 70
     0
 62
     7
  6
CONTINUOUS
  0
LAYER
  2
27
 70
     0
 62
     7
  6
CONTINUOUS
  0
LAYER
  2
28
 70
     0
 62
     7
  6
CONTINUOUS
  0
LAYER
  2
29
 70
     0
 62
     7
  6
CONTINUOUS
  0
LAYER
  2
30
 70
     0
 62
     7
  6
CONTINUOUS
  0
LAYER
  2
31
 70
     0
 62
     7
  6
CONTINUOUS
  0
LAYER
  2
32
 70
     0
 62
     7
  6
CONTINUOUS
  0
LAYER
  2
33
 70
     0
 62
     7
  6
CONTINUOUS
  0
LAYER
  2
34
 70
     0
 62
     7
  6
CONTINUOUS
  0
LAYER
  2
35
 70
     0
 62
     7
  6
CONTINUOUS
  0
LAYER
  2
36
 70
     0
 62
     7
  6
CONTINUOUS
  0
LAYER
  2
37
 70
     0
 62
     7
  6
CONTINUOUS
  0
LAYER
  2
38
 70
     0
 62
     7
  6
CONTINUOUS
  0
LAYER
  2
39
 70
     0
 62
     7
  6
CONTINUOUS
  0
LAYER
  2
40
 70
     0
 62
     7
  6
CONTINUOUS
  0
LAYER
  2
41
 70
     0
 62
     7
  6
CONTINUOUS
  0
LAYER
  2
42
 70
     0
 62
     7
  6
CONTINUOUS
  0
LAYER
  2
43
 70
     0
 62
     7
  6
CONTINUOUS
  0
LAYER
  2
44
 70
     0
 62
     7
  6
CONTINUOUS
  0
LAYER
  2
45
 70
     0
 62
     7
  6
CONTINUOUS
  0
LAYER
  2
46
 70
     0
 62
     7
  6
CONTINUOUS
  0
LAYER
  2
47
 70
     0
 62
     7
  6
CONTINUOUS
  0
LAYER
  2
48
 70
     0
 62
     7
  6
CONTINUOUS
  0
LAYER
  2
49
 70
     0
 62
     7
  6
CONTINUOUS
  0
LAYER
  2
50
 70
     0
 62
     7
  6
CONTINUOUS
  0
LAYER
  2
51
 70
     0
 62
     7
  6
CONTINUOUS
  0
LAYER
  2
52
 70
     0
 62
     7
  6
CONTINUOUS
  0
LAYER
  2
53
 70
     0
 62
     7
  6
CONTINUOUS
  0
LAYER
  2
54
 70
     0
 62
     7
  6
CONTINUOUS
  0
LAYER
  2
55
 70
     0
 62
     7
  6
CONTINUOUS
  0
LAYER
  2
56
 70
     0
 62
     7
  6
CONTINUOUS
  0
LAYER
  2
57
 70
     0
 62
     7
  6
CONTINUOUS
  0
LAYER
  2
58
 70
     0
 62
     7
  6
CONTINUOUS
  0
LAYER
  2
59
 70
     0
 62
     7
  6
CONTINUOUS
  0
LAYER
  2
60
 70
     0
 62
     7
  6
CONTINUOUS
  0
LAYER
  2
61
 70
     0
 62
     7
  6
CONTINUOUS
  0
LAYER
  2
62
 70
     0
 62
     7
  6
CONTINUOUS
  0
LAYER
  2
63
 70
     0
 62
     7
  6
CONTINUOUS
  0
LAYER
  2
64
 70
     0
 62
     7
  6
CONTINUOUS
  0
LAYER
  2
65
 70
     0
 62
     7
  6
CONTINUOUS
  0
LAYER
  2
66
 70
     0
 62
     7
  6
CONTINUOUS
  0
LAYER
  2
67
 70
     0
 62
     7
  6
CONTINUOUS
  0
LAYER
  2
68
 70
     0
 62
     7
  6
CONTINUOUS
  0
LAYER
  2
69
 70
     0
 62
     7
  6
CONTINUOUS
  0
LAYER
  2
70
 70
     0
 62
     7
  6
CONTINUOUS
  0
LAYER
  2
71
 70
     0
 62
     7
  6
CONTINUOUS
  0
LAYER
  2
72
 70
     0
 62
     7
  6
CONTINUOUS
  0
LAYER
  2
73
 70
     0
 62
     7
  6
CONTINUOUS
  0
LAYER
  2
74
 70
     0
 62
     7
  6
CONTINUOUS
  0
LAYER
  2
75
 70
     0
 62
     7
  6
CONTINUOUS
  0
LAYER
  2
76
 70
     0
 62
     7
  6
CONTINUOUS
  0
LAYER
  2
77
 70
     0
 62
     7
  6
CONTINUOUS
  0
LAYER
  2
78
 70
     0
 62
     7
  6
CONTINUOUS
  0
LAYER
  2
79
 70
     0
 62
     7
  6
CONTINUOUS
  0
LAYER
  2
80
 70
     0
 62
     7
  6
CONTINUOUS
  0
LAYER
  2
81
 70
     0
 62
     7
  6
CONTINUOUS
  0
LAYER
  2
82
 70
     0
 62
     7
  6
CONTINUOUS
  0
LAYER
  2
83
 70
     0
 62
     7
  6
CONTINUOUS
  0
LAYER
  2
84
 70
     0
 62
     7
  6
CONTINUOUS
  0
LAYER
  2
85
 70
     0
 62
     7
  6
CONTINUOUS
  0
LAYER
  2
86
 70
     0
 62
     7
  6
CONTINUOUS
  0
LAYER
  2
87
 70
     0
 62
     7
  6
CONTINUOUS
  0
LAYER
  2
88
 70
     0
 62
     7
  6
CONTINUOUS
  0
LAYER
  2
89
 70
     0
 62
     7
  6
CONTINUOUS
  0
LAYER
  2
90
 70
     0
 62
     7
  6
CONTINUOUS
  0
LAYER
  2
91
 70
     0
 62
     7
  6
CONTINUOUS
  0
LAYER
  2
92
 70
     0
 62
     7
  6
CONTINUOUS
  0
LAYER
  2
93
 70
     0
 62
     7
  6
CONTINUOUS
  0
LAYER
  2
94
 70
     0
 62
     7
  6
CONTINUOUS
  0
LAYER
  2
95
 70
     0
 62
     7
  6
CONTINUOUS
  0
LAYER
  2
96
 70
     0
 62
     7
  6
CONTINUOUS
  0
LAYER
  2
97
 70
     0
 62
     7
  6
CONTINUOUS
  0
LAYER
  2
98
 70
     0
 62
     7
  6
CONTINUOUS
  0
LAYER
  2
99
 70
     0
 62
     7
  6
CONTINUOUS
  0
LAYER
  2
100
 70
     0
 62
     7
  6
CONTINUOUS
  0
LAYER
  2
101
 70
     0
 62
     7
  6
CONTINUOUS
  0
LAYER
  2
102
 70
     0
 62
     7
  6
CONTINUOUS
  0
LAYER
  2
103
 70
     0
 62
     7
  6
CONTINUOUS
  0
LAYER
  2
104
 70
     0
 62
     7
  6
CONTINUOUS
  0
LAYER
  2
105
 70
     0
 62
     7
  6
CONTINUOUS
  0
LAYER
  2
106
 70
     0
 62
     7
  6
CONTINUOUS
  0
LAYER
  2
107
 70
     0
 62
     7
  6
CONTINUOUS
  0
LAYER
  2
108
 70
     0
 62
     7
  6
CONTINUOUS
  0
LAYER
  2
109
 70
     0
 62
     7
  6
CONTINUOUS
  0
LAYER
  2
110
 70
     0
 62
     7
  6
CONTINUOUS
  0
LAYER
  2
111
 70
     0
 62
     7
  6
CONTINUOUS
  0
LAYER
  2
112
 70
     0
 62
     7
  6
CONTINUOUS
  0
LAYER
  2
113
 70
     0
 62
     7
  6
CONTINUOUS
  0
LAYER
  2
114
 70
     0
 62
     7
  6
CONTINUOUS
  0
LAYER
  2
115
 70
     0
 62
     7
  6
CONTINUOUS
  0
LAYER
  2
116
 70
     0
 62
     7
  6
CONTINUOUS
  0
LAYER
  2
117
 70
     0
 62
     7
  6
CONTINUOUS
  0
LAYER
  2
118
 70
     0
 62
     7
  6
CONTINUOUS
  0
LAYER
  2
119
 70
     0
 62
     7
  6
CONTINUOUS
  0
LAYER
  2
120
 70
     0
 62
     7
  6
CONTINUOUS
  0
LAYER
  2
121
 70
     0
 62
     7
  6
CONTINUOUS
  0
LAYER
  2
122
 70
     0
 62
     7
  6
CONTINUOUS
  0
LAYER
  2
123
 70
     0
 62
     7
  6
CONTINUOUS
  0
LAYER
  2
124
 70
     0
 62
     7
  6
CONTINUOUS
  0
LAYER
  2
125
 70
     0
 62
     7
  6
CONTINUOUS
  0
LAYER
  2
126
 70
     0
 62
     7
  6
CONTINUOUS
  0
LAYER
  2
127
 70
     0
 62
     7
  6
CONTINUOUS
  0
LAYER
  2
128
 70
     0
 62
     7
  6
CONTINUOUS
  0
ENDTAB
  0
TABLE
  2
STYLE
 70
    13
  0
STYLE
  2
STANDARD
 70
     0
 40
0.0
 41
1.0
 50
0.0
 71
     0
 42
0.2
  3
txt
  4

  0
STYLE
  2
KANJI0
 70
     0
 40
2.0
 41
0.875
 50
0.0
 71
     0
 42
2.0
  3

  4
bigfont
  0
STYLE
  2
KANJI1
 70
     0
 40
2.5
 41
1.2
 50
0.0
 71
     0
 42
2.5
  3

  4
bigfont
  0
STYLE
  2
KANJI2
 70
     0
 40
2.5
 41
1.0
 50
0.0
 71
     0
 42
2.5
  3

  4
bigfont
  0
STYLE
  2
KANJI3
 70
     0
 40
1.5
 41
0.666666667
 50
0.0
 71
     0
 42
1.5
  3

  4
bigfont
  0
STYLE
  2
KANJI4
 70
     0
 40
1.5
 41
1.0
 50
0.0
 71
     0
 42
1.5
  3

  4
bigfont
  0
STYLE
  2
KANJI5
 70
     0
 40
1.25
 41
1.0
 50
0.0
 71
     0
 42
1.25
  3

  4
bigfont
  0
STYLE
  2
KANJI6
 70
     0
 40
1.25
 41
1.0
 50
0.0
 71
     0
 42
1.25
  3

  4
bigfont
  0
STYLE
  2
KANJI7
 70
     0
 40
1.25
 41
1.0
 50
0.0
 71
     0
 42
1.25
  3

  4
bigfont
  0
STYLE
  2
KANJI8
 70
     0
 40
2.0
 41
1.125
 50
0.0
 71
     0
 42
2.0
  3

  4
bigfont
  0
STYLE
  2
KANJI9
 70
     0
 40
3.5
 41
0.857142857
 50
0.0
 71
     0
 42
3.5
  3

  4
bigfont
  0
STYLE
  2
KANJI10
 70
     0
 40
2.0
 41
0.875
 50
0.0
 71
     0
 42
2.0
  3

  4
bigfont
  0
STYLE
  2
KANJI11
 70
     0
 40
1.5
 41
0.833333333
 50
0.0
 71
     0
 42
1.5
  3

  4
bigfont
  0
ENDTAB
  0
TABLE
  2
VIEW
 70
     0
  0
ENDTAB
  0
ENDSEC
  0
SECTION
  2
BLOCKS
  0
ENDSEC
  0
SECTION
  2
ENTITIES
  0
TEXT
  8
6
  6
CONTINUOUS
 62
     5
 10
82.0
 20
17.0
 30
0.0
 40
2.0
  1
外観図
 50
0.0
 41
0.875
 51
0.0
  7
KANJI0
  0
TEXT
  8
6
  6
CONTINUOUS
 62
     5
 10
37.625
 20
11.5
 30
0.0
 40
2.0
  1
１
 50
0.0
 41
0.875
 51
0.0
  7
KANJI0
  0
TEXT
  8
6
  6
CONTINUOUS
 62
     5
 10
67.0
 20
11.5
 30
0.0
 40
2.0
  1
益子
 50
0.0
 41
0.875
 51
0.0
  7
KANJI0
  0
LINE
  8
7
  6
CONTINUOUS
 62
     2
 10
26.25
 20
5.0
 11
26.25
 21
2.5
  0
LINE
  8
7
  6
CONTINUOUS
 62
     2
 10
78.75
 20
143.5
 11
78.75
 21
146.0
  0
LINE
  8
7
  6
CONTINUOUS
 62
     2
 10
26.25
 20
143.5
 11
26.25
 21
146.0
  0
LINE
  8
7
  6
CONTINUOUS
 62
     2
 10
12.5
 20
99.25
 11
10.0
 21
99.25
  0
LINE
  8
7
  6
CONTINUOUS
 62
     2
 10
12.5
 20
124.25
 11
10.0
 21
124.25
  0
LINE
  8
7
  6
CONTINUOUS
 62
     2
 10
12.5
 20
49.25
 11
10.0
 21
49.25
  0
LINE
  8
7
  6
CONTINUOUS
 62
     2
 10
12.5
 20
24.25
 11
10.0
 21
24.25
  0
LINE
  8
7
  6
CONTINUOUS
 62
     2
 10
100.0
 20
99.25
 11
102.5
 21
99.25
  0
LINE
  8
7
  6
CONTINUOUS
 62
     2
 10
100.0
 20
124.25
 11
102.5
 21
124.25
  0
LINE
  8
7
  6
CONTINUOUS
 62
     2
 10
100.0
 20
49.25
 11
102.5
 21
49.25
  0
LINE
  8
7
  6
CONTINUOUS
 62
     2
 10
100.0
 20
24.25
 11
102.5
 21
24.25
  0
LINE
  8
7
  6
CONTINUOUS
 62
     2
 10
16.0
 20
33.5
 11
16.0
 21
5.0
  0
LINE
  8
7
  6
CONTINUOUS
 62
     2
 10
19.5
 20
33.5
 11
19.5
 21
5.0
  0
LINE
  8
7
  6
CONTINUOUS
 62
     2
 10
23.0
 20
33.5
 11
23.0
 21
5.0
  0
LINE
  8
7
  6
CONTINUOUS
 62
     2
 10
26.5
 20
33.5
 11
26.5
 21
5.0
  0
LINE
  8
7
  6
LTYPE1
 62
     2
 10
95.0
 20
10.5
 11
95.0
 21
5.0
  0
LINE
  8
7
  6
CONTINUOUS
 62
     2
 10
100.0
 20
37.5
 11
98.75
 21
37.5
  0
LINE
  8
7
  6
CONTINUOUS
 62
     2
 10
100.0
 20
41.5
 11
98.75
 21
41.5
  0
LINE
  8
7
  6
CONTINUOUS
 62
     2
 10
100.0
 20
45.5
 11
98.75
 21
45.5
  0
TEXT
  8
7
  6
CONTINUOUS
 62
     6
 10
37.875
 20
144.25
 30
0.0
 40
2.5
  1
２
 50
0.0
 41
1.2
 51
0.0
  7
KANJI1
  0
TEXT
  8
7
  6
CONTINUOUS
 62
     6
 10
11.625
 20
144.25
 30
0.0
 40
2.5
  1
１
 50
0.0
 41
1.2
 51
0.0
  7
KANJI1
  0
TEXT
  8
7
  6
CONTINUOUS
 62
     6
 10
64.125
 20
144.25
 30
0.0
 40
2.5
  1
３
 50
0.0
 41
1.2
 51
0.0
  7
KANJI1
  0
TEXT
  8
7
  6
CONTINUOUS
 62
     6
 10
89.625
 20
144.0
 30
0.0
 40
2.5
  1
４
 50
0.0
 41
1.2
 51
0.0
  7
KANJI1
  0
TEXT
  8
7
  6
CONTINUOUS
 62
     6
 10
9.25
 20
135.5
 30
0.0
 40
2.5
  1
Ａ
 50
0.0
 41
1.0
 51
0.0
  7
KANJI2
  0
TEXT
  8
7
  6
CONTINUOUS
 62
     6
 10
9.25
 20
110.5
 30
0.0
 40
2.5
  1
Ｂ
 50
0.0
 41
1.0
 51
0.0
  7
KANJI2
  0
TEXT
  8
7
  6
CONTINUOUS
 62
     6
 10
9.25
 20
85.5
 30
0.0
 40
2.5
  1
Ｃ
 50
0.0
 41
1.0
 51
0.0
  7
KANJI2
  0
TEXT
  8
7
  6
CONTINUOUS
 62
     6
 10
9.25
 20
60.5
 30
0.0
 40
2.5
  1
Ｄ
 50
0.0
 41
1.0
 51
0.0
  7
KANJI2
  0
TEXT
  8
7
  6
CONTINUOUS
 62
     6
 10
9.25
 20
35.5
 30
0.0
 40
2.5
  1
Ｅ
 50
0.0
 41
1.0
 51
0.0
  7
KANJI2
  0
TEXT
  8
7
  6
CONTINUOUS
 62
     6
 10
9.25
 20
10.5
 30
0.0
 40
2.5
  1
Ｆ
 50
0.0
 41
1.0
 51
0.0
  7
KANJI2
  0
TEXT
  8
7
  6
CONTINUOUS
 62
     6
 10
100.75
 20
135.5
 30
0.0
 40
2.5
  1
Ａ
 50
0.0
 41
1.0
 51
0.0
  7
KANJI2
  0
TEXT
  8
7
  6
CONTINUOUS
 62
     6
 10
100.75
 20
110.5
 30
0.0
 40
2.5
  1
Ｂ
 50
0.0
 41
1.0
 51
0.0
  7
KANJI2
  0
TEXT
  8
7
  6
CONTINUOUS
 62
     6
 10
100.75
 20
85.5
 30
0.0
 40
2.5
  1
Ｃ
 50
0.0
 41
1.0
 51
0.0
  7
KANJI2
  0
TEXT
  8
7
  6
CONTINUOUS
 62
     6
 10
100.75
 20
60.5
 30
0.0
 40
2.5
  1
Ｄ
 50
0.0
 41
1.0
 51
0.0
  7
KANJI2
  0
TEXT
  8
7
  6
CONTINUOUS
 62
     6
 10
100.75
 20
35.5
 30
0.0
 40
2.5
  1
Ｅ
 50
0.0
 41
1.0
 51
0.0
  7
KANJI2
  0
TEXT
  8
7
  6
CONTINUOUS
 62
     6
 10
100.75
 20
10.5
 30
0.0
 40
2.5
  1
Ｆ
 50
0.0
 41
1.0
 51
0.0
  7
KANJI2
  0
TEXT
  8
7
  6
CONTINUOUS
 62
     6
 10
11.625
 20
1.75
 30
0.0
 40
2.5
  1
１
 50
0.0
 41
1.2
 51
0.0
  7
KANJI1
  0
LINE
  8
7
  6
CONTINUOUS
 62
     6
 10
52.5
 20
143.5
 11
52.5
 21
148.5
  0
LINE
  8
7
  6
CONTINUOUS
 62
     6
 10
100.0
 20
143.5
 11
12.5
 21
143.5
  0
LINE
  8
7
  6
CONTINUOUS
 62
     6
 10
12.5
 20
74.25
 11
0.0
 21
74.25
  0
LINE
  8
7
  6
CONTINUOUS
 62
     6
 10
100.0
 20
74.25
 11
105.0
 21
74.25
  0
LINE
  8
7
  6
CONTINUOUS
 62
     6
 10
100.0
 20
5.0
 11
100.0
 21
143.5
  0
LINE
  8
7
  6
CONTINUOUS
 62
     6
 10
12.5
 20
143.5
 11
12.5
 21
5.0
  0
LINE
  8
7
  6
CONTINUOUS
 62
     6
 10
27.5
 20
2.5
 11
77.5
 21
2.5
  0
LINE
  8
7
  6
CONTINUOUS
 62
     2
 10
78.75
 20
5.0
 11
78.75
 21
2.5
  0
LINE
  8
7
  6
CONTINUOUS
 62
     2
 10
12.5
 20
25.5
 11
100.0
 21
25.5
  0
LINE
  8
7
  6
CONTINUOUS
 62
     2
 10
33.0
 20
21.5
 11
100.0
 21
21.5
  0
LINE
  8
7
  6
CONTINUOUS
 62
     2
 10
12.5
 20
19.5
 11
33.0
 21
19.5
  0
LINE
  8
7
  6
CONTINUOUS
 62
     2
 10
12.5
 20
8.5
 11
33.0
 21
8.5
  0
LINE
  8
7
  6
CONTINUOUS
 62
     2
 10
57.0
 20
21.5
 11
57.0
 21
10.5
  0
LINE
  8
7
  6
CONTINUOUS
 62
     2
 10
65.0
 20
21.5
 11
65.0
 21
10.5
  0
LINE
  8
7
  6
CONTINUOUS
 62
     2
 10
45.0
 20
21.5
 11
45.0
 21
16.0
  0
LINE
  8
7
  6
CONTINUOUS
 62
     2
 10
30.0
 20
33.5
 11
30.0
 21
5.0
  0
LINE
  8
7
  6
CONTINUOUS
 62
     2
 10
41.0
 20
16.0
 11
41.0
 21
5.0
  0
LINE
  8
7
  6
CONTINUOUS
 62
     2
 10
49.0
 20
16.0
 11
49.0
 21
5.0
  0
LINE
  8
7
  6
CONTINUOUS
 62
     2
 10
73.0
 20
21.5
 11
73.0
 21
5.0
  0
POLYLINE
  8
7
  6
LTYPE2
 62
     2
 66
     1
 70
     1
  0
VERTEX
  8
7
  6
LTYPE2
 62
     2
 10
52.0
 20
6.75
  0
VERTEX
  8
7
  6
LTYPE2
 62
     2
 10
54.0
 20
6.75
  0
VERTEX
  8
7
  6
LTYPE2
 62
     2
 10
54.0
 20
8.75
  0
VERTEX
  8
7
  6
LTYPE2
 62
     2
 10
52.0
 20
8.75
  0
SEQEND
  0
TEXT
  8
7
  6
CONTINUOUS
 62
     4
 10
73.5
 20
23.5
 30
-0.25
 40
1.5
  1
１セット分
 50
0.0
 41
0.666666667
 51
0.0
  7
KANJI3
  0
TEXT
  8
7
  6
CONTINUOUS
 62
     4
 10
68.0
 20
23.5
 30
0.0
 40
1.5
  1
１台分
 50
0.0
 41
1.0
 51
0.0
  7
KANJI4
  0
TEXT
  8
7
  6
CONTINUOUS
 62
     4
 10
69.0
 20
22.0
 30
0.0
 40
1.5
  1
個数
 50
0.0
 41
1.0
 51
0.0
  7
KANJI4
  0
TEXT
  8
7
  6
CONTINUOUS
 62
     4
 10
74.0
 20
22.0
 30
0.0
 40
1.5
  1
個数
 50
0.0
 41
1.0
 51
0.0
  7
KANJI4
  0
TEXT
  8
7
  6
CONTINUOUS
 62
     4
 10
78.75
 20
22.5
 30
0.0
 40
2.0
  1
総数
 50
0.0
 41
0.875
 51
0.0
  7
KANJI0
  0
TEXT
  8
7
  6
CONTINUOUS
 62
     4
 10
32.075
 20
26.25
 30
0.15
 40
1.25
  1
氏名
 50
90.0
 41
1.0
 51
0.0
  7
KANJI5
  0
TEXT
  8
7
  6
CONTINUOUS
 62
     4
 10
32.075
 20
20.2125
 30
0.5
 40
1.25
  1
年月日
 50
90.0
 41
1.0
 51
0.0
  7
KANJI6
  0
TEXT
  8
7
  6
CONTINUOUS
 62
     4
 10
32.075
 20
30.1875
 30
0.15
 40
1.25
  1
承認
 50
90.0
 41
1.0
 51
0.0
  7
KANJI5
  0
TEXT
  8
7
  6
CONTINUOUS
 62
     4
 10
33.5
 20
19.75
 30
0.0
 40
1.25
  1
熱処理
 50
0.0
 41
1.0
 51
0.0
  7
KANJI7
  0
TEXT
  8
7
  6
CONTINUOUS
 62
     4
 10
45.5
 20
19.75
 30
0.0
 40
1.25
  1
表面処理
 50
0.0
 41
1.0
 51
0.0
  7
KANJI7
  0
TEXT
  8
7
  6
CONTINUOUS
 62
     4
 10
57.5
 20
19.75
 30
0.0
 40
1.25
  1
台数
 50
0.0
 41
1.0
 51
0.0
  7
KANJI7
  0
TEXT
  8
7
  6
CONTINUOUS
 62
     4
 10
65.5
 20
19.75
 30
0.0
 40
1.25
  1
作成日付
 50
0.0
 41
1.0
 51
0.0
  7
KANJI7
  0
TEXT
  8
7
  6
CONTINUOUS
 62
     4
 10
73.5
 20
19.75
 30
0.0
 40
1.25
  1
名称
 50
0.0
 41
1.0
 51
0.0
  7
KANJI7
  0
TEXT
  8
7
  6
CONTINUOUS
 62
     4
 10
33.5
 20
14.25
 30
0.0
 40
1.25
  1
尺度
 50
0.0
 41
1.0
 51
0.0
  7
KANJI7
  0
TEXT
  8
7
  6
CONTINUOUS
 62
     4
 10
41.5
 20
14.25
 30
0.0
 40
1.25
  1
承認
 50
0.0
 41
1.0
 51
0.0
  7
KANJI7
  0
TEXT
  8
7
  6
CONTINUOUS
 62
     4
 10
49.5
 20
14.25
 30
0.0
 40
1.25
  1
検図
 50
0.0
 41
1.0
 51
0.0
  7
KANJI7
  0
TEXT
  8
7
  6
CONTINUOUS
 62
     4
 10
57.5
 20
14.25
 30
0.0
 40
1.25
  1
設計
 50
0.0
 41
1.0
 51
0.0
  7
KANJI7
  0
TEXT
  8
7
  6
CONTINUOUS
 62
     4
 10
65.5
 20
14.25
 30
0.0
 40
1.25
  1
製図
 50
0.0
 41
1.0
 51
0.0
  7
KANJI7
  0
TEXT
  8
7
  6
CONTINUOUS
 62
     4
 10
73.5
 20
14.25
 30
0.0
 40
1.25
  1
機名
 50
0.0
 41
1.0
 51
0.0
  7
KANJI7
  0
TEXT
  8
7
  6
CONTINUOUS
 62
     4
 10
32.075
 20
5.4375
 30
0.15
 40
1.25
  1
記号
 50
90.0
 41
1.0
 51
0.0
  7
KANJI5
  0
TEXT
  8
7
  6
CONTINUOUS
 62
     4
 10
73.5
 20
8.75
 30
0.0
 40
1.25
  1
図面番号
 50
0.0
 41
1.0
 51
0.0
  7
KANJI7
  0
TEXT
  8
7
  6
CONTINUOUS
 62
     4
 10
55.0
 20
7.125
 30
0.0
 40
1.25
  1
株式会社
 50
0.0
 41
1.0
 51
0.0
  7
KANJI7
  0
TEXT
  8
7
  6
CONTINUOUS
 62
     4
 10
61.0
 20
6.75
 30
0.0
 40
2.0
  1
昭和測器
 50
0.0
 41
1.125
 51
0.0
  7
KANJI8
  0
TEXT
  8
7
  6
CONTINUOUS
 62
     4
 10
32.075
 20
9.1875
 30
0.15
 40
1.25
  1
来歴・改訂記事
 50
90.0
 41
1.0
 51
0.0
  7
KANJI5
  0
TEXT
  8
7
  6
CONTINUOUS
 62
     1
 10
34.5
 20
7.75
 30
0.0
 40
2.5
  1
第３
 50
0.0
 41
1.0
 51
0.0
  7
KANJI2
  0
TEXT
  8
7
  6
CONTINUOUS
 62
     1
 10
34.5
 20
5.25
 30
0.0
 40
2.5
  1
角法
 50
0.0
 41
1.0
 51
0.0
  7
KANJI2
  0
CIRCLE
  8
7
  6
CONTINUOUS
 62
     6
 10
36.875
 20
13.0
 40
0.1
  0
CIRCLE
  8
7
  6
CONTINUOUS
 62
     6
 10
36.875
 20
11.75
 40
0.1
  0
TEXT
  8
7
  6
CONTINUOUS
 62
     6
 10
42.3625
 20
6.0125
 30
-0.5
 40
3.5
  1
Ａ４
 50
0.0
 41
0.857142857
 51
0.0
  7
KANJI9
  0
TEXT
  8
7
  6
CONTINUOUS
 62
     6
 10
89.625
 20
2.0
 30
0.0
 40
2.5
  1
４
 50
0.0
 41
1.2
 51
0.0
  7
KANJI1
  0
TEXT
  8
7
  6
CONTINUOUS
 62
     4
 10
58.5
 20
22.5
 30
0.0
 40
2.0
  1
材　　質
 50
0.0
 41
0.875
 51
0.0
  7
KANJI0
  0
TEXT
  8
7
  6
CONTINUOUS
 62
     4
 10
87.125
 20
22.5
 30
0.0
 40
2.0
  1
摘　　　要
 50
0.0
 41
0.875
 51
0.0
  7
KANJI0
  0
TEXT
  8
7
  6
CONTINUOUS
 62
     4
 10
33.75
 20
22.5
 30
0.0
 40
2.0
  1
番号
 50
0.0
 41
0.875
 51
0.0
  7
KANJI0
  0
TEXT
  8
7
  6
CONTINUOUS
 62
     4
 10
42.625
 20
22.5
 30
0.0
 40
2.0
  1
部　品　名
 50
0.0
 41
0.875
 51
0.0
  7
KANJI0
  0
LINE
  8
7
  6
CONTINUOUS
 62
     6
 10
52.5
 20
5.0
 11
52.5
 21
0.0
  0
LINE
  8
7
  6
CONTINUOUS
 62
     6
 10
27.5
 20
5.0
 11
27.5
 21
2.5
  0
LINE
  8
7
  6
CONTINUOUS
 62
     6
 10
77.5
 20
2.5
 11
77.5
 21
5.0
  0
LINE
  8
7
  6
CONTINUOUS
 62
     6
 10
32.5
 20
5.0
 11
32.5
 21
2.5
  0
LINE
  8
7
  6
CONTINUOUS
 62
     6
 10
37.5
 20
5.0
 11
37.5
 21
2.5
  0
LINE
  8
7
  6
CONTINUOUS
 62
     6
 10
42.5
 20
5.0
 11
42.5
 21
2.5
  0
LINE
  8
7
  6
CONTINUOUS
 62
     6
 10
47.5
 20
5.0
 11
47.5
 21
2.5
  0
LINE
  8
7
  6
CONTINUOUS
 62
     6
 10
72.5
 20
2.5
 11
72.5
 21
5.0
  0
LINE
  8
7
  6
CONTINUOUS
 62
     6
 10
67.5
 20
2.5
 11
67.5
 21
5.0
  0
LINE
  8
7
  6
CONTINUOUS
 62
     6
 10
62.5
 20
2.5
 11
62.5
 21
5.0
  0
LINE
  8
7
  6
CONTINUOUS
 62
     6
 10
57.5
 20
2.5
 11
57.5
 21
5.0
  0
LINE
  8
7
  6
CONTINUOUS
 62
     2
 10
33.0
 20
33.5
 11
100.0
 21
33.5
  0
LINE
  8
7
  6
CONTINUOUS
 62
     2
 10
12.5
 20
33.5
 11
33.0
 21
33.5
  0
LINE
  8
7
  6
CONTINUOUS
 62
     2
 10
33.0
 20
29.5
 11
100.0
 21
29.5
  0
LINE
  8
7
  6
CONTINUOUS
 62
     2
 10
12.5
 20
29.5
 11
33.0
 21
29.5
  0
LINE
  8
7
  6
CONTINUOUS
 62
     2
 10
33.0
 20
25.5
 11
33.0
 21
5.0
  0
LINE
  8
7
  6
CONTINUOUS
 62
     2
 10
33.0
 20
33.5
 11
33.0
 21
25.5
  0
LINE
  8
7
  6
CONTINUOUS
 62
     2
 10
38.0
 20
25.5
 11
38.0
 21
21.5
  0
LINE
  8
7
  6
CONTINUOUS
 62
     2
 10
38.0
 20
33.5
 11
38.0
 21
25.5
  0
LINE
  8
7
  6
CONTINUOUS
 62
     2
 10
56.0
 20
25.5
 11
56.0
 21
21.5
  0
LINE
  8
7
  6
CONTINUOUS
 62
     2
 10
56.0
 20
33.5
 11
56.0
 21
25.5
  0
LINE
  8
7
  6
CONTINUOUS
 62
     2
 10
68.0
 20
25.5
 11
68.0
 21
21.5
  0
LINE
  8
7
  6
CONTINUOUS
 62
     2
 10
68.0
 20
33.5
 11
68.0
 21
25.5
  0
LINE
  8
7
  6
CONTINUOUS
 62
     2
 10
73.0
 20
25.5
 11
73.0
 21
21.5
  0
LINE
  8
7
  6
CONTINUOUS
 62
     2
 10
73.0
 20
33.5
 11
73.0
 21
25.5
  0
LINE
  8
7
  6
CONTINUOUS
 62
     2
 10
78.0
 20
25.5
 11
78.0
 21
21.5
  0
LINE
  8
7
  6
CONTINUOUS
 62
     2
 10
78.0
 20
33.5
 11
78.0
 21
25.5
  0
LINE
  8
7
  6
CONTINUOUS
 62
     2
 10
83.0
 20
25.5
 11
83.0
 21
21.5
  0
LINE
  8
7
  6
CONTINUOUS
 62
     2
 10
83.0
 20
33.5
 11
83.0
 21
25.5
  0
LINE
  8
7
  6
CONTINUOUS
 62
     2
 10
73.0
 20
16.0
 11
100.0
 21
16.0
  0
LINE
  8
7
  6
CONTINUOUS
 62
     2
 10
33.0
 20
16.0
 11
73.0
 21
16.0
  0
LINE
  8
7
  6
CONTINUOUS
 62
     2
 10
73.0
 20
10.5
 11
100.0
 21
10.5
  0
LINE
  8
7
  6
CONTINUOUS
 62
     2
 10
33.0
 20
10.5
 11
73.0
 21
10.5
  0
LINE
  8
7
  6
CONTINUOUS
 62
     6
 10
12.5
 20
5.0
 11
73.0
 21
5.0
  0
LINE
  8
7
  6
CONTINUOUS
 62
     6
 10
95.0
 20
5.0
 11
100.0
 21
5.0
  0
LINE
  8
7
  6
CONTINUOUS
 62
     6
 10
73.0
 20
5.0
 11
95.0
 21
5.0
  0
CIRCLE
  8
0
  6
CONTINUOUS
 62
     1
 10
30.941057749
 20
60.531184186
 40
1.5
  0
CIRCLE
  8
0
  6
CONTINUOUS
 62
     1
 10
30.941057749
 20
60.531184186
 40
8.0
  0
CIRCLE
  8
0
  6
CONTINUOUS
 62
     1
 10
30.941057749
 20
60.531184186
 40
8.8
  0
CIRCLE
  8
0
  6
CONTINUOUS
 62
     1
 10
30.941057749
 20
60.531184186
 40
11.0
  0
LINE
  8
0
  6
CONTINUOUS
 62
     1
 10
30.795159715
 20
68.529853686
 11
24.086955782
 21
64.65687034
  0
LINE
  8
0
  6
CONTINUOUS
 62
     1
 10
23.941057749
 20
64.404167533
 11
23.941057749
 21
56.65820084
  0
LINE
  8
0
  6
CONTINUOUS
 62
     1
 10
24.086955782
 20
56.405498033
 11
30.795159715
 21
52.532514687
  0
LINE
  8
0
  6
CONTINUOUS
 62
     1
 10
31.086955782
 20
52.532514687
 11
37.795159715
 21
56.405498033
  0
LINE
  8
0
  6
CONTINUOUS
 62
     1
 10
37.941057749
 20
56.65820084
 11
37.941057749
 21
64.404167533
  0
LINE
  8
0
  6
CONTINUOUS
 62
     1
 10
37.795159715
 20
64.65687034
 11
31.086955782
 21
68.529853686
  0
LINE
  8
0
  6
LTYPE3
 62
     2
 10
30.941057749
 20
74.031184186
 11
30.941057749
 21
47.031184186
  0
LINE
  8
0
  6
CONTINUOUS
 62
     1
 10
18.441057749
 20
57.531184186
 11
17.941057749
 21
58.031184186
  0
LINE
  8
0
  6
CONTINUOUS
 62
     1
 10
20.358052504
 20
57.531184186
 11
18.441057749
 21
57.531184186
  0
LINE
  8
0
  6
CONTINUOUS
 62
     1
 10
18.441057749
 20
63.531184186
 11
17.941057749
 21
63.031184186
  0
LINE
  8
0
  6
CONTINUOUS
 62
     1
 10
20.358052504
 20
63.531184186
 11
18.441057749
 21
63.531184186
  0
LINE
  8
0
  6
CONTINUOUS
 62
     1
 10
17.941057749
 20
58.031184186
 11
17.941057749
 21
63.031184186
  0
LINE
  8
0
  6
CONTINUOUS
 62
     1
 10
18.441057749
 20
63.531184186
 11
18.441057749
 21
57.531184186
  0
LINE
  8
0
  6
LTYPE3
 62
     2
 10
44.441057749
 20
60.531184186
 11
15.441057749
 21
60.531184186
  0
POLYLINE
  8
0
  6
CONTINUOUS
 62
     1
 66
     1
  0
VERTEX
  8
0
  6
CONTINUOUS
 62
     1
 10
57.2968125
 20
71.0
  0
VERTEX
  8
0
  6
CONTINUOUS
 62
     1
 10
79.2968125
 20
71.0
  0
VERTEX
  8
0
  6
CONTINUOUS
 62
     1
 10
79.2968125
 20
82.0
  0
VERTEX
  8
0
  6
CONTINUOUS
 62
     1
 10
57.2968125
 20
82.0
  0
SEQEND
  0
LINE
  8
0
  6
CONTINUOUS
 62
     1
 10
59.4968125
 20
71.0
 11
59.4968125
 21
69.0
  0
LINE
  8
0
  6
CONTINUOUS
 62
     1
 10
77.0968125
 20
71.0
 11
77.0968125
 21
69.0
  0
LINE
  8
0
  6
CONTINUOUS
 62
     1
 10
59.4968125
 20
69.0
 11
77.0968125
 21
69.0
  0
LINE
  8
0
  6
CONTINUOUS
 62
     1
 10
76.2968125
 20
69.0
 11
76.2968125
 21
67.0
  0
LINE
  8
0
  6
CONTINUOUS
 62
     1
 10
60.2968125
 20
67.0
 11
60.2968125
 21
69.0
  0
LINE
  8
0
  6
CONTINUOUS
 62
     1
 10
60.2968125
 20
67.0
 11
76.2968125
 21
67.0
  0
LINE
  8
0
  6
CONTINUOUS
 62
     1
 10
75.2968125
 20
67.0
 11
75.2968125
 21
60.0
  0
LINE
  8
0
  6
CONTINUOUS
 62
     1
 10
61.2968125
 20
60.0
 11
61.2968125
 21
67.0
  0
LINE
  8
0
  6
CONTINUOUS
 62
     1
 10
61.2968125
 20
60.0
 11
75.2968125
 21
60.0
  0
LINE
  8
0
  6
CONTINUOUS
 62
     1
 10
68.2968125
 20
67.0
 11
68.2968125
 21
60.0
  0
LINE
  8
0
  6
CONTINUOUS
 62
     2
 10
68.2968125
 20
67.0
 11
75.2968125
 21
60.0
  0
LINE
  8
0
  6
CONTINUOUS
 62
     2
 10
75.2968125
 20
67.0
 11
68.2968125
 21
60.0
  0
LINE
  8
0
  6
CONTINUOUS
 62
     2
 10
61.2968125
 20
67.0
 11
68.2968125
 21
60.0
  0
LINE
  8
0
  6
CONTINUOUS
 62
     2
 10
68.2968125
 20
67.0
 11
61.2968125
 21
60.0
  0
LINE
  8
0
  6
CONTINUOUS
 62
     1
 10
61.593625
 20
58.5
 11
75.0
 21
58.5
  0
LINE
  8
0
  6
CONTINUOUS
 62
     2
 10
62.762542867
 20
48.5
 11
62.450042867
 21
58.5
  0
LINE
  8
0
  6
CONTINUOUS
 62
     2
 10
62.450042867
 20
58.5
 11
61.548150777
 21
59.95517513
  0
LINE
  8
0
  6
CONTINUOUS
 62
     1
 10
61.878498617
 20
49.38404425
 11
61.54675
 21
60.0
  0
LINE
  8
0
  6
CONTINUOUS
 62
     1
 10
62.762542867
 20
48.5
 11
61.878498617
 21
49.38404425
  0
LINE
  8
0
  6
CONTINUOUS
 62
     2
 10
73.831082133
 20
48.5
 11
74.143582133
 21
58.5
  0
LINE
  8
0
  6
CONTINUOUS
 62
     2
 10
74.143582133
 20
58.5
 11
75.045474223
 21
59.95517513
  0
LINE
  8
0
  6
CONTINUOUS
 62
     1
 10
74.715126383
 20
49.38404425
 11
75.046875
 21
60.0
  0
LINE
  8
0
  6
CONTINUOUS
 62
     1
 10
73.831082133
 20
48.5
 11
74.715126383
 21
49.38404425
  0
LINE
  8
0
  6
CONTINUOUS
 62
     1
 10
62.762542867
 20
48.5
 11
73.831082133
 21
48.5
  0
LINE
  8
0
  6
CONTINUOUS
 62
     1
 10
58.2968125
 20
82.0
 11
58.2968125
 21
83.0
  0
LINE
  8
0
  6
CONTINUOUS
 62
     1
 10
58.2968125
 20
83.0
 11
57.2968125
 21
83.5
  0
LINE
  8
0
  6
CONTINUOUS
 62
     1
 10
57.2968125
 20
83.5
 11
57.2968125
 21
84.5
  0
LINE
  8
0
  6
CONTINUOUS
 62
     1
 10
78.2968125
 20
82.0
 11
78.2968125
 21
83.0
  0
LINE
  8
0
  6
CONTINUOUS
 62
     1
 10
78.2968125
 20
83.0
 11
79.2968125
 21
83.5
  0
LINE
  8
0
  6
CONTINUOUS
 62
     1
 10
79.2968125
 20
83.5
 11
79.2968125
 21
84.5
  0
LINE
  8
0
  6
CONTINUOUS
 62
     1
 10
57.2968125
 20
83.5
 11
79.2968125
 21
83.5
  0
LINE
  8
0
  6
CONTINUOUS
 62
     1
 10
58.2968125
 20
83.0
 11
78.2968125
 21
83.0
  0
LINE
  8
0
  6
CONTINUOUS
 62
     1
 10
79.2968125
 20
84.5
 11
57.2968125
 21
84.5
  0
LINE
  8
0
  6
CONTINUOUS
 62
     1
 10
57.2968125
 20
84.5
 11
58.2968125
 21
85.0
  0
LINE
  8
0
  6
CONTINUOUS
 62
     1
 10
58.2968125
 20
85.0
 11
78.2968125
 21
85.0
  0
LINE
  8
0
  6
CONTINUOUS
 62
     1
 10
78.2968125
 20
85.0
 11
79.2968125
 21
84.5
  0
LINE
  8
0
  6
CONTINUOUS
 62
     1
 10
78.2968125
 20
85.0
 11
78.2968125
 21
86.0
  0
LINE
  8
0
  6
CONTINUOUS
 62
     1
 10
58.2968125
 20
85.0
 11
58.2968125
 21
86.0
  0
POLYLINE
  8
0
  6
CONTINUOUS
 62
     1
 66
     1
 70
     1
  0
VERTEX
  8
0
  6
CONTINUOUS
 62
     1
 10
57.2968125
 20
86.0
  0
VERTEX
  8
0
  6
CONTINUOUS
 62
     1
 10
79.2968125
 20
86.0
  0
VERTEX
  8
0
  6
CONTINUOUS
 62
     1
 10
79.2968125
 20
105.0
  0
VERTEX
  8
0
  6
CONTINUOUS
 62
     1
 10
57.2968125
 20
105.0
  0
SEQEND
  0
LINE
  8
0
  6
CONTINUOUS
 62
     1
 10
79.2968125
 20
90.0
 11
57.2968125
 21
90.0
  0
LINE
  8
0
  6
CONTINUOUS
 62
     1
 10
61.2968125
 20
114.0
 11
60.7968125
 21
113.5
  0
LINE
  8
0
  6
CONTINUOUS
 62
     1
 10
60.7968125
 20
113.5
 11
60.7968125
 21
108.5
  0
LINE
  8
0
  6
CONTINUOUS
 62
     1
 10
61.2968125
 20
108.0
 11
60.7968125
 21
108.5
  0
LINE
  8
0
  6
CONTINUOUS
 62
     1
 10
61.2968125
 20
108.0
 11
75.2968125
 21
108.0
  0
LINE
  8
0
  6
CONTINUOUS
 62
     1
 10
75.7968125
 20
108.5
 11
75.2968125
 21
108.0
  0
LINE
  8
0
  6
CONTINUOUS
 62
     1
 10
75.7968125
 20
108.5
 11
75.7968125
 21
113.5
  0
LINE
  8
0
  6
CONTINUOUS
 62
     1
 10
75.2968125
 20
114.0
 11
75.7968125
 21
113.5
  0
LINE
  8
0
  6
CONTINUOUS
 62
     1
 10
65.2968125
 20
108.0
 11
65.2968125
 21
114.0
  0
LINE
  8
0
  6
CONTINUOUS
 62
     1
 10
66.7968125
 20
108.0
 11
66.7968125
 21
114.0
  0
LINE
  8
0
  6
CONTINUOUS
 62
     1
 10
75.7968125
 20
113.5
 11
68.2968125
 21
113.5
  0
LINE
  8
0
  6
CONTINUOUS
 62
     1
 10
66.7968125
 20
114.0
 11
61.2968125
 21
114.0
  0
LINE
  8
0
  6
CONTINUOUS
 62
     1
 10
75.2968125
 20
114.0
 11
68.2968125
 21
114.0
  0
LINE
  8
0
  6
CONTINUOUS
 62
     1
 10
75.7968125
 20
108.5
 11
68.2968125
 21
108.5
  0
LINE
  8
0
  6
CONTINUOUS
 62
     1
 10
61.422948958
 20
113.5
 11
61.97225718
 21
114.0
  0
LINE
  8
0
  6
CONTINUOUS
 62
     1
 10
61.422948958
 20
108.5
 11
61.97225718
 21
108.0
  0
LINE
  8
0
  6
CONTINUOUS
 62
     1
 10
61.422948958
 20
108.5
 11
61.422948958
 21
113.5
  0
LINE
  8
0
  6
CONTINUOUS
 62
     1
 10
61.422948958
 20
113.5
 11
60.7968125
 21
113.5
  0
LINE
  8
0
  6
CONTINUOUS
 62
     1
 10
66.7968125
 20
113.5
 11
65.2968125
 21
113.5
  0
LINE
  8
0
  6
CONTINUOUS
 62
     1
 10
61.422948958
 20
108.5
 11
60.7968125
 21
108.5
  0
LINE
  8
0
  6
CONTINUOUS
 62
     1
 10
66.7968125
 20
108.5
 11
65.2968125
 21
108.5
  0
LINE
  8
0
  6
CONTINUOUS
 62
     1
 10
65.2968125
 20
108.2
 11
65.2968125
 21
113.8
  0
LINE
  8
0
  6
CONTINUOUS
 62
     2
 10
65.2968125
 20
111.0
 11
62.4968125
 21
111.0
  0
LINE
  8
0
  6
CONTINUOUS
 62
     1
 10
62.2968125
 20
108.5
 11
62.2968125
 21
113.5
  0
LINE
  8
0
  6
CONTINUOUS
 62
     1
 10
62.4968125
 20
108.2
 11
62.4968125
 21
113.8
  0
LINE
  8
0
  6
CONTINUOUS
 62
     1
 10
65.2968125
 20
113.8
 11
62.4968125
 21
113.8
  0
LINE
  8
0
  6
CONTINUOUS
 62
     1
 10
62.2968125
 20
113.5
 11
62.4968125
 21
113.8
  0
LINE
  8
0
  6
CONTINUOUS
 62
     1
 10
65.2968125
 20
108.2
 11
62.4968125
 21
108.2
  0
LINE
  8
0
  6
CONTINUOUS
 62
     1
 10
62.4968125
 20
108.2
 11
62.2968125
 21
108.5
  0
LINE
  8
0
  6
CONTINUOUS
 62
     2
 10
65.2968125
 20
108.6
 11
62.4968125
 21
108.6
  0
LINE
  8
0
  6
CONTINUOUS
 62
     2
 10
65.2968125
 20
113.4
 11
62.4968125
 21
113.4
  0
LINE
  8
0
  6
CONTINUOUS
 62
     2
 10
65.2968125
 20
109.1
 11
62.4968125
 21
109.1
  0
LINE
  8
0
  6
CONTINUOUS
 62
     2
 10
65.2968125
 20
112.9
 11
62.4968125
 21
112.9
  0
LINE
  8
0
  6
CONTINUOUS
 62
     2
 10
65.2968125
 20
112.3
 11
62.4968125
 21
112.3
  0
LINE
  8
0
  6
CONTINUOUS
 62
     2
 10
65.2968125
 20
109.7
 11
62.4968125
 21
109.7
  0
LINE
  8
0
  6
CONTINUOUS
 62
     2
 10
65.2968125
 20
111.7
 11
62.4968125
 21
111.7
  0
LINE
  8
0
  6
CONTINUOUS
 62
     2
 10
65.2968125
 20
110.3
 11
62.4968125
 21
110.3
  0
LINE
  8
0
  6
CONTINUOUS
 62
     1
 10
68.2968125
 20
108.0
 11
68.2968125
 21
114.0
  0
LINE
  8
0
  6
CONTINUOUS
 62
     2
 10
66.7968125
 20
112.1
 11
68.2968125
 21
112.1
  0
LINE
  8
0
  6
CONTINUOUS
 62
     2
 10
68.2968125
 20
109.9
 11
66.7968125
 21
109.9
  0
LINE
  8
0
  6
CONTINUOUS
 62
     1
 10
66.7968125
 20
109.5
 11
68.2968125
 21
109.5
  0
LINE
  8
0
  6
CONTINUOUS
 62
     1
 10
66.7968125
 20
112.5
 11
68.2968125
 21
112.5
  0
POLYLINE
  8
0
  6
CONTINUOUS
 62
     2
 66
     1
 70
     1
  0
VERTEX
  8
0
  6
CONTINUOUS
 62
     2
 10
73.484265984
 20
112.5
 42
0.022636482
  0
VERTEX
  8
0
  6
CONTINUOUS
 62
     2
 10
73.358256551
 20
112.494292047
 42
0.022613576
  0
VERTEX
  8
0
  6
CONTINUOUS
 62
     2
 10
73.233206126
 20
112.47721163
 42
0.022565327
  0
VERTEX
  8
0
  6
CONTINUOUS
 62
     2
 10
73.110066419
 20
112.448888739
 42
0.022493512
  0
VERTEX
  8
0
  6
CONTINUOUS
 62
     2
 10
72.989774595
 20
112.409538931
 42
0.02240074
  0
VERTEX
  8
0
  6
CONTINUOUS
 62
     2
 10
72.87324615
 20
112.359461681
 42
0.022290311
  0
VERTEX
  8
0
  6
CONTINUOUS
 62
     2
 10
72.761367935
 20
112.299038106
 42
0.022166059
  0
VERTEX
  8
0
  6
CONTINUOUS
 62
     2
 10
72.654991411
 20
112.228728066
 42
0.02203217
  0
VERTEX
  8
0
  6
CONTINUOUS
 62
     2
 10
72.554926166
 20
112.149066665
 42
0.02189301
  0
VERTEX
  8
0
  6
CONTINUOUS
 62
     2
 10
72.461933759
 20
112.060660172
 42
0.021752955
  0
VERTEX
  8
0
  6
CONTINUOUS
 62
     2
 10
72.376721918
 20
111.964181415
 42
0.021616248
  0
VERTEX
  8
0
  6
CONTINUOUS
 62
     2
 10
72.299939155
 20
111.860364655
 42
0.021486873
  0
VERTEX
  8
0
  6
CONTINUOUS
 62
     2
 10
72.232169835
 20
111.75
 42
0.021368463
  0
VERTEX
  8
0
  6
CONTINUOUS
 62
     2
 10
72.173929723
 20
111.633927393
 42
0.021264224
  0
VERTEX
  8
0
  6
CONTINUOUS
 62
     2
 10
72.12566206
 20
111.513030215
 42
0.021176886
  0
VERTEX
  8
0
  6
CONTINUOUS
 62
     2
 10
72.087734194
 20
111.388228568
 42
0.021108671
  0
VERTEX
  8
0
  6
CONTINUOUS
 62
     2
 10
72.060434778
 20
111.260472267
 42
0.021061273
  0
VERTEX
  8
0
  6
CONTINUOUS
 62
     2
 10
72.043971577
 20
111.130733614
 42
0.021035849
  0
VERTEX
  8
0
  6
CONTINUOUS
 62
     2
 10
72.038469887
 20
111.0
 42
0.021033009
  0
VERTEX
  8
0
  6
CONTINUOUS
 62
     2
 10
72.043971577
 20
110.869266386
 42
0.021052824
  0
VERTEX
  8
0
  6
CONTINUOUS
 62
     2
 10
72.060434778
 20
110.739527733
 42
0.021094816
  0
VERTEX
  8
0
  6
CONTINUOUS
 62
     2
 10
72.087734194
 20
110.611771432
 42
0.021157964
  0
VERTEX
  8
0
  6
CONTINUOUS
 62
     2
 10
72.12566206
 20
110.486969785
 42
0.021240709
  0
VERTEX
  8
0
  6
CONTINUOUS
 62
     2
 10
72.173929723
 20
110.366072607
 42
0.02134096
  0
VERTEX
  8
0
  6
CONTINUOUS
 62
     2
 10
72.232169835
 20
110.25
 42
0.02145611
  0
VERTEX
  8
0
  6
CONTINUOUS
 62
     2
 10
72.299939155
 20
110.139635345
 42
0.021583068
  0
VERTEX
  8
0
  6
CONTINUOUS
 62
     2
 10
72.376721918
 20
110.035818585
 42
0.021718304
  0
VERTEX
  8
0
  6
CONTINUOUS
 62
     2
 10
72.461933759
 20
109.939339828
 42
0.021857911
  0
VERTEX
  8
0
  6
CONTINUOUS
 62
     2
 10
72.554926166
 20
109.850933335
 42
0.021997703
  0
VERTEX
  8
0
  6
CONTINUOUS
 62
     2
 10
72.654991411
 20
109.771271934
 42
0.022133321
  0
VERTEX
  8
0
  6
CONTINUOUS
 62
     2
 10
72.761367935
 20
109.700961894
 42
0.022260385
  0
VERTEX
  8
0
  6
CONTINUOUS
 62
     2
 10
72.87324615
 20
109.640538319
 42
0.022374646
  0
VERTEX
  8
0
  6
CONTINUOUS
 62
     2
 10
72.989774595
 20
109.590461069
 42
0.022472166
  0
VERTEX
  8
0
  6
CONTINUOUS
 62
     2
 10
73.110066419
 20
109.551111261
 42
0.022549494
  0
VERTEX
  8
0
  6
CONTINUOUS
 62
     2
 10
73.233206126
 20
109.52278837
 42
0.022603835
  0
VERTEX
  8
0
  6
CONTINUOUS
 62
     2
 10
73.358256551
 20
109.505707953
 42
0.022633194
  0
VERTEX
  8
0
  6
CONTINUOUS
 62
     2
 10
73.484265984
 20
109.5
 42
0.022636482
  0
VERTEX
  8
0
  6
CONTINUOUS
 62
     2
 10
73.610275416
 20
109.505707953
 42
0.022613576
  0
VERTEX
  8
0
  6
CONTINUOUS
 62
     2
 10
73.735325841
 20
109.52278837
 42
0.022565327
  0
VERTEX
  8
0
  6
CONTINUOUS
 62
     2
 10
73.858465549
 20
109.551111261
 42
0.022493512
  0
VERTEX
  8
0
  6
CONTINUOUS
 62
     2
 10
73.978757372
 20
109.590461069
 42
0.02240074
  0
VERTEX
  8
0
  6
CONTINUOUS
 62
     2
 10
74.095285817
 20
109.640538319
 42
0.022290311
  0
VERTEX
  8
0
  6
CONTINUOUS
 62
     2
 10
74.207164032
 20
109.700961894
 42
0.022166059
  0
VERTEX
  8
0
  6
CONTINUOUS
 62
     2
 10
74.313540557
 20
109.771271934
 42
0.02203217
  0
VERTEX
  8
0
  6
CONTINUOUS
 62
     2
 10
74.413605801
 20
109.850933335
 42
0.02189301
  0
VERTEX
  8
0
  6
CONTINUOUS
 62
     2
 10
74.506598208
 20
109.939339828
 42
0.021752955
  0
VERTEX
  8
0
  6
CONTINUOUS
 62
     2
 10
74.59181005
 20
110.035818585
 42
0.021616248
  0
VERTEX
  8
0
  6
CONTINUOUS
 62
     2
 10
74.668592812
 20
110.139635345
 42
0.021486873
  0
VERTEX
  8
0
  6
CONTINUOUS
 62
     2
 10
74.736362132
 20
110.25
 42
0.021368463
  0
VERTEX
  8
0
  6
CONTINUOUS
 62
     2
 10
74.794602245
 20
110.366072607
 42
0.021264224
  0
VERTEX
  8
0
  6
CONTINUOUS
 62
     2
 10
74.842869907
 20
110.486969785
 42
0.021176886
  0
VERTEX
  8
0
  6
CONTINUOUS
 62
     2
 10
74.880797773
 20
110.611771432
 42
0.021108671
  0
VERTEX
  8
0
  6
CONTINUOUS
 62
     2
 10
74.908097189
 20
110.739527733
 42
0.021061273
  0
VERTEX
  8
0
  6
CONTINUOUS
 62
     2
 10
74.92456039
 20
110.869266386
 42
0.021035849
  0
VERTEX
  8
0
  6
CONTINUOUS
 62
     2
 10
74.930062081
 20
111.0
 42
0.021033009
  0
VERTEX
  8
0
  6
CONTINUOUS
 62
     2
 10
74.92456039
 20
111.130733614
 42
0.021052824
  0
VERTEX
  8
0
  6
CONTINUOUS
 62
     2
 10
74.908097189
 20
111.260472267
 42
0.021094816
  0
VERTEX
  8
0
  6
CONTINUOUS
 62
     2
 10
74.880797773
 20
111.388228568
 42
0.021157964
  0
VERTEX
  8
0
  6
CONTINUOUS
 62
     2
 10
74.842869907
 20
111.513030215
 42
0.021240709
  0
VERTEX
  8
0
  6
CONTINUOUS
 62
     2
 10
74.794602245
 20
111.633927393
 42
0.02134096
  0
VERTEX
  8
0
  6
CONTINUOUS
 62
     2
 10
74.736362132
 20
111.75
 42
0.02145611
  0
VERTEX
  8
0
  6
CONTINUOUS
 62
     2
 10
74.668592812
 20
111.860364655
 42
0.021583068
  0
VERTEX
  8
0
  6
CONTINUOUS
 62
     2
 10
74.59181005
 20
111.964181415
 42
0.021718304
  0
VERTEX
  8
0
  6
CONTINUOUS
 62
     2
 10
74.506598208
 20
112.060660172
 42
0.021857911
  0
VERTEX
  8
0
  6
CONTINUOUS
 62
     2
 10
74.413605801
 20
112.149066665
 42
0.021997703
  0
VERTEX
  8
0
  6
CONTINUOUS
 62
     2
 10
74.313540557
 20
112.228728066
 42
0.022133321
  0
VERTEX
  8
0
  6
CONTINUOUS
 62
     2
 10
74.207164032
 20
112.299038106
 42
0.022260385
  0
VERTEX
  8
0
  6
CONTINUOUS
 62
     2
 10
74.095285817
 20
112.359461681
 42
0.022374646
  0
VERTEX
  8
0
  6
CONTINUOUS
 62
     2
 10
73.978757372
 20
112.409538931
 42
0.022472166
  0
VERTEX
  8
0
  6
CONTINUOUS
 62
     2
 10
73.858465549
 20
112.448888739
 42
0.022549494
  0
VERTEX
  8
0
  6
CONTINUOUS
 62
     2
 10
73.735325841
 20
112.47721163
 42
0.022603835
  0
VERTEX
  8
0
  6
CONTINUOUS
 62
     2
 10
73.610275416
 20
112.494292047
 42
0.022633194
  0
SEQEND
  8
0
  6
CONTINUOUS
 62
     2
  0
POLYLINE
  8
0
  6
CONTINUOUS
 62
     1
 66
     1
 70
     1
  0
VERTEX
  8
0
  6
CONTINUOUS
 62
     1
 10
73.581678399
 20
112.1
 42
0.02140481
  0
VERTEX
  8
0
  6
CONTINUOUS
 62
     1
 10
73.4839436
 20
112.095814168
 42
0.021415537
  0
VERTEX
  8
0
  6
CONTINUOUS
 62
     1
 10
73.386952622
 20
112.083288528
 42
0.021438239
  0
VERTEX
  8
0
  6
CONTINUOUS
 62
     1
 10
73.291443625
 20
112.062518409
 42
0.0214723
  0
VERTEX
  8
0
  6
CONTINUOUS
 62
     1
 10
73.19814349
 20
112.033661883
 42
0.021516786
  0
VERTEX
  8
0
  6
CONTINUOUS
 62
     1
 10
73.107762287
 20
111.996938566
 42
0.021570466
  0
VERTEX
  8
0
  6
CONTINUOUS
 62
     1
 10
73.020987872
 20
111.952627944
 42
0.021631831
  0
VERTEX
  8
0
  6
CONTINUOUS
 62
     1
 10
72.938480651
 20
111.901067249
 42
0.02169913
  0
VERTEX
  8
0
  6
CONTINUOUS
 62
     1
 10
72.860868552
 20
111.842648887
 42
0.021770404
  0
VERTEX
  8
0
  6
CONTINUOUS
 62
     1
 10
72.788742252
 20
111.777817459
 42
0.021843541
  0
VERTEX
  8
0
  6
CONTINUOUS
 62
     1
 10
72.722650675
 20
111.707066371
 42
0.021916328
  0
VERTEX
  8
0
  6
CONTINUOUS
 62
     1
 10
72.663096817
 20
111.63093408
 42
0.021986521
  0
VERTEX
  8
0
  6
CONTINUOUS
 62
     1
 10
72.61053392
 20
111.55
 42
0.022051911
  0
VERTEX
  8
0
  6
CONTINUOUS
 62
     1
 10
72.565362018
 20
111.464880088
 42
0.022110407
  0
VERTEX
  8
0
  6
CONTINUOUS
 62
     1
 10
72.527924898
 20
111.376222158
 42
0.022160104
  0
VERTEX
  8
0
  6
CONTINUOUS
 62
     1
 10
72.498507479
 20
111.28470095
 42
0.022199363
  0
VERTEX
  8
0
  6
CONTINUOUS
 62
     1
 10
72.477333644
 20
111.191012995
 42
0.022226874
  0
VERTEX
  8
0
  6
CONTINUOUS
 62
     1
 10
72.464564539
 20
111.095871317
 42
0.02224171
  0
VERTEX
  8
0
  6
CONTINUOUS
 62
     1
 10
72.460297346
 20
111.0
 42
0.02224337
  0
VERTEX
  8
0
  6
CONTINUOUS
 62
     1
 10
72.464564539
 20
110.904128683
 42
0.022231798
  0
VERTEX
  8
0
  6
CONTINUOUS
 62
     1
 10
72.477333644
 20
110.808987005
 42
0.022207385
  0
VERTEX
  8
0
  6
CONTINUOUS
 62
     1
 10
72.498507479
 20
110.71529905
 42
0.022170955
  0
VERTEX
  8
0
  6
CONTINUOUS
 62
     1
 10
72.527924898
 20
110.623777842
 42
0.022123725
  0
VERTEX
  8
0
  6
CONTINUOUS
 62
     1
 10
72.565362018
 20
110.535119912
 42
0.02206726
  0
VERTEX
  8
0
  6
CONTINUOUS
 62
     1
 10
72.61053392
 20
110.45
 42
0.022003403
  0
VERTEX
  8
0
  6
CONTINUOUS
 62
     1
 10
72.663096817
 20
110.36906592
 42
0.021934207
  0
VERTEX
  8
0
  6
CONTINUOUS
 62
     1
 10
72.722650675
 20
110.292933629
 42
0.021861858
  0
VERTEX
  8
0
  6
CONTINUOUS
 62
     1
 10
72.788742252
 20
110.222182541
 42
0.021788599
  0
VERTEX
  8
0
  6
CONTINUOUS
 62
     1
 10
72.860868552
 20
110.157351113
 42
0.021716656
  0
VERTEX
  8
0
  6
CONTINUOUS
 62
     1
 10
72.938480651
 20
110.098932751
 42
0.021648173
  0
VERTEX
  8
0
  6
CONTINUOUS
 62
     1
 10
73.020987872
 20
110.047372056
 42
0.021585151
  0
VERTEX
  8
0
  6
CONTINUOUS
 62
     1
 10
73.107762287
 20
110.003061434
 42
0.021529399
  0
VERTEX
  8
0
  6
CONTINUOUS
 62
     1
 10
73.19814349
 20
109.966338117
 42
0.021482487
  0
VERTEX
  8
0
  6
CONTINUOUS
 62
     1
 10
73.291443625
 20
109.937481591
 42
0.021445721
  0
VERTEX
  8
0
  6
CONTINUOUS
 62
     1
 10
73.386952622
 20
109.916711472
 42
0.021420109
  0
VERTEX
  8
0
  6
CONTINUOUS
 62
     1
 10
73.4839436
 20
109.904185832
 42
0.021406348
  0
VERTEX
  8
0
  6
CONTINUOUS
 62
     1
 10
73.581678399
 20
109.9
 42
0.02140481
  0
VERTEX
  8
0
  6
CONTINUOUS
 62
     1
 10
73.679413197
 20
109.904185832
 42
0.021415537
  0
VERTEX
  8
0
  6
CONTINUOUS
 62
     1
 10
73.776404175
 20
109.916711472
 42
0.021438239
  0
VERTEX
  8
0
  6
CONTINUOUS
 62
     1
 10
73.871913172
 20
109.937481591
 42
0.0214723
  0
VERTEX
  8
0
  6
CONTINUOUS
 62
     1
 10
73.965213307
 20
109.966338117
 42
0.021516786
  0
VERTEX
  8
0
  6
CONTINUOUS
 62
     1
 10
74.05559451
 20
110.003061434
 42
0.021570466
  0
VERTEX
  8
0
  6
CONTINUOUS
 62
     1
 10
74.142368925
 20
110.047372056
 42
0.021631831
  0
VERTEX
  8
0
  6
CONTINUOUS
 62
     1
 10
74.224876147
 20
110.098932751
 42
0.02169913
  0
VERTEX
  8
0
  6
CONTINUOUS
 62
     1
 10
74.302488245
 20
110.157351113
 42
0.021770404
  0
VERTEX
  8
0
  6
CONTINUOUS
 62
     1
 10
74.374614545
 20
110.222182541
 42
0.021843541
  0
VERTEX
  8
0
  6
CONTINUOUS
 62
     1
 10
74.440706123
 20
110.292933629
 42
0.021916328
  0
VERTEX
  8
0
  6
CONTINUOUS
 62
     1
 10
74.50025998
 20
110.36906592
 42
0.021986521
  0
VERTEX
  8
0
  6
CONTINUOUS
 62
     1
 10
74.552822877
 20
110.45
 42
0.022051911
  0
VERTEX
  8
0
  6
CONTINUOUS
 62
     1
 10
74.597994779
 20
110.535119912
 42
0.022110407
  0
VERTEX
  8
0
  6
CONTINUOUS
 62
     1
 10
74.635431899
 20
110.623777842
 42
0.022160104
  0
VERTEX
  8
0
  6
CONTINUOUS
 62
     1
 10
74.664849318
 20
110.71529905
 42
0.022199363
  0
VERTEX
  8
0
  6
CONTINUOUS
 62
     1
 10
74.686023153
 20
110.808987005
 42
0.022226874
  0
VERTEX
  8
0
  6
CONTINUOUS
 62
     1
 10
74.698792258
 20
110.904128683
 42
0.02224171
  0
VERTEX
  8
0
  6
CONTINUOUS
 62
     1
 10
74.703059451
 20
111.0
 42
0.02224337
  0
VERTEX
  8
0
  6
CONTINUOUS
 62
     1
 10
74.698792258
 20
111.095871317
 42
0.022231798
  0
VERTEX
  8
0
  6
CONTINUOUS
 62
     1
 10
74.686023153
 20
111.191012995
 42
0.022207385
  0
VERTEX
  8
0
  6
CONTINUOUS
 62
     1
 10
74.664849318
 20
111.28470095
 42
0.022170955
  0
VERTEX
  8
0
  6
CONTINUOUS
 62
     1
 10
74.635431899
 20
111.376222158
 42
0.022123725
  0
VERTEX
  8
0
  6
CONTINUOUS
 62
     1
 10
74.597994779
 20
111.464880088
 42
0.02206726
  0
VERTEX
  8
0
  6
CONTINUOUS
 62
     1
 10
74.552822877
 20
111.55
 42
0.022003403
  0
VERTEX
  8
0
  6
CONTINUOUS
 62
     1
 10
74.50025998
 20
111.63093408
 42
0.021934207
  0
VERTEX
  8
0
  6
CONTINUOUS
 62
     1
 10
74.440706123
 20
111.707066371
 42
0.021861858
  0
VERTEX
  8
0
  6
CONTINUOUS
 62
     1
 10
74.374614545
 20
111.777817459
 42
0.021788599
  0
VERTEX
  8
0
  6
CONTINUOUS
 62
     1
 10
74.302488245
 20
111.842648887
 42
0.021716656
  0
VERTEX
  8
0
  6
CONTINUOUS
 62
     1
 10
74.224876147
 20
111.901067249
 42
0.021648173
  0
VERTEX
  8
0
  6
CONTINUOUS
 62
     1
 10
74.142368925
 20
111.952627944
 42
0.021585151
  0
VERTEX
  8
0
  6
CONTINUOUS
 62
     1
 10
74.05559451
 20
111.996938566
 42
0.021529399
  0
VERTEX
  8
0
  6
CONTINUOUS
 62
     1
 10
73.965213307
 20
112.033661883
 42
0.021482487
  0
VERTEX
  8
0
  6
CONTINUOUS
 62
     1
 10
73.871913172
 20
112.062518409
 42
0.021445721
  0
VERTEX
  8
0
  6
CONTINUOUS
 62
     1
 10
73.776404175
 20
112.083288528
 42
0.021420109
  0
VERTEX
  8
0
  6
CONTINUOUS
 62
     1
 10
73.679413197
 20
112.095814168
 42
0.021406348
  0
SEQEND
  8
0
  6
CONTINUOUS
 62
     1
  0
LINE
  8
0
  6
CONTINUOUS
 62
     2
 10
64.2968125
 20
108.0
 11
64.5468125
 21
107.566987298
  0
LINE
  8
0
  6
CONTINUOUS
 62
     2
 10
72.2968125
 20
108.0
 11
72.0468125
 21
107.566987298
  0
LINE
  8
0
  6
CONTINUOUS
 62
     1
 10
64.2968125
 20
107.566987298
 11
72.2968125
 21
107.566987298
  0
LINE
  8
0
  6
CONTINUOUS
 62
     1
 10
65.7468125
 20
123.548482756
 11
65.7468125
 21
114.0
  0
LINE
  8
0
  6
CONTINUOUS
 62
     1
 10
70.8468125
 20
123.548482756
 11
70.8468125
 21
114.0
  0
LINE
  8
0
  6
CONTINUOUS
 62
     1
 10
65.7468125
 20
123.548482756
 11
70.8468125
 21
123.548482756
  0
ARC
  8
0
  6
CONTINUOUS
 62
     1
 10
69.2968125
 20
132.798482756
 40
1.25
 50
36.869897646
 51
143.130102354
  0
ARC
  8
0
  6
CONTINUOUS
 62
     1
 10
67.2968125
 20
132.798482756
 40
1.25
 50
36.869897646
 51
143.130102354
  0
ARC
  8
0
  6
CONTINUOUS
 62
     1
 10
69.2968125
 20
134.298482756
 40
1.25
 50
216.869897646
 51
323.130102354
  0
LINE
  8
0
  6
CONTINUOUS
 62
     1
 10
70.2968125
 20
123.548482756
 11
70.2968125
 21
133.548482756
  0
LINE
  8
0
  6
CONTINUOUS
 62
     1
 10
66.2968125
 20
133.548482756
 11
66.2968125
 21
123.548482756
  0
LINE
  8
0
  6
CONTINUOUS
 62
     1
 10
64.2968125
 20
108.0
 11
64.2968125
 21
107.0
  0
LINE
  8
0
  6
CONTINUOUS
 62
     2
 10
64.5468125
 20
107.0
 11
64.5468125
 21
107.566987298
  0
LINE
  8
0
  6
CONTINUOUS
 62
     1
 10
72.2968125
 20
107.0
 11
72.2968125
 21
108.0
  0
LINE
  8
0
  6
CONTINUOUS
 62
     2
 10
72.0468125
 20
107.0
 11
72.0468125
 21
107.566987298
  0
POLYLINE
  8
0
  6
CONTINUOUS
 62
     1
 66
     1
  0
VERTEX
  8
0
  6
CONTINUOUS
 62
     1
 10
58.0468125
 20
105.0
  0
VERTEX
  8
0
  6
CONTINUOUS
 62
     1
 10
58.0468125
 20
106.5
  0
VERTEX
  8
0
  6
CONTINUOUS
 62
     1
 10
58.5468125
 20
107.0
  0
SEQEND
  0
LINE
  8
0
  6
CONTINUOUS
 62
     1
 10
78.5468125
 20
105.0
 11
78.5468125
 21
106.5
  0
LINE
  8
0
  6
CONTINUOUS
 62
     1
 10
58.5468125
 20
107.0
 11
78.0468125
 21
107.0
  0
LINE
  8
0
  6
CONTINUOUS
 62
     1
 10
78.5468125
 20
106.5
 11
78.0468125
 21
107.0
  0
LINE
  8
0
  6
CONTINUOUS
 62
     1
 10
72.14551358
 20
106.5
 11
70.490553597
 21
107.0
  0
LINE
  8
0
  6
CONTINUOUS
 62
     1
 10
66.103071403
 20
107.0
 11
64.44811142
 21
106.5
  0
LINE
  8
0
  6
CONTINUOUS
 62
     1
 10
72.14551358
 20
106.5
 11
78.5468125
 21
106.5
  0
LINE
  8
0
  6
CONTINUOUS
 62
     1
 10
58.0468125
 20
106.5
 11
64.44811142
 21
106.5
  0
LINE
  8
0
  6
CONTINUOUS
 62
     1
 10
72.14551358
 20
106.5
 11
72.14551358
 21
105.0
  0
LINE
  8
0
  6
CONTINUOUS
 62
     1
 10
64.44811142
 20
106.5
 11
64.44811142
 21
105.0
  0
LINE
  8
0
  6
CONTINUOUS
 62
     2
 10
65.337870249
 20
106.768815814
 11
72.14551358
 21
105.0
  0
LINE
  8
0
  6
CONTINUOUS
 62
     2
 10
71.255754751
 20
106.768815814
 11
64.44811142
 21
105.0
  0
ARC
  8
0
  6
CONTINUOUS
 62
     1
 10
46.713810821
 20
76.0
 40
10.999996569
 50
344.173374803
 51
15.826625197
  0
LINE
  8
0
  6
CONTINUOUS
 62
     1
 10
57.2968125
 20
73.0
 11
57.2968125
 21
71.0
  0
LINE
  8
0
  6
CONTINUOUS
 62
     1
 10
57.2968125
 20
82.0
 11
57.2968125
 21
79.0
  0
LINE
  8
0
  6
CONTINUOUS
 62
     1
 10
55.7968125
 20
79.0
 11
55.2968125
 21
78.5
  0
LINE
  8
0
  6
CONTINUOUS
 62
     1
 10
55.7968125
 20
73.0
 11
55.2968125
 21
73.5
  0
LINE
  8
0
  6
CONTINUOUS
 62
     1
 10
55.2968125
 20
73.5
 11
55.2968125
 21
75.5
  0
LINE
  8
0
  6
CONTINUOUS
 62
     1
 10
55.2968125
 20
78.5
 11
55.2968125
 21
76.5
  0
LINE
  8
0
  6
CONTINUOUS
 62
     1
 10
55.2968125
 20
76.5
 11
56.7968125
 21
76.5
  0
LINE
  8
0
  6
CONTINUOUS
 62
     1
 10
56.7968125
 20
76.5
 11
56.7968125
 21
75.5
  0
LINE
  8
0
  6
CONTINUOUS
 62
     1
 10
56.7968125
 20
75.5
 11
55.2968125
 21
75.5
  0
LINE
  8
0
  6
CONTINUOUS
 62
     1
 10
55.7968125
 20
79.0
 11
55.7968125
 21
76.5
  0
LINE
  8
0
  6
CONTINUOUS
 62
     1
 10
55.7968125
 20
75.5
 11
55.7968125
 21
73.0
  0
LINE
  8
0
  6
CONTINUOUS
 62
     1
 10
55.7968125
 20
79.0
 11
57.2968125
 21
79.0
  0
LINE
  8
0
  6
CONTINUOUS
 62
     1
 10
57.2968125
 20
73.0
 11
55.7968125
 21
73.0
  0
LINE
  8
0
  6
LTYPE3
 62
     2
 10
52.7968125
 20
76.0
 11
60.213807391
 21
76.0
  0
LINE
  8
0
  6
LTYPE3
 62
     2
 10
68.2968125
 20
136.048482756
 11
68.2968125
 21
46.0
  0
LINE
  8
0
  6
LTYPE3
 62
     2
 10
73.581678399
 20
109.2
 11
73.581678399
 21
112.8
  0
LINE
  8
0
  6
LTYPE3
 62
     2
 10
76.081678399
 20
111.0
 11
59.7968125
 21
111.0
  0
LINE
  8
0
  6
CONTINUOUS
 62
     1
 10
57.2968125
 20
91.0
 11
57.7968125
 21
91.0
  0
LINE
  8
0
  6
CONTINUOUS
 62
     1
 10
57.2968125
 20
93.0
 11
57.7968125
 21
93.0
  0
LINE
  8
0
  6
CONTINUOUS
 62
     1
 10
57.2968125
 20
91.05
 11
57.7968125
 21
91.05
  0
LINE
  8
0
  6
CONTINUOUS
 62
     1
 10
57.2968125
 20
92.95
 11
57.7968125
 21
92.95
  0
POLYLINE
  8
0
  6
CONTINUOUS
 62
     2
 66
     1
  0
VERTEX
  8
0
  6
CONTINUOUS
 62
     2
 10
57.2968125
 20
94.5
  0
VERTEX
  8
0
  6
CONTINUOUS
 62
     2
 10
57.5096125
 20
94.4176
  0
VERTEX
  8
0
  6
CONTINUOUS
 62
     2
 10
57.7192125
 20
94.3308
  0
VERTEX
  8
0
  6
CONTINUOUS
 62
     2
 10
57.9224125
 20
94.2352
  0
VERTEX
  8
0
  6
CONTINUOUS
 62
     2
 10
58.1160125
 20
94.1264
  0
VERTEX
  8
0
  6
CONTINUOUS
 62
     2
 10
58.2968125
 20
94.0
  0
VERTEX
  8
0
  6
CONTINUOUS
 62
     2
 10
58.4536125
 20
93.8372
  0
VERTEX
  8
0
  6
CONTINUOUS
 62
     2
 10
58.5932125
 20
93.6516
  0
VERTEX
  8
0
  6
CONTINUOUS
 62
     2
 10
58.7144125
 20
93.4424
  0
VERTEX
  8
0
  6
CONTINUOUS
 62
     2
 10
58.8160125
 20
93.2088
  0
VERTEX
  8
0
  6
CONTINUOUS
 62
     2
 10
58.8968125
 20
92.95
  0
VERTEX
  8
0
  6
CONTINUOUS
 62
     2
 10
58.9348125
 20
92.662
  0
VERTEX
  8
0
  6
CONTINUOUS
 62
     2
 10
58.9548125
 20
92.348
  0
VERTEX
  8
0
  6
CONTINUOUS
 62
     2
 10
58.9608125
 20
92.008
  0
VERTEX
  8
0
  6
CONTINUOUS
 62
     2
 10
58.9568125
 20
91.642
  0
VERTEX
  8
0
  6
CONTINUOUS
 62
     2
 10
58.9468125
 20
91.25
  0
VERTEX
  8
0
  6
CONTINUOUS
 62
     2
 10
58.9572125
 20
90.7648
  0
VERTEX
  8
0
  6
CONTINUOUS
 62
     2
 10
58.9640125
 20
90.2704
  0
SEQEND
  0
LINE
  8
0
  6
CONTINUOUS
 62
     1
 10
57.7968125
 20
92.8
 11
58.916604167
 21
92.8
  0
LINE
  8
0
  6
CONTINUOUS
 62
     2
 10
57.7968125
 20
92.69
 11
58.931118056
 21
92.69
  0
LINE
  8
0
  6
CONTINUOUS
 62
     2
 10
58.948343112
 20
91.31
 11
57.7968125
 21
91.31
  0
LINE
  8
0
  6
CONTINUOUS
 62
     1
 10
57.7968125
 20
91.2
 11
58.947884223
 21
91.2
  0
LINE
  8
0
  6
LTYPE3
 62
     2
 10
55.7968125
 20
92.0
 11
60.4608125
 21
92.0
  0
LINE
  8
0
  6
CONTINUOUS
 62
     1
 10
57.7968125
 20
94.294291339
 11
57.7968125
 21
90.0
  0
LINE
  8
0
  6
CONTINUOUS
 62
     2
 10
58.9640125
 20
90.2704
 11
58.964901243
 21
90.0
  0
POLYLINE
  8
0
  6
CONTINUOUS
 62
     2
 66
     1
  0
VERTEX
  8
0
  6
CONTINUOUS
 62
     2
 10
64.2968125
 20
48.5
  0
VERTEX
  8
0
  6
CONTINUOUS
 62
     2
 10
64.3312125
 20
48.5776
  0
VERTEX
  8
0
  6
CONTINUOUS
 62
     2
 10
64.3720125
 20
48.6608
  0
VERTEX
  8
0
  6
CONTINUOUS
 62
     2
 10
64.4256125
 20
48.7552
  0
VERTEX
  8
0
  6
CONTINUOUS
 62
     2
 10
64.4984125
 20
48.8664
  0
VERTEX
  8
0
  6
CONTINUOUS
 62
     2
 10
64.5968125
 20
49.0
  0
VERTEX
  8
0
  6
CONTINUOUS
 62
     2
 10
64.7592125
 20
49.2224
  0
VERTEX
  8
0
  6
CONTINUOUS
 62
     2
 10
64.9520125
 20
49.4632
  0
VERTEX
  8
0
  6
CONTINUOUS
 62
     2
 10
65.1736125
 20
49.7128
  0
VERTEX
  8
0
  6
CONTINUOUS
 62
     2
 10
65.4224125
 20
49.9616
  0
VERTEX
  8
0
  6
CONTINUOUS
 62
     2
 10
65.6968125
 20
50.2
  0
VERTEX
  8
0
  6
CONTINUOUS
 62
     2
 10
66.0048125
 20
50.3832
  0
VERTEX
  8
0
  6
CONTINUOUS
 62
     2
 10
66.3328125
 20
50.5456
  0
VERTEX
  8
0
  6
CONTINUOUS
 62
     2
 10
66.6768125
 20
50.6864
  0
VERTEX
  8
0
  6
CONTINUOUS
 62
     2
 10
67.0328125
 20
50.8048
  0
VERTEX
  8
0
  6
CONTINUOUS
 62
     2
 10
67.3968125
 20
50.9
  0
VERTEX
  8
0
  6
CONTINUOUS
 62
     2
 10
67.7488125
 20
50.9808
  0
VERTEX
  8
0
  6
CONTINUOUS
 62
     2
 10
68.1048125
 20
51.0344
  0
VERTEX
  8
0
  6
CONTINUOUS
 62
     2
 10
68.4648125
 20
51.0576
  0
VERTEX
  8
0
  6
CONTINUOUS
 62
     2
 10
68.8288125
 20
51.0472
  0
VERTEX
  8
0
  6
CONTINUOUS
 62
     2
 10
69.1968125
 20
51.0
  0
VERTEX
  8
0
  6
CONTINUOUS
 62
     2
 10
69.6072125
 20
50.8744
  0
VERTEX
  8
0
  6
CONTINUOUS
 62
     2
 10
70.0120125
 20
50.7152
  0
VERTEX
  8
0
  6
CONTINUOUS
 62
     2
 10
70.4016125
 20
50.5288
  0
VERTEX
  8
0
  6
CONTINUOUS
 62
     2
 10
70.7664125
 20
50.3216
  0
VERTEX
  8
0
  6
CONTINUOUS
 62
     2
 10
71.0968125
 20
50.1
  0
VERTEX
  8
0
  6
CONTINUOUS
 62
     2
 10
71.3224125
 20
49.8704
  0
VERTEX
  8
0
  6
CONTINUOUS
 62
     2
 10
71.5096125
 20
49.6392
  0
VERTEX
  8
0
  6
CONTINUOUS
 62
     2
 10
71.6640125
 20
49.4128
  0
VERTEX
  8
0
  6
CONTINUOUS
 62
     2
 10
71.7912125
 20
49.1976
  0
VERTEX
  8
0
  6
CONTINUOUS
 62
     2
 10
71.8968125
 20
49.0
  0
VERTEX
  8
0
  6
CONTINUOUS
 62
     2
 10
71.9960125
 20
48.8712
  0
VERTEX
  8
0
  6
CONTINUOUS
 62
     2
 10
72.0824125
 20
48.7616
  0
VERTEX
  8
0
  6
CONTINUOUS
 62
     2
 10
72.1592125
 20
48.6664
  0
VERTEX
  8
0
  6
CONTINUOUS
 62
     2
 10
72.2296125
 20
48.5808
  0
VERTEX
  8
0
  6
CONTINUOUS
 62
     2
 10
72.2968125
 20
48.5
  0
SEQEND
  0
LINE
  8
0
  6
CONTINUOUS
 62
     1
 10
71.681009393
 20
49.38404425
 11
74.715126383
 21
49.38404425
  0
LINE
  8
0
  6
CONTINUOUS
 62
     1
 10
61.878498617
 20
49.38404425
 11
64.888635304
 21
49.38404425
  0
LINE
  8
0
  6
CONTINUOUS
 62
     1
 10
69.7968125
 20
48.5
 11
69.7968125
 21
50.799833992
  0
LINE
  8
0
  6
CONTINUOUS
 62
     1
 10
66.7968125
 20
48.5
 11
66.7968125
 21
50.726310112
  0
LINE
  8
5
  6
CONTINUOUS
 62
     2
 10
74.331082133
 20
48.5
 11
85.5
 21
48.5
  0
LINE
  8
5
  6
CONTINUOUS
 62
     2
 10
85.0
 20
48.5
 11
85.323523806
 21
49.707407283
  0
LINE
  8
5
  6
CONTINUOUS
 62
     2
 10
85.0
 20
48.5
 11
84.676476194
 21
49.707407283
  0
LINE
  8
5
  6
CONTINUOUS
 62
     2
 10
85.0
 20
48.5
 11
85.0
 21
58.5
  0
LINE
  8
5
  6
CONTINUOUS
 62
     2
 10
85.0
 20
58.5
 11
84.676476194
 21
57.292592717
  0
LINE
  8
5
  6
CONTINUOUS
 62
     2
 10
85.0
 20
58.5
 11
85.323523806
 21
57.292592717
  0
LINE
  8
5
  6
CONTINUOUS
 62
     2
 10
75.5
 20
58.5
 11
85.5
 21
58.5
  0
TEXT
  8
5
  6
CONTINUOUS
 62
     5
 10
84.5
 20
51.725
 30
0.05
 40
2.0
  1
１０
 50
90.0
 41
0.875
 51
0.0
  7
KANJI10
  0
LINE
  8
5
  6
CONTINUOUS
 62
     2
 10
85.5
 20
48.5
 11
90.5
 21
48.5
  0
LINE
  8
5
  6
CONTINUOUS
 62
     2
 10
90.0
 20
48.5
 11
90.323523806
 21
49.707407283
  0
LINE
  8
5
  6
CONTINUOUS
 62
     2
 10
90.0
 20
48.5
 11
89.676476194
 21
49.707407283
  0
LINE
  8
5
  6
CONTINUOUS
 62
     2
 10
90.0
 20
48.5
 11
90.0
 21
60.0
  0
LINE
  8
5
  6
CONTINUOUS
 62
     2
 10
90.0
 20
60.0
 11
89.676476194
 21
58.792592717
  0
LINE
  8
5
  6
CONTINUOUS
 62
     2
 10
90.0
 20
60.0
 11
90.323523806
 21
58.792592717
  0
LINE
  8
5
  6
CONTINUOUS
 62
     2
 10
75.7968125
 20
60.0
 11
90.5
 21
60.0
  0
TEXT
  8
5
  6
CONTINUOUS
 62
     5
 10
89.5
 20
50.675
 30
0.05
 40
2.0
  1
１１．５
 50
90.0
 41
0.875
 51
0.0
  7
KANJI10
  0
LINE
  8
5
  6
CONTINUOUS
 62
     2
 10
90.0
 20
60.0
 11
90.323523806
 21
61.207407283
  0
LINE
  8
5
  6
CONTINUOUS
 62
     2
 10
90.0
 20
60.0
 11
89.676476194
 21
61.207407283
  0
LINE
  8
5
  6
CONTINUOUS
 62
     2
 10
90.0
 20
60.0
 11
90.0
 21
67.0
  0
LINE
  8
5
  6
CONTINUOUS
 62
     2
 10
90.0
 20
67.0
 11
89.676476194
 21
65.792592717
  0
LINE
  8
5
  6
CONTINUOUS
 62
     2
 10
90.0
 20
67.0
 11
90.323523806
 21
65.792592717
  0
LINE
  8
5
  6
CONTINUOUS
 62
     2
 10
76.7968125
 20
67.0
 11
90.5
 21
67.0
  0
TEXT
  8
5
  6
CONTINUOUS
 62
     5
 10
89.5
 20
62.625
 30
0.05
 40
2.0
  1
７
 50
90.0
 41
0.875
 51
0.0
  7
KANJI10
  0
LINE
  8
5
  6
CONTINUOUS
 62
     2
 10
90.5
 20
48.5
 11
95.5
 21
48.5
  0
LINE
  8
5
  6
CONTINUOUS
 62
     2
 10
95.0
 20
48.5
 11
95.323523806
 21
49.707407283
  0
LINE
  8
5
  6
CONTINUOUS
 62
     2
 10
95.0
 20
48.5
 11
94.676476194
 21
49.707407283
  0
LINE
  8
5
  6
CONTINUOUS
 62
     2
 10
95.0
 20
48.5
 11
95.0
 21
105.0
  0
LINE
  8
5
  6
CONTINUOUS
 62
     2
 10
95.0
 20
105.0
 11
94.676476194
 21
103.792592717
  0
LINE
  8
5
  6
CONTINUOUS
 62
     2
 10
95.0
 20
105.0
 11
95.323523806
 21
103.792592717
  0
LINE
  8
5
  6
CONTINUOUS
 62
     2
 10
79.7968125
 20
105.0
 11
95.5
 21
105.0
  0
TEXT
  8
5
  6
CONTINUOUS
 62
     5
 10
94.5
 20
73.175
 30
0.05
 40
2.0
  1
５６．５
 50
90.0
 41
0.875
 51
0.0
  7
KANJI10
  0
LINE
  8
5
  6
CONTINUOUS
 62
     2
 10
75.7968125
 20
114.0
 11
95.5
 21
114.0
  0
LINE
  8
5
  6
CONTINUOUS
 62
     2
 10
95.0
 20
114.0
 11
94.676476194
 21
112.792592717
  0
LINE
  8
5
  6
CONTINUOUS
 62
     2
 10
95.0
 20
114.0
 11
95.323523806
 21
112.792592717
  0
LINE
  8
5
  6
CONTINUOUS
 62
     2
 10
95.0
 20
114.0
 11
95.0
 21
105.0
  0
LINE
  8
5
  6
CONTINUOUS
 62
     2
 10
95.0
 20
105.0
 11
95.323523806
 21
106.207407283
  0
LINE
  8
5
  6
CONTINUOUS
 62
     2
 10
95.0
 20
105.0
 11
94.676476194
 21
106.207407283
  0
TEXT
  8
5
  6
CONTINUOUS
 62
     5
 10
94.5
 20
106.825
 30
0.05
 40
2.0
  1
（９）
 50
90.0
 41
0.875
 51
0.0
  7
KANJI10
  0
LINE
  8
5
  6
CONTINUOUS
 62
     2
 10
52.7968125
 20
76.0
 11
49.7968125
 21
76.0
  0
LINE
  8
5
  6
CONTINUOUS
 62
     2
 10
50.2968125
 20
76.0
 11
49.973288694
 21
74.792592717
  0
LINE
  8
5
  6
CONTINUOUS
 62
     2
 10
50.2968125
 20
76.0
 11
50.620336306
 21
74.792592717
  0
LINE
  8
5
  6
CONTINUOUS
 62
     2
 10
50.2968125
 20
76.0
 11
50.2968125
 21
60.0
  0
LINE
  8
5
  6
CONTINUOUS
 62
     2
 10
50.2968125
 20
60.0
 11
50.620336306
 21
61.207407283
  0
LINE
  8
5
  6
CONTINUOUS
 62
     2
 10
50.2968125
 20
60.0
 11
49.973288694
 21
61.207407283
  0
LINE
  8
5
  6
CONTINUOUS
 62
     2
 10
60.7968125
 20
60.0
 11
49.7968125
 21
60.0
  0
TEXT
  8
5
  6
CONTINUOUS
 62
     5
 10
49.7968125
 20
66.225
 30
0.05
 40
2.0
  1
１６
 50
90.0
 41
0.875
 51
0.0
  7
KANJI10
  0
LINE
  8
5
  6
CONTINUOUS
 62
     2
 10
57.2968125
 20
105.5
 11
57.2968125
 21
139.048482756
  0
LINE
  8
5
  6
CONTINUOUS
 62
     2
 10
57.2968125
 20
138.548482756
 11
58.504219783
 21
138.224958949
  0
LINE
  8
5
  6
CONTINUOUS
 62
     2
 10
57.2968125
 20
138.548482756
 11
58.504219783
 21
138.872006562
  0
LINE
  8
5
  6
CONTINUOUS
 62
     2
 10
57.2968125
 20
138.548482756
 11
79.2968125
 21
138.548482756
  0
LINE
  8
5
  6
CONTINUOUS
 62
     2
 10
79.2968125
 20
138.548482756
 11
78.089405217
 21
138.872006562
  0
LINE
  8
5
  6
CONTINUOUS
 62
     2
 10
79.2968125
 20
138.548482756
 11
78.089405217
 21
138.224958949
  0
LINE
  8
5
  6
CONTINUOUS
 62
     2
 10
79.2968125
 20
105.5
 11
79.2968125
 21
139.048482756
  0
TEXT
  8
5
  6
CONTINUOUS
 62
     5
 10
65.6218125
 20
139.048482756
 30
0.05
 40
2.0
  1
φ２２
 50
0.0
 41
0.875
 51
0.0
  7
KANJI10
  0
LINE
  8
5
  6
CONTINUOUS
 62
     2
 10
57.2968125
 20
100.0
 11
56.6718125
 21
101.082531755
  0
LINE
  8
5
  6
CONTINUOUS
 62
     2
 10
57.2968125
 20
100.0
 11
56.214280745
 21
100.625
  0
LINE
  8
5
  6
CONTINUOUS
 62
     2
 10
57.2968125
 20
100.0
 11
52.2968125
 21
105.0
  0
LINE
  8
5
  6
CONTINUOUS
 62
     2
 10
52.2968125
 20
105.0
 11
43.3468125
 21
105.0
  0
TEXT
  8
5
  6
CONTINUOUS
 62
     5
 10
43.3468125
 20
105.5
 30
0.05
 40
2.0
  1
名称リング
 50
0.0
 41
0.875
 51
0.0
  7
KANJI10
  0
LINE
  8
5
  6
CONTINUOUS
 62
     2
 10
57.2968125
 20
92.0
 11
56.6718125
 21
93.082531755
  0
LINE
  8
5
  6
CONTINUOUS
 62
     2
 10
57.2968125
 20
92.0
 11
56.214280745
 21
92.625
  0
LINE
  8
5
  6
CONTINUOUS
 62
     2
 10
57.2968125
 20
92.0
 11
52.2968125
 21
97.0
  0
LINE
  8
5
  6
CONTINUOUS
 62
     2
 10
52.2968125
 20
97.0
 11
36.1468125
 21
97.0
  0
TEXT
  8
5
  6
CONTINUOUS
 62
     5
 10
36.1468125
 20
97.5
 30
0.05
 40
2.0
  1
名称リング固定ネジ
 50
0.0
 41
0.875
 51
0.0
  7
KANJI10
  0
LINE
  8
5
  6
CONTINUOUS
 62
     2
 10
56.2968125
 20
79.0
 11
55.6718125
 21
80.082531755
  0
LINE
  8
5
  6
CONTINUOUS
 62
     2
 10
56.2968125
 20
79.0
 11
55.214280745
 21
79.625
  0
LINE
  8
5
  6
CONTINUOUS
 62
     2
 10
56.2968125
 20
79.0
 11
51.2968125
 21
84.0
  0
LINE
  8
5
  6
CONTINUOUS
 62
     2
 10
51.2968125
 20
84.0
 11
40.5468125
 21
84.0
  0
TEXT
  8
5
  6
CONTINUOUS
 62
     5
 10
40.5468125
 20
84.5
 30
0.05
 40
2.0
  1
ドレンコック
 50
0.0
 41
0.875
 51
0.0
  7
KANJI10
  0
LINE
  8
5
  6
CONTINUOUS
 62
     2
 10
61.749875
 20
53.5
 11
60.667343245
 21
52.875
  0
LINE
  8
5
  6
CONTINUOUS
 62
     2
 10
61.749875
 20
53.5
 11
61.124875
 21
52.417468245
  0
LINE
  8
5
  6
CONTINUOUS
 62
     2
 10
61.749875
 20
53.5
 11
56.749875
 21
48.5
  0
LINE
  8
5
  6
CONTINUOUS
 62
     2
 10
56.749875
 20
48.5
 11
49.599875
 21
48.5
  0
TEXT
  8
5
  6
CONTINUOUS
 62
     5
 10
49.599875
 20
49.0
 30
0.05
 40
2.0
  1
Ｒ１／４
 50
0.0
 41
0.875
 51
0.0
  7
KANJI10
  0
LINE
  8
5
  6
CONTINUOUS
 62
     2
 10
23.941057749
 20
56.15820084
 11
23.941057749
 21
41.531184186
  0
LINE
  8
5
  6
CONTINUOUS
 62
     2
 10
23.941057749
 20
42.031184186
 11
25.148465031
 21
41.70766038
  0
LINE
  8
5
  6
CONTINUOUS
 62
     2
 10
23.941057749
 20
42.031184186
 11
25.148465031
 21
42.354707993
  0
LINE
  8
5
  6
CONTINUOUS
 62
     2
 10
23.941057749
 20
42.031184186
 11
37.941057749
 21
42.031184186
  0
LINE
  8
5
  6
CONTINUOUS
 62
     2
 10
37.941057749
 20
42.031184186
 11
36.733650466
 21
42.354707993
  0
LINE
  8
5
  6
CONTINUOUS
 62
     2
 10
37.941057749
 20
42.031184186
 11
36.733650466
 21
41.70766038
  0
LINE
  8
5
  6
CONTINUOUS
 62
     2
 10
37.941057749
 20
56.15820084
 11
37.941057749
 21
41.531184186
  0
TEXT
  8
5
  6
CONTINUOUS
 62
     5
 10
25.566057749
 20
42.531184186
 30
0.05
 40
2.0
  1
１４（六角）
 50
0.0
 41
0.875
 51
0.0
  7
KANJI10
  0
LINE
  8
5
  6
CONTINUOUS
 62
     2
 10
30.109007454
 20
61.779259628
 11
29.708446476
 21
62.963341932
  0
LINE
  8
5
  6
CONTINUOUS
 62
     2
 10
30.109007454
 20
61.779259628
 11
29.170070319
 21
62.604424494
  0
LINE
  8
5
  6
CONTINUOUS
 62
     2
 10
30.109007454
 20
61.779259628
 11
18.607724415
 21
79.031184186
  0
LINE
  8
5
  6
CONTINUOUS
 62
     2
 10
31.157724415
 20
79.031184186
 11
18.607724415
 21
79.031184186
  0
TEXT
  8
5
  6
CONTINUOUS
 62
     5
 10
18.607724415
 20
79.531184186
 30
0.05
 40
2.0
  1
φ３圧力導入口
 50
0.0
 41
0.875
 51
0.0
  7
KANJI10
  0
TEXT
  8
5
  6
CONTINUOUS
 62
     5
 10
78.0
 20
36.0
 30
0.05
 40
2.0
  1
２０，５０　ＭＰａ
 50
0.0
 41
0.875
 51
0.0
  7
KANJI10
  0
TEXT
  8
6
  6
CONTINUOUS
 62
     5
 10
34.375
 20
11.5
 30
0.0
 40
2.0
  1
２
 50
0.0
 41
0.875
 51
0.0
  7
KANJI0
  0
LINE
  8
0
  6
LTYPE1
 62
     2
 10
57.1968125
 20
79.0
 11
57.1968125
 21
73.0
  0
LINE
  8
0
  6
LTYPE1
 62
     2
 10
56.3968125
 20
79.0
 11
56.3968125
 21
73.0
  0
LINE
  8
0
  6
LTYPE3
 62
     2
 10
56.7968125
 20
81.5
 11
56.7968125
 21
70.5
  0
CIRCLE
  8
0
  6
CONTINUOUS
 62
     1
 10
19.441057749
 20
60.531184186
 40
0.4
  0
LINE
  8
0
  6
LTYPE3
 62
     2
 10
19.441057749
 20
62.031184186
 11
19.441057749
 21
59.031184186
  0
CIRCLE
  8
0
  6
CONTINUOUS
 62
     1
 10
30.941057749
 20
60.531184186
 40
6.418313883
  0
CIRCLE
  8
0
  6
CONTINUOUS
 62
     1
 10
30.941057749
 20
60.531184186
 40
6.7500625
  0
CIRCLE
  8
0
  6
CONTINUOUS
 62
     2
 10
30.941057749
 20
60.531184186
 40
5.534269633
  0
TEXT
  8
6
  6
CONTINUOUS
 62
     5
 10
65.75
 20
18.0
 30
-0.25
 40
1.5
  1
２０１７．
 50
0.0
 41
0.833333333
 51
0.0
  7
KANJI11
  0
TEXT
  8
6
  6
CONTINUOUS
 62
     5
 10
67.0
 20
16.5
 30
-0.25
 40
1.5
  1
０７．１３
 50
0.0
 41
0.833333333
 51
0.0
  7
KANJI11
  0
TEXT
  8
6
  6
CONTINUOUS
 62
     5
 10
77.0
 20
11.5
 30
0.0
 40
2.0
  1
ＨＶＪＳ－□ＰＡ
 50
0.0
 41
0.875
 51
0.0
  7
KANJI0
  0
TEXT
  8
6
  6
CONTINUOUS
 62
     5
 10
75.0
 20
6.0
 30
0.0
 40
2.0
  1
Ｈ－０１２２－Ａ００２
 50
0.0
 41
0.875
 51
0.0
  7
KANJI0
  0
ENDSEC
  0
EOF
