  0
SECTION
  2
HEADER
  9
$EXTMIN
 10
0.0
 20
0.0
 30
0.0
  9
$EXTMAX
 10
105.0
 20
148.5
 30
0.0
  9
$LIMMIN
 10
0.0
 20
0.0
  9
$LIMMAX
 10
105.0
 20
148.5
  9
$LTSCALE
 40
1.0
  9
$PDMODE
 70
     0
  0
ENDSEC
  0
SECTION
  2
TABLES
  0
TABLE
  2
LTYPE
 70
     4
  0
LTYPE
  2
CONTINUOUS
 70
    64
  3
Solid line
 72
    65
 73
     0
 40
0.0
  0
LTYPE
  2
LTYPE1
 70
    64
  3
HIDDEN
 72
    65
 73
     2
 40
1.0
 49
0.6
 49
-0.4
  0
LTYPE
  2
LTYPE2
 70
    64
  3
PHANTOM
 72
    65
 73
     6
 40
5.0
 49
3.75
 49
-0.25
 49
0.25
 49
-0.25
 49
0.25
 49
-0.25
  0
LTYPE
  2
LTYPE3
 70
    64
  3
CENTER
 72
    65
 73
     4
 40
5.0
 49
3.5
 49
-0.5
 49
0.5
 49
-0.5
  0
ENDTAB
  0
TABLE
  2
LAYER
 70
   128
  0
LAYER
  2
0
 70
     0
 62
     7
  6
CONTINUOUS
  0
LAYER
  2
2
 70
     0
 62
     7
  6
CONTINUOUS
  0
LAYER
  2
3
 70
     0
 62
     7
  6
CONTINUOUS
  0
LAYER
  2
4
 70
     0
 62
     7
  6
CONTINUOUS
  0
LAYER
  2
5
 70
     0
 62
     7
  6
CONTINUOUS
  0
LAYER
  2
6
 70
     0
 62
     7
  6
CONTINUOUS
  0
LAYER
  2
7
 70
     0
 62
     7
  6
CONTINUOUS
  0
LAYER
  2
8
 70
     0
 62
     7
  6
CONTINUOUS
  0
LAYER
  2
9
 70
     0
 62
     7
  6
CONTINUOUS
  0
LAYER
  2
10
 70
     0
 62
     7
  6
CONTINUOUS
  0
LAYER
  2
11
 70
     0
 62
     7
  6
CONTINUOUS
  0
LAYER
  2
12
 70
     0
 62
     7
  6
CONTINUOUS
  0
LAYER
  2
13
 70
     0
 62
     7
  6
CONTINUOUS
  0
LAYER
  2
14
 70
     0
 62
     7
  6
CONTINUOUS
  0
LAYER
  2
15
 70
     0
 62
     7
  6
CONTINUOUS
  0
LAYER
  2
16
 70
     0
 62
     7
  6
CONTINUOUS
  0
LAYER
  2
17
 70
     0
 62
     7
  6
CONTINUOUS
  0
LAYER
  2
18
 70
     0
 62
     7
  6
CONTINUOUS
  0
LAYER
  2
19
 70
     0
 62
     7
  6
CONTINUOUS
  0
LAYER
  2
20
 70
     0
 62
     7
  6
CONTINUOUS
  0
LAYER
  2
21
 70
     0
 62
     7
  6
CONTINUOUS
  0
LAYER
  2
22
 70
     0
 62
     7
  6
CONTINUOUS
  0
LAYER
  2
23
 70
     0
 62
     7
  6
CONTINUOUS
  0
LAYER
  2
24
 70
     0
 62
     7
  6
CONTINUOUS
  0
LAYER
  2
25
 70
     0
 62
     7
  6
CONTINUOUS
  0
LAYER
  2
26
 70
     0
 62
     7
  6
CONTINUOUS
  0
LAYER
  2
27
 70
     0
 62
     7
  6
CONTINUOUS
  0
LAYER
  2
28
 70
     0
 62
     7
  6
CONTINUOUS
  0
LAYER
  2
29
 70
     0
 62
     7
  6
CONTINUOUS
  0
LAYER
  2
30
 70
     0
 62
     7
  6
CONTINUOUS
  0
LAYER
  2
31
 70
     0
 62
     7
  6
CONTINUOUS
  0
LAYER
  2
32
 70
     0
 62
     7
  6
CONTINUOUS
  0
LAYER
  2
33
 70
     0
 62
     7
  6
CONTINUOUS
  0
LAYER
  2
34
 70
     0
 62
     7
  6
CONTINUOUS
  0
LAYER
  2
35
 70
     0
 62
     7
  6
CONTINUOUS
  0
LAYER
  2
36
 70
     0
 62
     7
  6
CONTINUOUS
  0
LAYER
  2
37
 70
     0
 62
     7
  6
CONTINUOUS
  0
LAYER
  2
38
 70
     0
 62
     7
  6
CONTINUOUS
  0
LAYER
  2
39
 70
     0
 62
     7
  6
CONTINUOUS
  0
LAYER
  2
40
 70
     0
 62
     7
  6
CONTINUOUS
  0
LAYER
  2
41
 70
     0
 62
     7
  6
CONTINUOUS
  0
LAYER
  2
42
 70
     0
 62
     7
  6
CONTINUOUS
  0
LAYER
  2
43
 70
     0
 62
     7
  6
CONTINUOUS
  0
LAYER
  2
44
 70
     0
 62
     7
  6
CONTINUOUS
  0
LAYER
  2
45
 70
     0
 62
     7
  6
CONTINUOUS
  0
LAYER
  2
46
 70
     0
 62
     7
  6
CONTINUOUS
  0
LAYER
  2
47
 70
     0
 62
     7
  6
CONTINUOUS
  0
LAYER
  2
48
 70
     0
 62
     7
  6
CONTINUOUS
  0
LAYER
  2
49
 70
     0
 62
     7
  6
CONTINUOUS
  0
LAYER
  2
50
 70
     0
 62
     7
  6
CONTINUOUS
  0
LAYER
  2
51
 70
     0
 62
     7
  6
CONTINUOUS
  0
LAYER
  2
52
 70
     0
 62
     7
  6
CONTINUOUS
  0
LAYER
  2
53
 70
     0
 62
     7
  6
CONTINUOUS
  0
LAYER
  2
54
 70
     0
 62
     7
  6
CONTINUOUS
  0
LAYER
  2
55
 70
     0
 62
     7
  6
CONTINUOUS
  0
LAYER
  2
56
 70
     0
 62
     7
  6
CONTINUOUS
  0
LAYER
  2
57
 70
     0
 62
     7
  6
CONTINUOUS
  0
LAYER
  2
58
 70
     0
 62
     7
  6
CONTINUOUS
  0
LAYER
  2
59
 70
     0
 62
     7
  6
CONTINUOUS
  0
LAYER
  2
60
 70
     0
 62
     7
  6
CONTINUOUS
  0
LAYER
  2
61
 70
     0
 62
     7
  6
CONTINUOUS
  0
LAYER
  2
62
 70
     0
 62
     7
  6
CONTINUOUS
  0
LAYER
  2
63
 70
     0
 62
     7
  6
CONTINUOUS
  0
LAYER
  2
64
 70
     0
 62
     7
  6
CONTINUOUS
  0
LAYER
  2
65
 70
     0
 62
     7
  6
CONTINUOUS
  0
LAYER
  2
66
 70
     0
 62
     7
  6
CONTINUOUS
  0
LAYER
  2
67
 70
     0
 62
     7
  6
CONTINUOUS
  0
LAYER
  2
68
 70
     0
 62
     7
  6
CONTINUOUS
  0
LAYER
  2
69
 70
     0
 62
     7
  6
CONTINUOUS
  0
LAYER
  2
70
 70
     0
 62
     7
  6
CONTINUOUS
  0
LAYER
  2
71
 70
     0
 62
     7
  6
CONTINUOUS
  0
LAYER
  2
72
 70
     0
 62
     7
  6
CONTINUOUS
  0
LAYER
  2
73
 70
     0
 62
     7
  6
CONTINUOUS
  0
LAYER
  2
74
 70
     0
 62
     7
  6
CONTINUOUS
  0
LAYER
  2
75
 70
     0
 62
     7
  6
CONTINUOUS
  0
LAYER
  2
76
 70
     0
 62
     7
  6
CONTINUOUS
  0
LAYER
  2
77
 70
     0
 62
     7
  6
CONTINUOUS
  0
LAYER
  2
78
 70
     0
 62
     7
  6
CONTINUOUS
  0
LAYER
  2
79
 70
     0
 62
     7
  6
CONTINUOUS
  0
LAYER
  2
80
 70
     0
 62
     7
  6
CONTINUOUS
  0
LAYER
  2
81
 70
     0
 62
     7
  6
CONTINUOUS
  0
LAYER
  2
82
 70
     0
 62
     7
  6
CONTINUOUS
  0
LAYER
  2
83
 70
     0
 62
     7
  6
CONTINUOUS
  0
LAYER
  2
84
 70
     0
 62
     7
  6
CONTINUOUS
  0
LAYER
  2
85
 70
     0
 62
     7
  6
CONTINUOUS
  0
LAYER
  2
86
 70
     0
 62
     7
  6
CONTINUOUS
  0
LAYER
  2
87
 70
     0
 62
     7
  6
CONTINUOUS
  0
LAYER
  2
88
 70
     0
 62
     7
  6
CONTINUOUS
  0
LAYER
  2
89
 70
     0
 62
     7
  6
CONTINUOUS
  0
LAYER
  2
90
 70
     0
 62
     7
  6
CONTINUOUS
  0
LAYER
  2
91
 70
     0
 62
     7
  6
CONTINUOUS
  0
LAYER
  2
92
 70
     0
 62
     7
  6
CONTINUOUS
  0
LAYER
  2
93
 70
     0
 62
     7
  6
CONTINUOUS
  0
LAYER
  2
94
 70
     0
 62
     7
  6
CONTINUOUS
  0
LAYER
  2
95
 70
     0
 62
     7
  6
CONTINUOUS
  0
LAYER
  2
96
 70
     0
 62
     7
  6
CONTINUOUS
  0
LAYER
  2
97
 70
     0
 62
     7
  6
CONTINUOUS
  0
LAYER
  2
98
 70
     0
 62
     7
  6
CONTINUOUS
  0
LAYER
  2
99
 70
     0
 62
     7
  6
CONTINUOUS
  0
LAYER
  2
100
 70
     0
 62
     7
  6
CONTINUOUS
  0
LAYER
  2
101
 70
     0
 62
     7
  6
CONTINUOUS
  0
LAYER
  2
102
 70
     0
 62
     7
  6
CONTINUOUS
  0
LAYER
  2
103
 70
     0
 62
     7
  6
CONTINUOUS
  0
LAYER
  2
104
 70
     0
 62
     7
  6
CONTINUOUS
  0
LAYER
  2
105
 70
     0
 62
     7
  6
CONTINUOUS
  0
LAYER
  2
106
 70
     0
 62
     7
  6
CONTINUOUS
  0
LAYER
  2
107
 70
     0
 62
     7
  6
CONTINUOUS
  0
LAYER
  2
108
 70
     0
 62
     7
  6
CONTINUOUS
  0
LAYER
  2
109
 70
     0
 62
     7
  6
CONTINUOUS
  0
LAYER
  2
110
 70
     0
 62
     7
  6
CONTINUOUS
  0
LAYER
  2
111
 70
     0
 62
     7
  6
CONTINUOUS
  0
LAYER
  2
112
 70
     0
 62
     7
  6
CONTINUOUS
  0
LAYER
  2
113
 70
     0
 62
     7
  6
CONTINUOUS
  0
LAYER
  2
114
 70
     0
 62
     7
  6
CONTINUOUS
  0
LAYER
  2
115
 70
     0
 62
     7
  6
CONTINUOUS
  0
LAYER
  2
116
 70
     0
 62
     7
  6
CONTINUOUS
  0
LAYER
  2
117
 70
     0
 62
     7
  6
CONTINUOUS
  0
LAYER
  2
118
 70
     0
 62
     7
  6
CONTINUOUS
  0
LAYER
  2
119
 70
     0
 62
     7
  6
CONTINUOUS
  0
LAYER
  2
120
 70
     0
 62
     7
  6
CONTINUOUS
  0
LAYER
  2
121
 70
     0
 62
     7
  6
CONTINUOUS
  0
LAYER
  2
122
 70
     0
 62
     7
  6
CONTINUOUS
  0
LAYER
  2
123
 70
     0
 62
     7
  6
CONTINUOUS
  0
LAYER
  2
124
 70
     0
 62
     7
  6
CONTINUOUS
  0
LAYER
  2
125
 70
     0
 62
     7
  6
CONTINUOUS
  0
LAYER
  2
126
 70
     0
 62
     7
  6
CONTINUOUS
  0
LAYER
  2
127
 70
     0
 62
     7
  6
CONTINUOUS
  0
LAYER
  2
128
 70
     0
 62
     7
  6
CONTINUOUS
  0
ENDTAB
  0
TABLE
  2
STYLE
 70
    13
  0
STYLE
  2
STANDARD
 70
     0
 40
0.0
 41
1.0
 50
0.0
 71
     0
 42
0.2
  3
txt
  4

  0
STYLE
  2
KANJI0
 70
     0
 40
2.0
 41
0.875
 50
0.0
 71
     0
 42
2.0
  3

  4
bigfont
  0
STYLE
  2
KANJI1
 70
     0
 40
2.5
 41
1.2
 50
0.0
 71
     0
 42
2.5
  3

  4
bigfont
  0
STYLE
  2
KANJI2
 70
     0
 40
2.5
 41
1.0
 50
0.0
 71
     0
 42
2.5
  3

  4
bigfont
  0
STYLE
  2
KANJI3
 70
     0
 40
1.5
 41
0.666666667
 50
0.0
 71
     0
 42
1.5
  3

  4
bigfont
  0
STYLE
  2
KANJI4
 70
     0
 40
1.5
 41
1.0
 50
0.0
 71
     0
 42
1.5
  3

  4
bigfont
  0
STYLE
  2
KANJI5
 70
     0
 40
1.25
 41
1.0
 50
0.0
 71
     0
 42
1.25
  3

  4
bigfont
  0
STYLE
  2
KANJI6
 70
     0
 40
1.25
 41
1.0
 50
0.0
 71
     0
 42
1.25
  3

  4
bigfont
  0
STYLE
  2
KANJI7
 70
     0
 40
1.25
 41
1.0
 50
0.0
 71
     0
 42
1.25
  3

  4
bigfont
  0
STYLE
  2
KANJI8
 70
     0
 40
2.0
 41
1.125
 50
0.0
 71
     0
 42
2.0
  3

  4
bigfont
  0
STYLE
  2
KANJI9
 70
     0
 40
3.5
 41
0.857142857
 50
0.0
 71
     0
 42
3.5
  3

  4
bigfont
  0
STYLE
  2
KANJI10
 70
     0
 40
2.0
 41
0.875
 50
0.0
 71
     0
 42
2.0
  3

  4
bigfont
  0
STYLE
  2
KANJI11
 70
     0
 40
1.5
 41
0.833333333
 50
0.0
 71
     0
 42
1.5
  3

  4
bigfont
  0
ENDTAB
  0
TABLE
  2
VIEW
 70
     0
  0
ENDTAB
  0
ENDSEC
  0
SECTION
  2
BLOCKS
  0
ENDSEC
  0
SECTION
  2
ENTITIES
  0
TEXT
  8
6
  6
CONTINUOUS
 62
     5
 10
82.0
 20
17.0
 30
0.0
 40
2.0
  1
外観図
 50
0.0
 41
0.875
 51
0.0
  7
KANJI0
  0
TEXT
  8
6
  6
CONTINUOUS
 62
     5
 10
37.625
 20
11.5
 30
0.0
 40
2.0
  1
１
 50
0.0
 41
0.875
 51
0.0
  7
KANJI0
  0
TEXT
  8
6
  6
CONTINUOUS
 62
     5
 10
67.0
 20
11.5
 30
0.0
 40
2.0
  1
益子
 50
0.0
 41
0.875
 51
0.0
  7
KANJI0
  0
LINE
  8
7
  6
CONTINUOUS
 62
     2
 10
26.25
 20
5.0
 11
26.25
 21
2.5
  0
LINE
  8
7
  6
CONTINUOUS
 62
     2
 10
78.75
 20
143.5
 11
78.75
 21
146.0
  0
LINE
  8
7
  6
CONTINUOUS
 62
     2
 10
26.25
 20
143.5
 11
26.25
 21
146.0
  0
LINE
  8
7
  6
CONTINUOUS
 62
     2
 10
12.5
 20
99.25
 11
10.0
 21
99.25
  0
LINE
  8
7
  6
CONTINUOUS
 62
     2
 10
12.5
 20
124.25
 11
10.0
 21
124.25
  0
LINE
  8
7
  6
CONTINUOUS
 62
     2
 10
12.5
 20
49.25
 11
10.0
 21
49.25
  0
LINE
  8
7
  6
CONTINUOUS
 62
     2
 10
12.5
 20
24.25
 11
10.0
 21
24.25
  0
LINE
  8
7
  6
CONTINUOUS
 62
     2
 10
100.0
 20
99.25
 11
102.5
 21
99.25
  0
LINE
  8
7
  6
CONTINUOUS
 62
     2
 10
100.0
 20
124.25
 11
102.5
 21
124.25
  0
LINE
  8
7
  6
CONTINUOUS
 62
     2
 10
100.0
 20
49.25
 11
102.5
 21
49.25
  0
LINE
  8
7
  6
CONTINUOUS
 62
     2
 10
100.0
 20
24.25
 11
102.5
 21
24.25
  0
LINE
  8
7
  6
CONTINUOUS
 62
     2
 10
16.0
 20
33.5
 11
16.0
 21
5.0
  0
LINE
  8
7
  6
CONTINUOUS
 62
     2
 10
19.5
 20
33.5
 11
19.5
 21
5.0
  0
LINE
  8
7
  6
CONTINUOUS
 62
     2
 10
23.0
 20
33.5
 11
23.0
 21
5.0
  0
LINE
  8
7
  6
CONTINUOUS
 62
     2
 10
26.5
 20
33.5
 11
26.5
 21
5.0
  0
LINE
  8
7
  6
LTYPE1
 62
     2
 10
95.0
 20
10.5
 11
95.0
 21
5.0
  0
LINE
  8
7
  6
CONTINUOUS
 62
     2
 10
100.0
 20
37.5
 11
98.75
 21
37.5
  0
LINE
  8
7
  6
CONTINUOUS
 62
     2
 10
100.0
 20
41.5
 11
98.75
 21
41.5
  0
LINE
  8
7
  6
CONTINUOUS
 62
     2
 10
100.0
 20
45.5
 11
98.75
 21
45.5
  0
TEXT
  8
7
  6
CONTINUOUS
 62
     6
 10
37.875
 20
144.25
 30
0.0
 40
2.5
  1
２
 50
0.0
 41
1.2
 51
0.0
  7
KANJI1
  0
TEXT
  8
7
  6
CONTINUOUS
 62
     6
 10
11.625
 20
144.25
 30
0.0
 40
2.5
  1
１
 50
0.0
 41
1.2
 51
0.0
  7
KANJI1
  0
TEXT
  8
7
  6
CONTINUOUS
 62
     6
 10
64.125
 20
144.25
 30
0.0
 40
2.5
  1
３
 50
0.0
 41
1.2
 51
0.0
  7
KANJI1
  0
TEXT
  8
7
  6
CONTINUOUS
 62
     6
 10
89.625
 20
144.0
 30
0.0
 40
2.5
  1
４
 50
0.0
 41
1.2
 51
0.0
  7
KANJI1
  0
TEXT
  8
7
  6
CONTINUOUS
 62
     6
 10
9.25
 20
135.5
 30
0.0
 40
2.5
  1
Ａ
 50
0.0
 41
1.0
 51
0.0
  7
KANJI2
  0
TEXT
  8
7
  6
CONTINUOUS
 62
     6
 10
9.25
 20
110.5
 30
0.0
 40
2.5
  1
Ｂ
 50
0.0
 41
1.0
 51
0.0
  7
KANJI2
  0
TEXT
  8
7
  6
CONTINUOUS
 62
     6
 10
9.25
 20
85.5
 30
0.0
 40
2.5
  1
Ｃ
 50
0.0
 41
1.0
 51
0.0
  7
KANJI2
  0
TEXT
  8
7
  6
CONTINUOUS
 62
     6
 10
9.25
 20
60.5
 30
0.0
 40
2.5
  1
Ｄ
 50
0.0
 41
1.0
 51
0.0
  7
KANJI2
  0
TEXT
  8
7
  6
CONTINUOUS
 62
     6
 10
9.25
 20
35.5
 30
0.0
 40
2.5
  1
Ｅ
 50
0.0
 41
1.0
 51
0.0
  7
KANJI2
  0
TEXT
  8
7
  6
CONTINUOUS
 62
     6
 10
9.25
 20
10.5
 30
0.0
 40
2.5
  1
Ｆ
 50
0.0
 41
1.0
 51
0.0
  7
KANJI2
  0
TEXT
  8
7
  6
CONTINUOUS
 62
     6
 10
100.75
 20
135.5
 30
0.0
 40
2.5
  1
Ａ
 50
0.0
 41
1.0
 51
0.0
  7
KANJI2
  0
TEXT
  8
7
  6
CONTINUOUS
 62
     6
 10
100.75
 20
110.5
 30
0.0
 40
2.5
  1
Ｂ
 50
0.0
 41
1.0
 51
0.0
  7
KANJI2
  0
TEXT
  8
7
  6
CONTINUOUS
 62
     6
 10
100.75
 20
85.5
 30
0.0
 40
2.5
  1
Ｃ
 50
0.0
 41
1.0
 51
0.0
  7
KANJI2
  0
TEXT
  8
7
  6
CONTINUOUS
 62
     6
 10
100.75
 20
60.5
 30
0.0
 40
2.5
  1
Ｄ
 50
0.0
 41
1.0
 51
0.0
  7
KANJI2
  0
TEXT
  8
7
  6
CONTINUOUS
 62
     6
 10
100.75
 20
35.5
 30
0.0
 40
2.5
  1
Ｅ
 50
0.0
 41
1.0
 51
0.0
  7
KANJI2
  0
TEXT
  8
7
  6
CONTINUOUS
 62
     6
 10
100.75
 20
10.5
 30
0.0
 40
2.5
  1
Ｆ
 50
0.0
 41
1.0
 51
0.0
  7
KANJI2
  0
TEXT
  8
7
  6
CONTINUOUS
 62
     6
 10
11.625
 20
1.75
 30
0.0
 40
2.5
  1
１
 50
0.0
 41
1.2
 51
0.0
  7
KANJI1
  0
LINE
  8
7
  6
CONTINUOUS
 62
     6
 10
52.5
 20
143.5
 11
52.5
 21
148.5
  0
LINE
  8
7
  6
CONTINUOUS
 62
     6
 10
100.0
 20
143.5
 11
12.5
 21
143.5
  0
LINE
  8
7
  6
CONTINUOUS
 62
     6
 10
12.5
 20
74.25
 11
0.0
 21
74.25
  0
LINE
  8
7
  6
CONTINUOUS
 62
     6
 10
100.0
 20
74.25
 11
105.0
 21
74.25
  0
LINE
  8
7
  6
CONTINUOUS
 62
     6
 10
100.0
 20
5.0
 11
100.0
 21
143.5
  0
LINE
  8
7
  6
CONTINUOUS
 62
     6
 10
12.5
 20
143.5
 11
12.5
 21
5.0
  0
LINE
  8
7
  6
CONTINUOUS
 62
     6
 10
27.5
 20
2.5
 11
77.5
 21
2.5
  0
LINE
  8
7
  6
CONTINUOUS
 62
     2
 10
78.75
 20
5.0
 11
78.75
 21
2.5
  0
LINE
  8
7
  6
CONTINUOUS
 62
     2
 10
12.5
 20
25.5
 11
100.0
 21
25.5
  0
LINE
  8
7
  6
CONTINUOUS
 62
     2
 10
33.0
 20
21.5
 11
100.0
 21
21.5
  0
LINE
  8
7
  6
CONTINUOUS
 62
     2
 10
12.5
 20
19.5
 11
33.0
 21
19.5
  0
LINE
  8
7
  6
CONTINUOUS
 62
     2
 10
12.5
 20
8.5
 11
33.0
 21
8.5
  0
LINE
  8
7
  6
CONTINUOUS
 62
     2
 10
57.0
 20
21.5
 11
57.0
 21
10.5
  0
LINE
  8
7
  6
CONTINUOUS
 62
     2
 10
65.0
 20
21.5
 11
65.0
 21
10.5
  0
LINE
  8
7
  6
CONTINUOUS
 62
     2
 10
45.0
 20
21.5
 11
45.0
 21
16.0
  0
LINE
  8
7
  6
CONTINUOUS
 62
     2
 10
30.0
 20
33.5
 11
30.0
 21
5.0
  0
LINE
  8
7
  6
CONTINUOUS
 62
     2
 10
41.0
 20
16.0
 11
41.0
 21
5.0
  0
LINE
  8
7
  6
CONTINUOUS
 62
     2
 10
49.0
 20
16.0
 11
49.0
 21
5.0
  0
LINE
  8
7
  6
CONTINUOUS
 62
     2
 10
73.0
 20
21.5
 11
73.0
 21
5.0
  0
POLYLINE
  8
7
  6
LTYPE2
 62
     2
 66
     1
 70
     1
  0
VERTEX
  8
7
  6
LTYPE2
 62
     2
 10
52.0
 20
6.75
  0
VERTEX
  8
7
  6
LTYPE2
 62
     2
 10
54.0
 20
6.75
  0
VERTEX
  8
7
  6
LTYPE2
 62
     2
 10
54.0
 20
8.75
  0
VERTEX
  8
7
  6
LTYPE2
 62
     2
 10
52.0
 20
8.75
  0
SEQEND
  0
TEXT
  8
7
  6
CONTINUOUS
 62
     4
 10
73.5
 20
23.5
 30
-0.25
 40
1.5
  1
１セット分
 50
0.0
 41
0.666666667
 51
0.0
  7
KANJI3
  0
TEXT
  8
7
  6
CONTINUOUS
 62
     4
 10
68.0
 20
23.5
 30
0.0
 40
1.5
  1
１台分
 50
0.0
 41
1.0
 51
0.0
  7
KANJI4
  0
TEXT
  8
7
  6
CONTINUOUS
 62
     4
 10
69.0
 20
22.0
 30
0.0
 40
1.5
  1
個数
 50
0.0
 41
1.0
 51
0.0
  7
KANJI4
  0
TEXT
  8
7
  6
CONTINUOUS
 62
     4
 10
74.0
 20
22.0
 30
0.0
 40
1.5
  1
個数
 50
0.0
 41
1.0
 51
0.0
  7
KANJI4
  0
TEXT
  8
7
  6
CONTINUOUS
 62
     4
 10
78.75
 20
22.5
 30
0.0
 40
2.0
  1
総数
 50
0.0
 41
0.875
 51
0.0
  7
KANJI0
  0
TEXT
  8
7
  6
CONTINUOUS
 62
     4
 10
32.075
 20
26.25
 30
0.15
 40
1.25
  1
氏名
 50
90.0
 41
1.0
 51
0.0
  7
KANJI5
  0
TEXT
  8
7
  6
CONTINUOUS
 62
     4
 10
32.075
 20
20.2125
 30
0.5
 40
1.25
  1
年月日
 50
90.0
 41
1.0
 51
0.0
  7
KANJI6
  0
TEXT
  8
7
  6
CONTINUOUS
 62
     4
 10
32.075
 20
30.1875
 30
0.15
 40
1.25
  1
承認
 50
90.0
 41
1.0
 51
0.0
  7
KANJI5
  0
TEXT
  8
7
  6
CONTINUOUS
 62
     4
 10
33.5
 20
19.75
 30
0.0
 40
1.25
  1
熱処理
 50
0.0
 41
1.0
 51
0.0
  7
KANJI7
  0
TEXT
  8
7
  6
CONTINUOUS
 62
     4
 10
45.5
 20
19.75
 30
0.0
 40
1.25
  1
表面処理
 50
0.0
 41
1.0
 51
0.0
  7
KANJI7
  0
TEXT
  8
7
  6
CONTINUOUS
 62
     4
 10
57.5
 20
19.75
 30
0.0
 40
1.25
  1
台数
 50
0.0
 41
1.0
 51
0.0
  7
KANJI7
  0
TEXT
  8
7
  6
CONTINUOUS
 62
     4
 10
65.5
 20
19.75
 30
0.0
 40
1.25
  1
作成日付
 50
0.0
 41
1.0
 51
0.0
  7
KANJI7
  0
TEXT
  8
7
  6
CONTINUOUS
 62
     4
 10
73.5
 20
19.75
 30
0.0
 40
1.25
  1
名称
 50
0.0
 41
1.0
 51
0.0
  7
KANJI7
  0
TEXT
  8
7
  6
CONTINUOUS
 62
     4
 10
33.5
 20
14.25
 30
0.0
 40
1.25
  1
尺度
 50
0.0
 41
1.0
 51
0.0
  7
KANJI7
  0
TEXT
  8
7
  6
CONTINUOUS
 62
     4
 10
41.5
 20
14.25
 30
0.0
 40
1.25
  1
承認
 50
0.0
 41
1.0
 51
0.0
  7
KANJI7
  0
TEXT
  8
7
  6
CONTINUOUS
 62
     4
 10
49.5
 20
14.25
 30
0.0
 40
1.25
  1
検図
 50
0.0
 41
1.0
 51
0.0
  7
KANJI7
  0
TEXT
  8
7
  6
CONTINUOUS
 62
     4
 10
57.5
 20
14.25
 30
0.0
 40
1.25
  1
設計
 50
0.0
 41
1.0
 51
0.0
  7
KANJI7
  0
TEXT
  8
7
  6
CONTINUOUS
 62
     4
 10
65.5
 20
14.25
 30
0.0
 40
1.25
  1
製図
 50
0.0
 41
1.0
 51
0.0
  7
KANJI7
  0
TEXT
  8
7
  6
CONTINUOUS
 62
     4
 10
73.5
 20
14.25
 30
0.0
 40
1.25
  1
機名
 50
0.0
 41
1.0
 51
0.0
  7
KANJI7
  0
TEXT
  8
7
  6
CONTINUOUS
 62
     4
 10
32.075
 20
5.4375
 30
0.15
 40
1.25
  1
記号
 50
90.0
 41
1.0
 51
0.0
  7
KANJI5
  0
TEXT
  8
7
  6
CONTINUOUS
 62
     4
 10
73.5
 20
8.75
 30
0.0
 40
1.25
  1
図面番号
 50
0.0
 41
1.0
 51
0.0
  7
KANJI7
  0
TEXT
  8
7
  6
CONTINUOUS
 62
     4
 10
55.0
 20
7.125
 30
0.0
 40
1.25
  1
株式会社
 50
0.0
 41
1.0
 51
0.0
  7
KANJI7
  0
TEXT
  8
7
  6
CONTINUOUS
 62
     4
 10
61.0
 20
6.75
 30
0.0
 40
2.0
  1
昭和測器
 50
0.0
 41
1.125
 51
0.0
  7
KANJI8
  0
TEXT
  8
7
  6
CONTINUOUS
 62
     4
 10
32.075
 20
9.1875
 30
0.15
 40
1.25
  1
来歴・改訂記事
 50
90.0
 41
1.0
 51
0.0
  7
KANJI5
  0
TEXT
  8
7
  6
CONTINUOUS
 62
     1
 10
34.5
 20
7.75
 30
0.0
 40
2.5
  1
第３
 50
0.0
 41
1.0
 51
0.0
  7
KANJI2
  0
TEXT
  8
7
  6
CONTINUOUS
 62
     1
 10
34.5
 20
5.25
 30
0.0
 40
2.5
  1
角法
 50
0.0
 41
1.0
 51
0.0
  7
KANJI2
  0
CIRCLE
  8
7
  6
CONTINUOUS
 62
     6
 10
36.875
 20
13.0
 40
0.1
  0
CIRCLE
  8
7
  6
CONTINUOUS
 62
     6
 10
36.875
 20
11.75
 40
0.1
  0
TEXT
  8
7
  6
CONTINUOUS
 62
     6
 10
42.3625
 20
6.0125
 30
-0.5
 40
3.5
  1
Ａ４
 50
0.0
 41
0.857142857
 51
0.0
  7
KANJI9
  0
TEXT
  8
7
  6
CONTINUOUS
 62
     6
 10
89.625
 20
2.0
 30
0.0
 40
2.5
  1
４
 50
0.0
 41
1.2
 51
0.0
  7
KANJI1
  0
TEXT
  8
7
  6
CONTINUOUS
 62
     4
 10
58.5
 20
22.5
 30
0.0
 40
2.0
  1
材　　質
 50
0.0
 41
0.875
 51
0.0
  7
KANJI0
  0
TEXT
  8
7
  6
CONTINUOUS
 62
     4
 10
87.125
 20
22.5
 30
0.0
 40
2.0
  1
摘　　　要
 50
0.0
 41
0.875
 51
0.0
  7
KANJI0
  0
TEXT
  8
7
  6
CONTINUOUS
 62
     4
 10
33.75
 20
22.5
 30
0.0
 40
2.0
  1
番号
 50
0.0
 41
0.875
 51
0.0
  7
KANJI0
  0
TEXT
  8
7
  6
CONTINUOUS
 62
     4
 10
42.625
 20
22.5
 30
0.0
 40
2.0
  1
部　品　名
 50
0.0
 41
0.875
 51
0.0
  7
KANJI0
  0
LINE
  8
7
  6
CONTINUOUS
 62
     6
 10
52.5
 20
5.0
 11
52.5
 21
0.0
  0
LINE
  8
7
  6
CONTINUOUS
 62
     6
 10
27.5
 20
5.0
 11
27.5
 21
2.5
  0
LINE
  8
7
  6
CONTINUOUS
 62
     6
 10
77.5
 20
2.5
 11
77.5
 21
5.0
  0
LINE
  8
7
  6
CONTINUOUS
 62
     6
 10
32.5
 20
5.0
 11
32.5
 21
2.5
  0
LINE
  8
7
  6
CONTINUOUS
 62
     6
 10
37.5
 20
5.0
 11
37.5
 21
2.5
  0
LINE
  8
7
  6
CONTINUOUS
 62
     6
 10
42.5
 20
5.0
 11
42.5
 21
2.5
  0
LINE
  8
7
  6
CONTINUOUS
 62
     6
 10
47.5
 20
5.0
 11
47.5
 21
2.5
  0
LINE
  8
7
  6
CONTINUOUS
 62
     6
 10
72.5
 20
2.5
 11
72.5
 21
5.0
  0
LINE
  8
7
  6
CONTINUOUS
 62
     6
 10
67.5
 20
2.5
 11
67.5
 21
5.0
  0
LINE
  8
7
  6
CONTINUOUS
 62
     6
 10
62.5
 20
2.5
 11
62.5
 21
5.0
  0
LINE
  8
7
  6
CONTINUOUS
 62
     6
 10
57.5
 20
2.5
 11
57.5
 21
5.0
  0
LINE
  8
7
  6
CONTINUOUS
 62
     2
 10
33.0
 20
33.5
 11
100.0
 21
33.5
  0
LINE
  8
7
  6
CONTINUOUS
 62
     2
 10
12.5
 20
33.5
 11
33.0
 21
33.5
  0
LINE
  8
7
  6
CONTINUOUS
 62
     2
 10
33.0
 20
29.5
 11
100.0
 21
29.5
  0
LINE
  8
7
  6
CONTINUOUS
 62
     2
 10
12.5
 20
29.5
 11
33.0
 21
29.5
  0
LINE
  8
7
  6
CONTINUOUS
 62
     2
 10
33.0
 20
25.5
 11
33.0
 21
5.0
  0
LINE
  8
7
  6
CONTINUOUS
 62
     2
 10
33.0
 20
33.5
 11
33.0
 21
25.5
  0
LINE
  8
7
  6
CONTINUOUS
 62
     2
 10
38.0
 20
25.5
 11
38.0
 21
21.5
  0
LINE
  8
7
  6
CONTINUOUS
 62
     2
 10
38.0
 20
33.5
 11
38.0
 21
25.5
  0
LINE
  8
7
  6
CONTINUOUS
 62
     2
 10
56.0
 20
25.5
 11
56.0
 21
21.5
  0
LINE
  8
7
  6
CONTINUOUS
 62
     2
 10
56.0
 20
33.5
 11
56.0
 21
25.5
  0
LINE
  8
7
  6
CONTINUOUS
 62
     2
 10
68.0
 20
25.5
 11
68.0
 21
21.5
  0
LINE
  8
7
  6
CONTINUOUS
 62
     2
 10
68.0
 20
33.5
 11
68.0
 21
25.5
  0
LINE
  8
7
  6
CONTINUOUS
 62
     2
 10
73.0
 20
25.5
 11
73.0
 21
21.5
  0
LINE
  8
7
  6
CONTINUOUS
 62
     2
 10
73.0
 20
33.5
 11
73.0
 21
25.5
  0
LINE
  8
7
  6
CONTINUOUS
 62
     2
 10
78.0
 20
25.5
 11
78.0
 21
21.5
  0
LINE
  8
7
  6
CONTINUOUS
 62
     2
 10
78.0
 20
33.5
 11
78.0
 21
25.5
  0
LINE
  8
7
  6
CONTINUOUS
 62
     2
 10
83.0
 20
25.5
 11
83.0
 21
21.5
  0
LINE
  8
7
  6
CONTINUOUS
 62
     2
 10
83.0
 20
33.5
 11
83.0
 21
25.5
  0
LINE
  8
7
  6
CONTINUOUS
 62
     2
 10
73.0
 20
16.0
 11
100.0
 21
16.0
  0
LINE
  8
7
  6
CONTINUOUS
 62
     2
 10
33.0
 20
16.0
 11
73.0
 21
16.0
  0
LINE
  8
7
  6
CONTINUOUS
 62
     2
 10
73.0
 20
10.5
 11
100.0
 21
10.5
  0
LINE
  8
7
  6
CONTINUOUS
 62
     2
 10
33.0
 20
10.5
 11
73.0
 21
10.5
  0
LINE
  8
7
  6
CONTINUOUS
 62
     6
 10
12.5
 20
5.0
 11
73.0
 21
5.0
  0
LINE
  8
7
  6
CONTINUOUS
 62
     6
 10
95.0
 20
5.0
 11
100.0
 21
5.0
  0
LINE
  8
7
  6
CONTINUOUS
 62
     6
 10
73.0
 20
5.0
 11
95.0
 21
5.0
  0
TEXT
  8
6
  6
CONTINUOUS
 62
     5
 10
34.375
 20
11.5
 30
0.0
 40
2.0
  1
２
 50
0.0
 41
0.875
 51
0.0
  7
KANJI0
  0
LINE
  8
0
  6
CONTINUOUS
 62
     2
 10
50.453221403
 20
75.714997502
 11
50.899114063
 21
69.026607604
  0
LINE
  8
0
  6
CONTINUOUS
 62
     2
 10
50.0
 20
76.5
 11
50.453221403
 21
75.714997502
  0
POLYLINE
  8
0
  6
CONTINUOUS
 62
     1
 66
     1
  0
VERTEX
  8
0
  6
CONTINUOUS
 62
     1
 10
50.0
 20
76.5
  0
VERTEX
  8
0
  6
CONTINUOUS
 62
     1
 10
50.475107174
 20
69.373392396
  0
VERTEX
  8
0
  6
CONTINUOUS
 62
     1
 10
50.874221237
 20
69.0
  0
SEQEND
  0
LINE
  8
0
  6
CONTINUOUS
 62
     1
 10
60.0
 20
76.5
 11
59.524892826
 21
69.373392396
  0
LINE
  8
0
  6
CONTINUOUS
 62
     1
 10
50.874221237
 20
69.0
 11
59.125778763
 21
69.0
  0
LINE
  8
0
  6
CONTINUOUS
 62
     1
 10
59.524892826
 20
69.373392396
 11
59.125778763
 21
69.0
  0
LINE
  8
0
  6
CONTINUOUS
 62
     2
 10
60.0
 20
76.5
 11
59.546778597
 21
75.714997502
  0
LINE
  8
0
  6
CONTINUOUS
 62
     2
 10
59.546778597
 20
75.714997502
 11
59.100885937
 21
69.026607604
  0
LINE
  8
0
  6
CONTINUOUS
 62
     1
 10
61.5
 20
83.5
 11
61.5
 21
76.5
  0
LINE
  8
0
  6
CONTINUOUS
 62
     1
 10
48.0
 20
81.55
 11
48.0
 21
83.0
  0
LINE
  8
0
  6
CONTINUOUS
 62
     1
 10
48.0
 20
83.0
 11
48.5
 21
83.0
  0
LINE
  8
0
  6
CONTINUOUS
 62
     1
 10
48.0
 20
78.45
 11
48.0
 21
77.0
  0
LINE
  8
0
  6
CONTINUOUS
 62
     1
 10
48.0
 20
77.0
 11
48.5
 21
77.0
  0
POLYLINE
  8
0
  6
CONTINUOUS
 62
     1
 66
     1
  0
VERTEX
  8
0
  6
CONTINUOUS
 62
     1
 10
48.0
 20
77.0
  0
VERTEX
  8
0
  6
CONTINUOUS
 62
     1
 10
45.5
 20
77.0
  0
VERTEX
  8
0
  6
CONTINUOUS
 62
     1
 10
45.0
 20
77.5
  0
SEQEND
  0
LINE
  8
0
  6
CONTINUOUS
 62
     1
 10
45.5
 20
83.0
 11
48.0
 21
83.0
  0
LINE
  8
0
  6
CONTINUOUS
 62
     1
 10
45.5
 20
83.0
 11
45.0
 21
82.5
  0
LINE
  8
0
  6
CONTINUOUS
 62
     1
 10
45.0
 20
79.5
 11
46.5
 21
79.5
  0
LINE
  8
0
  6
CONTINUOUS
 62
     1
 10
46.5
 20
79.5
 11
46.5
 21
80.5
  0
LINE
  8
0
  6
CONTINUOUS
 62
     1
 10
46.5
 20
80.5
 11
45.0
 21
80.5
  0
LINE
  8
0
  6
CONTINUOUS
 62
     1
 10
45.0
 20
80.5
 11
45.0
 21
82.5
  0
LINE
  8
0
  6
CONTINUOUS
 62
     1
 10
45.0
 20
77.5
 11
45.0
 21
79.5
  0
LINE
  8
0
  6
CONTINUOUS
 62
     1
 10
45.5
 20
77.0
 11
45.5
 21
79.5
  0
LINE
  8
0
  6
CONTINUOUS
 62
     1
 10
45.5
 20
80.5
 11
45.5
 21
83.0
  0
LINE
  8
0
  6
CONTINUOUS
 62
     1
 10
48.0
 20
77.0
 11
48.0
 21
83.0
  0
LINE
  8
0
  6
CONTINUOUS
 62
     1
 10
47.0
 20
83.5
 11
47.0
 21
97.0
  0
LINE
  8
0
  6
CONTINUOUS
 62
     1
 10
63.0
 20
83.5
 11
63.0
 21
97.0
  0
LINE
  8
0
  6
CONTINUOUS
 62
     1
 10
47.0
 20
97.0
 11
47.0
 21
105.5
  0
LINE
  8
0
  6
CONTINUOUS
 62
     1
 10
63.0
 20
97.0
 11
63.0
 21
105.5
  0
LINE
  8
0
  6
CONTINUOUS
 62
     1
 10
47.5
 20
107.5
 11
48.0
 21
108.0
  0
LINE
  8
0
  6
CONTINUOUS
 62
     1
 10
62.5
 20
107.5
 11
62.0
 21
108.0
  0
LINE
  8
0
  6
CONTINUOUS
 62
     1
 10
47.0
 20
105.0
 11
47.5
 21
105.0
  0
LINE
  8
0
  6
CONTINUOUS
 62
     1
 10
47.0
 20
103.0
 11
47.5
 21
103.0
  0
LINE
  8
0
  6
CONTINUOUS
 62
     1
 10
47.0
 20
104.95
 11
47.5
 21
104.95
  0
LINE
  8
0
  6
CONTINUOUS
 62
     1
 10
47.0
 20
103.05
 11
47.5
 21
103.05
  0
LINE
  8
0
  6
CONTINUOUS
 62
     1
 10
48.5
 20
76.5
 11
48.5
 21
83.5
  0
LINE
  8
0
  6
CONTINUOUS
 62
     1
 10
50.0523335
 20
75.714997502
 11
59.9476665
 21
75.714997502
  0
LINE
  8
0
  6
CONTINUOUS
 62
     1
 10
61.5
 20
76.5
 11
48.5
 21
76.5
  0
LINE
  8
0
  6
CONTINUOUS
 62
     1
 10
47.0
 20
83.5
 11
63.0
 21
83.5
  0
LINE
  8
0
  6
CONTINUOUS
 62
     1
 10
47.0
 20
97.0
 11
63.0
 21
97.0
  0
LINE
  8
0
  6
CONTINUOUS
 62
     1
 10
63.0
 20
98.0
 11
47.0
 21
98.0
  0
LINE
  8
0
  6
CONTINUOUS
 62
     1
 10
62.5
 20
107.5
 11
62.5
 21
105.5
  0
LINE
  8
0
  6
CONTINUOUS
 62
     1
 10
48.0
 20
108.0
 11
62.0
 21
108.0
  0
POLYLINE
  8
0
  6
CONTINUOUS
 62
     2
 66
     1
  0
VERTEX
  8
0
  6
CONTINUOUS
 62
     2
 10
47.0
 20
101.5
  0
VERTEX
  8
0
  6
CONTINUOUS
 62
     2
 10
47.2128
 20
101.5824
  0
VERTEX
  8
0
  6
CONTINUOUS
 62
     2
 10
47.4224
 20
101.6692
  0
VERTEX
  8
0
  6
CONTINUOUS
 62
     2
 10
47.6256
 20
101.7648
  0
VERTEX
  8
0
  6
CONTINUOUS
 62
     2
 10
47.8192
 20
101.8736
  0
VERTEX
  8
0
  6
CONTINUOUS
 62
     2
 10
48.0
 20
102.0
  0
VERTEX
  8
0
  6
CONTINUOUS
 62
     2
 10
48.1568
 20
102.1628
  0
VERTEX
  8
0
  6
CONTINUOUS
 62
     2
 10
48.2964
 20
102.3484
  0
VERTEX
  8
0
  6
CONTINUOUS
 62
     2
 10
48.4176
 20
102.5576
  0
VERTEX
  8
0
  6
CONTINUOUS
 62
     2
 10
48.5192
 20
102.7912
  0
VERTEX
  8
0
  6
CONTINUOUS
 62
     2
 10
48.6
 20
103.05
  0
VERTEX
  8
0
  6
CONTINUOUS
 62
     2
 10
48.638
 20
103.338
  0
VERTEX
  8
0
  6
CONTINUOUS
 62
     2
 10
48.658
 20
103.652
  0
VERTEX
  8
0
  6
CONTINUOUS
 62
     2
 10
48.664
 20
103.992
  0
VERTEX
  8
0
  6
CONTINUOUS
 62
     2
 10
48.66
 20
104.358
  0
VERTEX
  8
0
  6
CONTINUOUS
 62
     2
 10
48.65
 20
104.75
  0
VERTEX
  8
0
  6
CONTINUOUS
 62
     2
 10
48.6604
 20
105.2352
  0
VERTEX
  8
0
  6
CONTINUOUS
 62
     2
 10
48.6672
 20
105.7296
  0
VERTEX
  8
0
  6
CONTINUOUS
 62
     2
 10
48.6688
 20
106.2164
  0
VERTEX
  8
0
  6
CONTINUOUS
 62
     2
 10
48.6636
 20
106.6788
  0
VERTEX
  8
0
  6
CONTINUOUS
 62
     2
 10
48.65
 20
107.1
  0
VERTEX
  8
0
  6
CONTINUOUS
 62
     2
 10
48.612
 20
107.3496
  0
VERTEX
  8
0
  6
CONTINUOUS
 62
     2
 10
48.566
 20
107.5528
  0
VERTEX
  8
0
  6
CONTINUOUS
 62
     2
 10
48.514
 20
107.7212
  0
VERTEX
  8
0
  6
CONTINUOUS
 62
     2
 10
48.458
 20
107.8664
  0
VERTEX
  8
0
  6
CONTINUOUS
 62
     2
 10
48.4
 20
108.0
  0
SEQEND
  0
LINE
  8
0
  6
CONTINUOUS
 62
     1
 10
47.5
 20
103.2
 11
48.619791667
 21
103.2
  0
LINE
  8
0
  6
CONTINUOUS
 62
     2
 10
47.5
 20
103.31
 11
48.634305556
 21
103.31
  0
LINE
  8
0
  6
CONTINUOUS
 62
     2
 10
48.651530612
 20
104.69
 11
47.5
 21
104.69
  0
LINE
  8
0
  6
CONTINUOUS
 62
     1
 10
47.5
 20
104.8
 11
48.651071723
 21
104.8
  0
LINE
  8
0
  6
LTYPE3
 62
     2
 10
45.5
 20
104.0
 11
50.164
 21
104.0
  0
LINE
  8
0
  6
CONTINUOUS
 62
     1
 10
48.577952756
 20
107.5
 11
62.5
 21
107.5
  0
LINE
  8
0
  6
CONTINUOUS
 62
     1
 10
47.0
 20
105.5
 11
47.5
 21
105.5
  0
LINE
  8
0
  6
CONTINUOUS
 62
     1
 10
48.664042071
 20
105.5
 11
63.0
 21
105.5
  0
LINE
  8
0
  6
CONTINUOUS
 62
     1
 10
47.5
 20
101.705708661
 11
47.5
 21
107.5
  0
LINE
  8
0
  6
LTYPE1
 62
     2
 10
46.9
 20
77.0
 11
46.9
 21
83.0
  0
LINE
  8
0
  6
LTYPE1
 62
     2
 10
46.1
 20
80.5
 11
46.1
 21
83.0
  0
LINE
  8
0
  6
LTYPE1
 62
     2
 10
46.1
 20
77.0
 11
46.1
 21
79.5
  0
LINE
  8
0
  6
LTYPE3
 62
     2
 10
46.5
 20
75.5
 11
46.5
 21
84.5
  0
LINE
  8
0
  6
LTYPE3
 62
     2
 10
50.0
 20
80.0
 11
43.5
 21
80.0
  0
LINE
  8
0
  6
CONTINUOUS
 62
     1
 10
55.0
 20
76.5
 11
55.0
 21
83.5
  0
LINE
  8
0
  6
CONTINUOUS
 62
     2
 10
48.5
 20
83.5
 11
55.0
 21
76.5
  0
LINE
  8
0
  6
CONTINUOUS
 62
     2
 10
55.0
 20
76.5
 11
61.5
 21
83.5
  0
LINE
  8
0
  6
CONTINUOUS
 62
     2
 10
61.5
 20
76.5
 11
55.0
 21
83.5
  0
LINE
  8
0
  6
CONTINUOUS
 62
     2
 10
55.0
 20
83.5
 11
48.5
 21
76.5
  0
LINE
  8
0
  6
CONTINUOUS
 62
     1
 10
48.0
 20
114.5
 11
47.5
 21
114.0
  0
LINE
  8
0
  6
CONTINUOUS
 62
     1
 10
47.5
 20
114.0
 11
47.5
 21
109.0
  0
LINE
  8
0
  6
CONTINUOUS
 62
     1
 10
48.0
 20
108.5
 11
47.5
 21
109.0
  0
LINE
  8
0
  6
CONTINUOUS
 62
     1
 10
48.0
 20
108.5
 11
62.0
 21
108.5
  0
LINE
  8
0
  6
CONTINUOUS
 62
     1
 10
62.5
 20
109.0
 11
62.0
 21
108.5
  0
LINE
  8
0
  6
CONTINUOUS
 62
     1
 10
62.5
 20
109.0
 11
62.5
 21
114.0
  0
LINE
  8
0
  6
CONTINUOUS
 62
     1
 10
62.0
 20
114.5
 11
62.5
 21
114.0
  0
LINE
  8
0
  6
CONTINUOUS
 62
     1
 10
52.0
 20
108.5
 11
52.0
 21
114.5
  0
LINE
  8
0
  6
CONTINUOUS
 62
     1
 10
53.5
 20
108.5
 11
53.5
 21
114.5
  0
LINE
  8
0
  6
CONTINUOUS
 62
     1
 10
62.5
 20
114.0
 11
55.0
 21
114.0
  0
LINE
  8
0
  6
CONTINUOUS
 62
     1
 10
53.5
 20
114.5
 11
48.0
 21
114.5
  0
LINE
  8
0
  6
CONTINUOUS
 62
     1
 10
62.0
 20
114.5
 11
55.0
 21
114.5
  0
LINE
  8
0
  6
CONTINUOUS
 62
     1
 10
62.5
 20
109.0
 11
55.0
 21
109.0
  0
LINE
  8
0
  6
CONTINUOUS
 62
     1
 10
48.126136458
 20
114.0
 11
48.67544468
 21
114.5
  0
LINE
  8
0
  6
CONTINUOUS
 62
     1
 10
48.126136458
 20
109.0
 11
48.67544468
 21
108.5
  0
LINE
  8
0
  6
CONTINUOUS
 62
     1
 10
48.126136458
 20
109.0
 11
48.126136458
 21
114.0
  0
LINE
  8
0
  6
CONTINUOUS
 62
     1
 10
48.126136458
 20
114.0
 11
47.5
 21
114.0
  0
LINE
  8
0
  6
CONTINUOUS
 62
     1
 10
53.5
 20
114.0
 11
52.0
 21
114.0
  0
LINE
  8
0
  6
CONTINUOUS
 62
     1
 10
48.126136458
 20
109.0
 11
47.5
 21
109.0
  0
LINE
  8
0
  6
CONTINUOUS
 62
     1
 10
53.5
 20
109.0
 11
52.0
 21
109.0
  0
LINE
  8
0
  6
CONTINUOUS
 62
     1
 10
52.0
 20
108.7
 11
52.0
 21
114.3
  0
LINE
  8
0
  6
CONTINUOUS
 62
     2
 10
52.0
 20
111.5
 11
49.2
 21
111.5
  0
LINE
  8
0
  6
CONTINUOUS
 62
     1
 10
49.0
 20
109.0
 11
49.0
 21
114.0
  0
LINE
  8
0
  6
CONTINUOUS
 62
     1
 10
49.2
 20
108.7
 11
49.2
 21
114.3
  0
LINE
  8
0
  6
CONTINUOUS
 62
     1
 10
52.0
 20
114.3
 11
49.2
 21
114.3
  0
LINE
  8
0
  6
CONTINUOUS
 62
     1
 10
49.0
 20
114.0
 11
49.2
 21
114.3
  0
LINE
  8
0
  6
CONTINUOUS
 62
     1
 10
52.0
 20
108.7
 11
49.2
 21
108.7
  0
LINE
  8
0
  6
CONTINUOUS
 62
     1
 10
49.2
 20
108.7
 11
49.0
 21
109.0
  0
LINE
  8
0
  6
CONTINUOUS
 62
     2
 10
52.0
 20
109.1
 11
49.2
 21
109.1
  0
LINE
  8
0
  6
CONTINUOUS
 62
     2
 10
52.0
 20
113.9
 11
49.2
 21
113.9
  0
LINE
  8
0
  6
CONTINUOUS
 62
     2
 10
52.0
 20
109.6
 11
49.2
 21
109.6
  0
LINE
  8
0
  6
CONTINUOUS
 62
     2
 10
52.0
 20
113.4
 11
49.2
 21
113.4
  0
LINE
  8
0
  6
CONTINUOUS
 62
     2
 10
52.0
 20
112.8
 11
49.2
 21
112.8
  0
LINE
  8
0
  6
CONTINUOUS
 62
     2
 10
52.0
 20
110.2
 11
49.2
 21
110.2
  0
LINE
  8
0
  6
CONTINUOUS
 62
     2
 10
52.0
 20
112.2
 11
49.2
 21
112.2
  0
LINE
  8
0
  6
CONTINUOUS
 62
     2
 10
52.0
 20
110.8
 11
49.2
 21
110.8
  0
LINE
  8
0
  6
CONTINUOUS
 62
     1
 10
55.0
 20
108.5
 11
55.0
 21
114.5
  0
LINE
  8
0
  6
CONTINUOUS
 62
     2
 10
53.5
 20
112.6
 11
55.0
 21
112.6
  0
LINE
  8
0
  6
CONTINUOUS
 62
     2
 10
55.0
 20
110.4
 11
53.5
 21
110.4
  0
LINE
  8
0
  6
CONTINUOUS
 62
     1
 10
53.5
 20
110.0
 11
55.0
 21
110.0
  0
LINE
  8
0
  6
CONTINUOUS
 62
     1
 10
53.5
 20
113.0
 11
55.0
 21
113.0
  0
POLYLINE
  8
0
  6
CONTINUOUS
 62
     2
 66
     1
 70
     1
  0
VERTEX
  8
0
  6
CONTINUOUS
 62
     2
 10
60.187453484
 20
113.0
 42
0.022636482
  0
VERTEX
  8
0
  6
CONTINUOUS
 62
     2
 10
60.061444051
 20
112.994292047
 42
0.022613576
  0
VERTEX
  8
0
  6
CONTINUOUS
 62
     2
 10
59.936393626
 20
112.97721163
 42
0.022565327
  0
VERTEX
  8
0
  6
CONTINUOUS
 62
     2
 10
59.813253919
 20
112.948888739
 42
0.022493512
  0
VERTEX
  8
0
  6
CONTINUOUS
 62
     2
 10
59.692962095
 20
112.909538931
 42
0.02240074
  0
VERTEX
  8
0
  6
CONTINUOUS
 62
     2
 10
59.57643365
 20
112.859461681
 42
0.022290311
  0
VERTEX
  8
0
  6
CONTINUOUS
 62
     2
 10
59.464555435
 20
112.799038106
 42
0.022166059
  0
VERTEX
  8
0
  6
CONTINUOUS
 62
     2
 10
59.358178911
 20
112.728728066
 42
0.02203217
  0
VERTEX
  8
0
  6
CONTINUOUS
 62
     2
 10
59.258113666
 20
112.649066665
 42
0.02189301
  0
VERTEX
  8
0
  6
CONTINUOUS
 62
     2
 10
59.165121259
 20
112.560660172
 42
0.021752955
  0
VERTEX
  8
0
  6
CONTINUOUS
 62
     2
 10
59.079909418
 20
112.464181415
 42
0.021616248
  0
VERTEX
  8
0
  6
CONTINUOUS
 62
     2
 10
59.003126655
 20
112.360364655
 42
0.021486873
  0
VERTEX
  8
0
  6
CONTINUOUS
 62
     2
 10
58.935357335
 20
112.25
 42
0.021368463
  0
VERTEX
  8
0
  6
CONTINUOUS
 62
     2
 10
58.877117223
 20
112.133927393
 42
0.021264224
  0
VERTEX
  8
0
  6
CONTINUOUS
 62
     2
 10
58.82884956
 20
112.013030215
 42
0.021176886
  0
VERTEX
  8
0
  6
CONTINUOUS
 62
     2
 10
58.790921694
 20
111.888228568
 42
0.021108671
  0
VERTEX
  8
0
  6
CONTINUOUS
 62
     2
 10
58.763622278
 20
111.760472267
 42
0.021061273
  0
VERTEX
  8
0
  6
CONTINUOUS
 62
     2
 10
58.747159077
 20
111.630733614
 42
0.021035849
  0
VERTEX
  8
0
  6
CONTINUOUS
 62
     2
 10
58.741657387
 20
111.5
 42
0.021033009
  0
VERTEX
  8
0
  6
CONTINUOUS
 62
     2
 10
58.747159077
 20
111.369266386
 42
0.021052824
  0
VERTEX
  8
0
  6
CONTINUOUS
 62
     2
 10
58.763622278
 20
111.239527733
 42
0.021094816
  0
VERTEX
  8
0
  6
CONTINUOUS
 62
     2
 10
58.790921694
 20
111.111771432
 42
0.021157964
  0
VERTEX
  8
0
  6
CONTINUOUS
 62
     2
 10
58.82884956
 20
110.986969785
 42
0.021240709
  0
VERTEX
  8
0
  6
CONTINUOUS
 62
     2
 10
58.877117223
 20
110.866072607
 42
0.02134096
  0
VERTEX
  8
0
  6
CONTINUOUS
 62
     2
 10
58.935357335
 20
110.75
 42
0.02145611
  0
VERTEX
  8
0
  6
CONTINUOUS
 62
     2
 10
59.003126655
 20
110.639635345
 42
0.021583068
  0
VERTEX
  8
0
  6
CONTINUOUS
 62
     2
 10
59.079909418
 20
110.535818585
 42
0.021718304
  0
VERTEX
  8
0
  6
CONTINUOUS
 62
     2
 10
59.165121259
 20
110.439339828
 42
0.021857911
  0
VERTEX
  8
0
  6
CONTINUOUS
 62
     2
 10
59.258113666
 20
110.350933335
 42
0.021997703
  0
VERTEX
  8
0
  6
CONTINUOUS
 62
     2
 10
59.358178911
 20
110.271271934
 42
0.022133321
  0
VERTEX
  8
0
  6
CONTINUOUS
 62
     2
 10
59.464555435
 20
110.200961894
 42
0.022260385
  0
VERTEX
  8
0
  6
CONTINUOUS
 62
     2
 10
59.57643365
 20
110.140538319
 42
0.022374646
  0
VERTEX
  8
0
  6
CONTINUOUS
 62
     2
 10
59.692962095
 20
110.090461069
 42
0.022472166
  0
VERTEX
  8
0
  6
CONTINUOUS
 62
     2
 10
59.813253919
 20
110.051111261
 42
0.022549494
  0
VERTEX
  8
0
  6
CONTINUOUS
 62
     2
 10
59.936393626
 20
110.02278837
 42
0.022603835
  0
VERTEX
  8
0
  6
CONTINUOUS
 62
     2
 10
60.061444051
 20
110.005707953
 42
0.022633194
  0
VERTEX
  8
0
  6
CONTINUOUS
 62
     2
 10
60.187453484
 20
110.0
 42
0.022636482
  0
VERTEX
  8
0
  6
CONTINUOUS
 62
     2
 10
60.313462916
 20
110.005707953
 42
0.022613576
  0
VERTEX
  8
0
  6
CONTINUOUS
 62
     2
 10
60.438513341
 20
110.02278837
 42
0.022565327
  0
VERTEX
  8
0
  6
CONTINUOUS
 62
     2
 10
60.561653049
 20
110.051111261
 42
0.022493512
  0
VERTEX
  8
0
  6
CONTINUOUS
 62
     2
 10
60.681944872
 20
110.090461069
 42
0.02240074
  0
VERTEX
  8
0
  6
CONTINUOUS
 62
     2
 10
60.798473317
 20
110.140538319
 42
0.022290311
  0
VERTEX
  8
0
  6
CONTINUOUS
 62
     2
 10
60.910351532
 20
110.200961894
 42
0.022166059
  0
VERTEX
  8
0
  6
CONTINUOUS
 62
     2
 10
61.016728057
 20
110.271271934
 42
0.02203217
  0
VERTEX
  8
0
  6
CONTINUOUS
 62
     2
 10
61.116793301
 20
110.350933335
 42
0.02189301
  0
VERTEX
  8
0
  6
CONTINUOUS
 62
     2
 10
61.209785708
 20
110.439339828
 42
0.021752955
  0
VERTEX
  8
0
  6
CONTINUOUS
 62
     2
 10
61.29499755
 20
110.535818585
 42
0.021616248
  0
VERTEX
  8
0
  6
CONTINUOUS
 62
     2
 10
61.371780312
 20
110.639635345
 42
0.021486873
  0
VERTEX
  8
0
  6
CONTINUOUS
 62
     2
 10
61.439549632
 20
110.75
 42
0.021368463
  0
VERTEX
  8
0
  6
CONTINUOUS
 62
     2
 10
61.497789745
 20
110.866072607
 42
0.021264224
  0
VERTEX
  8
0
  6
CONTINUOUS
 62
     2
 10
61.546057407
 20
110.986969785
 42
0.021176886
  0
VERTEX
  8
0
  6
CONTINUOUS
 62
     2
 10
61.583985273
 20
111.111771432
 42
0.021108671
  0
VERTEX
  8
0
  6
CONTINUOUS
 62
     2
 10
61.611284689
 20
111.239527733
 42
0.021061273
  0
VERTEX
  8
0
  6
CONTINUOUS
 62
     2
 10
61.62774789
 20
111.369266386
 42
0.021035849
  0
VERTEX
  8
0
  6
CONTINUOUS
 62
     2
 10
61.633249581
 20
111.5
 42
0.021033009
  0
VERTEX
  8
0
  6
CONTINUOUS
 62
     2
 10
61.62774789
 20
111.630733614
 42
0.021052824
  0
VERTEX
  8
0
  6
CONTINUOUS
 62
     2
 10
61.611284689
 20
111.760472267
 42
0.021094816
  0
VERTEX
  8
0
  6
CONTINUOUS
 62
     2
 10
61.583985273
 20
111.888228568
 42
0.021157964
  0
VERTEX
  8
0
  6
CONTINUOUS
 62
     2
 10
61.546057407
 20
112.013030215
 42
0.021240709
  0
VERTEX
  8
0
  6
CONTINUOUS
 62
     2
 10
61.497789745
 20
112.133927393
 42
0.02134096
  0
VERTEX
  8
0
  6
CONTINUOUS
 62
     2
 10
61.439549632
 20
112.25
 42
0.02145611
  0
VERTEX
  8
0
  6
CONTINUOUS
 62
     2
 10
61.371780312
 20
112.360364655
 42
0.021583068
  0
VERTEX
  8
0
  6
CONTINUOUS
 62
     2
 10
61.29499755
 20
112.464181415
 42
0.021718304
  0
VERTEX
  8
0
  6
CONTINUOUS
 62
     2
 10
61.209785708
 20
112.560660172
 42
0.021857911
  0
VERTEX
  8
0
  6
CONTINUOUS
 62
     2
 10
61.116793301
 20
112.649066665
 42
0.021997703
  0
VERTEX
  8
0
  6
CONTINUOUS
 62
     2
 10
61.016728057
 20
112.728728066
 42
0.022133321
  0
VERTEX
  8
0
  6
CONTINUOUS
 62
     2
 10
60.910351532
 20
112.799038106
 42
0.022260385
  0
VERTEX
  8
0
  6
CONTINUOUS
 62
     2
 10
60.798473317
 20
112.859461681
 42
0.022374646
  0
VERTEX
  8
0
  6
CONTINUOUS
 62
     2
 10
60.681944872
 20
112.909538931
 42
0.022472166
  0
VERTEX
  8
0
  6
CONTINUOUS
 62
     2
 10
60.561653049
 20
112.948888739
 42
0.022549494
  0
VERTEX
  8
0
  6
CONTINUOUS
 62
     2
 10
60.438513341
 20
112.97721163
 42
0.022603835
  0
VERTEX
  8
0
  6
CONTINUOUS
 62
     2
 10
60.313462916
 20
112.994292047
 42
0.022633194
  0
SEQEND
  8
0
  6
CONTINUOUS
 62
     2
  0
POLYLINE
  8
0
  6
CONTINUOUS
 62
     1
 66
     1
 70
     1
  0
VERTEX
  8
0
  6
CONTINUOUS
 62
     1
 10
60.284865899
 20
112.6
 42
0.02140481
  0
VERTEX
  8
0
  6
CONTINUOUS
 62
     1
 10
60.1871311
 20
112.595814168
 42
0.021415537
  0
VERTEX
  8
0
  6
CONTINUOUS
 62
     1
 10
60.090140122
 20
112.583288528
 42
0.021438239
  0
VERTEX
  8
0
  6
CONTINUOUS
 62
     1
 10
59.994631125
 20
112.562518409
 42
0.0214723
  0
VERTEX
  8
0
  6
CONTINUOUS
 62
     1
 10
59.90133099
 20
112.533661883
 42
0.021516786
  0
VERTEX
  8
0
  6
CONTINUOUS
 62
     1
 10
59.810949787
 20
112.496938566
 42
0.021570466
  0
VERTEX
  8
0
  6
CONTINUOUS
 62
     1
 10
59.724175372
 20
112.452627944
 42
0.021631831
  0
VERTEX
  8
0
  6
CONTINUOUS
 62
     1
 10
59.641668151
 20
112.401067249
 42
0.02169913
  0
VERTEX
  8
0
  6
CONTINUOUS
 62
     1
 10
59.564056052
 20
112.342648887
 42
0.021770404
  0
VERTEX
  8
0
  6
CONTINUOUS
 62
     1
 10
59.491929752
 20
112.277817459
 42
0.021843541
  0
VERTEX
  8
0
  6
CONTINUOUS
 62
     1
 10
59.425838175
 20
112.207066371
 42
0.021916328
  0
VERTEX
  8
0
  6
CONTINUOUS
 62
     1
 10
59.366284317
 20
112.13093408
 42
0.021986521
  0
VERTEX
  8
0
  6
CONTINUOUS
 62
     1
 10
59.31372142
 20
112.05
 42
0.022051911
  0
VERTEX
  8
0
  6
CONTINUOUS
 62
     1
 10
59.268549518
 20
111.964880088
 42
0.022110407
  0
VERTEX
  8
0
  6
CONTINUOUS
 62
     1
 10
59.231112398
 20
111.876222158
 42
0.022160104
  0
VERTEX
  8
0
  6
CONTINUOUS
 62
     1
 10
59.201694979
 20
111.78470095
 42
0.022199363
  0
VERTEX
  8
0
  6
CONTINUOUS
 62
     1
 10
59.180521144
 20
111.691012995
 42
0.022226874
  0
VERTEX
  8
0
  6
CONTINUOUS
 62
     1
 10
59.167752039
 20
111.595871317
 42
0.02224171
  0
VERTEX
  8
0
  6
CONTINUOUS
 62
     1
 10
59.163484846
 20
111.5
 42
0.02224337
  0
VERTEX
  8
0
  6
CONTINUOUS
 62
     1
 10
59.167752039
 20
111.404128683
 42
0.022231798
  0
VERTEX
  8
0
  6
CONTINUOUS
 62
     1
 10
59.180521144
 20
111.308987005
 42
0.022207385
  0
VERTEX
  8
0
  6
CONTINUOUS
 62
     1
 10
59.201694979
 20
111.21529905
 42
0.022170955
  0
VERTEX
  8
0
  6
CONTINUOUS
 62
     1
 10
59.231112398
 20
111.123777842
 42
0.022123725
  0
VERTEX
  8
0
  6
CONTINUOUS
 62
     1
 10
59.268549518
 20
111.035119912
 42
0.02206726
  0
VERTEX
  8
0
  6
CONTINUOUS
 62
     1
 10
59.31372142
 20
110.95
 42
0.022003403
  0
VERTEX
  8
0
  6
CONTINUOUS
 62
     1
 10
59.366284317
 20
110.86906592
 42
0.021934207
  0
VERTEX
  8
0
  6
CONTINUOUS
 62
     1
 10
59.425838175
 20
110.792933629
 42
0.021861858
  0
VERTEX
  8
0
  6
CONTINUOUS
 62
     1
 10
59.491929752
 20
110.722182541
 42
0.021788599
  0
VERTEX
  8
0
  6
CONTINUOUS
 62
     1
 10
59.564056052
 20
110.657351113
 42
0.021716656
  0
VERTEX
  8
0
  6
CONTINUOUS
 62
     1
 10
59.641668151
 20
110.598932751
 42
0.021648173
  0
VERTEX
  8
0
  6
CONTINUOUS
 62
     1
 10
59.724175372
 20
110.547372056
 42
0.021585151
  0
VERTEX
  8
0
  6
CONTINUOUS
 62
     1
 10
59.810949787
 20
110.503061434
 42
0.021529399
  0
VERTEX
  8
0
  6
CONTINUOUS
 62
     1
 10
59.90133099
 20
110.466338117
 42
0.021482487
  0
VERTEX
  8
0
  6
CONTINUOUS
 62
     1
 10
59.994631125
 20
110.437481591
 42
0.021445721
  0
VERTEX
  8
0
  6
CONTINUOUS
 62
     1
 10
60.090140122
 20
110.416711472
 42
0.021420109
  0
VERTEX
  8
0
  6
CONTINUOUS
 62
     1
 10
60.1871311
 20
110.404185832
 42
0.021406348
  0
VERTEX
  8
0
  6
CONTINUOUS
 62
     1
 10
60.284865899
 20
110.4
 42
0.02140481
  0
VERTEX
  8
0
  6
CONTINUOUS
 62
     1
 10
60.382600697
 20
110.404185832
 42
0.021415537
  0
VERTEX
  8
0
  6
CONTINUOUS
 62
     1
 10
60.479591675
 20
110.416711472
 42
0.021438239
  0
VERTEX
  8
0
  6
CONTINUOUS
 62
     1
 10
60.575100672
 20
110.437481591
 42
0.0214723
  0
VERTEX
  8
0
  6
CONTINUOUS
 62
     1
 10
60.668400807
 20
110.466338117
 42
0.021516786
  0
VERTEX
  8
0
  6
CONTINUOUS
 62
     1
 10
60.75878201
 20
110.503061434
 42
0.021570466
  0
VERTEX
  8
0
  6
CONTINUOUS
 62
     1
 10
60.845556425
 20
110.547372056
 42
0.021631831
  0
VERTEX
  8
0
  6
CONTINUOUS
 62
     1
 10
60.928063647
 20
110.598932751
 42
0.02169913
  0
VERTEX
  8
0
  6
CONTINUOUS
 62
     1
 10
61.005675745
 20
110.657351113
 42
0.021770404
  0
VERTEX
  8
0
  6
CONTINUOUS
 62
     1
 10
61.077802045
 20
110.722182541
 42
0.021843541
  0
VERTEX
  8
0
  6
CONTINUOUS
 62
     1
 10
61.143893623
 20
110.792933629
 42
0.021916328
  0
VERTEX
  8
0
  6
CONTINUOUS
 62
     1
 10
61.20344748
 20
110.86906592
 42
0.021986521
  0
VERTEX
  8
0
  6
CONTINUOUS
 62
     1
 10
61.256010377
 20
110.95
 42
0.022051911
  0
VERTEX
  8
0
  6
CONTINUOUS
 62
     1
 10
61.301182279
 20
111.035119912
 42
0.022110407
  0
VERTEX
  8
0
  6
CONTINUOUS
 62
     1
 10
61.338619399
 20
111.123777842
 42
0.022160104
  0
VERTEX
  8
0
  6
CONTINUOUS
 62
     1
 10
61.368036818
 20
111.21529905
 42
0.022199363
  0
VERTEX
  8
0
  6
CONTINUOUS
 62
     1
 10
61.389210653
 20
111.308987005
 42
0.022226874
  0
VERTEX
  8
0
  6
CONTINUOUS
 62
     1
 10
61.401979758
 20
111.404128683
 42
0.02224171
  0
VERTEX
  8
0
  6
CONTINUOUS
 62
     1
 10
61.406246951
 20
111.5
 42
0.02224337
  0
VERTEX
  8
0
  6
CONTINUOUS
 62
     1
 10
61.401979758
 20
111.595871317
 42
0.022231798
  0
VERTEX
  8
0
  6
CONTINUOUS
 62
     1
 10
61.389210653
 20
111.691012995
 42
0.022207385
  0
VERTEX
  8
0
  6
CONTINUOUS
 62
     1
 10
61.368036818
 20
111.78470095
 42
0.022170955
  0
VERTEX
  8
0
  6
CONTINUOUS
 62
     1
 10
61.338619399
 20
111.876222158
 42
0.022123725
  0
VERTEX
  8
0
  6
CONTINUOUS
 62
     1
 10
61.301182279
 20
111.964880088
 42
0.02206726
  0
VERTEX
  8
0
  6
CONTINUOUS
 62
     1
 10
61.256010377
 20
112.05
 42
0.022003403
  0
VERTEX
  8
0
  6
CONTINUOUS
 62
     1
 10
61.20344748
 20
112.13093408
 42
0.021934207
  0
VERTEX
  8
0
  6
CONTINUOUS
 62
     1
 10
61.143893623
 20
112.207066371
 42
0.021861858
  0
VERTEX
  8
0
  6
CONTINUOUS
 62
     1
 10
61.077802045
 20
112.277817459
 42
0.021788599
  0
VERTEX
  8
0
  6
CONTINUOUS
 62
     1
 10
61.005675745
 20
112.342648887
 42
0.021716656
  0
VERTEX
  8
0
  6
CONTINUOUS
 62
     1
 10
60.928063647
 20
112.401067249
 42
0.021648173
  0
VERTEX
  8
0
  6
CONTINUOUS
 62
     1
 10
60.845556425
 20
112.452627944
 42
0.021585151
  0
VERTEX
  8
0
  6
CONTINUOUS
 62
     1
 10
60.75878201
 20
112.496938566
 42
0.021529399
  0
VERTEX
  8
0
  6
CONTINUOUS
 62
     1
 10
60.668400807
 20
112.533661883
 42
0.021482487
  0
VERTEX
  8
0
  6
CONTINUOUS
 62
     1
 10
60.575100672
 20
112.562518409
 42
0.021445721
  0
VERTEX
  8
0
  6
CONTINUOUS
 62
     1
 10
60.479591675
 20
112.583288528
 42
0.021420109
  0
VERTEX
  8
0
  6
CONTINUOUS
 62
     1
 10
60.382600697
 20
112.595814168
 42
0.021406348
  0
SEQEND
  8
0
  6
CONTINUOUS
 62
     1
  0
LINE
  8
0
  6
CONTINUOUS
 62
     2
 10
51.0
 20
108.5
 11
51.25
 21
108.066987298
  0
LINE
  8
0
  6
CONTINUOUS
 62
     2
 10
59.0
 20
108.5
 11
58.75
 21
108.066987298
  0
LINE
  8
0
  6
CONTINUOUS
 62
     1
 10
51.0
 20
108.066987298
 11
59.0
 21
108.066987298
  0
LINE
  8
0
  6
CONTINUOUS
 62
     1
 10
52.45
 20
124.048482756
 11
52.45
 21
114.5
  0
LINE
  8
0
  6
CONTINUOUS
 62
     1
 10
57.55
 20
124.048482756
 11
57.55
 21
114.5
  0
LINE
  8
0
  6
CONTINUOUS
 62
     1
 10
52.45
 20
124.048482756
 11
57.55
 21
124.048482756
  0
LINE
  8
0
  6
CONTINUOUS
 62
     1
 10
51.0
 20
108.5
 11
51.0
 21
108.0
  0
LINE
  8
0
  6
CONTINUOUS
 62
     2
 10
51.25
 20
108.0
 11
51.25
 21
108.066987298
  0
LINE
  8
0
  6
CONTINUOUS
 62
     2
 10
58.75
 20
108.0
 11
58.75
 21
108.066987298
  0
LINE
  8
0
  6
CONTINUOUS
 62
     1
 10
59.0
 20
108.0
 11
59.0
 21
108.5
  0
ARC
  8
0
  6
CONTINUOUS
 62
     1
 10
56.0
 20
133.298482756
 40
1.25
 50
36.869897646
 51
143.130102354
  0
ARC
  8
0
  6
CONTINUOUS
 62
     1
 10
54.0
 20
133.298482756
 40
1.25
 50
36.869897646
 51
143.130102354
  0
ARC
  8
0
  6
CONTINUOUS
 62
     1
 10
56.0
 20
134.798482756
 40
1.25
 50
216.869897646
 51
323.130102354
  0
LINE
  8
0
  6
CONTINUOUS
 62
     1
 10
57.0
 20
124.048482756
 11
57.0
 21
134.048482756
  0
LINE
  8
0
  6
CONTINUOUS
 62
     1
 10
53.0
 20
134.048482756
 11
53.0
 21
124.048482756
  0
LINE
  8
0
  6
LTYPE3
 62
     2
 10
55.0
 20
136.548482756
 11
55.0
 21
66.5
  0
LINE
  8
5
  6
CONTINUOUS
 62
     2
 10
59.625778763
 20
69.0
 11
69.5
 21
69.0
  0
LINE
  8
5
  6
CONTINUOUS
 62
     2
 10
69.0
 20
69.0
 11
69.323523806
 21
70.207407283
  0
LINE
  8
5
  6
CONTINUOUS
 62
     2
 10
69.0
 20
69.0
 11
68.676476194
 21
70.207407283
  0
LINE
  8
5
  6
CONTINUOUS
 62
     2
 10
69.0
 20
69.0
 11
69.0
 21
75.714997502
  0
LINE
  8
5
  6
CONTINUOUS
 62
     2
 10
69.0
 20
75.714997502
 11
68.676476194
 21
74.50759022
  0
LINE
  8
5
  6
CONTINUOUS
 62
     2
 10
69.0
 20
75.714997502
 11
69.323523806
 21
74.50759022
  0
LINE
  8
5
  6
CONTINUOUS
 62
     2
 10
60.4476665
 20
75.714997502
 11
69.5
 21
75.714997502
  0
TEXT
  8
5
  6
CONTINUOUS
 62
     5
 10
68.5
 20
69.682498751
 30
0.05
 40
2.0
  1
６．５
 50
90.0
 41
0.875
 51
0.0
  7
KANJI10
  0
LINE
  8
5
  6
CONTINUOUS
 62
     2
 10
69.5
 20
69.0
 11
73.5
 21
69.0
  0
LINE
  8
5
  6
CONTINUOUS
 62
     2
 10
73.0
 20
69.0
 11
73.323523806
 21
70.207407283
  0
LINE
  8
5
  6
CONTINUOUS
 62
     2
 10
73.0
 20
69.0
 11
72.676476194
 21
70.207407283
  0
LINE
  8
5
  6
CONTINUOUS
 62
     2
 10
73.0
 20
69.0
 11
73.0
 21
76.5
  0
LINE
  8
5
  6
CONTINUOUS
 62
     2
 10
73.0
 20
76.5
 11
72.676476194
 21
75.292592717
  0
LINE
  8
5
  6
CONTINUOUS
 62
     2
 10
73.0
 20
76.5
 11
73.323523806
 21
75.292592717
  0
LINE
  8
5
  6
CONTINUOUS
 62
     2
 10
62.0
 20
76.5
 11
73.5
 21
76.5
  0
TEXT
  8
5
  6
CONTINUOUS
 62
     5
 10
72.5
 20
70.075
 30
0.05
 40
2.0
  1
７．５
 50
90.0
 41
0.875
 51
0.0
  7
KANJI10
  0
LINE
  8
5
  6
CONTINUOUS
 62
     2
 10
73.5
 20
69.0
 11
77.5
 21
69.0
  0
LINE
  8
5
  6
CONTINUOUS
 62
     2
 10
77.0
 20
69.0
 11
77.323523806
 21
70.207407283
  0
LINE
  8
5
  6
CONTINUOUS
 62
     2
 10
77.0
 20
69.0
 11
76.676476194
 21
70.207407283
  0
LINE
  8
5
  6
CONTINUOUS
 62
     2
 10
77.0
 20
69.0
 11
77.0
 21
108.0
  0
LINE
  8
5
  6
CONTINUOUS
 62
     2
 10
77.0
 20
108.0
 11
76.676476194
 21
106.792592717
  0
LINE
  8
5
  6
CONTINUOUS
 62
     2
 10
77.0
 20
108.0
 11
77.323523806
 21
106.792592717
  0
LINE
  8
5
  6
CONTINUOUS
 62
     2
 10
62.5
 20
108.0
 11
77.5
 21
108.0
  0
TEXT
  8
5
  6
CONTINUOUS
 62
     5
 10
76.5
 20
86.725
 30
0.05
 40
2.0
  1
３９
 50
90.0
 41
0.875
 51
0.0
  7
KANJI10
  0
LINE
  8
5
  6
CONTINUOUS
 62
     2
 10
62.5
 20
114.5
 11
77.5
 21
114.5
  0
LINE
  8
5
  6
CONTINUOUS
 62
     2
 10
77.0
 20
114.5
 11
76.676476194
 21
113.292592717
  0
LINE
  8
5
  6
CONTINUOUS
 62
     2
 10
77.0
 20
114.5
 11
77.323523806
 21
113.292592717
  0
LINE
  8
5
  6
CONTINUOUS
 62
     2
 10
77.0
 20
114.5
 11
77.0
 21
108.0
  0
LINE
  8
5
  6
CONTINUOUS
 62
     2
 10
77.0
 20
108.0
 11
77.323523806
 21
109.207407283
  0
LINE
  8
5
  6
CONTINUOUS
 62
     2
 10
77.0
 20
108.0
 11
76.676476194
 21
109.207407283
  0
LINE
  8
5
  6
CONTINUOUS
 62
     2
 10
47.0
 20
106.0
 11
47.0
 21
139.048482756
  0
LINE
  8
5
  6
CONTINUOUS
 62
     2
 10
47.0
 20
138.548482756
 11
48.207407283
 21
138.224958949
  0
LINE
  8
5
  6
CONTINUOUS
 62
     2
 10
47.0
 20
138.548482756
 11
48.207407283
 21
138.872006562
  0
LINE
  8
5
  6
CONTINUOUS
 62
     2
 10
47.0
 20
138.548482756
 11
63.0
 21
138.548482756
  0
LINE
  8
5
  6
CONTINUOUS
 62
     2
 10
63.0
 20
138.548482756
 11
61.792592717
 21
138.872006562
  0
LINE
  8
5
  6
CONTINUOUS
 62
     2
 10
63.0
 20
138.548482756
 11
61.792592717
 21
138.224958949
  0
LINE
  8
5
  6
CONTINUOUS
 62
     2
 10
63.0
 20
106.0
 11
63.0
 21
139.048482756
  0
TEXT
  8
5
  6
CONTINUOUS
 62
     5
 10
52.325
 20
139.048482756
 30
0.05
 40
2.0
  1
φ１６
 50
0.0
 41
0.875
 51
0.0
  7
KANJI10
  0
LINE
  8
5
  6
CONTINUOUS
 62
     2
 10
47.0
 20
104.0
 11
46.375
 21
105.082531755
  0
LINE
  8
5
  6
CONTINUOUS
 62
     2
 10
47.0
 20
104.0
 11
45.917468245
 21
104.625
  0
LINE
  8
5
  6
CONTINUOUS
 62
     2
 10
47.0
 20
104.0
 11
42.0
 21
109.0
  0
LINE
  8
5
  6
CONTINUOUS
 62
     2
 10
42.0
 20
109.0
 11
25.85
 21
109.0
  0
TEXT
  8
5
  6
CONTINUOUS
 62
     5
 10
25.85
 20
109.5
 30
0.05
 40
2.0
  1
名称リング固定ネジ
 50
0.0
 41
0.875
 51
0.0
  7
KANJI10
  0
LINE
  8
5
  6
CONTINUOUS
 62
     2
 10
47.0
 20
99.5
 11
45.917468245
 21
98.875
  0
LINE
  8
5
  6
CONTINUOUS
 62
     2
 10
47.0
 20
99.5
 11
46.375
 21
98.417468245
  0
LINE
  8
5
  6
CONTINUOUS
 62
     2
 10
47.0
 20
99.5
 11
42.0
 21
94.5
  0
LINE
  8
5
  6
CONTINUOUS
 62
     2
 10
42.0
 20
94.5
 11
33.05
 21
94.5
  0
TEXT
  8
5
  6
CONTINUOUS
 62
     5
 10
33.05
 20
95.0
 30
0.05
 40
2.0
  1
名称リング
 50
0.0
 41
0.875
 51
0.0
  7
KANJI10
  0
POLYLINE
  8
0
  6
CONTINUOUS
 62
     1
 66
     1
 70
     1
  0
VERTEX
  8
0
  6
CONTINUOUS
 62
     1
 10
55.0
 20
58.505553499
  0
VERTEX
  8
0
  6
CONTINUOUS
 62
     1
 10
48.5
 20
54.75277675
  0
VERTEX
  8
0
  6
CONTINUOUS
 62
     1
 10
48.5
 20
47.24722325
  0
VERTEX
  8
0
  6
CONTINUOUS
 62
     1
 10
55.0
 20
43.494446501
  0
VERTEX
  8
0
  6
CONTINUOUS
 62
     1
 10
61.5
 20
47.24722325
  0
VERTEX
  8
0
  6
CONTINUOUS
 62
     1
 10
61.5
 20
54.75277675
  0
SEQEND
  0
CIRCLE
  8
0
  6
CONTINUOUS
 62
     1
 10
55.0
 20
51.0
 40
5.0
  0
CIRCLE
  8
0
  6
CONTINUOUS
 62
     1
 10
55.0
 20
51.0
 40
4.524892826
  0
CIRCLE
  8
0
  6
CONTINUOUS
 62
     2
 10
55.0
 20
51.0
 40
4.100885937
  0
LINE
  8
0
  6
CONTINUOUS
 62
     1
 10
48.0
 20
54.0
 11
48.5
 21
54.0
  0
LINE
  8
0
  6
CONTINUOUS
 62
     1
 10
48.0
 20
49.45
 11
48.0
 21
48.0
  0
LINE
  8
0
  6
CONTINUOUS
 62
     1
 10
48.0
 20
48.0
 11
48.5
 21
48.0
  0
POLYLINE
  8
0
  6
CONTINUOUS
 62
     1
 66
     1
  0
VERTEX
  8
0
  6
CONTINUOUS
 62
     1
 10
48.0
 20
48.0
  0
VERTEX
  8
0
  6
CONTINUOUS
 62
     1
 10
45.5
 20
48.0
  0
VERTEX
  8
0
  6
CONTINUOUS
 62
     1
 10
45.0
 20
48.5
  0
SEQEND
  0
LINE
  8
0
  6
CONTINUOUS
 62
     1
 10
45.5
 20
54.0
 11
48.0
 21
54.0
  0
LINE
  8
0
  6
CONTINUOUS
 62
     1
 10
45.5
 20
54.0
 11
45.0
 21
53.5
  0
LINE
  8
0
  6
CONTINUOUS
 62
     1
 10
48.0
 20
48.0
 11
48.0
 21
54.0
  0
CIRCLE
  8
0
  6
CONTINUOUS
 62
     1
 10
46.5
 20
51.0
 40
0.4
  0
LINE
  8
0
  6
CONTINUOUS
 62
     1
 10
45.0
 20
48.5
 11
45.0
 21
53.5
  0
LINE
  8
0
  6
CONTINUOUS
 62
     1
 10
45.5
 20
48.0
 11
45.5
 21
54.0
  0
ARC
  8
0
  6
CONTINUOUS
 62
     1
 10
55.0
 20
51.0
 40
8.0
 50
202.024312837
 51
157.975687163
  0
LINE
  8
0
  6
LTYPE3
 62
     2
 10
55.0
 20
40.5
 11
55.0
 21
61.5
  0
LINE
  8
0
  6
LTYPE3
 62
     2
 10
65.5
 20
51.0
 11
42.5
 21
51.0
  0
CIRCLE
  8
0
  6
CONTINUOUS
 62
     1
 10
55.0
 20
51.0
 40
1.5
  0
LINE
  8
5
  6
CONTINUOUS
 62
     2
 10
53.939339828
 20
52.060660172
 11
53.314339828
 21
53.143191927
  0
LINE
  8
5
  6
CONTINUOUS
 62
     2
 10
53.939339828
 20
52.060660172
 11
52.856808073
 21
52.685660172
  0
LINE
  8
5
  6
CONTINUOUS
 62
     2
 10
53.939339828
 20
52.060660172
 11
45.0
 21
61.0
  0
LINE
  8
5
  6
CONTINUOUS
 62
     2
 10
45.0
 20
61.0
 11
32.45
 21
61.0
  0
TEXT
  8
5
  6
CONTINUOUS
 62
     5
 10
32.45
 20
61.5
 30
0.05
 40
2.0
  1
φ３圧力導入口
 50
0.0
 41
0.875
 51
0.0
  7
KANJI10
  0
LINE
  8
5
  6
CONTINUOUS
 62
     2
 10
48.5
 20
46.74722325
 11
48.5
 21
35.0
  0
LINE
  8
5
  6
CONTINUOUS
 62
     2
 10
48.5
 20
35.5
 11
49.707407283
 21
35.176476194
  0
LINE
  8
5
  6
CONTINUOUS
 62
     2
 10
48.5
 20
35.5
 11
49.707407283
 21
35.823523806
  0
LINE
  8
5
  6
CONTINUOUS
 62
     2
 10
48.5
 20
35.5
 11
61.5
 21
35.5
  0
LINE
  8
5
  6
CONTINUOUS
 62
     2
 10
61.5
 20
35.5
 11
60.292592717
 21
35.823523806
  0
LINE
  8
5
  6
CONTINUOUS
 62
     2
 10
61.5
 20
35.5
 11
60.292592717
 21
35.176476194
  0
LINE
  8
5
  6
CONTINUOUS
 62
     2
 10
61.5
 20
46.74722325
 11
61.5
 21
35.0
  0
TEXT
  8
5
  6
CONTINUOUS
 62
     5
 10
49.625
 20
36.0
 30
0.05
 40
2.0
  1
１３（六角）
 50
0.0
 41
0.875
 51
0.0
  7
KANJI10
  0
LINE
  8
5
  6
CONTINUOUS
 62
     2
 10
50.266666667
 20
72.5
 11
49.184134912
 21
71.875
  0
LINE
  8
5
  6
CONTINUOUS
 62
     2
 10
50.266666667
 20
72.5
 11
49.641666667
 21
71.417468245
  0
LINE
  8
5
  6
CONTINUOUS
 62
     2
 10
50.266666667
 20
72.5
 11
45.266666667
 21
67.5
  0
LINE
  8
5
  6
CONTINUOUS
 62
     2
 10
45.266666667
 20
67.5
 11
38.116666667
 21
67.5
  0
TEXT
  8
5
  6
CONTINUOUS
 62
     5
 10
38.116666667
 20
68.0
 30
0.05
 40
2.0
  1
Ｒ１／８
 50
0.0
 41
0.875
 51
0.0
  7
KANJI10
  0
LINE
  8
5
  6
CONTINUOUS
 62
     2
 10
45.0
 20
81.5
 11
44.375
 21
82.582531755
  0
LINE
  8
5
  6
CONTINUOUS
 62
     2
 10
45.0
 20
81.5
 11
43.917468245
 21
82.125
  0
LINE
  8
5
  6
CONTINUOUS
 62
     2
 10
45.0
 20
81.5
 11
40.0
 21
86.5
  0
LINE
  8
5
  6
CONTINUOUS
 62
     2
 10
40.0
 20
86.5
 11
29.25
 21
86.5
  0
TEXT
  8
5
  6
CONTINUOUS
 62
     5
 10
29.25
 20
87.0
 30
0.05
 40
2.0
  1
ドレンコック
 50
0.0
 41
0.875
 51
0.0
  7
KANJI10
  0
LINE
  8
0
  6
LTYPE3
 62
     2
 10
61.9
 20
111.5
 11
47.5
 21
111.5
  0
LINE
  8
0
  6
LTYPE3
 62
     2
 10
60.284865899
 20
109.7
 11
60.284865899
 21
113.3
  0
LINE
  8
0
  6
LTYPE3
 62
     2
 10
46.5
 20
55.5
 11
46.5
 21
46.5
  0
POLYLINE
  8
0
  6
CONTINUOUS
 62
     2
 66
     1
  0
VERTEX
  8
0
  6
CONTINUOUS
 62
     2
 10
52.0
 20
69.0
  0
VERTEX
  8
0
  6
CONTINUOUS
 62
     2
 10
52.0304
 20
69.1896
  0
VERTEX
  8
0
  6
CONTINUOUS
 62
     2
 10
52.0632
 20
69.3768
  0
VERTEX
  8
0
  6
CONTINUOUS
 62
     2
 10
52.1008
 20
69.5592
  0
VERTEX
  8
0
  6
CONTINUOUS
 62
     2
 10
52.1456
 20
69.7344
  0
VERTEX
  8
0
  6
CONTINUOUS
 62
     2
 10
52.2
 20
69.9
  0
VERTEX
  8
0
  6
CONTINUOUS
 62
     2
 10
52.2728
 20
70.0344
  0
VERTEX
  8
0
  6
CONTINUOUS
 62
     2
 10
52.3584
 20
70.1592
  0
VERTEX
  8
0
  6
CONTINUOUS
 62
     2
 10
52.4576
 20
70.2768
  0
VERTEX
  8
0
  6
CONTINUOUS
 62
     2
 10
52.5712
 20
70.3896
  0
VERTEX
  8
0
  6
CONTINUOUS
 62
     2
 10
52.7
 20
70.5
  0
VERTEX
  8
0
  6
CONTINUOUS
 62
     2
 10
52.8448
 20
70.636
  0
VERTEX
  8
0
  6
CONTINUOUS
 62
     2
 10
53.0064
 20
70.768
  0
VERTEX
  8
0
  6
CONTINUOUS
 62
     2
 10
53.1856
 20
70.892
  0
VERTEX
  8
0
  6
CONTINUOUS
 62
     2
 10
53.3832
 20
71.004
  0
VERTEX
  8
0
  6
CONTINUOUS
 62
     2
 10
53.6
 20
71.1
  0
VERTEX
  8
0
  6
CONTINUOUS
 62
     2
 10
53.8624
 20
71.1536
  0
VERTEX
  8
0
  6
CONTINUOUS
 62
     2
 10
54.1392
 20
71.1888
  0
VERTEX
  8
0
  6
CONTINUOUS
 62
     2
 10
54.4248
 20
71.2072
  0
VERTEX
  8
0
  6
CONTINUOUS
 62
     2
 10
54.7136
 20
71.2104
  0
VERTEX
  8
0
  6
CONTINUOUS
 62
     2
 10
55.0
 20
71.2
  0
VERTEX
  8
0
  6
CONTINUOUS
 62
     2
 10
55.2592
 20
71.1968
  0
VERTEX
  8
0
  6
CONTINUOUS
 62
     2
 10
55.5096
 20
71.1784
  0
VERTEX
  8
0
  6
CONTINUOUS
 62
     2
 10
55.7504
 20
71.1416
  0
VERTEX
  8
0
  6
CONTINUOUS
 62
     2
 10
55.9808
 20
71.0832
  0
VERTEX
  8
0
  6
CONTINUOUS
 62
     2
 10
56.2
 20
71.0
  0
VERTEX
  8
0
  6
CONTINUOUS
 62
     2
 10
56.4072
 20
70.8408
  0
VERTEX
  8
0
  6
CONTINUOUS
 62
     2
 10
56.6016
 20
70.6624
  0
VERTEX
  8
0
  6
CONTINUOUS
 62
     2
 10
56.7824
 20
70.4736
  0
VERTEX
  8
0
  6
CONTINUOUS
 62
     2
 10
56.9488
 20
70.2832
  0
VERTEX
  8
0
  6
CONTINUOUS
 62
     2
 10
57.1
 20
70.1
  0
VERTEX
  8
0
  6
CONTINUOUS
 62
     2
 10
57.2224
 20
69.984
  0
VERTEX
  8
0
  6
CONTINUOUS
 62
     2
 10
57.3312
 20
69.88
  0
VERTEX
  8
0
  6
CONTINUOUS
 62
     2
 10
57.4288
 20
69.784
  0
VERTEX
  8
0
  6
CONTINUOUS
 62
     2
 10
57.5176
 20
69.692
  0
VERTEX
  8
0
  6
CONTINUOUS
 62
     2
 10
57.6
 20
69.6
  0
VERTEX
  8
0
  6
CONTINUOUS
 62
     2
 10
57.6848
 20
69.4848
  0
VERTEX
  8
0
  6
CONTINUOUS
 62
     2
 10
57.7664
 20
69.3664
  0
VERTEX
  8
0
  6
CONTINUOUS
 62
     2
 10
57.8456
 20
69.2456
  0
VERTEX
  8
0
  6
CONTINUOUS
 62
     2
 10
57.9232
 20
69.1232
  0
VERTEX
  8
0
  6
CONTINUOUS
 62
     2
 10
58.0
 20
69.0
  0
SEQEND
  0
LINE
  8
0
  6
CONTINUOUS
 62
     1
 10
53.5
 20
71.055719557
 11
53.5
 21
69.0
  0
LINE
  8
0
  6
CONTINUOUS
 62
     1
 10
56.5
 20
70.75563786
 11
56.5
 21
69.0
  0
LINE
  8
0
  6
CONTINUOUS
 62
     1
 10
52.062602941
 20
69.373392396
 11
50.475107174
 21
69.373392396
  0
LINE
  8
0
  6
CONTINUOUS
 62
     1
 10
59.524892826
 20
69.373392396
 11
57.761580916
 21
69.373392396
  0
TEXT
  8
5
  6
CONTINUOUS
 62
     5
 10
76.5
 20
106.775
 30
0.05
 40
2.0
  1
（６．５）
 50
90.0
 41
0.875
 51
0.0
  7
KANJI10
  0
TEXT
  8
5
  6
CONTINUOUS
 62
     5
 10
73.0
 20
36.0
 30
0.05
 40
2.0
  1
１，２，５，１０　ＭＰａ
 50
0.0
 41
0.875
 51
0.0
  7
KANJI10
  0
TEXT
  8
6
  6
CONTINUOUS
 62
     5
 10
75.0
 20
6.0
 30
0.0
 40
2.0
  1
Ｈ－０１２２－Ａ００１
 50
0.0
 41
0.875
 51
0.0
  7
KANJI0
  0
TEXT
  8
6
  6
CONTINUOUS
 62
     5
 10
65.75
 20
18.0
 30
-0.25
 40
1.5
  1
２０１７．
 50
0.0
 41
0.833333333
 51
0.0
  7
KANJI11
  0
TEXT
  8
6
  6
CONTINUOUS
 62
     5
 10
67.0
 20
16.5
 30
-0.25
 40
1.5
  1
０７．１３
 50
0.0
 41
0.833333333
 51
0.0
  7
KANJI11
  0
TEXT
  8
6
  6
CONTINUOUS
 62
     5
 10
77.0
 20
11.5
 30
0.0
 40
2.0
  1
ＨＶＪＳ－□ＰＡ
 50
0.0
 41
0.875
 51
0.0
  7
KANJI0
  0
ENDSEC
  0
EOF
