  0
SECTION
  2
HEADER
  9
$EXTMIN
 10
0.0
 20
0.0
 30
0.0
  9
$EXTMAX
 10
210.0
 20
297.0
 30
0.0
  9
$LIMMIN
 10
0.0
 20
0.0
  9
$LIMMAX
 10
210.0
 20
297.0
  9
$LTSCALE
 40
1.0
  9
$PDMODE
 70
     0
  0
ENDSEC
  0
SECTION
  2
TABLES
  0
TABLE
  2
LTYPE
 70
     4
  0
LTYPE
  2
CONTINUOUS
 70
    64
  3
Solid line
 72
    65
 73
     0
 40
0.0
  0
LTYPE
  2
LTYPE1
 70
    64
  3
PHANTOM
 72
    65
 73
     6
 40
10.0
 49
7.5
 49
-0.5
 49
0.5
 49
-0.5
 49
0.5
 49
-0.5
  0
LTYPE
  2
LTYPE2
 70
    64
  3
HIDDEN
 72
    65
 73
     2
 40
2.0
 49
1.2
 49
-0.8
  0
LTYPE
  2
LTYPE3
 70
    64
  3
CENTER
 72
    65
 73
     4
 40
10.0
 49
7.0
 49
-1.0
 49
1.0
 49
-1.0
  0
ENDTAB
  0
TABLE
  2
LAYER
 70
   128
  0
LAYER
  2
0
 70
     0
 62
     7
  6
CONTINUOUS
  0
LAYER
  2
2
 70
     0
 62
     7
  6
CONTINUOUS
  0
LAYER
  2
3
 70
     0
 62
     7
  6
CONTINUOUS
  0
LAYER
  2
4
 70
     0
 62
     7
  6
CONTINUOUS
  0
LAYER
  2
5
 70
     0
 62
     7
  6
CONTINUOUS
  0
LAYER
  2
6
 70
     0
 62
     7
  6
CONTINUOUS
  0
LAYER
  2
7
 70
     0
 62
     7
  6
CONTINUOUS
  0
LAYER
  2
8
 70
     0
 62
     7
  6
CONTINUOUS
  0
LAYER
  2
9
 70
     0
 62
     7
  6
CONTINUOUS
  0
LAYER
  2
10
 70
     0
 62
     7
  6
CONTINUOUS
  0
LAYER
  2
11
 70
     0
 62
     7
  6
CONTINUOUS
  0
LAYER
  2
12
 70
     0
 62
     7
  6
CONTINUOUS
  0
LAYER
  2
13
 70
     0
 62
     7
  6
CONTINUOUS
  0
LAYER
  2
14
 70
     0
 62
     7
  6
CONTINUOUS
  0
LAYER
  2
15
 70
     0
 62
     7
  6
CONTINUOUS
  0
LAYER
  2
16
 70
     0
 62
     7
  6
CONTINUOUS
  0
LAYER
  2
17
 70
     0
 62
     7
  6
CONTINUOUS
  0
LAYER
  2
18
 70
     0
 62
     7
  6
CONTINUOUS
  0
LAYER
  2
19
 70
     0
 62
     7
  6
CONTINUOUS
  0
LAYER
  2
20
 70
     0
 62
     7
  6
CONTINUOUS
  0
LAYER
  2
21
 70
     0
 62
     7
  6
CONTINUOUS
  0
LAYER
  2
22
 70
     0
 62
     7
  6
CONTINUOUS
  0
LAYER
  2
23
 70
     0
 62
     7
  6
CONTINUOUS
  0
LAYER
  2
24
 70
     0
 62
     7
  6
CONTINUOUS
  0
LAYER
  2
25
 70
     0
 62
     7
  6
CONTINUOUS
  0
LAYER
  2
26
 70
     0
 62
     7
  6
CONTINUOUS
  0
LAYER
  2
27
 70
     0
 62
     7
  6
CONTINUOUS
  0
LAYER
  2
28
 70
     0
 62
     7
  6
CONTINUOUS
  0
LAYER
  2
29
 70
     0
 62
     7
  6
CONTINUOUS
  0
LAYER
  2
30
 70
     0
 62
     7
  6
CONTINUOUS
  0
LAYER
  2
31
 70
     0
 62
     7
  6
CONTINUOUS
  0
LAYER
  2
32
 70
     0
 62
     7
  6
CONTINUOUS
  0
LAYER
  2
33
 70
     0
 62
     7
  6
CONTINUOUS
  0
LAYER
  2
34
 70
     0
 62
     7
  6
CONTINUOUS
  0
LAYER
  2
35
 70
     0
 62
     7
  6
CONTINUOUS
  0
LAYER
  2
36
 70
     0
 62
     7
  6
CONTINUOUS
  0
LAYER
  2
37
 70
     0
 62
     7
  6
CONTINUOUS
  0
LAYER
  2
38
 70
     0
 62
     7
  6
CONTINUOUS
  0
LAYER
  2
39
 70
     0
 62
     7
  6
CONTINUOUS
  0
LAYER
  2
40
 70
     0
 62
     7
  6
CONTINUOUS
  0
LAYER
  2
41
 70
     0
 62
     7
  6
CONTINUOUS
  0
LAYER
  2
42
 70
     0
 62
     7
  6
CONTINUOUS
  0
LAYER
  2
43
 70
     0
 62
     7
  6
CONTINUOUS
  0
LAYER
  2
44
 70
     0
 62
     7
  6
CONTINUOUS
  0
LAYER
  2
45
 70
     0
 62
     7
  6
CONTINUOUS
  0
LAYER
  2
46
 70
     0
 62
     7
  6
CONTINUOUS
  0
LAYER
  2
47
 70
     0
 62
     7
  6
CONTINUOUS
  0
LAYER
  2
48
 70
     0
 62
     7
  6
CONTINUOUS
  0
LAYER
  2
49
 70
     0
 62
     7
  6
CONTINUOUS
  0
LAYER
  2
50
 70
     0
 62
     7
  6
CONTINUOUS
  0
LAYER
  2
51
 70
     0
 62
     7
  6
CONTINUOUS
  0
LAYER
  2
52
 70
     0
 62
     7
  6
CONTINUOUS
  0
LAYER
  2
53
 70
     0
 62
     7
  6
CONTINUOUS
  0
LAYER
  2
54
 70
     0
 62
     7
  6
CONTINUOUS
  0
LAYER
  2
55
 70
     0
 62
     7
  6
CONTINUOUS
  0
LAYER
  2
56
 70
     0
 62
     7
  6
CONTINUOUS
  0
LAYER
  2
57
 70
     0
 62
     7
  6
CONTINUOUS
  0
LAYER
  2
58
 70
     0
 62
     7
  6
CONTINUOUS
  0
LAYER
  2
59
 70
     0
 62
     7
  6
CONTINUOUS
  0
LAYER
  2
60
 70
     0
 62
     7
  6
CONTINUOUS
  0
LAYER
  2
61
 70
     0
 62
     7
  6
CONTINUOUS
  0
LAYER
  2
62
 70
     0
 62
     7
  6
CONTINUOUS
  0
LAYER
  2
63
 70
     0
 62
     7
  6
CONTINUOUS
  0
LAYER
  2
64
 70
     0
 62
     7
  6
CONTINUOUS
  0
LAYER
  2
65
 70
     0
 62
     7
  6
CONTINUOUS
  0
LAYER
  2
66
 70
     0
 62
     7
  6
CONTINUOUS
  0
LAYER
  2
67
 70
     0
 62
     7
  6
CONTINUOUS
  0
LAYER
  2
68
 70
     0
 62
     7
  6
CONTINUOUS
  0
LAYER
  2
69
 70
     0
 62
     7
  6
CONTINUOUS
  0
LAYER
  2
70
 70
     0
 62
     7
  6
CONTINUOUS
  0
LAYER
  2
71
 70
     0
 62
     7
  6
CONTINUOUS
  0
LAYER
  2
72
 70
     0
 62
     7
  6
CONTINUOUS
  0
LAYER
  2
73
 70
     0
 62
     7
  6
CONTINUOUS
  0
LAYER
  2
74
 70
     0
 62
     7
  6
CONTINUOUS
  0
LAYER
  2
75
 70
     0
 62
     7
  6
CONTINUOUS
  0
LAYER
  2
76
 70
     0
 62
     7
  6
CONTINUOUS
  0
LAYER
  2
77
 70
     0
 62
     7
  6
CONTINUOUS
  0
LAYER
  2
78
 70
     0
 62
     7
  6
CONTINUOUS
  0
LAYER
  2
79
 70
     0
 62
     7
  6
CONTINUOUS
  0
LAYER
  2
80
 70
     0
 62
     7
  6
CONTINUOUS
  0
LAYER
  2
81
 70
     0
 62
     7
  6
CONTINUOUS
  0
LAYER
  2
82
 70
     0
 62
     7
  6
CONTINUOUS
  0
LAYER
  2
83
 70
     0
 62
     7
  6
CONTINUOUS
  0
LAYER
  2
84
 70
     0
 62
     7
  6
CONTINUOUS
  0
LAYER
  2
85
 70
     0
 62
     7
  6
CONTINUOUS
  0
LAYER
  2
86
 70
     0
 62
     7
  6
CONTINUOUS
  0
LAYER
  2
87
 70
     0
 62
     7
  6
CONTINUOUS
  0
LAYER
  2
88
 70
     0
 62
     7
  6
CONTINUOUS
  0
LAYER
  2
89
 70
     0
 62
     7
  6
CONTINUOUS
  0
LAYER
  2
90
 70
     0
 62
     7
  6
CONTINUOUS
  0
LAYER
  2
91
 70
     0
 62
     7
  6
CONTINUOUS
  0
LAYER
  2
92
 70
     0
 62
     7
  6
CONTINUOUS
  0
LAYER
  2
93
 70
     0
 62
     7
  6
CONTINUOUS
  0
LAYER
  2
94
 70
     0
 62
     7
  6
CONTINUOUS
  0
LAYER
  2
95
 70
     0
 62
     7
  6
CONTINUOUS
  0
LAYER
  2
96
 70
     0
 62
     7
  6
CONTINUOUS
  0
LAYER
  2
97
 70
     0
 62
     7
  6
CONTINUOUS
  0
LAYER
  2
98
 70
     0
 62
     7
  6
CONTINUOUS
  0
LAYER
  2
99
 70
     0
 62
     7
  6
CONTINUOUS
  0
LAYER
  2
100
 70
     0
 62
     7
  6
CONTINUOUS
  0
LAYER
  2
101
 70
     0
 62
     7
  6
CONTINUOUS
  0
LAYER
  2
102
 70
     0
 62
     7
  6
CONTINUOUS
  0
LAYER
  2
103
 70
     0
 62
     7
  6
CONTINUOUS
  0
LAYER
  2
104
 70
     0
 62
     7
  6
CONTINUOUS
  0
LAYER
  2
105
 70
     0
 62
     7
  6
CONTINUOUS
  0
LAYER
  2
106
 70
     0
 62
     7
  6
CONTINUOUS
  0
LAYER
  2
107
 70
     0
 62
     7
  6
CONTINUOUS
  0
LAYER
  2
108
 70
     0
 62
     7
  6
CONTINUOUS
  0
LAYER
  2
109
 70
     0
 62
     7
  6
CONTINUOUS
  0
LAYER
  2
110
 70
     0
 62
     7
  6
CONTINUOUS
  0
LAYER
  2
111
 70
     0
 62
     7
  6
CONTINUOUS
  0
LAYER
  2
112
 70
     0
 62
     7
  6
CONTINUOUS
  0
LAYER
  2
113
 70
     0
 62
     7
  6
CONTINUOUS
  0
LAYER
  2
114
 70
     0
 62
     7
  6
CONTINUOUS
  0
LAYER
  2
115
 70
     0
 62
     7
  6
CONTINUOUS
  0
LAYER
  2
116
 70
     0
 62
     7
  6
CONTINUOUS
  0
LAYER
  2
117
 70
     0
 62
     7
  6
CONTINUOUS
  0
LAYER
  2
118
 70
     0
 62
     7
  6
CONTINUOUS
  0
LAYER
  2
119
 70
     0
 62
     7
  6
CONTINUOUS
  0
LAYER
  2
120
 70
     0
 62
     7
  6
CONTINUOUS
  0
LAYER
  2
121
 70
     0
 62
     7
  6
CONTINUOUS
  0
LAYER
  2
122
 70
     0
 62
     7
  6
CONTINUOUS
  0
LAYER
  2
123
 70
     0
 62
     7
  6
CONTINUOUS
  0
LAYER
  2
124
 70
     0
 62
     7
  6
CONTINUOUS
  0
LAYER
  2
125
 70
     0
 62
     7
  6
CONTINUOUS
  0
LAYER
  2
126
 70
     0
 62
     7
  6
CONTINUOUS
  0
LAYER
  2
127
 70
     0
 62
     7
  6
CONTINUOUS
  0
LAYER
  2
128
 70
     0
 62
     7
  6
CONTINUOUS
  0
ENDTAB
  0
TABLE
  2
STYLE
 70
    13
  0
STYLE
  2
STANDARD
 70
     0
 40
0.0
 41
1.0
 50
0.0
 71
     0
 42
0.2
  3
txt
  4

  0
STYLE
  2
KANJI0
 70
     0
 40
4.0
 41
0.875
 50
0.0
 71
     0
 42
4.0
  3

  4
bigfont
  0
STYLE
  2
KANJI1
 70
     0
 40
5.0
 41
1.2
 50
0.0
 71
     0
 42
5.0
  3

  4
bigfont
  0
STYLE
  2
KANJI2
 70
     0
 40
5.0
 41
1.0
 50
0.0
 71
     0
 42
5.0
  3

  4
bigfont
  0
STYLE
  2
KANJI3
 70
     0
 40
2.5
 41
1.0
 50
0.0
 71
     0
 42
2.5
  3

  4
bigfont
  0
STYLE
  2
KANJI4
 70
     0
 40
2.5
 41
1.0
 50
0.0
 71
     0
 42
2.5
  3

  4
bigfont
  0
STYLE
  2
KANJI5
 70
     0
 40
2.5
 41
1.0
 50
0.0
 71
     0
 42
2.5
  3

  4
bigfont
  0
STYLE
  2
KANJI6
 70
     0
 40
4.0
 41
1.125
 50
0.0
 71
     0
 42
4.0
  3

  4
bigfont
  0
STYLE
  2
KANJI7
 70
     0
 40
7.0
 41
0.857142857
 50
0.0
 71
     0
 42
7.0
  3

  4
bigfont
  0
STYLE
  2
KANJI8
 70
     0
 40
3.0
 41
0.666666667
 50
0.0
 71
     0
 42
3.0
  3

  4
bigfont
  0
STYLE
  2
KANJI9
 70
     0
 40
3.0
 41
1.0
 50
0.0
 71
     0
 42
3.0
  3

  4
bigfont
  0
STYLE
  2
KANJI10
 70
     0
 40
4.0
 41
0.875
 50
0.0
 71
     0
 42
4.0
  3

  4
bigfont
  0
STYLE
  2
KANJI11
 70
     0
 40
3.0
 41
0.833333333
 50
0.0
 71
     0
 42
3.0
  3

  4
bigfont
  0
ENDTAB
  0
TABLE
  2
VIEW
 70
     0
  0
ENDTAB
  0
ENDSEC
  0
SECTION
  2
BLOCKS
  0
ENDSEC
  0
SECTION
  2
ENTITIES
  0
TEXT
  8
6
  6
CONTINUOUS
 62
     5
 10
133.0
 20
24.0
 30
0.0
 40
4.0
  1
益子
 50
0.0
 41
0.875
 51
0.0
  7
KANJI0
  0
LINE
  8
7
  6
CONTINUOUS
 62
     2
 10
24.0
 20
249.5
 11
19.0
 21
249.5
  0
LINE
  8
7
  6
CONTINUOUS
 62
     2
 10
156.5
 20
288.0
 11
156.5
 21
293.0
  0
LINE
  8
7
  6
CONTINUOUS
 62
     2
 10
51.5
 20
288.0
 11
51.5
 21
293.0
  0
LINE
  8
7
  6
CONTINUOUS
 62
     2
 10
24.0
 20
199.5
 11
19.0
 21
199.5
  0
TEXT
  8
7
  6
CONTINUOUS
 62
     6
 10
74.75
 20
289.5
 30
0.0
 40
5.0
  1
２
 50
0.0
 41
1.2
 51
0.0
  7
KANJI1
  0
TEXT
  8
7
  6
CONTINUOUS
 62
     6
 10
22.25
 20
289.5
 30
0.0
 40
5.0
  1
１
 50
0.0
 41
1.2
 51
0.0
  7
KANJI1
  0
TEXT
  8
7
  6
CONTINUOUS
 62
     6
 10
127.25
 20
289.5
 30
0.0
 40
5.0
  1
３
 50
0.0
 41
1.2
 51
0.0
  7
KANJI1
  0
TEXT
  8
7
  6
CONTINUOUS
 62
     6
 10
178.25
 20
289.0
 30
0.0
 40
5.0
  1
４
 50
0.0
 41
1.2
 51
0.0
  7
KANJI1
  0
TEXT
  8
7
  6
CONTINUOUS
 62
     6
 10
17.5
 20
272.0
 30
0.0
 40
5.0
  1
Ａ
 50
0.0
 41
1.0
 51
0.0
  7
KANJI2
  0
TEXT
  8
7
  6
CONTINUOUS
 62
     6
 10
17.5
 20
222.0
 30
0.0
 40
5.0
  1
Ｂ
 50
0.0
 41
1.0
 51
0.0
  7
KANJI2
  0
TEXT
  8
7
  6
CONTINUOUS
 62
     6
 10
17.5
 20
172.0
 30
0.0
 40
5.0
  1
Ｃ
 50
0.0
 41
1.0
 51
0.0
  7
KANJI2
  0
TEXT
  8
7
  6
CONTINUOUS
 62
     6
 10
17.5
 20
122.0
 30
0.0
 40
5.0
  1
Ｄ
 50
0.0
 41
1.0
 51
0.0
  7
KANJI2
  0
LINE
  8
7
  6
CONTINUOUS
 62
     6
 10
104.0
 20
288.0
 11
104.0
 21
298.0
  0
LINE
  8
7
  6
CONTINUOUS
 62
     6
 10
24.0
 20
149.5
 11
-1.0
 21
149.5
  0
LINE
  8
7
  6
CONTINUOUS
 62
     6
 10
24.0
 20
288.0
 11
24.0
 21
11.0
  0
LINE
  8
7
  6
CONTINUOUS
 62
     2
 10
198.0
 20
199.5
 11
203.0
 21
199.5
  0
LINE
  8
7
  6
CONTINUOUS
 62
     2
 10
198.0
 20
249.5
 11
203.0
 21
249.5
  0
TEXT
  8
7
  6
CONTINUOUS
 62
     6
 10
199.5
 20
272.0
 30
0.0
 40
5.0
  1
Ａ
 50
0.0
 41
1.0
 51
0.0
  7
KANJI2
  0
TEXT
  8
7
  6
CONTINUOUS
 62
     6
 10
199.5
 20
222.0
 30
0.0
 40
5.0
  1
Ｂ
 50
0.0
 41
1.0
 51
0.0
  7
KANJI2
  0
TEXT
  8
7
  6
CONTINUOUS
 62
     6
 10
199.5
 20
172.0
 30
0.0
 40
5.0
  1
Ｃ
 50
0.0
 41
1.0
 51
0.0
  7
KANJI2
  0
TEXT
  8
7
  6
CONTINUOUS
 62
     6
 10
199.5
 20
122.0
 30
0.0
 40
5.0
  1
Ｄ
 50
0.0
 41
1.0
 51
0.0
  7
KANJI2
  0
LINE
  8
7
  6
CONTINUOUS
 62
     6
 10
198.0
 20
288.0
 11
24.0
 21
288.0
  0
LINE
  8
7
  6
CONTINUOUS
 62
     6
 10
198.0
 20
149.5
 11
209.0
 21
149.5
  0
LINE
  8
7
  6
CONTINUOUS
 62
     6
 10
198.0
 20
11.0
 11
198.0
 21
288.0
  0
LINE
  8
7
  6
CONTINUOUS
 62
     2
 10
198.0
 20
99.5
 11
203.0
 21
99.5
  0
LINE
  8
7
  6
CONTINUOUS
 62
     2
 10
198.0
 20
49.5
 11
203.0
 21
49.5
  0
LINE
  8
7
  6
CONTINUOUS
 62
     2
 10
198.0
 20
76.0
 11
195.5
 21
76.0
  0
LINE
  8
7
  6
CONTINUOUS
 62
     2
 10
198.0
 20
84.0
 11
195.5
 21
84.0
  0
LINE
  8
7
  6
CONTINUOUS
 62
     2
 10
198.0
 20
92.0
 11
195.5
 21
92.0
  0
TEXT
  8
7
  6
CONTINUOUS
 62
     6
 10
199.5
 20
72.0
 30
0.0
 40
5.0
  1
Ｅ
 50
0.0
 41
1.0
 51
0.0
  7
KANJI2
  0
TEXT
  8
7
  6
CONTINUOUS
 62
     6
 10
199.5
 20
22.0
 30
0.0
 40
5.0
  1
Ｆ
 50
0.0
 41
1.0
 51
0.0
  7
KANJI2
  0
LINE
  8
7
  6
CONTINUOUS
 62
     2
 10
145.0
 20
33.0
 11
198.0
 21
33.0
  0
LINE
  8
7
  6
CONTINUOUS
 62
     2
 10
145.0
 20
22.0
 11
198.0
 21
22.0
  0
LINE
  8
7
  6
CONTINUOUS
 62
     6
 10
189.0
 20
11.0
 11
198.0
 21
11.0
  0
LINE
  8
7
  6
CONTINUOUS
 62
     2
 10
65.0
 20
52.0
 11
198.0
 21
52.0
  0
LINE
  8
7
  6
CONTINUOUS
 62
     2
 10
65.0
 20
68.0
 11
198.0
 21
68.0
  0
LINE
  8
7
  6
CONTINUOUS
 62
     2
 10
65.0
 20
60.0
 11
198.0
 21
60.0
  0
LINE
  8
7
  6
CONTINUOUS
 62
     2
 10
65.0
 20
44.0
 11
198.0
 21
44.0
  0
LINE
  8
7
  6
CONTINUOUS
 62
     2
 10
51.5
 20
11.0
 11
51.5
 21
6.0
  0
LINE
  8
7
  6
CONTINUOUS
 62
     2
 10
24.0
 20
99.5
 11
19.0
 21
99.5
  0
LINE
  8
7
  6
CONTINUOUS
 62
     2
 10
24.0
 20
49.5
 11
19.0
 21
49.5
  0
LINE
  8
7
  6
CONTINUOUS
 62
     2
 10
31.0
 20
68.0
 11
31.0
 21
11.0
  0
LINE
  8
7
  6
CONTINUOUS
 62
     2
 10
38.0
 20
68.0
 11
38.0
 21
11.0
  0
LINE
  8
7
  6
CONTINUOUS
 62
     2
 10
45.0
 20
68.0
 11
45.0
 21
11.0
  0
LINE
  8
7
  6
CONTINUOUS
 62
     2
 10
52.0
 20
68.0
 11
52.0
 21
11.0
  0
TEXT
  8
7
  6
CONTINUOUS
 62
     6
 10
17.5
 20
72.0
 30
0.0
 40
5.0
  1
Ｅ
 50
0.0
 41
1.0
 51
0.0
  7
KANJI2
  0
TEXT
  8
7
  6
CONTINUOUS
 62
     6
 10
17.5
 20
22.0
 30
0.0
 40
5.0
  1
Ｆ
 50
0.0
 41
1.0
 51
0.0
  7
KANJI2
  0
TEXT
  8
7
  6
CONTINUOUS
 62
     6
 10
22.25
 20
4.5
 30
0.0
 40
5.0
  1
１
 50
0.0
 41
1.2
 51
0.0
  7
KANJI1
  0
LINE
  8
7
  6
CONTINUOUS
 62
     6
 10
54.0
 20
6.0
 11
154.0
 21
6.0
  0
LINE
  8
7
  6
CONTINUOUS
 62
     2
 10
156.5
 20
11.0
 11
156.5
 21
6.0
  0
LINE
  8
7
  6
CONTINUOUS
 62
     2
 10
24.0
 20
40.0
 11
65.0
 21
40.0
  0
LINE
  8
7
  6
CONTINUOUS
 62
     2
 10
24.0
 20
18.0
 11
65.0
 21
18.0
  0
LINE
  8
7
  6
CONTINUOUS
 62
     2
 10
113.0
 20
44.0
 11
113.0
 21
22.0
  0
LINE
  8
7
  6
CONTINUOUS
 62
     2
 10
129.0
 20
44.0
 11
129.0
 21
22.0
  0
LINE
  8
7
  6
CONTINUOUS
 62
     2
 10
89.0
 20
44.0
 11
89.0
 21
33.0
  0
LINE
  8
7
  6
CONTINUOUS
 62
     2
 10
59.0
 20
68.0
 11
59.0
 21
11.0
  0
LINE
  8
7
  6
CONTINUOUS
 62
     2
 10
81.0
 20
33.0
 11
81.0
 21
11.0
  0
LINE
  8
7
  6
CONTINUOUS
 62
     2
 10
97.0
 20
33.0
 11
97.0
 21
11.0
  0
LINE
  8
7
  6
LTYPE1
 62
     2
 10
103.0
 20
14.5
 11
107.0
 21
14.5
  0
LINE
  8
7
  6
LTYPE1
 62
     2
 10
107.0
 20
14.5
 11
107.0
 21
18.5
  0
LINE
  8
7
  6
LTYPE1
 62
     2
 10
107.0
 20
18.5
 11
103.0
 21
18.5
  0
LINE
  8
7
  6
LTYPE1
 62
     2
 10
103.0
 20
18.5
 11
103.0
 21
14.5
  0
TEXT
  8
7
  6
CONTINUOUS
 62
     4
 10
63.15
 20
53.5
 30
0.3
 40
2.5
  1
氏名
 50
90.0
 41
1.0
 51
0.0
  7
KANJI3
  0
TEXT
  8
7
  6
CONTINUOUS
 62
     4
 10
63.15
 20
41.425
 30
1.0
 40
2.5
  1
年月日
 50
90.0
 41
1.0
 51
0.0
  7
KANJI4
  0
TEXT
  8
7
  6
CONTINUOUS
 62
     4
 10
63.15
 20
61.375
 30
0.3
 40
2.5
  1
承認
 50
90.0
 41
1.0
 51
0.0
  7
KANJI3
  0
TEXT
  8
7
  6
CONTINUOUS
 62
     4
 10
66.0
 20
40.5
 30
0.0
 40
2.5
  1
熱処理
 50
0.0
 41
1.0
 51
0.0
  7
KANJI5
  0
TEXT
  8
7
  6
CONTINUOUS
 62
     4
 10
90.0
 20
40.5
 30
0.0
 40
2.5
  1
表面処理
 50
0.0
 41
1.0
 51
0.0
  7
KANJI5
  0
TEXT
  8
7
  6
CONTINUOUS
 62
     4
 10
114.0
 20
40.5
 30
0.0
 40
2.5
  1
台数
 50
0.0
 41
1.0
 51
0.0
  7
KANJI5
  0
TEXT
  8
7
  6
CONTINUOUS
 62
     4
 10
130.0
 20
40.5
 30
0.0
 40
2.5
  1
作成日付
 50
0.0
 41
1.0
 51
0.0
  7
KANJI5
  0
TEXT
  8
7
  6
CONTINUOUS
 62
     4
 10
146.0
 20
40.5
 30
0.0
 40
2.5
  1
名称
 50
0.0
 41
1.0
 51
0.0
  7
KANJI5
  0
TEXT
  8
7
  6
CONTINUOUS
 62
     4
 10
66.0
 20
29.5
 30
0.0
 40
2.5
  1
尺度
 50
0.0
 41
1.0
 51
0.0
  7
KANJI5
  0
TEXT
  8
7
  6
CONTINUOUS
 62
     4
 10
82.0
 20
29.5
 30
0.0
 40
2.5
  1
承認
 50
0.0
 41
1.0
 51
0.0
  7
KANJI5
  0
TEXT
  8
7
  6
CONTINUOUS
 62
     4
 10
98.0
 20
29.5
 30
0.0
 40
2.5
  1
検図
 50
0.0
 41
1.0
 51
0.0
  7
KANJI5
  0
TEXT
  8
7
  6
CONTINUOUS
 62
     4
 10
114.0
 20
29.5
 30
0.0
 40
2.5
  1
設計
 50
0.0
 41
1.0
 51
0.0
  7
KANJI5
  0
TEXT
  8
7
  6
CONTINUOUS
 62
     4
 10
130.0
 20
29.5
 30
0.0
 40
2.5
  1
製図
 50
0.0
 41
1.0
 51
0.0
  7
KANJI5
  0
TEXT
  8
7
  6
CONTINUOUS
 62
     4
 10
146.0
 20
29.5
 30
0.0
 40
2.5
  1
機名
 50
0.0
 41
1.0
 51
0.0
  7
KANJI5
  0
TEXT
  8
7
  6
CONTINUOUS
 62
     4
 10
63.15
 20
11.875
 30
0.3
 40
2.5
  1
記号
 50
90.0
 41
1.0
 51
0.0
  7
KANJI3
  0
TEXT
  8
7
  6
CONTINUOUS
 62
     4
 10
146.0
 20
18.5
 30
0.0
 40
2.5
  1
図面番号
 50
0.0
 41
1.0
 51
0.0
  7
KANJI5
  0
TEXT
  8
7
  6
CONTINUOUS
 62
     4
 10
109.0
 20
15.25
 30
0.0
 40
2.5
  1
株式会社
 50
0.0
 41
1.0
 51
0.0
  7
KANJI5
  0
TEXT
  8
7
  6
CONTINUOUS
 62
     4
 10
121.0
 20
14.5
 30
0.0
 40
4.0
  1
昭和測器
 50
0.0
 41
1.125
 51
0.0
  7
KANJI6
  0
TEXT
  8
7
  6
CONTINUOUS
 62
     4
 10
63.15
 20
19.375
 30
0.3
 40
2.5
  1
来歴・改訂記事
 50
90.0
 41
1.0
 51
0.0
  7
KANJI3
  0
TEXT
  8
7
  6
CONTINUOUS
 62
     1
 10
68.0
 20
16.5
 30
0.0
 40
5.0
  1
第３
 50
0.0
 41
1.0
 51
0.0
  7
KANJI2
  0
TEXT
  8
7
  6
CONTINUOUS
 62
     1
 10
68.0
 20
11.5
 30
0.0
 40
5.0
  1
角法
 50
0.0
 41
1.0
 51
0.0
  7
KANJI2
  0
CIRCLE
  8
7
  6
CONTINUOUS
 62
     6
 10
72.75
 20
27.0
 40
0.2
  0
CIRCLE
  8
7
  6
CONTINUOUS
 62
     6
 10
72.75
 20
24.5
 40
0.2
  0
TEXT
  8
7
  6
CONTINUOUS
 62
     6
 10
83.725
 20
13.025
 30
-1.0
 40
7.0
  1
Ａ４
 50
0.0
 41
0.857142857
 51
0.0
  7
KANJI7
  0
TEXT
  8
7
  6
CONTINUOUS
 62
     6
 10
178.25
 20
5.0
 30
0.0
 40
5.0
  1
４
 50
0.0
 41
1.2
 51
0.0
  7
KANJI1
  0
TEXT
  8
7
  6
CONTINUOUS
 62
     4
 10
66.5
 20
46.0
 30
0.0
 40
4.0
  1
番号
 50
0.0
 41
0.875
 51
0.0
  7
KANJI0
  0
TEXT
  8
7
  6
CONTINUOUS
 62
     4
 10
84.25
 20
46.0
 30
0.0
 40
4.0
  1
部　品　名
 50
0.0
 41
0.875
 51
0.0
  7
KANJI0
  0
LINE
  8
7
  6
CONTINUOUS
 62
     6
 10
104.0
 20
11.0
 11
104.0
 21
1.0
  0
LINE
  8
7
  6
CONTINUOUS
 62
     6
 10
54.0
 20
11.0
 11
54.0
 21
6.0
  0
LINE
  8
7
  6
CONTINUOUS
 62
     6
 10
154.0
 20
6.0
 11
154.0
 21
11.0
  0
LINE
  8
7
  6
CONTINUOUS
 62
     6
 10
64.0
 20
11.0
 11
64.0
 21
6.0
  0
LINE
  8
7
  6
CONTINUOUS
 62
     6
 10
74.0
 20
11.0
 11
74.0
 21
6.0
  0
LINE
  8
7
  6
CONTINUOUS
 62
     6
 10
84.0
 20
11.0
 11
84.0
 21
6.0
  0
LINE
  8
7
  6
CONTINUOUS
 62
     6
 10
94.0
 20
11.0
 11
94.0
 21
6.0
  0
LINE
  8
7
  6
CONTINUOUS
 62
     6
 10
144.0
 20
6.0
 11
144.0
 21
11.0
  0
LINE
  8
7
  6
CONTINUOUS
 62
     6
 10
134.0
 20
6.0
 11
134.0
 21
11.0
  0
LINE
  8
7
  6
CONTINUOUS
 62
     6
 10
124.0
 20
6.0
 11
124.0
 21
11.0
  0
LINE
  8
7
  6
CONTINUOUS
 62
     6
 10
114.0
 20
6.0
 11
114.0
 21
11.0
  0
LINE
  8
7
  6
CONTINUOUS
 62
     2
 10
24.0
 20
68.0
 11
65.0
 21
68.0
  0
LINE
  8
7
  6
CONTINUOUS
 62
     2
 10
24.0
 20
60.0
 11
65.0
 21
60.0
  0
LINE
  8
7
  6
CONTINUOUS
 62
     2
 10
65.0
 20
52.0
 11
65.0
 21
11.0
  0
LINE
  8
7
  6
CONTINUOUS
 62
     2
 10
65.0
 20
68.0
 11
65.0
 21
52.0
  0
LINE
  8
7
  6
CONTINUOUS
 62
     2
 10
75.0
 20
52.0
 11
75.0
 21
44.0
  0
LINE
  8
7
  6
CONTINUOUS
 62
     2
 10
75.0
 20
68.0
 11
75.0
 21
52.0
  0
LINE
  8
7
  6
CONTINUOUS
 62
     2
 10
111.0
 20
52.0
 11
111.0
 21
44.0
  0
LINE
  8
7
  6
CONTINUOUS
 62
     2
 10
111.0
 20
68.0
 11
111.0
 21
52.0
  0
LINE
  8
7
  6
CONTINUOUS
 62
     2
 10
65.0
 20
33.0
 11
145.0
 21
33.0
  0
LINE
  8
7
  6
CONTINUOUS
 62
     2
 10
65.0
 20
22.0
 11
145.0
 21
22.0
  0
LINE
  8
7
  6
CONTINUOUS
 62
     6
 10
24.0
 20
11.0
 11
145.0
 21
11.0
  0
LINE
  8
7
  6
CONTINUOUS
 62
     6
 10
145.0
 20
11.0
 11
189.0
 21
11.0
  0
TEXT
  8
7
  6
CONTINUOUS
 62
     4
 10
172.25
 20
46.0
 30
0.0
 40
4.0
  1
摘　　　要
 50
0.0
 41
0.875
 51
0.0
  7
KANJI0
  0
LINE
  8
7
  6
LTYPE2
 62
     2
 10
187.0
 20
22.0
 11
187.0
 21
11.0
  0
TEXT
  8
7
  6
CONTINUOUS
 62
     4
 10
145.0
 20
48.0
 30
-0.5
 40
3.0
  1
１セット分
 50
0.0
 41
0.666666667
 51
0.0
  7
KANJI8
  0
TEXT
  8
7
  6
CONTINUOUS
 62
     4
 10
134.0
 20
48.0
 30
0.0
 40
3.0
  1
１台分
 50
0.0
 41
1.0
 51
0.0
  7
KANJI9
  0
TEXT
  8
7
  6
CONTINUOUS
 62
     4
 10
136.0
 20
45.0
 30
0.0
 40
3.0
  1
個数
 50
0.0
 41
1.0
 51
0.0
  7
KANJI9
  0
TEXT
  8
7
  6
CONTINUOUS
 62
     4
 10
146.0
 20
45.0
 30
0.0
 40
3.0
  1
個数
 50
0.0
 41
1.0
 51
0.0
  7
KANJI9
  0
TEXT
  8
7
  6
CONTINUOUS
 62
     4
 10
155.5
 20
46.0
 30
0.0
 40
4.0
  1
総数
 50
0.0
 41
0.875
 51
0.0
  7
KANJI0
  0
LINE
  8
7
  6
CONTINUOUS
 62
     2
 10
134.0
 20
52.0
 11
134.0
 21
44.0
  0
LINE
  8
7
  6
CONTINUOUS
 62
     2
 10
134.0
 20
68.0
 11
134.0
 21
52.0
  0
LINE
  8
7
  6
CONTINUOUS
 62
     2
 10
144.0
 20
52.0
 11
144.0
 21
44.0
  0
LINE
  8
7
  6
CONTINUOUS
 62
     2
 10
144.0
 20
68.0
 11
144.0
 21
52.0
  0
LINE
  8
7
  6
CONTINUOUS
 62
     2
 10
154.0
 20
52.0
 11
154.0
 21
44.0
  0
LINE
  8
7
  6
CONTINUOUS
 62
     2
 10
154.0
 20
68.0
 11
154.0
 21
52.0
  0
LINE
  8
7
  6
CONTINUOUS
 62
     2
 10
164.0
 20
52.0
 11
164.0
 21
44.0
  0
LINE
  8
7
  6
CONTINUOUS
 62
     2
 10
164.0
 20
68.0
 11
164.0
 21
52.0
  0
LINE
  8
7
  6
CONTINUOUS
 62
     2
 10
145.0
 20
44.0
 11
145.0
 21
11.0
  0
TEXT
  8
7
  6
CONTINUOUS
 62
     4
 10
117.25
 20
46.0
 30
0.0
 40
4.0
  1
材　質
 50
0.0
 41
0.875
 51
0.0
  7
KANJI0
  0
LINE
  8
7
  6
CONTINUOUS
 62
     2
 10
25.0
 20
52.0
 11
65.0
 21
52.0
  0
LINE
  8
0
  6
CONTINUOUS
 62
     1
 10
113.5
 20
177.0
 11
113.5
 21
187.0
  0
LINE
  8
0
  6
CONTINUOUS
 62
     1
 10
86.5
 20
187.0
 11
86.5
 21
177.0
  0
LINE
  8
0
  6
CONTINUOUS
 62
     1
 10
86.5
 20
177.0
 11
113.5
 21
177.0
  0
LINE
  8
0
  6
CONTINUOUS
 62
     1
 10
113.5
 20
187.0
 11
86.5
 21
187.0
  0
LINE
  8
0
  6
CONTINUOUS
 62
     1
 10
91.412217981
 20
187.0
 11
91.412217981
 21
177.0
  0
LINE
  8
0
  6
CONTINUOUS
 62
     1
 10
108.587782019
 20
187.0
 11
108.587782019
 21
177.0
  0
LINE
  8
0
  6
CONTINUOUS
 62
     2
 10
108.587782019
 20
177.0
 11
91.412217981
 21
187.0
  0
LINE
  8
0
  6
CONTINUOUS
 62
     2
 10
108.587782019
 20
187.0
 11
91.412217981
 21
177.0
  0
LINE
  8
0
  6
CONTINUOUS
 62
     1
 10
90.6845
 20
155.0
 11
109.3155
 21
155.0
  0
LINE
  8
0
  6
CONTINUOUS
 62
     1
 10
89.5225
 20
156.162
 11
90.6845
 21
155.0
  0
LINE
  8
0
  6
CONTINUOUS
 62
     1
 10
109.3155
 20
155.0
 11
110.4775
 21
156.162
  0
LINE
  8
0
  6
CONTINUOUS
 62
     1
 10
89.5225
 20
174.676
 11
110.4775
 21
174.676
  0
LINE
  8
0
  6
CONTINUOUS
 62
     1
 10
110.4775
 20
174.676
 11
110.4775
 21
156.162
  0
LINE
  8
0
  6
CONTINUOUS
 62
     1
 10
89.5225
 20
174.676
 11
89.5225
 21
156.162
  0
ARC
  8
0
  6
CONTINUOUS
 62
     1
 10
110.4775
 20
175.838
 40
1.162
 50
90.0
 51
270.0
  0
LINE
  8
0
  6
CONTINUOUS
 62
     2
 10
109.3155
 20
155.0
 11
109.3155
 21
175.838001907
  0
ARC
  8
0
  6
CONTINUOUS
 62
     1
 10
89.5225
 20
175.838
 40
1.162
 50
270.0
 51
90.0
  0
LINE
  8
0
  6
CONTINUOUS
 62
     2
 10
90.6845
 20
155.0
 11
90.6845
 21
175.838001907
  0
LINE
  8
0
  6
CONTINUOUS
 62
     1
 10
87.5
 20
187.0
 11
87.5
 21
187.5
  0
LINE
  8
0
  6
CONTINUOUS
 62
     1
 10
87.5
 20
187.5
 11
112.5
 21
187.5
  0
LINE
  8
0
  6
CONTINUOUS
 62
     1
 10
112.5
 20
187.5
 11
112.5
 21
187.0
  0
LINE
  8
0
  6
CONTINUOUS
 62
     1
 10
111.5
 20
187.5
 11
111.5
 21
189.0
  0
LINE
  8
0
  6
CONTINUOUS
 62
     1
 10
88.5
 20
187.5
 11
88.5
 21
189.0
  0
LINE
  8
0
  6
CONTINUOUS
 62
     1
 10
88.5
 20
189.0
 11
111.5
 21
189.0
  0
LINE
  8
0
  6
CONTINUOUS
 62
     1
 10
88.5
 20
189.0
 11
87.5
 21
189.5
  0
LINE
  8
0
  6
CONTINUOUS
 62
     1
 10
87.5
 20
189.5
 11
112.5
 21
189.5
  0
LINE
  8
0
  6
CONTINUOUS
 62
     1
 10
112.5
 20
189.5
 11
111.5
 21
189.0
  0
LINE
  8
0
  6
CONTINUOUS
 62
     1
 10
87.5
 20
189.5
 11
87.5
 21
190.5
  0
LINE
  8
0
  6
CONTINUOUS
 62
     1
 10
87.5
 20
190.5
 11
112.5
 21
190.5
  0
LINE
  8
0
  6
CONTINUOUS
 62
     1
 10
112.5
 20
190.5
 11
112.5
 21
189.5
  0
LINE
  8
0
  6
CONTINUOUS
 62
     1
 10
112.5
 20
190.5
 11
111.5
 21
191.0
  0
LINE
  8
0
  6
CONTINUOUS
 62
     1
 10
111.5
 20
191.0
 11
88.5
 21
191.0
  0
LINE
  8
0
  6
CONTINUOUS
 62
     1
 10
88.5
 20
191.0
 11
87.5
 21
190.5
  0
LINE
  8
0
  6
CONTINUOUS
 62
     1
 10
111.5
 20
191.0
 11
111.5
 21
192.5
  0
LINE
  8
0
  6
CONTINUOUS
 62
     1
 10
88.5
 20
191.0
 11
88.5
 21
192.5
  0
LINE
  8
0
  6
CONTINUOUS
 62
     1
 10
87.5
 20
192.5
 11
112.5
 21
192.5
  0
LINE
  8
0
  6
CONTINUOUS
 62
     1
 10
112.5
 20
192.5
 11
112.5
 21
227.5
  0
LINE
  8
0
  6
CONTINUOUS
 62
     1
 10
87.5
 20
227.5
 11
87.5
 21
192.5
  0
LINE
  8
0
  6
CONTINUOUS
 62
     1
 10
87.5
 20
232.5
 11
112.5
 21
232.5
  0
LINE
  8
0
  6
CONTINUOUS
 62
     1
 10
111.5
 20
232.5
 11
111.5
 21
231.0
  0
LINE
  8
0
  6
CONTINUOUS
 62
     1
 10
88.5
 20
232.5
 11
88.5
 21
231.0
  0
LINE
  8
0
  6
CONTINUOUS
 62
     1
 10
88.5
 20
231.0
 11
111.5
 21
231.0
  0
LINE
  8
0
  6
CONTINUOUS
 62
     1
 10
88.5
 20
231.0
 11
87.5
 21
230.5
  0
LINE
  8
0
  6
CONTINUOUS
 62
     1
 10
87.5
 20
230.5
 11
112.5
 21
230.5
  0
LINE
  8
0
  6
CONTINUOUS
 62
     1
 10
112.5
 20
230.5
 11
111.5
 21
231.0
  0
LINE
  8
0
  6
CONTINUOUS
 62
     1
 10
87.5
 20
230.5
 11
87.5
 21
229.5
  0
LINE
  8
0
  6
CONTINUOUS
 62
     1
 10
87.5
 20
229.5
 11
112.5
 21
229.5
  0
LINE
  8
0
  6
CONTINUOUS
 62
     1
 10
112.5
 20
229.5
 11
112.5
 21
230.5
  0
LINE
  8
0
  6
CONTINUOUS
 62
     1
 10
112.5
 20
229.5
 11
111.5
 21
229.0
  0
LINE
  8
0
  6
CONTINUOUS
 62
     1
 10
111.5
 20
229.0
 11
88.5
 21
229.0
  0
LINE
  8
0
  6
CONTINUOUS
 62
     1
 10
88.5
 20
229.0
 11
87.5
 21
229.5
  0
LINE
  8
0
  6
CONTINUOUS
 62
     1
 10
111.5
 20
229.0
 11
111.5
 21
227.5
  0
LINE
  8
0
  6
CONTINUOUS
 62
     1
 10
88.5
 20
229.0
 11
88.5
 21
227.5
  0
LINE
  8
0
  6
CONTINUOUS
 62
     1
 10
87.5
 20
227.5
 11
112.5
 21
227.5
  0
LINE
  8
0
  6
CONTINUOUS
 62
     1
 10
87.5
 20
252.0
 11
87.5
 21
232.5
  0
LINE
  8
0
  6
CONTINUOUS
 62
     1
 10
112.5
 20
232.5
 11
112.5
 21
252.0
  0
LINE
  8
0
  6
CONTINUOUS
 62
     1
 10
87.5
 20
252.0
 11
112.5
 21
252.0
  0
LINE
  8
4
  6
CONTINUOUS
 62
     1
 10
92.0
 20
264.5
 11
108.0
 21
264.5
  0
LINE
  8
4
  6
CONTINUOUS
 62
     1
 10
89.5
 20
253.5
 11
110.5
 21
253.5
  0
LINE
  8
4
  6
CONTINUOUS
 62
     1
 10
89.5
 20
252.0
 11
110.5
 21
252.0
  0
LINE
  8
4
  6
CONTINUOUS
 62
     1
 10
89.5
 20
253.5
 11
89.5
 21
252.0
  0
LINE
  8
4
  6
CONTINUOUS
 62
     1
 10
110.5
 20
253.5
 11
110.5
 21
252.0
  0
LINE
  8
4
  6
CONTINUOUS
 62
     1
 10
92.0
 20
264.5
 11
92.0
 21
253.5
  0
LINE
  8
4
  6
CONTINUOUS
 62
     1
 10
108.0
 20
264.5
 11
108.0
 21
253.5
  0
LINE
  8
0
  6
LTYPE3
 62
     2
 10
100.0
 20
269.5
 11
100.0
 21
150.0
  0
LINE
  8
5
  6
CONTINUOUS
 62
     2
 10
110.3155
 20
155.0
 11
132.0
 21
155.0
  0
LINE
  8
5
  6
CONTINUOUS
 62
     2
 10
131.0
 20
155.0
 11
131.647047613
 21
157.414814566
  0
LINE
  8
5
  6
CONTINUOUS
 62
     2
 10
131.0
 20
155.0
 11
130.352952387
 21
157.414814566
  0
LINE
  8
5
  6
CONTINUOUS
 62
     2
 10
131.0
 20
155.0
 11
131.0
 21
177.0
  0
LINE
  8
5
  6
CONTINUOUS
 62
     2
 10
131.0
 20
177.0
 11
130.352952387
 21
174.585185434
  0
LINE
  8
5
  6
CONTINUOUS
 62
     2
 10
131.0
 20
177.0
 11
131.647047613
 21
174.585185434
  0
LINE
  8
5
  6
CONTINUOUS
 62
     2
 10
114.5
 20
177.0
 11
132.0
 21
177.0
  0
TEXT
  8
5
  6
CONTINUOUS
 62
     5
 10
130.0
 20
162.45
 30
0.1
 40
4.0
  1
２２
 50
90.0
 41
0.875
 51
0.0
  7
KANJI10
  0
LINE
  8
5
  6
CONTINUOUS
 62
     2
 10
131.0
 20
177.0
 11
131.647047613
 21
179.414814566
  0
LINE
  8
5
  6
CONTINUOUS
 62
     2
 10
131.0
 20
177.0
 11
130.352952387
 21
179.414814566
  0
LINE
  8
5
  6
CONTINUOUS
 62
     2
 10
131.0
 20
177.0
 11
131.0
 21
187.0
  0
LINE
  8
5
  6
CONTINUOUS
 62
     2
 10
131.0
 20
187.0
 11
130.352952387
 21
184.585185434
  0
LINE
  8
5
  6
CONTINUOUS
 62
     2
 10
131.0
 20
187.0
 11
131.647047613
 21
184.585185434
  0
LINE
  8
5
  6
CONTINUOUS
 62
     2
 10
114.5
 20
187.0
 11
132.0
 21
187.0
  0
TEXT
  8
5
  6
CONTINUOUS
 62
     5
 10
130.0
 20
178.45
 30
0.1
 40
4.0
  1
１０
 50
90.0
 41
0.875
 51
0.0
  7
KANJI10
  0
LINE
  8
5
  6
CONTINUOUS
 62
     2
 10
131.0
 20
187.0
 11
131.647047613
 21
189.414814566
  0
LINE
  8
5
  6
CONTINUOUS
 62
     2
 10
131.0
 20
187.0
 11
130.352952387
 21
189.414814566
  0
LINE
  8
5
  6
CONTINUOUS
 62
     2
 10
131.0
 20
187.0
 11
131.0
 21
252.0
  0
LINE
  8
5
  6
CONTINUOUS
 62
     2
 10
131.0
 20
252.0
 11
130.352952387
 21
249.585185434
  0
LINE
  8
5
  6
CONTINUOUS
 62
     2
 10
131.0
 20
252.0
 11
131.647047613
 21
249.585185434
  0
LINE
  8
5
  6
CONTINUOUS
 62
     2
 10
113.5
 20
252.0
 11
132.0
 21
252.0
  0
TEXT
  8
5
  6
CONTINUOUS
 62
     5
 10
130.0
 20
215.95
 30
0.1
 40
4.0
  1
６５
 50
90.0
 41
0.875
 51
0.0
  7
KANJI10
  0
LINE
  8
5
  6
CONTINUOUS
 62
     2
 10
131.0
 20
252.0
 11
131.647047613
 21
254.414814566
  0
LINE
  8
5
  6
CONTINUOUS
 62
     2
 10
131.0
 20
252.0
 11
130.352952387
 21
254.414814566
  0
LINE
  8
5
  6
CONTINUOUS
 62
     2
 10
131.0
 20
252.0
 11
131.0
 21
264.5
  0
LINE
  8
5
  6
CONTINUOUS
 62
     2
 10
131.0
 20
264.5
 11
130.352952387
 21
262.085185434
  0
LINE
  8
5
  6
CONTINUOUS
 62
     2
 10
131.0
 20
264.5
 11
131.647047613
 21
262.085185434
  0
LINE
  8
5
  6
CONTINUOUS
 62
     2
 10
109.0
 20
264.5
 11
132.0
 21
264.5
  0
LINE
  8
5
  6
CONTINUOUS
 62
     2
 10
132.0
 20
264.5
 11
142.0
 21
264.5
  0
LINE
  8
5
  6
CONTINUOUS
 62
     2
 10
141.0
 20
264.5
 11
140.352952387
 21
262.085185434
  0
LINE
  8
5
  6
CONTINUOUS
 62
     2
 10
141.0
 20
264.5
 11
141.647047613
 21
262.085185434
  0
LINE
  8
5
  6
CONTINUOUS
 62
     2
 10
141.0
 20
264.5
 11
141.0
 21
155.0
  0
LINE
  8
5
  6
CONTINUOUS
 62
     2
 10
141.0
 20
155.0
 11
141.647047613
 21
157.414814566
  0
LINE
  8
5
  6
CONTINUOUS
 62
     2
 10
141.0
 20
155.0
 11
140.352952387
 21
157.414814566
  0
LINE
  8
5
  6
CONTINUOUS
 62
     2
 10
132.0
 20
155.0
 11
142.0
 21
155.0
  0
TEXT
  8
5
  6
CONTINUOUS
 62
     5
 10
140.0
 20
200.8
 30
0.1
 40
4.0
  1
１０９．５
 50
90.0
 41
0.875
 51
0.0
  7
KANJI10
  0
LINE
  8
5
  6
CONTINUOUS
 62
     2
 10
89.5225
 20
165.0
 11
87.357436491
 21
163.75
  0
LINE
  8
5
  6
CONTINUOUS
 62
     2
 10
89.5225
 20
165.0
 11
88.2725
 21
162.834936491
  0
LINE
  8
5
  6
CONTINUOUS
 62
     2
 10
89.5225
 20
165.0
 11
74.5225
 21
150.0
  0
LINE
  8
5
  6
CONTINUOUS
 62
     2
 10
74.5225
 20
150.0
 11
60.2225
 21
150.0
  0
TEXT
  8
5
  6
CONTINUOUS
 62
     5
 10
60.2225
 20
151.0
 30
0.1
 40
4.0
  1
Ｇ１／２
 50
0.0
 41
0.875
 51
0.0
  7
KANJI10
  0
LINE
  8
5
  6
CONTINUOUS
 62
     2
 10
87.5
 20
253.0
 11
87.5
 21
275.5
  0
LINE
  8
5
  6
CONTINUOUS
 62
     2
 10
87.5
 20
274.5
 11
89.914814566
 21
273.852952387
  0
LINE
  8
5
  6
CONTINUOUS
 62
     2
 10
87.5
 20
274.5
 11
89.914814566
 21
275.147047613
  0
LINE
  8
5
  6
CONTINUOUS
 62
     2
 10
87.5
 20
274.5
 11
112.5
 21
274.5
  0
LINE
  8
5
  6
CONTINUOUS
 62
     2
 10
112.5
 20
274.5
 11
110.085185434
 21
275.147047613
  0
LINE
  8
5
  6
CONTINUOUS
 62
     2
 10
112.5
 20
274.5
 11
110.085185434
 21
273.852952387
  0
LINE
  8
5
  6
CONTINUOUS
 62
     2
 10
112.5
 20
253.0
 11
112.5
 21
275.5
  0
TEXT
  8
5
  6
CONTINUOUS
 62
     5
 10
94.65
 20
275.5
 30
0.1
 40
4.0
  1
φ２５
 50
0.0
 41
0.875
 51
0.0
  7
KANJI10
  0
TEXT
  8
5
  6
CONTINUOUS
 62
     5
 10
130.0
 20
251.975
 30
0.1
 40
4.0
  1
１２．５
 50
90.0
 41
0.875
 51
0.0
  7
KANJI10
  0
LINE
  8
0
  6
LTYPE3
 62
     2
 10
79.0
 20
110.0
 11
121.0
 21
110.0
  0
LINE
  8
0
  6
LTYPE3
 62
     2
 10
100.0
 20
89.0
 11
100.0
 21
131.0
  0
LINE
  8
0
  6
CONTINUOUS
 62
     1
 10
91.412217981
 20
123.5
 11
108.587782019
 21
123.5
  0
LINE
  8
0
  6
CONTINUOUS
 62
     1
 10
86.5
 20
101.412217981
 11
86.5
 21
118.587782019
  0
LINE
  8
0
  6
CONTINUOUS
 62
     1
 10
108.587782019
 20
96.5
 11
91.412217981
 21
96.5
  0
LINE
  8
0
  6
CONTINUOUS
 62
     1
 10
113.5
 20
118.587782019
 11
113.5
 21
101.412217981
  0
CIRCLE
  8
0
  6
CONTINUOUS
 62
     2
 10
100.0
 20
110.0
 40
9.3155
  0
CIRCLE
  8
0
  6
CONTINUOUS
 62
     1
 10
100.0
 20
110.0
 40
10.4775
  0
CIRCLE
  8
0
  6
CONTINUOUS
 62
     1
 10
100.0
 20
110.0
 40
5.8
  0
CIRCLE
  8
0
  6
CONTINUOUS
 62
     1
 10
100.0
 20
110.0
 40
7.8
  0
CIRCLE
  8
0
  6
CONTINUOUS
 62
     1
 10
100.0
 20
110.0
 40
5.3
  0
CIRCLE
  8
0
  6
CONTINUOUS
 62
     1
 10
100.0
 20
110.0
 40
6.3
  0
CIRCLE
  8
0
  6
CONTINUOUS
 62
     1
 10
100.0
 20
110.0
 40
8.3
  0
CIRCLE
  8
0
  6
CONTINUOUS
 62
     1
 10
100.0
 20
110.0
 40
7.3
  0
CIRCLE
  8
0
  6
CONTINUOUS
 62
     1
 10
100.0
 20
110.0
 40
3.0
  0
ARC
  8
0
  6
CONTINUOUS
 62
     1
 10
100.0
 20
110.0
 40
16.0
 50
32.461744967
 51
57.538255033
  0
ARC
  8
0
  6
CONTINUOUS
 62
     1
 10
100.0
 20
110.0
 40
16.0
 50
302.461744967
 51
327.538255033
  0
ARC
  8
0
  6
CONTINUOUS
 62
     1
 10
100.0
 20
110.0
 40
16.0
 50
212.461744967
 51
237.538255033
  0
ARC
  8
0
  6
CONTINUOUS
 62
     1
 10
100.0
 20
110.0
 40
16.0
 50
122.461744967
 51
147.538255033
  0
LINE
  8
5
  6
CONTINUOUS
 62
     2
 10
109.587782019
 20
123.5
 11
132.0
 21
123.5
  0
LINE
  8
5
  6
CONTINUOUS
 62
     2
 10
131.0
 20
123.5
 11
130.352952387
 21
121.085185434
  0
LINE
  8
5
  6
CONTINUOUS
 62
     2
 10
131.0
 20
123.5
 11
131.647047613
 21
121.085185434
  0
LINE
  8
5
  6
CONTINUOUS
 62
     2
 10
131.0
 20
123.5
 11
131.0
 21
96.5
  0
LINE
  8
5
  6
CONTINUOUS
 62
     2
 10
131.0
 20
96.5
 11
131.647047613
 21
98.914814566
  0
LINE
  8
5
  6
CONTINUOUS
 62
     2
 10
131.0
 20
96.5
 11
130.352952387
 21
98.914814566
  0
LINE
  8
5
  6
CONTINUOUS
 62
     2
 10
109.587782019
 20
96.5
 11
132.0
 21
96.5
  0
TEXT
  8
5
  6
CONTINUOUS
 62
     5
 10
130.0
 20
106.45
 30
0.1
 40
4.0
  1
２７
 50
90.0
 41
0.875
 51
0.0
  7
KANJI10
  0
POLYLINE
  8
5
  6
CONTINUOUS
 62
     2
 66
     1
  0
VERTEX
  8
5
  6
CONTINUOUS
 62
     2
 10
89.393398282
 20
76.765981284
  0
VERTEX
  8
5
  6
CONTINUOUS
 62
     2
 10
66.765981284
 20
99.393398282
  0
VERTEX
  8
5
  6
CONTINUOUS
 62
     2
 10
68.015981284
 20
97.228334773
  0
SEQEND
  0
LINE
  8
5
  6
CONTINUOUS
 62
     2
 10
66.765981284
 20
99.393398282
 11
68.931044794
 21
98.143398282
  0
LINE
  8
5
  6
CONTINUOUS
 62
     2
 10
87.97918472
 20
120.606601718
 11
66.058874503
 21
98.686291501
  0
LINE
  8
5
  6
CONTINUOUS
 62
     2
 10
110.606601718
 20
97.97918472
 11
88.686291501
 21
76.058874503
  0
LINE
  8
5
  6
CONTINUOUS
 62
     2
 10
89.393398282
 20
76.765981284
 11
88.143398282
 21
78.931044794
  0
TEXT
  8
5
  6
CONTINUOUS
 62
     5
 10
75.003775285
 20
92.569817844
 30
0.1
 40
4.0
  1
φ３２
 50
315.0
 41
0.875
 51
0.0
  7
KANJI10
  0
LINE
  8
5
  6
CONTINUOUS
 62
     2
 10
89.393398282
 20
76.765981284
 11
87.228334773
 21
78.015981284
  0
TEXT
  8
5
  6
CONTINUOUS
 62
     5
 10
136.0
 20
97.45
 30
0.1
 40
4.0
  1
（スパナ掛け）
 50
90.0
 41
0.875
 51
0.0
  7
KANJI10
  0
LINE
  8
5
  6
CONTINUOUS
 62
     2
 10
97.0
 20
154.0
 11
97.0
 21
139.0
  0
LINE
  8
5
  6
CONTINUOUS
 62
     2
 10
97.0
 20
140.0
 11
99.414814566
 21
139.352952387
  0
LINE
  8
5
  6
CONTINUOUS
 62
     2
 10
97.0
 20
140.0
 11
99.414814566
 21
140.647047613
  0
LINE
  8
5
  6
CONTINUOUS
 62
     2
 10
87.4
 20
140.0
 11
103.0
 21
140.0
  0
LINE
  8
5
  6
CONTINUOUS
 62
     2
 10
103.0
 20
140.0
 11
100.585185434
 21
140.647047613
  0
LINE
  8
5
  6
CONTINUOUS
 62
     2
 10
103.0
 20
140.0
 11
100.585185434
 21
139.352952387
  0
LINE
  8
5
  6
CONTINUOUS
 62
     2
 10
103.0
 20
154.0
 11
103.0
 21
139.0
  0
TEXT
  8
5
  6
CONTINUOUS
 62
     5
 10
87.4
 20
141.0
 30
0.1
 40
4.0
  1
φ６
 50
0.0
 41
0.875
 51
0.0
  7
KANJI10
  0
LINE
  8
0
  6
CONTINUOUS
 62
     1
 10
105.3
 20
155.0
 11
105.8
 21
155.5
  0
LINE
  8
0
  6
CONTINUOUS
 62
     1
 10
105.8
 20
155.5
 11
106.3
 21
155.0
  0
LINE
  8
0
  6
CONTINUOUS
 62
     1
 10
107.3
 20
155.0
 11
107.8
 21
155.5
  0
LINE
  8
0
  6
CONTINUOUS
 62
     1
 10
107.8
 20
155.5
 11
108.3
 21
155.0
  0
LINE
  8
0
  6
LTYPE3
 62
     2
 10
105.8
 20
153.0
 11
105.8
 21
157.5
  0
LINE
  8
0
  6
LTYPE3
 62
     2
 10
107.8
 20
153.0
 11
107.8
 21
157.5
  0
LINE
  8
0
  6
LTYPE3
 62
     2
 10
94.2
 20
153.0
 11
94.2
 21
157.5
  0
LINE
  8
0
  6
LTYPE3
 62
     2
 10
92.2
 20
153.0
 11
92.2
 21
157.5
  0
POLYLINE
  8
0
  6
CONTINUOUS
 62
     2
 66
     1
  0
VERTEX
  8
0
  6
CONTINUOUS
 62
     2
 10
95.5
 20
155.0
  0
VERTEX
  8
0
  6
CONTINUOUS
 62
     2
 10
95.536
 20
155.632
  0
VERTEX
  8
0
  6
CONTINUOUS
 62
     2
 10
95.588
 20
156.256
  0
VERTEX
  8
0
  6
CONTINUOUS
 62
     2
 10
95.672
 20
156.864
  0
VERTEX
  8
0
  6
CONTINUOUS
 62
     2
 10
95.804
 20
157.448
  0
VERTEX
  8
0
  6
CONTINUOUS
 62
     2
 10
96.0
 20
158.0
  0
VERTEX
  8
0
  6
CONTINUOUS
 62
     2
 10
96.292
 20
158.496
  0
VERTEX
  8
0
  6
CONTINUOUS
 62
     2
 10
96.676
 20
158.948
  0
VERTEX
  8
0
  6
CONTINUOUS
 62
     2
 10
97.164
 20
159.352
  0
VERTEX
  8
0
  6
CONTINUOUS
 62
     2
 10
97.768
 20
159.704
  0
VERTEX
  8
0
  6
CONTINUOUS
 62
     2
 10
98.5
 20
160.0
  0
VERTEX
  8
0
  6
CONTINUOUS
 62
     2
 10
99.58
 20
160.14
  0
VERTEX
  8
0
  6
CONTINUOUS
 62
     2
 10
100.76
 20
160.24
  0
VERTEX
  8
0
  6
CONTINUOUS
 62
     2
 10
102.0
 20
160.32
  0
VERTEX
  8
0
  6
CONTINUOUS
 62
     2
 10
103.26
 20
160.4
  0
VERTEX
  8
0
  6
CONTINUOUS
 62
     2
 10
104.5
 20
160.5
  0
VERTEX
  8
0
  6
CONTINUOUS
 62
     2
 10
105.56872
 20
160.8
  0
VERTEX
  8
0
  6
CONTINUOUS
 62
     2
 10
106.56526
 20
161.12
  0
VERTEX
  8
0
  6
CONTINUOUS
 62
     2
 10
107.47744
 20
161.44
  0
VERTEX
  8
0
  6
CONTINUOUS
 62
     2
 10
108.29308
 20
161.74
  0
VERTEX
  8
0
  6
CONTINUOUS
 62
     2
 10
109.0
 20
162.0
  0
VERTEX
  8
0
  6
CONTINUOUS
 62
     2
 10
109.44058
 20
162.072
  0
VERTEX
  8
0
  6
CONTINUOUS
 62
     2
 10
109.78444
 20
162.096
  0
VERTEX
  8
0
  6
CONTINUOUS
 62
     2
 10
110.05576
 20
162.084
  0
VERTEX
  8
0
  6
CONTINUOUS
 62
     2
 10
110.27872
 20
162.048
  0
VERTEX
  8
0
  6
CONTINUOUS
 62
     2
 10
110.4775
 20
162.0
  0
SEQEND
  0
LINE
  8
0
  6
CONTINUOUS
 62
     1
 10
89.5225
 20
156.162
 11
95.580166667
 21
156.162
  0
LINE
  8
0
  6
CONTINUOUS
 62
     1
 10
109.3155
 20
156.162
 11
110.4775
 21
156.162
  0
LINE
  8
0
  6
CONTINUOUS
 62
     1
 10
97.0
 20
155.0
 11
97.0
 21
159.216229508
  0
LINE
  8
0
  6
CONTINUOUS
 62
     1
 10
103.0
 20
155.0
 11
103.0
 21
160.383492063
  0
LINE
  8
5
  6
CONTINUOUS
 62
     2
 10
107.8
 20
155.0
 11
109.05
 21
152.834936491
  0
LINE
  8
5
  6
CONTINUOUS
 62
     2
 10
107.8
 20
155.0
 11
109.965063509
 21
153.75
  0
LINE
  8
5
  6
CONTINUOUS
 62
     2
 10
107.8
 20
155.0
 11
117.8
 21
145.0
  0
LINE
  8
5
  6
CONTINUOUS
 62
     2
 10
117.8
 20
145.0
 11
151.95
 21
145.0
  0
TEXT
  8
5
  6
CONTINUOUS
 62
     5
 10
117.8
 20
146.0
 30
0.1
 40
4.0
  1
２－Ｖ形溝深さ０．５
 50
0.0
 41
0.875
 51
0.0
  7
KANJI10
  0
TEXT
  8
5
  6
CONTINUOUS
 62
     5
 10
140.0
 20
70.0
 30
0.1
 40
4.0
  1
５０，１００，２００　ＭＰａ
 50
0.0
 41
0.875
 51
0.0
  7
KANJI10
  0
TEXT
  8
6
  6
CONTINUOUS
 62
     5
 10
67.75
 20
24.0
 30
0.0
 40
4.0
  1
１
 50
0.0
 41
0.875
 51
0.0
  7
KANJI0
  0
TEXT
  8
6
  6
CONTINUOUS
 62
     5
 10
74.25
 20
24.0
 30
0.0
 40
4.0
  1
１
 50
0.0
 41
0.875
 51
0.0
  7
KANJI0
  0
TEXT
  8
6
  6
CONTINUOUS
 62
     5
 10
130.5
 20
37.0
 30
-0.5
 40
3.0
  1
２０１７．
 50
0.0
 41
0.833333333
 51
0.0
  7
KANJI11
  0
TEXT
  8
6
  6
CONTINUOUS
 62
     5
 10
133.0
 20
34.0
 30
-0.5
 40
3.0
  1
０７．１３
 50
0.0
 41
0.833333333
 51
0.0
  7
KANJI11
  0
TEXT
  8
6
  6
CONTINUOUS
 62
     5
 10
166.15
 20
35.0
 30
0.1
 40
4.0
  1
外観図
 50
0.0
 41
0.875
 51
0.0
  7
KANJI10
  0
TEXT
  8
6
  6
CONTINUOUS
 62
     5
 10
150.7
 20
24.0
 30
0.1
 40
4.0
  1
ＨＶＨ－□ＰＡＢ
 50
0.0
 41
0.875
 51
0.0
  7
KANJI10
  0
TEXT
  8
6
  6
CONTINUOUS
 62
     5
 10
146.65
 20
13.0
 30
0.1
 40
4.0
  1
Ｈ－０１０９－Ａ００１
 50
0.0
 41
0.875
 51
0.0
  7
KANJI10
  0
ENDSEC
  0
EOF
