  0
SECTION
  2
HEADER
  9
$EXTMIN
 10
0.0
 20
0.0
 30
0.0
  9
$EXTMAX
 10
210.0
 20
297.0
 30
0.0
  9
$LIMMIN
 10
0.0
 20
0.0
  9
$LIMMAX
 10
210.0
 20
297.0
  9
$LTSCALE
 40
1.0
  9
$PDMODE
 70
     0
  0
ENDSEC
  0
SECTION
  2
TABLES
  0
TABLE
  2
LTYPE
 70
     4
  0
LTYPE
  2
CONTINUOUS
 70
    64
  3
Solid line
 72
    65
 73
     0
 40
0.0
  0
LTYPE
  2
LTYPE1
 70
    64
  3
HIDDEN
 72
    65
 73
     2
 40
2.0
 49
1.2
 49
-0.8
  0
LTYPE
  2
LTYPE2
 70
    64
  3
PHANTOM
 72
    65
 73
     6
 40
10.0
 49
7.5
 49
-0.5
 49
0.5
 49
-0.5
 49
0.5
 49
-0.5
  0
LTYPE
  2
LTYPE3
 70
    64
  3
CENTER
 72
    65
 73
     4
 40
10.0
 49
7.0
 49
-1.0
 49
1.0
 49
-1.0
  0
ENDTAB
  0
TABLE
  2
LAYER
 70
   128
  0
LAYER
  2
0
 70
     0
 62
     7
  6
CONTINUOUS
  0
LAYER
  2
2
 70
     0
 62
     7
  6
CONTINUOUS
  0
LAYER
  2
3
 70
     0
 62
     7
  6
CONTINUOUS
  0
LAYER
  2
4
 70
     0
 62
     7
  6
CONTINUOUS
  0
LAYER
  2
5
 70
     0
 62
     7
  6
CONTINUOUS
  0
LAYER
  2
6
 70
     0
 62
     7
  6
CONTINUOUS
  0
LAYER
  2
7
 70
     0
 62
     7
  6
CONTINUOUS
  0
LAYER
  2
8
 70
     0
 62
     7
  6
CONTINUOUS
  0
LAYER
  2
9
 70
     0
 62
     7
  6
CONTINUOUS
  0
LAYER
  2
10
 70
     0
 62
     7
  6
CONTINUOUS
  0
LAYER
  2
11
 70
     0
 62
     7
  6
CONTINUOUS
  0
LAYER
  2
12
 70
     0
 62
     7
  6
CONTINUOUS
  0
LAYER
  2
13
 70
     0
 62
     7
  6
CONTINUOUS
  0
LAYER
  2
14
 70
     0
 62
     7
  6
CONTINUOUS
  0
LAYER
  2
15
 70
     0
 62
     7
  6
CONTINUOUS
  0
LAYER
  2
16
 70
     0
 62
     7
  6
CONTINUOUS
  0
LAYER
  2
17
 70
     0
 62
     7
  6
CONTINUOUS
  0
LAYER
  2
18
 70
     0
 62
     7
  6
CONTINUOUS
  0
LAYER
  2
19
 70
     0
 62
     7
  6
CONTINUOUS
  0
LAYER
  2
20
 70
     0
 62
     7
  6
CONTINUOUS
  0
LAYER
  2
21
 70
     0
 62
     7
  6
CONTINUOUS
  0
LAYER
  2
22
 70
     0
 62
     7
  6
CONTINUOUS
  0
LAYER
  2
23
 70
     0
 62
     7
  6
CONTINUOUS
  0
LAYER
  2
24
 70
     0
 62
     7
  6
CONTINUOUS
  0
LAYER
  2
25
 70
     0
 62
     7
  6
CONTINUOUS
  0
LAYER
  2
26
 70
     0
 62
     7
  6
CONTINUOUS
  0
LAYER
  2
27
 70
     0
 62
     7
  6
CONTINUOUS
  0
LAYER
  2
28
 70
     0
 62
     7
  6
CONTINUOUS
  0
LAYER
  2
29
 70
     0
 62
     7
  6
CONTINUOUS
  0
LAYER
  2
30
 70
     0
 62
     7
  6
CONTINUOUS
  0
LAYER
  2
31
 70
     0
 62
     7
  6
CONTINUOUS
  0
LAYER
  2
32
 70
     0
 62
     7
  6
CONTINUOUS
  0
LAYER
  2
33
 70
     0
 62
     7
  6
CONTINUOUS
  0
LAYER
  2
34
 70
     0
 62
     7
  6
CONTINUOUS
  0
LAYER
  2
35
 70
     0
 62
     7
  6
CONTINUOUS
  0
LAYER
  2
36
 70
     0
 62
     7
  6
CONTINUOUS
  0
LAYER
  2
37
 70
     0
 62
     7
  6
CONTINUOUS
  0
LAYER
  2
38
 70
     0
 62
     7
  6
CONTINUOUS
  0
LAYER
  2
39
 70
     0
 62
     7
  6
CONTINUOUS
  0
LAYER
  2
40
 70
     0
 62
     7
  6
CONTINUOUS
  0
LAYER
  2
41
 70
     0
 62
     7
  6
CONTINUOUS
  0
LAYER
  2
42
 70
     0
 62
     7
  6
CONTINUOUS
  0
LAYER
  2
43
 70
     0
 62
     7
  6
CONTINUOUS
  0
LAYER
  2
44
 70
     0
 62
     7
  6
CONTINUOUS
  0
LAYER
  2
45
 70
     0
 62
     7
  6
CONTINUOUS
  0
LAYER
  2
46
 70
     0
 62
     7
  6
CONTINUOUS
  0
LAYER
  2
47
 70
     0
 62
     7
  6
CONTINUOUS
  0
LAYER
  2
48
 70
     0
 62
     7
  6
CONTINUOUS
  0
LAYER
  2
49
 70
     0
 62
     7
  6
CONTINUOUS
  0
LAYER
  2
50
 70
     0
 62
     7
  6
CONTINUOUS
  0
LAYER
  2
51
 70
     0
 62
     7
  6
CONTINUOUS
  0
LAYER
  2
52
 70
     0
 62
     7
  6
CONTINUOUS
  0
LAYER
  2
53
 70
     0
 62
     7
  6
CONTINUOUS
  0
LAYER
  2
54
 70
     0
 62
     7
  6
CONTINUOUS
  0
LAYER
  2
55
 70
     0
 62
     7
  6
CONTINUOUS
  0
LAYER
  2
56
 70
     0
 62
     7
  6
CONTINUOUS
  0
LAYER
  2
57
 70
     0
 62
     7
  6
CONTINUOUS
  0
LAYER
  2
58
 70
     0
 62
     7
  6
CONTINUOUS
  0
LAYER
  2
59
 70
     0
 62
     7
  6
CONTINUOUS
  0
LAYER
  2
60
 70
     0
 62
     7
  6
CONTINUOUS
  0
LAYER
  2
61
 70
     0
 62
     7
  6
CONTINUOUS
  0
LAYER
  2
62
 70
     0
 62
     7
  6
CONTINUOUS
  0
LAYER
  2
63
 70
     0
 62
     7
  6
CONTINUOUS
  0
LAYER
  2
64
 70
     0
 62
     7
  6
CONTINUOUS
  0
LAYER
  2
65
 70
     0
 62
     7
  6
CONTINUOUS
  0
LAYER
  2
66
 70
     0
 62
     7
  6
CONTINUOUS
  0
LAYER
  2
67
 70
     0
 62
     7
  6
CONTINUOUS
  0
LAYER
  2
68
 70
     0
 62
     7
  6
CONTINUOUS
  0
LAYER
  2
69
 70
     0
 62
     7
  6
CONTINUOUS
  0
LAYER
  2
70
 70
     0
 62
     7
  6
CONTINUOUS
  0
LAYER
  2
71
 70
     0
 62
     7
  6
CONTINUOUS
  0
LAYER
  2
72
 70
     0
 62
     7
  6
CONTINUOUS
  0
LAYER
  2
73
 70
     0
 62
     7
  6
CONTINUOUS
  0
LAYER
  2
74
 70
     0
 62
     7
  6
CONTINUOUS
  0
LAYER
  2
75
 70
     0
 62
     7
  6
CONTINUOUS
  0
LAYER
  2
76
 70
     0
 62
     7
  6
CONTINUOUS
  0
LAYER
  2
77
 70
     0
 62
     7
  6
CONTINUOUS
  0
LAYER
  2
78
 70
     0
 62
     7
  6
CONTINUOUS
  0
LAYER
  2
79
 70
     0
 62
     7
  6
CONTINUOUS
  0
LAYER
  2
80
 70
     0
 62
     7
  6
CONTINUOUS
  0
LAYER
  2
81
 70
     0
 62
     7
  6
CONTINUOUS
  0
LAYER
  2
82
 70
     0
 62
     7
  6
CONTINUOUS
  0
LAYER
  2
83
 70
     0
 62
     7
  6
CONTINUOUS
  0
LAYER
  2
84
 70
     0
 62
     7
  6
CONTINUOUS
  0
LAYER
  2
85
 70
     0
 62
     7
  6
CONTINUOUS
  0
LAYER
  2
86
 70
     0
 62
     7
  6
CONTINUOUS
  0
LAYER
  2
87
 70
     0
 62
     7
  6
CONTINUOUS
  0
LAYER
  2
88
 70
     0
 62
     7
  6
CONTINUOUS
  0
LAYER
  2
89
 70
     0
 62
     7
  6
CONTINUOUS
  0
LAYER
  2
90
 70
     0
 62
     7
  6
CONTINUOUS
  0
LAYER
  2
91
 70
     0
 62
     7
  6
CONTINUOUS
  0
LAYER
  2
92
 70
     0
 62
     7
  6
CONTINUOUS
  0
LAYER
  2
93
 70
     0
 62
     7
  6
CONTINUOUS
  0
LAYER
  2
94
 70
     0
 62
     7
  6
CONTINUOUS
  0
LAYER
  2
95
 70
     0
 62
     7
  6
CONTINUOUS
  0
LAYER
  2
96
 70
     0
 62
     7
  6
CONTINUOUS
  0
LAYER
  2
97
 70
     0
 62
     7
  6
CONTINUOUS
  0
LAYER
  2
98
 70
     0
 62
     7
  6
CONTINUOUS
  0
LAYER
  2
99
 70
     0
 62
     7
  6
CONTINUOUS
  0
LAYER
  2
100
 70
     0
 62
     7
  6
CONTINUOUS
  0
LAYER
  2
101
 70
     0
 62
     7
  6
CONTINUOUS
  0
LAYER
  2
102
 70
     0
 62
     7
  6
CONTINUOUS
  0
LAYER
  2
103
 70
     0
 62
     7
  6
CONTINUOUS
  0
LAYER
  2
104
 70
     0
 62
     7
  6
CONTINUOUS
  0
LAYER
  2
105
 70
     0
 62
     7
  6
CONTINUOUS
  0
LAYER
  2
106
 70
     0
 62
     7
  6
CONTINUOUS
  0
LAYER
  2
107
 70
     0
 62
     7
  6
CONTINUOUS
  0
LAYER
  2
108
 70
     0
 62
     7
  6
CONTINUOUS
  0
LAYER
  2
109
 70
     0
 62
     7
  6
CONTINUOUS
  0
LAYER
  2
110
 70
     0
 62
     7
  6
CONTINUOUS
  0
LAYER
  2
111
 70
     0
 62
     7
  6
CONTINUOUS
  0
LAYER
  2
112
 70
     0
 62
     7
  6
CONTINUOUS
  0
LAYER
  2
113
 70
     0
 62
     7
  6
CONTINUOUS
  0
LAYER
  2
114
 70
     0
 62
     7
  6
CONTINUOUS
  0
LAYER
  2
115
 70
     0
 62
     7
  6
CONTINUOUS
  0
LAYER
  2
116
 70
     0
 62
     7
  6
CONTINUOUS
  0
LAYER
  2
117
 70
     0
 62
     7
  6
CONTINUOUS
  0
LAYER
  2
118
 70
     0
 62
     7
  6
CONTINUOUS
  0
LAYER
  2
119
 70
     0
 62
     7
  6
CONTINUOUS
  0
LAYER
  2
120
 70
     0
 62
     7
  6
CONTINUOUS
  0
LAYER
  2
121
 70
     0
 62
     7
  6
CONTINUOUS
  0
LAYER
  2
122
 70
     0
 62
     7
  6
CONTINUOUS
  0
LAYER
  2
123
 70
     0
 62
     7
  6
CONTINUOUS
  0
LAYER
  2
124
 70
     0
 62
     7
  6
CONTINUOUS
  0
LAYER
  2
125
 70
     0
 62
     7
  6
CONTINUOUS
  0
LAYER
  2
126
 70
     0
 62
     7
  6
CONTINUOUS
  0
LAYER
  2
127
 70
     0
 62
     7
  6
CONTINUOUS
  0
LAYER
  2
128
 70
     0
 62
     7
  6
CONTINUOUS
  0
ENDTAB
  0
TABLE
  2
STYLE
 70
    15
  0
STYLE
  2
STANDARD
 70
     0
 40
0.0
 41
1.0
 50
0.0
 71
     0
 42
0.2
  3
txt
  4

  0
STYLE
  2
KANJI0
 70
     0
 40
4.0
 41
0.875
 50
0.0
 71
     0
 42
4.0
  3

  4
bigfont
  0
STYLE
  2
KANJI1
 70
     0
 40
5.0
 41
1.2
 50
0.0
 71
     0
 42
5.0
  3

  4
bigfont
  0
STYLE
  2
KANJI2
 70
     0
 40
5.0
 41
1.0
 50
0.0
 71
     0
 42
5.0
  3

  4
bigfont
  0
STYLE
  2
KANJI3
 70
     0
 40
3.0
 41
0.666666667
 50
0.0
 71
     0
 42
3.0
  3

  4
bigfont
  0
STYLE
  2
KANJI4
 70
     0
 40
3.0
 41
1.0
 50
0.0
 71
     0
 42
3.0
  3

  4
bigfont
  0
STYLE
  2
KANJI5
 70
     0
 40
2.5
 41
1.0
 50
0.0
 71
     0
 42
2.5
  3

  4
bigfont
  0
STYLE
  2
KANJI6
 70
     0
 40
2.5
 41
1.0
 50
0.0
 71
     0
 42
2.5
  3

  4
bigfont
  0
STYLE
  2
KANJI7
 70
     0
 40
2.5
 41
1.0
 50
0.0
 71
     0
 42
2.5
  3

  4
bigfont
  0
STYLE
  2
KANJI8
 70
     0
 40
4.0
 41
1.125
 50
0.0
 71
     0
 42
4.0
  3

  4
bigfont
  0
STYLE
  2
KANJI9
 70
     0
 40
7.0
 41
0.857142857
 50
0.0
 71
     0
 42
7.0
  3

  4
bigfont
  0
STYLE
  2
KANJI10
 70
     0
 40
3.0
 41
0.833333333
 50
0.0
 71
     0
 42
3.0
  3

  4
bigfont
  0
STYLE
  2
KANJI11
 70
     0
 40
4.0
 41
0.875
 50
0.0
 71
     0
 42
4.0
  3

  4
bigfont
  0
STYLE
  2
KANJI12
 70
     0
 40
4.5
 41
0.777777778
 50
0.0
 71
     0
 42
4.5
  3

  4
bigfont
  0
STYLE
  2
KANJI13
 70
     0
 40
4.0
 41
0.875
 50
0.0
 71
     0
 42
4.0
  3

  4
bigfont
  0
ENDTAB
  0
TABLE
  2
VIEW
 70
     0
  0
ENDTAB
  0
ENDSEC
  0
SECTION
  2
BLOCKS
  0
ENDSEC
  0
SECTION
  2
ENTITIES
  0
TEXT
  8
6
  6
CONTINUOUS
 62
     5
 10
75.25
 20
23.0
 30
0.0
 40
4.0
  1
１
 50
0.0
 41
0.875
 51
0.0
  7
KANJI0
  0
TEXT
  8
6
  6
CONTINUOUS
 62
     5
 10
68.75
 20
23.0
 30
0.0
 40
4.0
  1
１
 50
0.0
 41
0.875
 51
0.0
  7
KANJI0
  0
TEXT
  8
6
  6
CONTINUOUS
 62
     5
 10
134.0
 20
23.0
 30
0.0
 40
4.0
  1
益子
 50
0.0
 41
0.875
 51
0.0
  7
KANJI0
  0
LINE
  8
7
  6
CONTINUOUS
 62
     2
 10
52.5
 20
10.0
 11
52.5
 21
5.0
  0
LINE
  8
7
  6
CONTINUOUS
 62
     2
 10
157.5
 20
287.0
 11
157.5
 21
292.0
  0
LINE
  8
7
  6
CONTINUOUS
 62
     2
 10
52.5
 20
287.0
 11
52.5
 21
292.0
  0
LINE
  8
7
  6
CONTINUOUS
 62
     2
 10
25.0
 20
198.5
 11
20.0
 21
198.5
  0
LINE
  8
7
  6
CONTINUOUS
 62
     2
 10
25.0
 20
248.5
 11
20.0
 21
248.5
  0
LINE
  8
7
  6
CONTINUOUS
 62
     2
 10
25.0
 20
98.5
 11
20.0
 21
98.5
  0
LINE
  8
7
  6
CONTINUOUS
 62
     2
 10
25.0
 20
48.5
 11
20.0
 21
48.5
  0
LINE
  8
7
  6
CONTINUOUS
 62
     2
 10
200.0
 20
198.5
 11
205.0
 21
198.5
  0
LINE
  8
7
  6
CONTINUOUS
 62
     2
 10
200.0
 20
248.5
 11
205.0
 21
248.5
  0
LINE
  8
7
  6
CONTINUOUS
 62
     2
 10
200.0
 20
98.5
 11
205.0
 21
98.5
  0
LINE
  8
7
  6
CONTINUOUS
 62
     2
 10
200.0
 20
48.5
 11
205.0
 21
48.5
  0
LINE
  8
7
  6
CONTINUOUS
 62
     2
 10
32.0
 20
67.0
 11
32.0
 21
10.0
  0
LINE
  8
7
  6
CONTINUOUS
 62
     2
 10
39.0
 20
67.0
 11
39.0
 21
10.0
  0
LINE
  8
7
  6
CONTINUOUS
 62
     2
 10
46.0
 20
67.0
 11
46.0
 21
10.0
  0
LINE
  8
7
  6
CONTINUOUS
 62
     2
 10
53.0
 20
67.0
 11
53.0
 21
10.0
  0
LINE
  8
7
  6
LTYPE1
 62
     2
 10
190.0
 20
21.0
 11
190.0
 21
10.0
  0
LINE
  8
7
  6
CONTINUOUS
 62
     2
 10
200.0
 20
75.0
 11
197.5
 21
75.0
  0
LINE
  8
7
  6
CONTINUOUS
 62
     2
 10
200.0
 20
83.0
 11
197.5
 21
83.0
  0
LINE
  8
7
  6
CONTINUOUS
 62
     2
 10
200.0
 20
91.0
 11
197.5
 21
91.0
  0
TEXT
  8
7
  6
CONTINUOUS
 62
     6
 10
75.75
 20
288.5
 30
0.0
 40
5.0
  1
２
 50
0.0
 41
1.2
 51
0.0
  7
KANJI1
  0
TEXT
  8
7
  6
CONTINUOUS
 62
     6
 10
23.25
 20
288.5
 30
0.0
 40
5.0
  1
１
 50
0.0
 41
1.2
 51
0.0
  7
KANJI1
  0
TEXT
  8
7
  6
CONTINUOUS
 62
     6
 10
128.25
 20
288.5
 30
0.0
 40
5.0
  1
３
 50
0.0
 41
1.2
 51
0.0
  7
KANJI1
  0
TEXT
  8
7
  6
CONTINUOUS
 62
     6
 10
179.25
 20
288.0
 30
0.0
 40
5.0
  1
４
 50
0.0
 41
1.2
 51
0.0
  7
KANJI1
  0
TEXT
  8
7
  6
CONTINUOUS
 62
     6
 10
18.5
 20
271.0
 30
0.0
 40
5.0
  1
Ａ
 50
0.0
 41
1.0
 51
0.0
  7
KANJI2
  0
TEXT
  8
7
  6
CONTINUOUS
 62
     6
 10
18.5
 20
221.0
 30
0.0
 40
5.0
  1
Ｂ
 50
0.0
 41
1.0
 51
0.0
  7
KANJI2
  0
TEXT
  8
7
  6
CONTINUOUS
 62
     6
 10
18.5
 20
171.0
 30
0.0
 40
5.0
  1
Ｃ
 50
0.0
 41
1.0
 51
0.0
  7
KANJI2
  0
TEXT
  8
7
  6
CONTINUOUS
 62
     6
 10
18.5
 20
121.0
 30
0.0
 40
5.0
  1
Ｄ
 50
0.0
 41
1.0
 51
0.0
  7
KANJI2
  0
TEXT
  8
7
  6
CONTINUOUS
 62
     6
 10
18.5
 20
71.0
 30
0.0
 40
5.0
  1
Ｅ
 50
0.0
 41
1.0
 51
0.0
  7
KANJI2
  0
TEXT
  8
7
  6
CONTINUOUS
 62
     6
 10
18.5
 20
21.0
 30
0.0
 40
5.0
  1
Ｆ
 50
0.0
 41
1.0
 51
0.0
  7
KANJI2
  0
TEXT
  8
7
  6
CONTINUOUS
 62
     6
 10
201.5
 20
271.0
 30
0.0
 40
5.0
  1
Ａ
 50
0.0
 41
1.0
 51
0.0
  7
KANJI2
  0
TEXT
  8
7
  6
CONTINUOUS
 62
     6
 10
201.5
 20
221.0
 30
0.0
 40
5.0
  1
Ｂ
 50
0.0
 41
1.0
 51
0.0
  7
KANJI2
  0
TEXT
  8
7
  6
CONTINUOUS
 62
     6
 10
201.5
 20
171.0
 30
0.0
 40
5.0
  1
Ｃ
 50
0.0
 41
1.0
 51
0.0
  7
KANJI2
  0
TEXT
  8
7
  6
CONTINUOUS
 62
     6
 10
201.5
 20
121.0
 30
0.0
 40
5.0
  1
Ｄ
 50
0.0
 41
1.0
 51
0.0
  7
KANJI2
  0
TEXT
  8
7
  6
CONTINUOUS
 62
     6
 10
201.5
 20
71.0
 30
0.0
 40
5.0
  1
Ｅ
 50
0.0
 41
1.0
 51
0.0
  7
KANJI2
  0
TEXT
  8
7
  6
CONTINUOUS
 62
     6
 10
201.5
 20
21.0
 30
0.0
 40
5.0
  1
Ｆ
 50
0.0
 41
1.0
 51
0.0
  7
KANJI2
  0
TEXT
  8
7
  6
CONTINUOUS
 62
     6
 10
23.25
 20
3.5
 30
0.0
 40
5.0
  1
１
 50
0.0
 41
1.2
 51
0.0
  7
KANJI1
  0
LINE
  8
7
  6
CONTINUOUS
 62
     6
 10
105.0
 20
287.0
 11
105.0
 21
297.0
  0
LINE
  8
7
  6
CONTINUOUS
 62
     6
 10
200.0
 20
287.0
 11
25.0
 21
287.0
  0
LINE
  8
7
  6
CONTINUOUS
 62
     6
 10
25.0
 20
148.5
 11
0.0
 21
148.5
  0
LINE
  8
7
  6
CONTINUOUS
 62
     6
 10
200.0
 20
148.5
 11
210.0
 21
148.5
  0
LINE
  8
7
  6
CONTINUOUS
 62
     6
 10
200.0
 20
10.0
 11
200.0
 21
287.0
  0
LINE
  8
7
  6
CONTINUOUS
 62
     6
 10
25.0
 20
287.0
 11
25.0
 21
10.0
  0
LINE
  8
7
  6
CONTINUOUS
 62
     6
 10
55.0
 20
5.0
 11
155.0
 21
5.0
  0
LINE
  8
7
  6
CONTINUOUS
 62
     2
 10
157.5
 20
10.0
 11
157.5
 21
5.0
  0
LINE
  8
7
  6
CONTINUOUS
 62
     2
 10
25.0
 20
51.0
 11
200.0
 21
51.0
  0
LINE
  8
7
  6
CONTINUOUS
 62
     2
 10
66.0
 20
43.0
 11
200.0
 21
43.0
  0
LINE
  8
7
  6
CONTINUOUS
 62
     2
 10
25.0
 20
39.0
 11
66.0
 21
39.0
  0
LINE
  8
7
  6
CONTINUOUS
 62
     2
 10
25.0
 20
17.0
 11
66.0
 21
17.0
  0
LINE
  8
7
  6
CONTINUOUS
 62
     2
 10
114.0
 20
43.0
 11
114.0
 21
21.0
  0
LINE
  8
7
  6
CONTINUOUS
 62
     2
 10
130.0
 20
43.0
 11
130.0
 21
21.0
  0
LINE
  8
7
  6
CONTINUOUS
 62
     2
 10
90.0
 20
43.0
 11
90.0
 21
32.0
  0
LINE
  8
7
  6
CONTINUOUS
 62
     2
 10
60.0
 20
67.0
 11
60.0
 21
10.0
  0
LINE
  8
7
  6
CONTINUOUS
 62
     2
 10
82.0
 20
32.0
 11
82.0
 21
10.0
  0
LINE
  8
7
  6
CONTINUOUS
 62
     2
 10
98.0
 20
32.0
 11
98.0
 21
10.0
  0
LINE
  8
7
  6
CONTINUOUS
 62
     2
 10
146.0
 20
43.0
 11
146.0
 21
10.0
  0
POLYLINE
  8
7
  6
LTYPE2
 62
     2
 66
     1
 70
     1
  0
VERTEX
  8
7
  6
LTYPE2
 62
     2
 10
104.0
 20
13.5
  0
VERTEX
  8
7
  6
LTYPE2
 62
     2
 10
108.0
 20
13.5
  0
VERTEX
  8
7
  6
LTYPE2
 62
     2
 10
108.0
 20
17.5
  0
VERTEX
  8
7
  6
LTYPE2
 62
     2
 10
104.0
 20
17.5
  0
SEQEND
  0
TEXT
  8
7
  6
CONTINUOUS
 62
     4
 10
147.0
 20
47.0
 30
-0.5
 40
3.0
  1
１セット分
 50
0.0
 41
0.666666667
 51
0.0
  7
KANJI3
  0
TEXT
  8
7
  6
CONTINUOUS
 62
     4
 10
136.0
 20
47.0
 30
0.0
 40
3.0
  1
１台分
 50
0.0
 41
1.0
 51
0.0
  7
KANJI4
  0
TEXT
  8
7
  6
CONTINUOUS
 62
     4
 10
138.0
 20
44.0
 30
0.0
 40
3.0
  1
個数
 50
0.0
 41
1.0
 51
0.0
  7
KANJI4
  0
TEXT
  8
7
  6
CONTINUOUS
 62
     4
 10
148.0
 20
44.0
 30
0.0
 40
3.0
  1
個数
 50
0.0
 41
1.0
 51
0.0
  7
KANJI4
  0
TEXT
  8
7
  6
CONTINUOUS
 62
     4
 10
157.5
 20
45.0
 30
0.0
 40
4.0
  1
総数
 50
0.0
 41
0.875
 51
0.0
  7
KANJI0
  0
TEXT
  8
7
  6
CONTINUOUS
 62
     4
 10
64.15
 20
52.5
 30
0.3
 40
2.5
  1
氏名
 50
90.0
 41
1.0
 51
0.0
  7
KANJI5
  0
TEXT
  8
7
  6
CONTINUOUS
 62
     4
 10
64.15
 20
40.425
 30
1.0
 40
2.5
  1
年月日
 50
90.0
 41
1.0
 51
0.0
  7
KANJI6
  0
TEXT
  8
7
  6
CONTINUOUS
 62
     4
 10
64.15
 20
60.375
 30
0.3
 40
2.5
  1
承認
 50
90.0
 41
1.0
 51
0.0
  7
KANJI5
  0
TEXT
  8
7
  6
CONTINUOUS
 62
     4
 10
67.0
 20
39.5
 30
0.0
 40
2.5
  1
熱処理
 50
0.0
 41
1.0
 51
0.0
  7
KANJI7
  0
TEXT
  8
7
  6
CONTINUOUS
 62
     4
 10
91.0
 20
39.5
 30
0.0
 40
2.5
  1
表面処理
 50
0.0
 41
1.0
 51
0.0
  7
KANJI7
  0
TEXT
  8
7
  6
CONTINUOUS
 62
     4
 10
115.0
 20
39.5
 30
0.0
 40
2.5
  1
台数
 50
0.0
 41
1.0
 51
0.0
  7
KANJI7
  0
TEXT
  8
7
  6
CONTINUOUS
 62
     4
 10
131.0
 20
39.5
 30
0.0
 40
2.5
  1
作成日付
 50
0.0
 41
1.0
 51
0.0
  7
KANJI7
  0
TEXT
  8
7
  6
CONTINUOUS
 62
     4
 10
147.0
 20
39.5
 30
0.0
 40
2.5
  1
名称
 50
0.0
 41
1.0
 51
0.0
  7
KANJI7
  0
TEXT
  8
7
  6
CONTINUOUS
 62
     4
 10
67.0
 20
28.5
 30
0.0
 40
2.5
  1
尺度
 50
0.0
 41
1.0
 51
0.0
  7
KANJI7
  0
TEXT
  8
7
  6
CONTINUOUS
 62
     4
 10
83.0
 20
28.5
 30
0.0
 40
2.5
  1
承認
 50
0.0
 41
1.0
 51
0.0
  7
KANJI7
  0
TEXT
  8
7
  6
CONTINUOUS
 62
     4
 10
99.0
 20
28.5
 30
0.0
 40
2.5
  1
検図
 50
0.0
 41
1.0
 51
0.0
  7
KANJI7
  0
TEXT
  8
7
  6
CONTINUOUS
 62
     4
 10
115.0
 20
28.5
 30
0.0
 40
2.5
  1
設計
 50
0.0
 41
1.0
 51
0.0
  7
KANJI7
  0
TEXT
  8
7
  6
CONTINUOUS
 62
     4
 10
131.0
 20
28.5
 30
0.0
 40
2.5
  1
製図
 50
0.0
 41
1.0
 51
0.0
  7
KANJI7
  0
TEXT
  8
7
  6
CONTINUOUS
 62
     4
 10
147.0
 20
28.5
 30
0.0
 40
2.5
  1
機名
 50
0.0
 41
1.0
 51
0.0
  7
KANJI7
  0
TEXT
  8
7
  6
CONTINUOUS
 62
     4
 10
64.15
 20
10.875
 30
0.3
 40
2.5
  1
記号
 50
90.0
 41
1.0
 51
0.0
  7
KANJI5
  0
TEXT
  8
7
  6
CONTINUOUS
 62
     4
 10
147.0
 20
17.5
 30
0.0
 40
2.5
  1
図面番号
 50
0.0
 41
1.0
 51
0.0
  7
KANJI7
  0
TEXT
  8
7
  6
CONTINUOUS
 62
     4
 10
110.0
 20
14.25
 30
0.0
 40
2.5
  1
株式会社
 50
0.0
 41
1.0
 51
0.0
  7
KANJI7
  0
TEXT
  8
7
  6
CONTINUOUS
 62
     4
 10
122.0
 20
13.5
 30
0.0
 40
4.0
  1
昭和測器
 50
0.0
 41
1.125
 51
0.0
  7
KANJI8
  0
TEXT
  8
7
  6
CONTINUOUS
 62
     4
 10
64.15
 20
18.375
 30
0.3
 40
2.5
  1
来歴・改訂記事
 50
90.0
 41
1.0
 51
0.0
  7
KANJI5
  0
TEXT
  8
7
  6
CONTINUOUS
 62
     1
 10
69.0
 20
15.5
 30
0.0
 40
5.0
  1
第３
 50
0.0
 41
1.0
 51
0.0
  7
KANJI2
  0
TEXT
  8
7
  6
CONTINUOUS
 62
     1
 10
69.0
 20
10.5
 30
0.0
 40
5.0
  1
角法
 50
0.0
 41
1.0
 51
0.0
  7
KANJI2
  0
CIRCLE
  8
7
  6
CONTINUOUS
 62
     6
 10
73.75
 20
26.0
 40
0.2
  0
CIRCLE
  8
7
  6
CONTINUOUS
 62
     6
 10
73.75
 20
23.5
 40
0.2
  0
TEXT
  8
7
  6
CONTINUOUS
 62
     6
 10
84.725
 20
12.025
 30
-1.0
 40
7.0
  1
Ａ４
 50
0.0
 41
0.857142857
 51
0.0
  7
KANJI9
  0
TEXT
  8
7
  6
CONTINUOUS
 62
     6
 10
179.25
 20
4.0
 30
0.0
 40
5.0
  1
４
 50
0.0
 41
1.2
 51
0.0
  7
KANJI1
  0
TEXT
  8
7
  6
CONTINUOUS
 62
     4
 10
117.0
 20
45.0
 30
0.0
 40
4.0
  1
材　　質
 50
0.0
 41
0.875
 51
0.0
  7
KANJI0
  0
TEXT
  8
7
  6
CONTINUOUS
 62
     4
 10
174.25
 20
45.0
 30
0.0
 40
4.0
  1
摘　　　要
 50
0.0
 41
0.875
 51
0.0
  7
KANJI0
  0
TEXT
  8
7
  6
CONTINUOUS
 62
     4
 10
67.5
 20
45.0
 30
0.0
 40
4.0
  1
番号
 50
0.0
 41
0.875
 51
0.0
  7
KANJI0
  0
TEXT
  8
7
  6
CONTINUOUS
 62
     4
 10
85.25
 20
45.0
 30
0.0
 40
4.0
  1
部　品　名
 50
0.0
 41
0.875
 51
0.0
  7
KANJI0
  0
LINE
  8
7
  6
CONTINUOUS
 62
     6
 10
105.0
 20
10.0
 11
105.0
 21
0.0
  0
LINE
  8
7
  6
CONTINUOUS
 62
     6
 10
55.0
 20
10.0
 11
55.0
 21
5.0
  0
LINE
  8
7
  6
CONTINUOUS
 62
     6
 10
155.0
 20
5.0
 11
155.0
 21
10.0
  0
LINE
  8
7
  6
CONTINUOUS
 62
     6
 10
65.0
 20
10.0
 11
65.0
 21
5.0
  0
LINE
  8
7
  6
CONTINUOUS
 62
     6
 10
75.0
 20
10.0
 11
75.0
 21
5.0
  0
LINE
  8
7
  6
CONTINUOUS
 62
     6
 10
85.0
 20
10.0
 11
85.0
 21
5.0
  0
LINE
  8
7
  6
CONTINUOUS
 62
     6
 10
95.0
 20
10.0
 11
95.0
 21
5.0
  0
LINE
  8
7
  6
CONTINUOUS
 62
     6
 10
145.0
 20
5.0
 11
145.0
 21
10.0
  0
LINE
  8
7
  6
CONTINUOUS
 62
     6
 10
135.0
 20
5.0
 11
135.0
 21
10.0
  0
LINE
  8
7
  6
CONTINUOUS
 62
     6
 10
125.0
 20
5.0
 11
125.0
 21
10.0
  0
LINE
  8
7
  6
CONTINUOUS
 62
     6
 10
115.0
 20
5.0
 11
115.0
 21
10.0
  0
LINE
  8
7
  6
CONTINUOUS
 62
     2
 10
66.0
 20
67.0
 11
200.0
 21
67.0
  0
LINE
  8
7
  6
CONTINUOUS
 62
     2
 10
25.0
 20
67.0
 11
66.0
 21
67.0
  0
LINE
  8
7
  6
CONTINUOUS
 62
     2
 10
66.0
 20
59.0
 11
200.0
 21
59.0
  0
LINE
  8
7
  6
CONTINUOUS
 62
     2
 10
25.0
 20
59.0
 11
66.0
 21
59.0
  0
LINE
  8
7
  6
CONTINUOUS
 62
     2
 10
66.0
 20
51.0
 11
66.0
 21
10.0
  0
LINE
  8
7
  6
CONTINUOUS
 62
     2
 10
66.0
 20
67.0
 11
66.0
 21
51.0
  0
LINE
  8
7
  6
CONTINUOUS
 62
     2
 10
76.0
 20
51.0
 11
76.0
 21
43.0
  0
LINE
  8
7
  6
CONTINUOUS
 62
     2
 10
76.0
 20
67.0
 11
76.0
 21
51.0
  0
LINE
  8
7
  6
CONTINUOUS
 62
     2
 10
112.0
 20
51.0
 11
112.0
 21
43.0
  0
LINE
  8
7
  6
CONTINUOUS
 62
     2
 10
112.0
 20
67.0
 11
112.0
 21
51.0
  0
LINE
  8
7
  6
CONTINUOUS
 62
     2
 10
136.0
 20
51.0
 11
136.0
 21
43.0
  0
LINE
  8
7
  6
CONTINUOUS
 62
     2
 10
136.0
 20
67.0
 11
136.0
 21
51.0
  0
LINE
  8
7
  6
CONTINUOUS
 62
     2
 10
146.0
 20
51.0
 11
146.0
 21
43.0
  0
LINE
  8
7
  6
CONTINUOUS
 62
     2
 10
146.0
 20
67.0
 11
146.0
 21
51.0
  0
LINE
  8
7
  6
CONTINUOUS
 62
     2
 10
156.0
 20
51.0
 11
156.0
 21
43.0
  0
LINE
  8
7
  6
CONTINUOUS
 62
     2
 10
156.0
 20
67.0
 11
156.0
 21
51.0
  0
LINE
  8
7
  6
CONTINUOUS
 62
     2
 10
166.0
 20
51.0
 11
166.0
 21
43.0
  0
LINE
  8
7
  6
CONTINUOUS
 62
     2
 10
166.0
 20
67.0
 11
166.0
 21
51.0
  0
LINE
  8
7
  6
CONTINUOUS
 62
     2
 10
146.0
 20
32.0
 11
200.0
 21
32.0
  0
LINE
  8
7
  6
CONTINUOUS
 62
     2
 10
66.0
 20
32.0
 11
146.0
 21
32.0
  0
LINE
  8
7
  6
CONTINUOUS
 62
     2
 10
146.0
 20
21.0
 11
200.0
 21
21.0
  0
LINE
  8
7
  6
CONTINUOUS
 62
     2
 10
66.0
 20
21.0
 11
146.0
 21
21.0
  0
LINE
  8
7
  6
CONTINUOUS
 62
     6
 10
25.0
 20
10.0
 11
146.0
 21
10.0
  0
LINE
  8
7
  6
CONTINUOUS
 62
     6
 10
190.0
 20
10.0
 11
200.0
 21
10.0
  0
LINE
  8
7
  6
CONTINUOUS
 62
     6
 10
146.0
 20
10.0
 11
190.0
 21
10.0
  0
TEXT
  8
6
  6
CONTINUOUS
 62
     5
 10
134.0
 20
33.0
 30
-0.5
 40
3.0
  1
０２．２７
 50
0.0
 41
0.833333333
 51
0.0
  7
KANJI10
  0
TEXT
  8
6
  6
CONTINUOUS
 62
     5
 10
131.5
 20
36.0
 30
-0.5
 40
3.0
  1
２００７．
 50
0.0
 41
0.833333333
 51
0.0
  7
KANJI10
  0
TEXT
  8
6
  6
CONTINUOUS
 62
     5
 10
149.0
 20
12.0
 30
0.0
 40
4.0
  1
Ｈ－００４５－Ａ００１
 50
0.0
 41
0.875
 51
0.0
  7
KANJI0
  0
TEXT
  8
5
  6
CONTINUOUS
 62
     5
 10
112.0
 20
72.0
 30
0.1
 40
4.0
  1
１，２，３，５，１０，２０，３０，５０　ＭＰａ
 50
0.0
 41
0.875
 51
0.0
  7
KANJI11
  0
LINE
  8
0
  6
CONTINUOUS
 62
     1
 10
99.0
 20
154.0
 11
99.0
 21
149.0
  0
LINE
  8
0
  6
CONTINUOUS
 62
     1
 10
99.0
 20
149.0
 11
113.0
 21
149.0
  0
LINE
  8
0
  6
CONTINUOUS
 62
     1
 10
113.0
 20
149.0
 11
113.0
 21
154.0
  0
LINE
  8
0
  6
CONTINUOUS
 62
     1
 10
97.669
 20
155.0
 11
114.331
 21
155.0
  0
LINE
  8
0
  6
CONTINUOUS
 62
     1
 10
97.669
 20
155.0
 11
98.669
 21
154.0
  0
LINE
  8
0
  6
CONTINUOUS
 62
     1
 10
98.669
 20
154.0
 11
113.331
 21
154.0
  0
LINE
  8
0
  6
CONTINUOUS
 62
     1
 10
114.331
 20
155.0
 11
113.331
 21
154.0
  0
LINE
  8
0
  6
CONTINUOUS
 62
     1
 10
95.5
 20
176.0
 11
95.5
 21
181.0
  0
LINE
  8
0
  6
CONTINUOUS
 62
     1
 10
95.5
 20
181.0
 11
116.5
 21
181.0
  0
LINE
  8
0
  6
CONTINUOUS
 62
     1
 10
116.5
 20
181.0
 11
116.5
 21
176.0
  0
LINE
  8
0
  6
CONTINUOUS
 62
     1
 10
97.0
 20
181.0
 11
97.0
 21
193.0
  0
LINE
  8
0
  6
CONTINUOUS
 62
     1
 10
97.0
 20
193.0
 11
115.0
 21
193.0
  0
LINE
  8
0
  6
CONTINUOUS
 62
     1
 10
115.0
 20
193.0
 11
115.0
 21
181.0
  0
LINE
  8
0
  6
CONTINUOUS
 62
     1
 10
98.5
 20
193.0
 11
98.5
 21
197.0
  0
LINE
  8
0
  6
CONTINUOUS
 62
     1
 10
98.5
 20
197.0
 11
113.5
 21
197.0
  0
LINE
  8
0
  6
CONTINUOUS
 62
     1
 10
113.5
 20
197.0
 11
113.5
 21
193.0
  0
LINE
  8
0
  6
CONTINUOUS
 62
     2
 10
99.0
 20
193.0
 11
99.0
 21
197.0
  0
LINE
  8
0
  6
CONTINUOUS
 62
     2
 10
113.0
 20
197.0
 11
113.0
 21
193.0
  0
LINE
  8
0
  6
CONTINUOUS
 62
     2
 10
101.5
 20
197.0
 11
110.5
 21
193.0
  0
LINE
  8
0
  6
CONTINUOUS
 62
     2
 10
110.5
 20
197.0
 11
101.5
 21
193.0
  0
LINE
  8
0
  6
CONTINUOUS
 62
     1
 10
101.5
 20
197.0
 11
101.5
 21
193.0
  0
LINE
  8
0
  6
CONTINUOUS
 62
     1
 10
110.5
 20
197.0
 11
110.5
 21
193.0
  0
LINE
  8
0
  6
CONTINUOUS
 62
     1
 10
102.0
 20
197.0
 11
102.0
 21
222.0
  0
LINE
  8
0
  6
CONTINUOUS
 62
     1
 10
102.0
 20
222.0
 11
110.0
 21
222.0
  0
LINE
  8
0
  6
CONTINUOUS
 62
     1
 10
110.0
 20
222.0
 11
110.0
 21
197.0
  0
LINE
  8
0
  6
CONTINUOUS
 62
     1
 10
103.0
 20
222.0
 11
103.0
 21
242.0
  0
LINE
  8
0
  6
CONTINUOUS
 62
     1
 10
109.0
 20
222.0
 11
109.0
 21
242.0
  0
ARC
  8
0
  6
CONTINUOUS
 62
     1
 10
104.5
 20
241.375
 40
1.625
 50
22.619864948
 51
157.380135052
  0
ARC
  8
0
  6
CONTINUOUS
 62
     1
 10
107.5
 20
241.375
 40
1.625
 50
22.619864948
 51
157.380135052
  0
ARC
  8
0
  6
CONTINUOUS
 62
     1
 10
107.5
 20
242.625
 40
1.625
 50
202.619864948
 51
337.380135052
  0
LINE
  8
0
  6
LTYPE3
 62
     2
 10
106.0
 20
247.0
 11
106.0
 21
144.0
  0
LINE
  8
0
  6
CONTINUOUS
 62
     1
 10
93.5
 20
176.0
 11
93.5
 21
163.0
  0
LINE
  8
0
  6
CONTINUOUS
 62
     1
 10
118.5
 20
163.0
 11
118.5
 21
176.0
  0
LINE
  8
0
  6
CONTINUOUS
 62
     1
 10
93.5
 20
163.0
 11
118.5
 21
163.0
  0
LINE
  8
0
  6
CONTINUOUS
 62
     1
 10
118.5
 20
176.0
 11
93.5
 21
176.0
  0
LINE
  8
0
  6
CONTINUOUS
 62
     1
 10
102.420039313
 20
176.0
 11
102.420039313
 21
163.0
  0
LINE
  8
0
  6
CONTINUOUS
 62
     1
 10
109.579960687
 20
176.0
 11
109.579960687
 21
163.0
  0
LINE
  8
0
  6
CONTINUOUS
 62
     1
 10
94.023611501
 20
176.0
 11
94.023611501
 21
163.0
  0
LINE
  8
0
  6
CONTINUOUS
 62
     1
 10
117.976388499
 20
176.0
 11
117.976388499
 21
163.0
  0
LINE
  8
0
  6
CONTINUOUS
 62
     2
 10
117.976388499
 20
176.0
 11
109.579960687
 21
163.0
  0
LINE
  8
0
  6
CONTINUOUS
 62
     2
 10
109.579960687
 20
176.0
 11
117.976388499
 21
163.0
  0
LINE
  8
0
  6
CONTINUOUS
 62
     2
 10
102.420039313
 20
176.0
 11
94.023611501
 21
163.0
  0
LINE
  8
0
  6
CONTINUOUS
 62
     2
 10
94.023611501
 20
176.0
 11
102.420039313
 21
163.0
  0
LINE
  8
0
  6
CONTINUOUS
 62
     2
 10
113.475
 20
161.517364509
 11
113.475
 21
154.144
  0
LINE
  8
0
  6
CONTINUOUS
 62
     1
 10
114.331
 20
161.517364509
 11
97.669
 21
161.517364509
  0
LINE
  8
0
  6
CONTINUOUS
 62
     2
 10
98.525
 20
161.517364509
 11
98.525
 21
154.144
  0
LINE
  8
0
  6
CONTINUOUS
 62
     1
 10
95.5
 20
163.0
 11
96.0
 21
162.5
  0
LINE
  8
0
  6
CONTINUOUS
 62
     1
 10
96.0
 20
162.5
 11
116.0
 21
162.5
  0
LINE
  8
0
  6
CONTINUOUS
 62
     1
 10
116.0
 20
162.5
 11
116.5
 21
163.0
  0
LINE
  8
0
  6
CONTINUOUS
 62
     1
 10
97.669
 20
162.5
 11
97.669
 21
155.0
  0
LINE
  8
0
  6
CONTINUOUS
 62
     2
 10
98.525
 20
161.517364509
 11
97.957675135
 21
162.5
  0
LINE
  8
0
  6
CONTINUOUS
 62
     2
 10
114.042324865
 20
162.5
 11
113.475
 21
161.517364509
  0
LINE
  8
0
  6
CONTINUOUS
 62
     1
 10
114.331
 20
155.0
 11
114.331
 21
162.5
  0
LINE
  8
5
  6
CONTINUOUS
 62
     2
 10
99.0
 20
148.0
 11
99.0
 21
133.0
  0
LINE
  8
5
  6
CONTINUOUS
 62
     2
 10
99.0
 20
134.0
 11
101.414814566
 21
133.352952387
  0
LINE
  8
5
  6
CONTINUOUS
 62
     2
 10
99.0
 20
134.0
 11
101.414814566
 21
134.647047613
  0
LINE
  8
5
  6
CONTINUOUS
 62
     2
 10
99.0
 20
134.0
 11
113.0
 21
134.0
  0
LINE
  8
5
  6
CONTINUOUS
 62
     2
 10
113.0
 20
134.0
 11
110.585185434
 21
134.647047613
  0
LINE
  8
5
  6
CONTINUOUS
 62
     2
 10
113.0
 20
134.0
 11
110.585185434
 21
133.352952387
  0
LINE
  8
5
  6
CONTINUOUS
 62
     2
 10
113.0
 20
148.0
 11
113.0
 21
133.0
  0
TEXT
  8
5
  6
CONTINUOUS
 62
     5
 10
100.65
 20
135.0
 30
0.1
 40
4.0
  1
φ１４
 50
0.0
 41
0.875
 51
0.0
  7
KANJI11
  0
LINE
  8
5
  6
CONTINUOUS
 62
     2
 10
97.0
 20
194.0
 11
97.0
 21
253.0
  0
LINE
  8
5
  6
CONTINUOUS
 62
     2
 10
97.0
 20
252.0
 11
99.414814566
 21
251.352952387
  0
LINE
  8
5
  6
CONTINUOUS
 62
     2
 10
97.0
 20
252.0
 11
99.414814566
 21
252.647047613
  0
LINE
  8
5
  6
CONTINUOUS
 62
     2
 10
97.0
 20
252.0
 11
115.0
 21
252.0
  0
LINE
  8
5
  6
CONTINUOUS
 62
     2
 10
115.0
 20
252.0
 11
112.585185434
 21
252.647047613
  0
LINE
  8
5
  6
CONTINUOUS
 62
     2
 10
115.0
 20
252.0
 11
112.585185434
 21
251.352952387
  0
LINE
  8
5
  6
CONTINUOUS
 62
     2
 10
115.0
 20
194.0
 11
115.0
 21
253.0
  0
TEXT
  8
5
  6
CONTINUOUS
 62
     5
 10
100.65
 20
253.0
 30
0.1
 40
4.0
  1
φ１８
 50
0.0
 41
0.875
 51
0.0
  7
KANJI11
  0
LINE
  8
5
  6
CONTINUOUS
 62
     2
 10
116.5
 20
182.0
 11
116.5
 21
263.0
  0
LINE
  8
5
  6
CONTINUOUS
 62
     2
 10
116.5
 20
262.0
 11
114.085185434
 21
262.647047613
  0
LINE
  8
5
  6
CONTINUOUS
 62
     2
 10
116.5
 20
262.0
 11
114.085185434
 21
261.352952387
  0
LINE
  8
5
  6
CONTINUOUS
 62
     2
 10
116.5
 20
262.0
 11
95.5
 21
262.0
  0
LINE
  8
5
  6
CONTINUOUS
 62
     2
 10
95.5
 20
262.0
 11
97.914814566
 21
261.352952387
  0
LINE
  8
5
  6
CONTINUOUS
 62
     2
 10
95.5
 20
262.0
 11
97.914814566
 21
262.647047613
  0
LINE
  8
5
  6
CONTINUOUS
 62
     2
 10
95.5
 20
182.0
 11
95.5
 21
263.0
  0
TEXT
  8
5
  6
CONTINUOUS
 62
     5
 10
100.65
 20
263.0
 30
0.1
 40
4.0
  1
φ２１
 50
0.0
 41
0.875
 51
0.0
  7
KANJI11
  0
LINE
  8
5
  6
CONTINUOUS
 62
     2
 10
93.5
 20
177.0
 11
93.5
 21
273.0
  0
LINE
  8
5
  6
CONTINUOUS
 62
     2
 10
93.5
 20
272.0
 11
95.914814566
 21
271.352952387
  0
LINE
  8
5
  6
CONTINUOUS
 62
     2
 10
93.5
 20
272.0
 11
95.914814566
 21
272.647047613
  0
LINE
  8
5
  6
CONTINUOUS
 62
     2
 10
93.5
 20
272.0
 11
118.5
 21
272.0
  0
LINE
  8
5
  6
CONTINUOUS
 62
     2
 10
118.5
 20
272.0
 11
116.085185434
 21
272.647047613
  0
LINE
  8
5
  6
CONTINUOUS
 62
     2
 10
118.5
 20
272.0
 11
116.085185434
 21
271.352952387
  0
LINE
  8
5
  6
CONTINUOUS
 62
     2
 10
118.5
 20
177.0
 11
118.5
 21
273.0
  0
TEXT
  8
5
  6
CONTINUOUS
 62
     5
 10
100.65
 20
273.0
 30
0.1
 40
4.0
  1
φ２５
 50
0.0
 41
0.875
 51
0.0
  7
KANJI11
  0
LINE
  8
5
  6
CONTINUOUS
 62
     2
 10
114.0
 20
149.0
 11
134.5
 21
149.0
  0
LINE
  8
5
  6
CONTINUOUS
 62
     2
 10
133.5
 20
149.0
 11
133.5
 21
154.0
  0
LINE
  8
5
  6
CONTINUOUS
 62
     2
 10
114.331
 20
154.0
 11
134.5
 21
154.0
  0
TEXT
  8
5
  6
CONTINUOUS
 62
     5
 10
132.5
 20
149.75
 30
0.1
 40
4.0
  1
５
 50
90.0
 41
0.875
 51
0.0
  7
KANJI11
  0
LINE
  8
5
  6
CONTINUOUS
 62
     2
 10
119.5
 20
163.0
 11
134.5
 21
163.0
  0
LINE
  8
5
  6
CONTINUOUS
 62
     2
 10
133.5
 20
163.0
 11
134.147047613
 21
165.414814566
  0
LINE
  8
5
  6
CONTINUOUS
 62
     2
 10
133.5
 20
163.0
 11
132.852952387
 21
165.414814566
  0
LINE
  8
5
  6
CONTINUOUS
 62
     2
 10
133.5
 20
163.0
 11
133.5
 21
162.5
  0
LINE
  8
5
  6
CONTINUOUS
 62
     2
 10
133.5
 20
162.5
 11
133.5
 21
158.75
  0
LINE
  8
5
  6
CONTINUOUS
 62
     2
 10
133.5
 20
162.5
 11
132.852952387
 21
160.085185434
  0
LINE
  8
5
  6
CONTINUOUS
 62
     2
 10
133.5
 20
162.5
 11
134.147047613
 21
160.085185434
  0
LINE
  8
5
  6
CONTINUOUS
 62
     2
 10
117.0
 20
162.5
 11
134.5
 21
162.5
  0
LINE
  8
5
  6
CONTINUOUS
 62
     2
 10
119.5
 20
176.0
 11
134.5
 21
176.0
  0
LINE
  8
5
  6
CONTINUOUS
 62
     2
 10
133.5
 20
176.0
 11
134.147047613
 21
178.414814566
  0
LINE
  8
5
  6
CONTINUOUS
 62
     2
 10
133.5
 20
176.0
 11
132.852952387
 21
178.414814566
  0
LINE
  8
5
  6
CONTINUOUS
 62
     2
 10
133.5
 20
176.0
 11
133.5
 21
181.0
  0
LINE
  8
5
  6
CONTINUOUS
 62
     2
 10
133.5
 20
181.0
 11
132.852952387
 21
178.585185434
  0
LINE
  8
5
  6
CONTINUOUS
 62
     2
 10
133.5
 20
181.0
 11
134.147047613
 21
178.585185434
  0
LINE
  8
5
  6
CONTINUOUS
 62
     2
 10
117.5
 20
181.0
 11
134.5
 21
181.0
  0
TEXT
  8
5
  6
CONTINUOUS
 62
     5
 10
132.5
 20
176.75
 30
0.1
 40
4.0
  1
５
 50
90.0
 41
0.875
 51
0.0
  7
KANJI11
  0
LINE
  8
5
  6
CONTINUOUS
 62
     2
 10
133.5
 20
181.0
 11
134.147047613
 21
183.414814566
  0
LINE
  8
5
  6
CONTINUOUS
 62
     2
 10
133.5
 20
181.0
 11
132.852952387
 21
183.414814566
  0
LINE
  8
5
  6
CONTINUOUS
 62
     2
 10
133.5
 20
181.0
 11
133.5
 21
193.0
  0
LINE
  8
5
  6
CONTINUOUS
 62
     2
 10
133.5
 20
193.0
 11
132.852952387
 21
190.585185434
  0
LINE
  8
5
  6
CONTINUOUS
 62
     2
 10
133.5
 20
193.0
 11
134.147047613
 21
190.585185434
  0
LINE
  8
5
  6
CONTINUOUS
 62
     2
 10
116.0
 20
193.0
 11
134.5
 21
193.0
  0
TEXT
  8
5
  6
CONTINUOUS
 62
     5
 10
132.5
 20
183.45
 30
0.1
 40
4.0
  1
１２
 50
90.0
 41
0.875
 51
0.0
  7
KANJI11
  0
LINE
  8
5
  6
CONTINUOUS
 62
     2
 10
134.5
 20
193.0
 11
144.5
 21
193.0
  0
LINE
  8
5
  6
CONTINUOUS
 62
     2
 10
143.5
 20
193.0
 11
142.852952387
 21
190.585185434
  0
LINE
  8
5
  6
CONTINUOUS
 62
     2
 10
143.5
 20
193.0
 11
144.147047613
 21
190.585185434
  0
LINE
  8
5
  6
CONTINUOUS
 62
     2
 10
143.5
 20
193.0
 11
143.5
 21
176.0
  0
LINE
  8
5
  6
CONTINUOUS
 62
     2
 10
143.5
 20
176.0
 11
144.147047613
 21
178.414814566
  0
LINE
  8
5
  6
CONTINUOUS
 62
     2
 10
143.5
 20
176.0
 11
142.852952387
 21
178.414814566
  0
LINE
  8
5
  6
CONTINUOUS
 62
     2
 10
134.5
 20
176.0
 11
144.5
 21
176.0
  0
TEXT
  8
5
  6
CONTINUOUS
 62
     5
 10
142.5
 20
180.95
 30
0.1
 40
4.0
  1
１７
 50
90.0
 41
0.875
 51
0.0
  7
KANJI11
  0
LINE
  8
5
  6
CONTINUOUS
 62
     2
 10
143.5
 20
176.0
 11
142.852952387
 21
173.585185434
  0
LINE
  8
5
  6
CONTINUOUS
 62
     2
 10
143.5
 20
176.0
 11
144.147047613
 21
173.585185434
  0
LINE
  8
5
  6
CONTINUOUS
 62
     2
 10
143.5
 20
176.0
 11
143.5
 21
163.0
  0
LINE
  8
5
  6
CONTINUOUS
 62
     2
 10
143.5
 20
163.0
 11
144.147047613
 21
165.414814566
  0
LINE
  8
5
  6
CONTINUOUS
 62
     2
 10
143.5
 20
163.0
 11
142.852952387
 21
165.414814566
  0
LINE
  8
5
  6
CONTINUOUS
 62
     2
 10
134.5
 20
163.0
 11
144.5
 21
163.0
  0
TEXT
  8
5
  6
CONTINUOUS
 62
     5
 10
142.5
 20
165.95
 30
0.1
 40
4.0
  1
１３
 50
90.0
 41
0.875
 51
0.0
  7
KANJI11
  0
LINE
  8
5
  6
CONTINUOUS
 62
     2
 10
143.5
 20
163.0
 11
142.852952387
 21
160.585185434
  0
LINE
  8
5
  6
CONTINUOUS
 62
     2
 10
143.5
 20
163.0
 11
144.147047613
 21
160.585185434
  0
LINE
  8
5
  6
CONTINUOUS
 62
     2
 10
143.5
 20
163.0
 11
143.5
 21
149.0
  0
LINE
  8
5
  6
CONTINUOUS
 62
     2
 10
143.5
 20
149.0
 11
144.147047613
 21
151.414814566
  0
LINE
  8
5
  6
CONTINUOUS
 62
     2
 10
143.5
 20
149.0
 11
142.852952387
 21
151.414814566
  0
LINE
  8
5
  6
CONTINUOUS
 62
     2
 10
134.5
 20
149.0
 11
144.5
 21
149.0
  0
TEXT
  8
5
  6
CONTINUOUS
 62
     5
 10
142.5
 20
152.45
 30
0.1
 40
4.0
  1
１４
 50
90.0
 41
0.875
 51
0.0
  7
KANJI11
  0
LINE
  8
5
  6
CONTINUOUS
 62
     2
 10
144.5
 20
149.0
 11
154.5
 21
149.0
  0
LINE
  8
5
  6
CONTINUOUS
 62
     2
 10
153.5
 20
149.0
 11
153.5
 21
193.0
  0
LINE
  8
5
  6
CONTINUOUS
 62
     2
 10
144.5
 20
193.0
 11
154.5
 21
193.0
  0
TEXT
  8
5
  6
CONTINUOUS
 62
     5
 10
152.5
 20
167.45
 30
0.1
 40
4.0
  1
４４
 50
90.0
 41
0.875
 51
0.0
  7
KANJI11
  0
TEXT
  8
5
  6
CONTINUOUS
 62
     5
 10
132.5
 20
163.9
 30
0.1
 40
4.0
  1
０．５
 50
90.0
 41
0.875
 51
0.0
  7
KANJI11
  0
LINE
  8
5
  6
CONTINUOUS
 62
     2
 10
133.5
 20
172.25
 11
133.5
 21
163.0
  0
LINE
  8
5
  6
CONTINUOUS
 62
     2
 10
133.5
 20
149.0
 11
134.147047613
 21
151.414814566
  0
LINE
  8
5
  6
CONTINUOUS
 62
     2
 10
133.5
 20
149.0
 11
132.852952387
 21
151.414814566
  0
LINE
  8
5
  6
CONTINUOUS
 62
     2
 10
133.5
 20
154.0
 11
132.852952387
 21
151.585185434
  0
LINE
  8
5
  6
CONTINUOUS
 62
     2
 10
133.5
 20
154.0
 11
134.147047613
 21
151.585185434
  0
LINE
  8
5
  6
CONTINUOUS
 62
     2
 10
153.5
 20
149.0
 11
154.147047613
 21
151.414814566
  0
LINE
  8
5
  6
CONTINUOUS
 62
     2
 10
153.5
 20
149.0
 11
152.852952387
 21
151.414814566
  0
LINE
  8
5
  6
CONTINUOUS
 62
     2
 10
153.5
 20
193.0
 11
152.852952387
 21
190.585185434
  0
LINE
  8
5
  6
CONTINUOUS
 62
     2
 10
153.5
 20
193.0
 11
154.147047613
 21
190.585185434
  0
LINE
  8
5
  6
CONTINUOUS
 62
     2
 10
97.669
 20
159.0
 11
95.70247317
 21
157.456376915
  0
LINE
  8
5
  6
CONTINUOUS
 62
     2
 10
97.669
 20
159.0
 11
96.737749351
 21
156.67991978
  0
LINE
  8
0
  6
CONTINUOUS
 62
     1
 10
102.420039313
 20
120.976388499
 11
94.023611501
 21
112.579960687
  0
LINE
  8
0
  6
CONTINUOUS
 62
     1
 10
94.023611501
 20
105.420039313
 11
102.420039313
 21
97.023611501
  0
LINE
  8
0
  6
CONTINUOUS
 62
     1
 10
109.579960687
 20
97.023611501
 11
117.976388499
 21
105.420039313
  0
LINE
  8
0
  6
CONTINUOUS
 62
     1
 10
117.976388499
 20
112.579960687
 11
109.579960687
 21
120.976388499
  0
ARC
  8
0
  6
CONTINUOUS
 62
     1
 10
106.0
 20
109.0
 40
12.5
 50
73.357636576
 51
106.642363424
  0
ARC
  8
0
  6
CONTINUOUS
 62
     1
 10
106.0
 20
109.0
 40
12.5
 50
343.357636576
 51
16.642363424
  0
ARC
  8
0
  6
CONTINUOUS
 62
     1
 10
106.0
 20
109.0
 40
12.5
 50
253.357636576
 51
286.642363424
  0
ARC
  8
0
  6
CONTINUOUS
 62
     1
 10
106.0
 20
109.0
 40
12.5
 50
163.357636576
 51
196.642363424
  0
CIRCLE
  8
0
  6
CONTINUOUS
 62
     1
 10
106.0
 20
109.0
 40
7.0
  0
CIRCLE
  8
0
  6
CONTINUOUS
 62
     1
 10
106.0
 20
109.0
 40
8.331
  0
CIRCLE
  8
0
  6
CONTINUOUS
 62
     1
 10
106.0
 20
109.0
 40
7.331
  0
CIRCLE
  8
0
  6
CONTINUOUS
 62
     2
 10
106.0
 20
109.0
 40
7.475
  0
LINE
  8
0
  6
LTYPE3
 62
     2
 10
123.5
 20
109.0
 11
88.5
 21
109.0
  0
LINE
  8
0
  6
LTYPE3
 62
     2
 10
106.0
 20
126.5
 11
106.0
 21
91.5
  0
CIRCLE
  8
0
  6
CONTINUOUS
 62
     1
 10
106.0
 20
109.0
 40
10.0
  0
CIRCLE
  8
0
  6
CONTINUOUS
 62
     1
 10
106.0
 20
109.0
 40
10.5
  0
CIRCLE
  8
0
  6
CONTINUOUS
 62
     1
 10
106.0
 20
109.0
 40
9.5
  0
LINE
  8
5
  6
CONTINUOUS
 62
     2
 10
118.68349528
 20
111.872853906
 11
132.870057685
 21
97.686291501
  0
LINE
  8
5
  6
CONTINUOUS
 62
     2
 10
132.162950904
 20
98.393398282
 11
129.997887394
 21
97.143398282
  0
LINE
  8
5
  6
CONTINUOUS
 62
     2
 10
132.162950904
 20
98.393398282
 11
130.912950904
 21
96.228334773
  0
LINE
  8
5
  6
CONTINUOUS
 62
     2
 10
132.162950904
 20
98.393398282
 11
116.606601718
 21
82.837049096
  0
LINE
  8
5
  6
CONTINUOUS
 62
     2
 10
116.606601718
 20
82.837049096
 11
118.771665227
 21
84.087049096
  0
LINE
  8
5
  6
CONTINUOUS
 62
     2
 10
116.606601718
 20
82.837049096
 11
117.856601718
 21
85.002112606
  0
LINE
  8
5
  6
CONTINUOUS
 62
     2
 10
103.127146094
 20
96.31650472
 11
117.313708499
 21
82.129942315
  0
TEXT
  8
5
  6
CONTINUOUS
 62
     5
 10
119.89464825
 20
87.539309191
 30
0.1
 40
4.0
  1
□２２
 50
45.0
 41
0.875
 51
0.0
  7
KANJI11
  0
LINE
  8
5
  6
CONTINUOUS
 62
     2
 10
102.0
 20
212.0
 11
100.456376915
 21
213.96652683
  0
LINE
  8
5
  6
CONTINUOUS
 62
     2
 10
102.0
 20
212.0
 11
99.67991978
 21
212.931250649
  0
LINE
  8
5
  6
CONTINUOUS
 62
     2
 10
102.0
 20
212.0
 11
82.0
 21
227.0
  0
LINE
  8
5
  6
CONTINUOUS
 62
     2
 10
82.0
 20
227.0
 11
60.5
 21
227.0
  0
LINE
  8
5
  6
CONTINUOUS
 62
     2
 10
103.0
 20
232.0
 11
101.411073347
 21
233.930106756
  0
LINE
  8
5
  6
CONTINUOUS
 62
     2
 10
103.0
 20
232.0
 11
100.658895775
 21
232.877058156
  0
LINE
  8
5
  6
CONTINUOUS
 62
     2
 10
103.0
 20
232.0
 11
82.0
 21
247.0
  0
LINE
  8
5
  6
CONTINUOUS
 62
     2
 10
82.0
 20
247.0
 11
60.5
 21
247.0
  0
TEXT
  8
5
  6
CONTINUOUS
 62
     5
 10
60.5
 20
248.0
 30
0.1
 40
4.5
  1
φ６ケーブル
 50
0.0
 41
0.777777778
 51
0.0
  7
KANJI12
  0
LINE
  8
5
  6
CONTINUOUS
 62
     2
 10
86.419
 20
144.0
 11
72.119
 21
144.0
  0
TEXT
  8
5
  6
CONTINUOUS
 62
     5
 10
72.119
 20
145.0
 30
0.1
 40
4.5
  1
Ｇ３／８
 50
0.0
 41
0.777777778
 51
0.0
  7
KANJI12
  0
LINE
  8
5
  6
CONTINUOUS
 62
     2
 10
97.669
 20
159.0
 11
86.419
 21
144.0
  0
TEXT
  8
5
  6
CONTINUOUS
 62
     5
 10
60.5
 20
228.0
 30
0.1
 40
4.5
  1
ゴムスリーブ
 50
0.0
 41
0.777777778
 51
0.0
  7
KANJI12
  0
TEXT
  8
6
  6
CONTINUOUS
 62
     5
 10
167.45
 20
34.0
 30
0.3
 40
4.0
  1
外観図
 50
0.0
 41
0.875
 51
0.0
  7
KANJI13
  0
TEXT
  8
6
  6
CONTINUOUS
 62
     5
 10
159.85
 20
23.0
 30
0.3
 40
4.0
  1
ＨＶＭ－□ＰＡ
 50
0.0
 41
0.875
 51
0.0
  7
KANJI13
  0
ENDSEC
  0
EOF
