  0
SECTION
  2
HEADER
  9
$EXTMIN
 10
0.0
 20
0.0
 30
0.0
  9
$EXTMAX
 10
210.0
 20
297.0
 30
0.0
  9
$LIMMIN
 10
0.0
 20
0.0
  9
$LIMMAX
 10
210.0
 20
297.0
  9
$LTSCALE
 40
1.0
  9
$PDMODE
 70
     0
  0
ENDSEC
  0
SECTION
  2
TABLES
  0
TABLE
  2
LTYPE
 70
     4
  0
LTYPE
  2
CONTINUOUS
 70
    64
  3
Solid line
 72
    65
 73
     0
 40
0.0
  0
LTYPE
  2
LTYPE1
 70
    64
  3
PHANTOM
 72
    65
 73
     6
 40
10.0
 49
7.5
 49
-0.5
 49
0.5
 49
-0.5
 49
0.5
 49
-0.5
  0
LTYPE
  2
LTYPE2
 70
    64
  3
HIDDEN
 72
    65
 73
     2
 40
2.0
 49
1.2
 49
-0.8
  0
LTYPE
  2
LTYPE3
 70
    64
  3
CENTER
 72
    65
 73
     4
 40
10.0
 49
7.0
 49
-1.0
 49
1.0
 49
-1.0
  0
ENDTAB
  0
TABLE
  2
LAYER
 70
   128
  0
LAYER
  2
0
 70
     0
 62
     7
  6
CONTINUOUS
  0
LAYER
  2
2
 70
     0
 62
     7
  6
CONTINUOUS
  0
LAYER
  2
3
 70
     0
 62
     7
  6
CONTINUOUS
  0
LAYER
  2
4
 70
     0
 62
     7
  6
CONTINUOUS
  0
LAYER
  2
5
 70
     0
 62
     7
  6
CONTINUOUS
  0
LAYER
  2
6
 70
     0
 62
     7
  6
CONTINUOUS
  0
LAYER
  2
7
 70
     0
 62
     7
  6
CONTINUOUS
  0
LAYER
  2
8
 70
     0
 62
     7
  6
CONTINUOUS
  0
LAYER
  2
9
 70
     0
 62
     7
  6
CONTINUOUS
  0
LAYER
  2
10
 70
     0
 62
     7
  6
CONTINUOUS
  0
LAYER
  2
11
 70
     0
 62
     7
  6
CONTINUOUS
  0
LAYER
  2
12
 70
     0
 62
     7
  6
CONTINUOUS
  0
LAYER
  2
13
 70
     0
 62
     7
  6
CONTINUOUS
  0
LAYER
  2
14
 70
     0
 62
     7
  6
CONTINUOUS
  0
LAYER
  2
15
 70
     0
 62
     7
  6
CONTINUOUS
  0
LAYER
  2
16
 70
     0
 62
     7
  6
CONTINUOUS
  0
LAYER
  2
17
 70
     0
 62
     7
  6
CONTINUOUS
  0
LAYER
  2
18
 70
     0
 62
     7
  6
CONTINUOUS
  0
LAYER
  2
19
 70
     0
 62
     7
  6
CONTINUOUS
  0
LAYER
  2
20
 70
     0
 62
     7
  6
CONTINUOUS
  0
LAYER
  2
21
 70
     0
 62
     7
  6
CONTINUOUS
  0
LAYER
  2
22
 70
     0
 62
     7
  6
CONTINUOUS
  0
LAYER
  2
23
 70
     0
 62
     7
  6
CONTINUOUS
  0
LAYER
  2
24
 70
     0
 62
     7
  6
CONTINUOUS
  0
LAYER
  2
25
 70
     0
 62
     7
  6
CONTINUOUS
  0
LAYER
  2
26
 70
     0
 62
     7
  6
CONTINUOUS
  0
LAYER
  2
27
 70
     0
 62
     7
  6
CONTINUOUS
  0
LAYER
  2
28
 70
     0
 62
     7
  6
CONTINUOUS
  0
LAYER
  2
29
 70
     0
 62
     7
  6
CONTINUOUS
  0
LAYER
  2
30
 70
     0
 62
     7
  6
CONTINUOUS
  0
LAYER
  2
31
 70
     0
 62
     7
  6
CONTINUOUS
  0
LAYER
  2
32
 70
     0
 62
     7
  6
CONTINUOUS
  0
LAYER
  2
33
 70
     0
 62
     7
  6
CONTINUOUS
  0
LAYER
  2
34
 70
     0
 62
     7
  6
CONTINUOUS
  0
LAYER
  2
35
 70
     0
 62
     7
  6
CONTINUOUS
  0
LAYER
  2
36
 70
     0
 62
     7
  6
CONTINUOUS
  0
LAYER
  2
37
 70
     0
 62
     7
  6
CONTINUOUS
  0
LAYER
  2
38
 70
     0
 62
     7
  6
CONTINUOUS
  0
LAYER
  2
39
 70
     0
 62
     7
  6
CONTINUOUS
  0
LAYER
  2
40
 70
     0
 62
     7
  6
CONTINUOUS
  0
LAYER
  2
41
 70
     0
 62
     7
  6
CONTINUOUS
  0
LAYER
  2
42
 70
     0
 62
     7
  6
CONTINUOUS
  0
LAYER
  2
43
 70
     0
 62
     7
  6
CONTINUOUS
  0
LAYER
  2
44
 70
     0
 62
     7
  6
CONTINUOUS
  0
LAYER
  2
45
 70
     0
 62
     7
  6
CONTINUOUS
  0
LAYER
  2
46
 70
     0
 62
     7
  6
CONTINUOUS
  0
LAYER
  2
47
 70
     0
 62
     7
  6
CONTINUOUS
  0
LAYER
  2
48
 70
     0
 62
     7
  6
CONTINUOUS
  0
LAYER
  2
49
 70
     0
 62
     7
  6
CONTINUOUS
  0
LAYER
  2
50
 70
     0
 62
     7
  6
CONTINUOUS
  0
LAYER
  2
51
 70
     0
 62
     7
  6
CONTINUOUS
  0
LAYER
  2
52
 70
     0
 62
     7
  6
CONTINUOUS
  0
LAYER
  2
53
 70
     0
 62
     7
  6
CONTINUOUS
  0
LAYER
  2
54
 70
     0
 62
     7
  6
CONTINUOUS
  0
LAYER
  2
55
 70
     0
 62
     7
  6
CONTINUOUS
  0
LAYER
  2
56
 70
     0
 62
     7
  6
CONTINUOUS
  0
LAYER
  2
57
 70
     0
 62
     7
  6
CONTINUOUS
  0
LAYER
  2
58
 70
     0
 62
     7
  6
CONTINUOUS
  0
LAYER
  2
59
 70
     0
 62
     7
  6
CONTINUOUS
  0
LAYER
  2
60
 70
     0
 62
     7
  6
CONTINUOUS
  0
LAYER
  2
61
 70
     0
 62
     7
  6
CONTINUOUS
  0
LAYER
  2
62
 70
     0
 62
     7
  6
CONTINUOUS
  0
LAYER
  2
63
 70
     0
 62
     7
  6
CONTINUOUS
  0
LAYER
  2
64
 70
     0
 62
     7
  6
CONTINUOUS
  0
LAYER
  2
65
 70
     0
 62
     7
  6
CONTINUOUS
  0
LAYER
  2
66
 70
     0
 62
     7
  6
CONTINUOUS
  0
LAYER
  2
67
 70
     0
 62
     7
  6
CONTINUOUS
  0
LAYER
  2
68
 70
     0
 62
     7
  6
CONTINUOUS
  0
LAYER
  2
69
 70
     0
 62
     7
  6
CONTINUOUS
  0
LAYER
  2
70
 70
     0
 62
     7
  6
CONTINUOUS
  0
LAYER
  2
71
 70
     0
 62
     7
  6
CONTINUOUS
  0
LAYER
  2
72
 70
     0
 62
     7
  6
CONTINUOUS
  0
LAYER
  2
73
 70
     0
 62
     7
  6
CONTINUOUS
  0
LAYER
  2
74
 70
     0
 62
     7
  6
CONTINUOUS
  0
LAYER
  2
75
 70
     0
 62
     7
  6
CONTINUOUS
  0
LAYER
  2
76
 70
     0
 62
     7
  6
CONTINUOUS
  0
LAYER
  2
77
 70
     0
 62
     7
  6
CONTINUOUS
  0
LAYER
  2
78
 70
     0
 62
     7
  6
CONTINUOUS
  0
LAYER
  2
79
 70
     0
 62
     7
  6
CONTINUOUS
  0
LAYER
  2
80
 70
     0
 62
     7
  6
CONTINUOUS
  0
LAYER
  2
81
 70
     0
 62
     7
  6
CONTINUOUS
  0
LAYER
  2
82
 70
     0
 62
     7
  6
CONTINUOUS
  0
LAYER
  2
83
 70
     0
 62
     7
  6
CONTINUOUS
  0
LAYER
  2
84
 70
     0
 62
     7
  6
CONTINUOUS
  0
LAYER
  2
85
 70
     0
 62
     7
  6
CONTINUOUS
  0
LAYER
  2
86
 70
     0
 62
     7
  6
CONTINUOUS
  0
LAYER
  2
87
 70
     0
 62
     7
  6
CONTINUOUS
  0
LAYER
  2
88
 70
     0
 62
     7
  6
CONTINUOUS
  0
LAYER
  2
89
 70
     0
 62
     7
  6
CONTINUOUS
  0
LAYER
  2
90
 70
     0
 62
     7
  6
CONTINUOUS
  0
LAYER
  2
91
 70
     0
 62
     7
  6
CONTINUOUS
  0
LAYER
  2
92
 70
     0
 62
     7
  6
CONTINUOUS
  0
LAYER
  2
93
 70
     0
 62
     7
  6
CONTINUOUS
  0
LAYER
  2
94
 70
     0
 62
     7
  6
CONTINUOUS
  0
LAYER
  2
95
 70
     0
 62
     7
  6
CONTINUOUS
  0
LAYER
  2
96
 70
     0
 62
     7
  6
CONTINUOUS
  0
LAYER
  2
97
 70
     0
 62
     7
  6
CONTINUOUS
  0
LAYER
  2
98
 70
     0
 62
     7
  6
CONTINUOUS
  0
LAYER
  2
99
 70
     0
 62
     7
  6
CONTINUOUS
  0
LAYER
  2
100
 70
     0
 62
     7
  6
CONTINUOUS
  0
LAYER
  2
101
 70
     0
 62
     7
  6
CONTINUOUS
  0
LAYER
  2
102
 70
     0
 62
     7
  6
CONTINUOUS
  0
LAYER
  2
103
 70
     0
 62
     7
  6
CONTINUOUS
  0
LAYER
  2
104
 70
     0
 62
     7
  6
CONTINUOUS
  0
LAYER
  2
105
 70
     0
 62
     7
  6
CONTINUOUS
  0
LAYER
  2
106
 70
     0
 62
     7
  6
CONTINUOUS
  0
LAYER
  2
107
 70
     0
 62
     7
  6
CONTINUOUS
  0
LAYER
  2
108
 70
     0
 62
     7
  6
CONTINUOUS
  0
LAYER
  2
109
 70
     0
 62
     7
  6
CONTINUOUS
  0
LAYER
  2
110
 70
     0
 62
     7
  6
CONTINUOUS
  0
LAYER
  2
111
 70
     0
 62
     7
  6
CONTINUOUS
  0
LAYER
  2
112
 70
     0
 62
     7
  6
CONTINUOUS
  0
LAYER
  2
113
 70
     0
 62
     7
  6
CONTINUOUS
  0
LAYER
  2
114
 70
     0
 62
     7
  6
CONTINUOUS
  0
LAYER
  2
115
 70
     0
 62
     7
  6
CONTINUOUS
  0
LAYER
  2
116
 70
     0
 62
     7
  6
CONTINUOUS
  0
LAYER
  2
117
 70
     0
 62
     7
  6
CONTINUOUS
  0
LAYER
  2
118
 70
     0
 62
     7
  6
CONTINUOUS
  0
LAYER
  2
119
 70
     0
 62
     7
  6
CONTINUOUS
  0
LAYER
  2
120
 70
     0
 62
     7
  6
CONTINUOUS
  0
LAYER
  2
121
 70
     0
 62
     7
  6
CONTINUOUS
  0
LAYER
  2
122
 70
     0
 62
     7
  6
CONTINUOUS
  0
LAYER
  2
123
 70
     0
 62
     7
  6
CONTINUOUS
  0
LAYER
  2
124
 70
     0
 62
     7
  6
CONTINUOUS
  0
LAYER
  2
125
 70
     0
 62
     7
  6
CONTINUOUS
  0
LAYER
  2
126
 70
     0
 62
     7
  6
CONTINUOUS
  0
LAYER
  2
127
 70
     0
 62
     7
  6
CONTINUOUS
  0
LAYER
  2
128
 70
     0
 62
     7
  6
CONTINUOUS
  0
ENDTAB
  0
TABLE
  2
STYLE
 70
    13
  0
STYLE
  2
STANDARD
 70
     0
 40
0.0
 41
1.0
 50
0.0
 71
     0
 42
0.2
  3
txt
  4

  0
STYLE
  2
KANJI0
 70
     0
 40
4.0
 41
0.875
 50
0.0
 71
     0
 42
4.0
  3

  4
bigfont
  0
STYLE
  2
KANJI1
 70
     0
 40
5.0
 41
1.2
 50
0.0
 71
     0
 42
5.0
  3

  4
bigfont
  0
STYLE
  2
KANJI2
 70
     0
 40
5.0
 41
1.0
 50
0.0
 71
     0
 42
5.0
  3

  4
bigfont
  0
STYLE
  2
KANJI3
 70
     0
 40
2.5
 41
1.0
 50
0.0
 71
     0
 42
2.5
  3

  4
bigfont
  0
STYLE
  2
KANJI4
 70
     0
 40
2.5
 41
1.0
 50
0.0
 71
     0
 42
2.5
  3

  4
bigfont
  0
STYLE
  2
KANJI5
 70
     0
 40
2.5
 41
1.0
 50
0.0
 71
     0
 42
2.5
  3

  4
bigfont
  0
STYLE
  2
KANJI6
 70
     0
 40
4.0
 41
1.125
 50
0.0
 71
     0
 42
4.0
  3

  4
bigfont
  0
STYLE
  2
KANJI7
 70
     0
 40
7.0
 41
0.857142857
 50
0.0
 71
     0
 42
7.0
  3

  4
bigfont
  0
STYLE
  2
KANJI8
 70
     0
 40
3.0
 41
0.666666667
 50
0.0
 71
     0
 42
3.0
  3

  4
bigfont
  0
STYLE
  2
KANJI9
 70
     0
 40
3.0
 41
1.0
 50
0.0
 71
     0
 42
3.0
  3

  4
bigfont
  0
STYLE
  2
KANJI10
 70
     0
 40
3.0
 41
0.833333333
 50
0.0
 71
     0
 42
3.0
  3

  4
bigfont
  0
STYLE
  2
KANJI11
 70
     0
 40
4.0
 41
0.875
 50
0.0
 71
     0
 42
4.0
  3

  4
bigfont
  0
ENDTAB
  0
TABLE
  2
VIEW
 70
     0
  0
ENDTAB
  0
ENDSEC
  0
SECTION
  2
BLOCKS
  0
ENDSEC
  0
SECTION
  2
ENTITIES
  0
TEXT
  8
6
  6
CONTINUOUS
 62
     5
 10
133.0
 20
24.0
 30
0.0
 40
4.0
  1
益子
 50
0.0
 41
0.875
 51
0.0
  7
KANJI0
  0
LINE
  8
7
  6
CONTINUOUS
 62
     2
 10
24.0
 20
249.5
 11
19.0
 21
249.5
  0
LINE
  8
7
  6
CONTINUOUS
 62
     2
 10
156.5
 20
288.0
 11
156.5
 21
293.0
  0
LINE
  8
7
  6
CONTINUOUS
 62
     2
 10
51.5
 20
288.0
 11
51.5
 21
293.0
  0
LINE
  8
7
  6
CONTINUOUS
 62
     2
 10
24.0
 20
199.5
 11
19.0
 21
199.5
  0
TEXT
  8
7
  6
CONTINUOUS
 62
     6
 10
74.75
 20
289.5
 30
0.0
 40
5.0
  1
２
 50
0.0
 41
1.2
 51
0.0
  7
KANJI1
  0
TEXT
  8
7
  6
CONTINUOUS
 62
     6
 10
22.25
 20
289.5
 30
0.0
 40
5.0
  1
１
 50
0.0
 41
1.2
 51
0.0
  7
KANJI1
  0
TEXT
  8
7
  6
CONTINUOUS
 62
     6
 10
127.25
 20
289.5
 30
0.0
 40
5.0
  1
３
 50
0.0
 41
1.2
 51
0.0
  7
KANJI1
  0
TEXT
  8
7
  6
CONTINUOUS
 62
     6
 10
178.25
 20
289.0
 30
0.0
 40
5.0
  1
４
 50
0.0
 41
1.2
 51
0.0
  7
KANJI1
  0
TEXT
  8
7
  6
CONTINUOUS
 62
     6
 10
17.5
 20
272.0
 30
0.0
 40
5.0
  1
Ａ
 50
0.0
 41
1.0
 51
0.0
  7
KANJI2
  0
TEXT
  8
7
  6
CONTINUOUS
 62
     6
 10
17.5
 20
222.0
 30
0.0
 40
5.0
  1
Ｂ
 50
0.0
 41
1.0
 51
0.0
  7
KANJI2
  0
TEXT
  8
7
  6
CONTINUOUS
 62
     6
 10
17.5
 20
172.0
 30
0.0
 40
5.0
  1
Ｃ
 50
0.0
 41
1.0
 51
0.0
  7
KANJI2
  0
TEXT
  8
7
  6
CONTINUOUS
 62
     6
 10
17.5
 20
122.0
 30
0.0
 40
5.0
  1
Ｄ
 50
0.0
 41
1.0
 51
0.0
  7
KANJI2
  0
LINE
  8
7
  6
CONTINUOUS
 62
     6
 10
104.0
 20
288.0
 11
104.0
 21
298.0
  0
LINE
  8
7
  6
CONTINUOUS
 62
     6
 10
24.0
 20
149.5
 11
-1.0
 21
149.5
  0
LINE
  8
7
  6
CONTINUOUS
 62
     6
 10
24.0
 20
288.0
 11
24.0
 21
11.0
  0
LINE
  8
7
  6
CONTINUOUS
 62
     2
 10
198.0
 20
199.5
 11
203.0
 21
199.5
  0
LINE
  8
7
  6
CONTINUOUS
 62
     2
 10
198.0
 20
249.5
 11
203.0
 21
249.5
  0
TEXT
  8
7
  6
CONTINUOUS
 62
     6
 10
199.5
 20
272.0
 30
0.0
 40
5.0
  1
Ａ
 50
0.0
 41
1.0
 51
0.0
  7
KANJI2
  0
TEXT
  8
7
  6
CONTINUOUS
 62
     6
 10
199.5
 20
222.0
 30
0.0
 40
5.0
  1
Ｂ
 50
0.0
 41
1.0
 51
0.0
  7
KANJI2
  0
TEXT
  8
7
  6
CONTINUOUS
 62
     6
 10
199.5
 20
172.0
 30
0.0
 40
5.0
  1
Ｃ
 50
0.0
 41
1.0
 51
0.0
  7
KANJI2
  0
TEXT
  8
7
  6
CONTINUOUS
 62
     6
 10
199.5
 20
122.0
 30
0.0
 40
5.0
  1
Ｄ
 50
0.0
 41
1.0
 51
0.0
  7
KANJI2
  0
LINE
  8
7
  6
CONTINUOUS
 62
     6
 10
198.0
 20
288.0
 11
24.0
 21
288.0
  0
LINE
  8
7
  6
CONTINUOUS
 62
     6
 10
198.0
 20
149.5
 11
209.0
 21
149.5
  0
LINE
  8
7
  6
CONTINUOUS
 62
     6
 10
198.0
 20
11.0
 11
198.0
 21
288.0
  0
LINE
  8
7
  6
CONTINUOUS
 62
     2
 10
198.0
 20
99.5
 11
203.0
 21
99.5
  0
LINE
  8
7
  6
CONTINUOUS
 62
     2
 10
198.0
 20
49.5
 11
203.0
 21
49.5
  0
LINE
  8
7
  6
CONTINUOUS
 62
     2
 10
198.0
 20
76.0
 11
195.5
 21
76.0
  0
LINE
  8
7
  6
CONTINUOUS
 62
     2
 10
198.0
 20
84.0
 11
195.5
 21
84.0
  0
LINE
  8
7
  6
CONTINUOUS
 62
     2
 10
198.0
 20
92.0
 11
195.5
 21
92.0
  0
TEXT
  8
7
  6
CONTINUOUS
 62
     6
 10
199.5
 20
72.0
 30
0.0
 40
5.0
  1
Ｅ
 50
0.0
 41
1.0
 51
0.0
  7
KANJI2
  0
TEXT
  8
7
  6
CONTINUOUS
 62
     6
 10
199.5
 20
22.0
 30
0.0
 40
5.0
  1
Ｆ
 50
0.0
 41
1.0
 51
0.0
  7
KANJI2
  0
LINE
  8
7
  6
CONTINUOUS
 62
     2
 10
145.0
 20
33.0
 11
198.0
 21
33.0
  0
LINE
  8
7
  6
CONTINUOUS
 62
     2
 10
145.0
 20
22.0
 11
198.0
 21
22.0
  0
LINE
  8
7
  6
CONTINUOUS
 62
     6
 10
189.0
 20
11.0
 11
198.0
 21
11.0
  0
LINE
  8
7
  6
CONTINUOUS
 62
     2
 10
65.0
 20
52.0
 11
198.0
 21
52.0
  0
LINE
  8
7
  6
CONTINUOUS
 62
     2
 10
65.0
 20
68.0
 11
198.0
 21
68.0
  0
LINE
  8
7
  6
CONTINUOUS
 62
     2
 10
65.0
 20
60.0
 11
198.0
 21
60.0
  0
LINE
  8
7
  6
CONTINUOUS
 62
     2
 10
65.0
 20
44.0
 11
198.0
 21
44.0
  0
LINE
  8
7
  6
CONTINUOUS
 62
     2
 10
51.5
 20
11.0
 11
51.5
 21
6.0
  0
LINE
  8
7
  6
CONTINUOUS
 62
     2
 10
24.0
 20
99.5
 11
19.0
 21
99.5
  0
LINE
  8
7
  6
CONTINUOUS
 62
     2
 10
24.0
 20
49.5
 11
19.0
 21
49.5
  0
LINE
  8
7
  6
CONTINUOUS
 62
     2
 10
31.0
 20
68.0
 11
31.0
 21
11.0
  0
LINE
  8
7
  6
CONTINUOUS
 62
     2
 10
38.0
 20
68.0
 11
38.0
 21
11.0
  0
LINE
  8
7
  6
CONTINUOUS
 62
     2
 10
45.0
 20
68.0
 11
45.0
 21
11.0
  0
LINE
  8
7
  6
CONTINUOUS
 62
     2
 10
52.0
 20
68.0
 11
52.0
 21
11.0
  0
TEXT
  8
7
  6
CONTINUOUS
 62
     6
 10
17.5
 20
72.0
 30
0.0
 40
5.0
  1
Ｅ
 50
0.0
 41
1.0
 51
0.0
  7
KANJI2
  0
TEXT
  8
7
  6
CONTINUOUS
 62
     6
 10
17.5
 20
22.0
 30
0.0
 40
5.0
  1
Ｆ
 50
0.0
 41
1.0
 51
0.0
  7
KANJI2
  0
TEXT
  8
7
  6
CONTINUOUS
 62
     6
 10
22.25
 20
4.5
 30
0.0
 40
5.0
  1
１
 50
0.0
 41
1.2
 51
0.0
  7
KANJI1
  0
LINE
  8
7
  6
CONTINUOUS
 62
     6
 10
54.0
 20
6.0
 11
154.0
 21
6.0
  0
LINE
  8
7
  6
CONTINUOUS
 62
     2
 10
156.5
 20
11.0
 11
156.5
 21
6.0
  0
LINE
  8
7
  6
CONTINUOUS
 62
     2
 10
24.0
 20
40.0
 11
65.0
 21
40.0
  0
LINE
  8
7
  6
CONTINUOUS
 62
     2
 10
24.0
 20
18.0
 11
65.0
 21
18.0
  0
LINE
  8
7
  6
CONTINUOUS
 62
     2
 10
113.0
 20
44.0
 11
113.0
 21
22.0
  0
LINE
  8
7
  6
CONTINUOUS
 62
     2
 10
129.0
 20
44.0
 11
129.0
 21
22.0
  0
LINE
  8
7
  6
CONTINUOUS
 62
     2
 10
89.0
 20
44.0
 11
89.0
 21
33.0
  0
LINE
  8
7
  6
CONTINUOUS
 62
     2
 10
59.0
 20
68.0
 11
59.0
 21
11.0
  0
LINE
  8
7
  6
CONTINUOUS
 62
     2
 10
81.0
 20
33.0
 11
81.0
 21
11.0
  0
LINE
  8
7
  6
CONTINUOUS
 62
     2
 10
97.0
 20
33.0
 11
97.0
 21
11.0
  0
LINE
  8
7
  6
LTYPE1
 62
     2
 10
103.0
 20
14.5
 11
107.0
 21
14.5
  0
LINE
  8
7
  6
LTYPE1
 62
     2
 10
107.0
 20
14.5
 11
107.0
 21
18.5
  0
LINE
  8
7
  6
LTYPE1
 62
     2
 10
107.0
 20
18.5
 11
103.0
 21
18.5
  0
LINE
  8
7
  6
LTYPE1
 62
     2
 10
103.0
 20
18.5
 11
103.0
 21
14.5
  0
TEXT
  8
7
  6
CONTINUOUS
 62
     4
 10
63.15
 20
53.5
 30
0.3
 40
2.5
  1
氏名
 50
90.0
 41
1.0
 51
0.0
  7
KANJI3
  0
TEXT
  8
7
  6
CONTINUOUS
 62
     4
 10
63.15
 20
41.425
 30
1.0
 40
2.5
  1
年月日
 50
90.0
 41
1.0
 51
0.0
  7
KANJI4
  0
TEXT
  8
7
  6
CONTINUOUS
 62
     4
 10
63.15
 20
61.375
 30
0.3
 40
2.5
  1
承認
 50
90.0
 41
1.0
 51
0.0
  7
KANJI3
  0
TEXT
  8
7
  6
CONTINUOUS
 62
     4
 10
66.0
 20
40.5
 30
0.0
 40
2.5
  1
熱処理
 50
0.0
 41
1.0
 51
0.0
  7
KANJI5
  0
TEXT
  8
7
  6
CONTINUOUS
 62
     4
 10
90.0
 20
40.5
 30
0.0
 40
2.5
  1
表面処理
 50
0.0
 41
1.0
 51
0.0
  7
KANJI5
  0
TEXT
  8
7
  6
CONTINUOUS
 62
     4
 10
114.0
 20
40.5
 30
0.0
 40
2.5
  1
台数
 50
0.0
 41
1.0
 51
0.0
  7
KANJI5
  0
TEXT
  8
7
  6
CONTINUOUS
 62
     4
 10
130.0
 20
40.5
 30
0.0
 40
2.5
  1
作成日付
 50
0.0
 41
1.0
 51
0.0
  7
KANJI5
  0
TEXT
  8
7
  6
CONTINUOUS
 62
     4
 10
146.0
 20
40.5
 30
0.0
 40
2.5
  1
名称
 50
0.0
 41
1.0
 51
0.0
  7
KANJI5
  0
TEXT
  8
7
  6
CONTINUOUS
 62
     4
 10
66.0
 20
29.5
 30
0.0
 40
2.5
  1
尺度
 50
0.0
 41
1.0
 51
0.0
  7
KANJI5
  0
TEXT
  8
7
  6
CONTINUOUS
 62
     4
 10
82.0
 20
29.5
 30
0.0
 40
2.5
  1
承認
 50
0.0
 41
1.0
 51
0.0
  7
KANJI5
  0
TEXT
  8
7
  6
CONTINUOUS
 62
     4
 10
98.0
 20
29.5
 30
0.0
 40
2.5
  1
検図
 50
0.0
 41
1.0
 51
0.0
  7
KANJI5
  0
TEXT
  8
7
  6
CONTINUOUS
 62
     4
 10
114.0
 20
29.5
 30
0.0
 40
2.5
  1
設計
 50
0.0
 41
1.0
 51
0.0
  7
KANJI5
  0
TEXT
  8
7
  6
CONTINUOUS
 62
     4
 10
130.0
 20
29.5
 30
0.0
 40
2.5
  1
製図
 50
0.0
 41
1.0
 51
0.0
  7
KANJI5
  0
TEXT
  8
7
  6
CONTINUOUS
 62
     4
 10
146.0
 20
29.5
 30
0.0
 40
2.5
  1
機名
 50
0.0
 41
1.0
 51
0.0
  7
KANJI5
  0
TEXT
  8
7
  6
CONTINUOUS
 62
     4
 10
63.15
 20
11.875
 30
0.3
 40
2.5
  1
記号
 50
90.0
 41
1.0
 51
0.0
  7
KANJI3
  0
TEXT
  8
7
  6
CONTINUOUS
 62
     4
 10
146.0
 20
18.5
 30
0.0
 40
2.5
  1
図面番号
 50
0.0
 41
1.0
 51
0.0
  7
KANJI5
  0
TEXT
  8
7
  6
CONTINUOUS
 62
     4
 10
109.0
 20
15.25
 30
0.0
 40
2.5
  1
株式会社
 50
0.0
 41
1.0
 51
0.0
  7
KANJI5
  0
TEXT
  8
7
  6
CONTINUOUS
 62
     4
 10
121.0
 20
14.5
 30
0.0
 40
4.0
  1
昭和測器
 50
0.0
 41
1.125
 51
0.0
  7
KANJI6
  0
TEXT
  8
7
  6
CONTINUOUS
 62
     4
 10
63.15
 20
19.375
 30
0.3
 40
2.5
  1
来歴・改訂記事
 50
90.0
 41
1.0
 51
0.0
  7
KANJI3
  0
TEXT
  8
7
  6
CONTINUOUS
 62
     1
 10
68.0
 20
16.5
 30
0.0
 40
5.0
  1
第３
 50
0.0
 41
1.0
 51
0.0
  7
KANJI2
  0
TEXT
  8
7
  6
CONTINUOUS
 62
     1
 10
68.0
 20
11.5
 30
0.0
 40
5.0
  1
角法
 50
0.0
 41
1.0
 51
0.0
  7
KANJI2
  0
CIRCLE
  8
7
  6
CONTINUOUS
 62
     6
 10
72.75
 20
27.0
 40
0.2
  0
CIRCLE
  8
7
  6
CONTINUOUS
 62
     6
 10
72.75
 20
24.5
 40
0.2
  0
TEXT
  8
7
  6
CONTINUOUS
 62
     6
 10
83.725
 20
13.025
 30
-1.0
 40
7.0
  1
Ａ４
 50
0.0
 41
0.857142857
 51
0.0
  7
KANJI7
  0
TEXT
  8
7
  6
CONTINUOUS
 62
     6
 10
178.25
 20
5.0
 30
0.0
 40
5.0
  1
４
 50
0.0
 41
1.2
 51
0.0
  7
KANJI1
  0
TEXT
  8
7
  6
CONTINUOUS
 62
     4
 10
66.5
 20
46.0
 30
0.0
 40
4.0
  1
番号
 50
0.0
 41
0.875
 51
0.0
  7
KANJI0
  0
TEXT
  8
7
  6
CONTINUOUS
 62
     4
 10
84.25
 20
46.0
 30
0.0
 40
4.0
  1
部　品　名
 50
0.0
 41
0.875
 51
0.0
  7
KANJI0
  0
LINE
  8
7
  6
CONTINUOUS
 62
     6
 10
104.0
 20
11.0
 11
104.0
 21
1.0
  0
LINE
  8
7
  6
CONTINUOUS
 62
     6
 10
54.0
 20
11.0
 11
54.0
 21
6.0
  0
LINE
  8
7
  6
CONTINUOUS
 62
     6
 10
154.0
 20
6.0
 11
154.0
 21
11.0
  0
LINE
  8
7
  6
CONTINUOUS
 62
     6
 10
64.0
 20
11.0
 11
64.0
 21
6.0
  0
LINE
  8
7
  6
CONTINUOUS
 62
     6
 10
74.0
 20
11.0
 11
74.0
 21
6.0
  0
LINE
  8
7
  6
CONTINUOUS
 62
     6
 10
84.0
 20
11.0
 11
84.0
 21
6.0
  0
LINE
  8
7
  6
CONTINUOUS
 62
     6
 10
94.0
 20
11.0
 11
94.0
 21
6.0
  0
LINE
  8
7
  6
CONTINUOUS
 62
     6
 10
144.0
 20
6.0
 11
144.0
 21
11.0
  0
LINE
  8
7
  6
CONTINUOUS
 62
     6
 10
134.0
 20
6.0
 11
134.0
 21
11.0
  0
LINE
  8
7
  6
CONTINUOUS
 62
     6
 10
124.0
 20
6.0
 11
124.0
 21
11.0
  0
LINE
  8
7
  6
CONTINUOUS
 62
     6
 10
114.0
 20
6.0
 11
114.0
 21
11.0
  0
LINE
  8
7
  6
CONTINUOUS
 62
     2
 10
24.0
 20
68.0
 11
65.0
 21
68.0
  0
LINE
  8
7
  6
CONTINUOUS
 62
     2
 10
24.0
 20
60.0
 11
65.0
 21
60.0
  0
LINE
  8
7
  6
CONTINUOUS
 62
     2
 10
65.0
 20
52.0
 11
65.0
 21
11.0
  0
LINE
  8
7
  6
CONTINUOUS
 62
     2
 10
65.0
 20
68.0
 11
65.0
 21
52.0
  0
LINE
  8
7
  6
CONTINUOUS
 62
     2
 10
75.0
 20
52.0
 11
75.0
 21
44.0
  0
LINE
  8
7
  6
CONTINUOUS
 62
     2
 10
75.0
 20
68.0
 11
75.0
 21
52.0
  0
LINE
  8
7
  6
CONTINUOUS
 62
     2
 10
111.0
 20
52.0
 11
111.0
 21
44.0
  0
LINE
  8
7
  6
CONTINUOUS
 62
     2
 10
111.0
 20
68.0
 11
111.0
 21
52.0
  0
LINE
  8
7
  6
CONTINUOUS
 62
     2
 10
65.0
 20
33.0
 11
145.0
 21
33.0
  0
LINE
  8
7
  6
CONTINUOUS
 62
     2
 10
65.0
 20
22.0
 11
145.0
 21
22.0
  0
LINE
  8
7
  6
CONTINUOUS
 62
     6
 10
24.0
 20
11.0
 11
145.0
 21
11.0
  0
LINE
  8
7
  6
CONTINUOUS
 62
     6
 10
145.0
 20
11.0
 11
189.0
 21
11.0
  0
TEXT
  8
7
  6
CONTINUOUS
 62
     4
 10
172.25
 20
46.0
 30
0.0
 40
4.0
  1
摘　　　要
 50
0.0
 41
0.875
 51
0.0
  7
KANJI0
  0
LINE
  8
7
  6
LTYPE2
 62
     2
 10
187.0
 20
22.0
 11
187.0
 21
11.0
  0
TEXT
  8
7
  6
CONTINUOUS
 62
     4
 10
145.0
 20
48.0
 30
-0.5
 40
3.0
  1
１セット分
 50
0.0
 41
0.666666667
 51
0.0
  7
KANJI8
  0
TEXT
  8
7
  6
CONTINUOUS
 62
     4
 10
134.0
 20
48.0
 30
0.0
 40
3.0
  1
１台分
 50
0.0
 41
1.0
 51
0.0
  7
KANJI9
  0
TEXT
  8
7
  6
CONTINUOUS
 62
     4
 10
136.0
 20
45.0
 30
0.0
 40
3.0
  1
個数
 50
0.0
 41
1.0
 51
0.0
  7
KANJI9
  0
TEXT
  8
7
  6
CONTINUOUS
 62
     4
 10
146.0
 20
45.0
 30
0.0
 40
3.0
  1
個数
 50
0.0
 41
1.0
 51
0.0
  7
KANJI9
  0
TEXT
  8
7
  6
CONTINUOUS
 62
     4
 10
155.5
 20
46.0
 30
0.0
 40
4.0
  1
総数
 50
0.0
 41
0.875
 51
0.0
  7
KANJI0
  0
LINE
  8
7
  6
CONTINUOUS
 62
     2
 10
134.0
 20
52.0
 11
134.0
 21
44.0
  0
LINE
  8
7
  6
CONTINUOUS
 62
     2
 10
134.0
 20
68.0
 11
134.0
 21
52.0
  0
LINE
  8
7
  6
CONTINUOUS
 62
     2
 10
144.0
 20
52.0
 11
144.0
 21
44.0
  0
LINE
  8
7
  6
CONTINUOUS
 62
     2
 10
144.0
 20
68.0
 11
144.0
 21
52.0
  0
LINE
  8
7
  6
CONTINUOUS
 62
     2
 10
154.0
 20
52.0
 11
154.0
 21
44.0
  0
LINE
  8
7
  6
CONTINUOUS
 62
     2
 10
154.0
 20
68.0
 11
154.0
 21
52.0
  0
LINE
  8
7
  6
CONTINUOUS
 62
     2
 10
164.0
 20
52.0
 11
164.0
 21
44.0
  0
LINE
  8
7
  6
CONTINUOUS
 62
     2
 10
164.0
 20
68.0
 11
164.0
 21
52.0
  0
LINE
  8
7
  6
CONTINUOUS
 62
     2
 10
145.0
 20
44.0
 11
145.0
 21
11.0
  0
TEXT
  8
7
  6
CONTINUOUS
 62
     4
 10
117.25
 20
46.0
 30
0.0
 40
4.0
  1
材　質
 50
0.0
 41
0.875
 51
0.0
  7
KANJI0
  0
LINE
  8
7
  6
CONTINUOUS
 62
     2
 10
25.0
 20
52.0
 11
65.0
 21
52.0
  0
TEXT
  8
6
  6
CONTINUOUS
 62
     5
 10
67.75
 20
24.0
 30
0.0
 40
4.0
  1
１
 50
0.0
 41
0.875
 51
0.0
  7
KANJI0
  0
TEXT
  8
6
  6
CONTINUOUS
 62
     5
 10
74.25
 20
24.0
 30
0.0
 40
4.0
  1
１
 50
0.0
 41
0.875
 51
0.0
  7
KANJI0
  0
TEXT
  8
6
  6
CONTINUOUS
 62
     5
 10
130.5
 20
37.0
 30
-0.5
 40
3.0
  1
２０１７．
 50
0.0
 41
0.833333333
 51
0.0
  7
KANJI10
  0
TEXT
  8
6
  6
CONTINUOUS
 62
     5
 10
133.0
 20
34.0
 30
-0.5
 40
3.0
  1
０７．１３
 50
0.0
 41
0.833333333
 51
0.0
  7
KANJI10
  0
TEXT
  8
6
  6
CONTINUOUS
 62
     5
 10
166.15
 20
35.0
 30
0.1
 40
4.0
  1
外観図
 50
0.0
 41
0.875
 51
0.0
  7
KANJI11
  0
TEXT
  8
6
  6
CONTINUOUS
 62
     5
 10
150.7
 20
24.0
 30
0.1
 40
4.0
  1
ＨＶＳ－□ＰＡ
 50
0.0
 41
0.875
 51
0.0
  7
KANJI11
  0
TEXT
  8
6
  6
CONTINUOUS
 62
     5
 10
148.0
 20
13.0
 30
0.1
 40
4.0
  1
Ｈ－０１２６－Ａ００１
 50
0.0
 41
0.875
 51
0.0
  7
KANJI11
  0
CIRCLE
  8
0
  6
CONTINUOUS
 62
     1
 10
100.0
 20
105.0
 40
25.0
  0
LINE
  8
0
  6
LTYPE3
 62
     2
 10
100.0
 20
75.0
 11
100.0
 21
135.0
  0
LINE
  8
0
  6
LTYPE3
 62
     2
 10
130.0
 20
105.0
 11
70.0
 21
105.0
  0
LINE
  8
0
  6
CONTINUOUS
 62
     1
 10
77.0
 20
95.202041029
 11
77.0
 21
114.797958971
  0
LINE
  8
0
  6
CONTINUOUS
 62
     1
 10
109.797958971
 20
82.0
 11
90.202041029
 21
82.0
  0
LINE
  8
0
  6
CONTINUOUS
 62
     1
 10
123.0
 20
114.797958971
 11
123.0
 21
95.202041029
  0
LINE
  8
0
  6
CONTINUOUS
 62
     1
 10
90.202041029
 20
128.0
 11
109.797958971
 21
128.0
  0
CIRCLE
  8
0
  6
CONTINUOUS
 62
     1
 10
100.0
 20
105.0
 40
23.0
  0
CIRCLE
  8
0
  6
CONTINUOUS
 62
     1
 10
100.0
 20
105.0
 40
1.5
  0
CIRCLE
  8
0
  6
CONTINUOUS
 62
     1
 10
100.0
 20
105.0
 40
2.5
  0
CIRCLE
  8
0
  6
CONTINUOUS
 62
     1
 10
100.0
 20
105.0
 40
8.331
  0
CIRCLE
  8
0
  6
CONTINUOUS
 62
     2
 10
100.0
 20
105.0
 40
7.475
  0
CIRCLE
  8
0
  6
CONTINUOUS
 62
     1
 10
100.0
 20
105.0
 40
4.5
  0
CIRCLE
  8
0
  6
CONTINUOUS
 62
     1
 10
100.0
 20
105.0
 40
6.5
  0
CIRCLE
  8
0
  6
CONTINUOUS
 62
     1
 10
100.0
 20
105.0
 40
4.0
  0
CIRCLE
  8
0
  6
CONTINUOUS
 62
     1
 10
100.0
 20
105.0
 40
5.0
  0
CIRCLE
  8
0
  6
CONTINUOUS
 62
     1
 10
100.0
 20
105.0
 40
7.0
  0
CIRCLE
  8
0
  6
CONTINUOUS
 62
     1
 10
100.0
 20
105.0
 40
6.0
  0
LINE
  8
0
  6
LTYPE2
 62
     2
 10
79.429086222
 20
119.206952747
 11
83.382990642
 21
115.253048327
  0
POLYLINE
  8
0
  6
LTYPE2
 62
     2
 66
     1
 70
     1
  0
VERTEX
  8
0
  6
LTYPE2
 62
     2
 10
83.347635303
 20
115.641957057
  0
VERTEX
  8
0
  6
LTYPE2
 62
     2
 10
89.358042943
 20
121.652364697
  0
VERTEX
  8
0
  6
LTYPE2
 62
     2
 10
86.176062428
 20
124.834345212
  0
VERTEX
  8
0
  6
LTYPE2
 62
     2
 10
80.165654788
 20
118.823937572
  0
SEQEND
  0
LINE
  8
0
  6
LTYPE2
 62
     2
 10
85.793047253
 20
125.570913778
 11
89.746951673
 21
121.617009358
  0
LINE
  8
0
  6
LTYPE2
 62
     2
 10
89.039844892
 20
120.909902577
 11
89.746951673
 21
121.617009358
  0
LINE
  8
0
  6
LTYPE2
 62
     2
 10
83.382990642
 20
115.253048327
 11
84.090097423
 21
115.960155108
  0
LINE
  8
0
  6
LTYPE2
 62
     2
 10
90.065149724
 20
120.238151135
 11
89.216621587
 21
121.086679272
  0
LINE
  8
0
  6
LTYPE2
 62
     2
 10
84.054742084
 20
115.641957057
 11
89.358042943
 21
120.945257916
  0
LINE
  8
0
  6
LTYPE2
 62
     2
 10
88.827712857
 20
119.000714267
 11
90.065149724
 21
120.238151135
  0
LINE
  8
0
  6
LTYPE2
 62
     2
 10
89.181266248
 20
120.76848122
 11
88.827712857
 21
121.122034611
  0
LINE
  8
0
  6
LTYPE2
 62
     2
 10
83.877965389
 20
116.172287143
 11
84.23151878
 21
115.818733752
  0
LINE
  8
0
  6
LTYPE2
 62
     2
 10
83.913320728
 20
115.783378413
 11
84.761848865
 21
114.934850276
  0
LINE
  8
0
  6
LTYPE2
 62
     2
 10
84.761848865
 20
114.934850276
 11
85.999285733
 21
116.172287143
  0
LINE
  8
0
  6
LTYPE2
 62
     2
 10
85.292178951
 20
116.879393924
 11
85.96832703
 21
116.698220592
  0
LINE
  8
0
  6
LTYPE2
 62
     2
 10
85.96832703
 20
116.698220592
 11
88.301779408
 21
119.03167297
  0
LINE
  8
0
  6
LTYPE2
 62
     2
 10
88.120606076
 20
119.707821049
 11
88.301779408
 21
119.03167297
  0
LINE
  8
0
  6
LTYPE2
 62
     2
 10
88.863068196
 20
119.036069607
 11
89.570174977
 21
118.328962825
  0
LINE
  8
0
  6
LTYPE2
 62
     2
 10
89.287332265
 20
118.046120113
 11
89.570174977
 21
118.328962825
  0
LINE
  8
0
  6
LTYPE2
 62
     2
 10
86.671037175
 20
115.429825023
 11
86.953879887
 21
115.712667735
  0
LINE
  8
0
  6
LTYPE2
 62
     2
 10
86.671037175
 20
115.429825023
 11
85.963930393
 21
116.136931804
  0
LINE
  8
0
  6
LTYPE2
 62
     2
 10
89.534819638
 20
112.636753237
 11
92.363246763
 21
115.465180362
  0
LINE
  8
0
  6
LTYPE2
 62
     2
 10
88.120606076
 20
119.707821049
 11
93.070353544
 21
114.75807358
  0
LINE
  8
0
  6
LTYPE2
 62
     2
 10
88.301779408
 20
119.03167297
 11
92.822866171
 21
114.510586207
  0
LINE
  8
0
  6
LTYPE2
 62
     2
 10
85.96832703
 20
116.698220592
 11
90.489413793
 21
112.177133829
  0
LINE
  8
0
  6
LTYPE2
 62
     2
 10
85.292178951
 20
116.879393924
 11
90.24192642
 21
111.929646456
  0
LINE
  8
0
  6
LTYPE3
 62
     2
 10
80.554563517
 20
124.445436483
 11
93.423906935
 21
111.576093065
  0
LINE
  8
5
  6
CONTINUOUS
 62
     2
 10
110.797958971
 20
128.0
 11
141.0
 21
128.0
  0
LINE
  8
5
  6
CONTINUOUS
 62
     2
 10
140.0
 20
128.0
 11
139.352952387
 21
125.585185434
  0
LINE
  8
5
  6
CONTINUOUS
 62
     2
 10
140.0
 20
128.0
 11
140.647047613
 21
125.585185434
  0
LINE
  8
5
  6
CONTINUOUS
 62
     2
 10
140.0
 20
128.0
 11
140.0
 21
82.0
  0
LINE
  8
5
  6
CONTINUOUS
 62
     2
 10
140.0
 20
82.0
 11
140.647047613
 21
84.414814566
  0
LINE
  8
5
  6
CONTINUOUS
 62
     2
 10
140.0
 20
82.0
 11
139.352952387
 21
84.414814566
  0
LINE
  8
5
  6
CONTINUOUS
 62
     2
 10
110.797958971
 20
82.0
 11
141.0
 21
82.0
  0
TEXT
  8
5
  6
CONTINUOUS
 62
     5
 10
139.0
 20
99.65
 30
0.1
 40
4.0
  1
□４６
 50
90.0
 41
0.875
 51
0.0
  7
KANJI11
  0
LINE
  8
0
  6
CONTINUOUS
 62
     1
 10
125.0
 20
238.0
 11
75.0
 21
238.0
  0
LINE
  8
0
  6
CONTINUOUS
 62
     1
 10
75.0
 20
246.0
 11
125.0
 21
246.0
  0
POLYLINE
  8
0
  6
CONTINUOUS
 62
     1
 66
     1
  0
VERTEX
  8
0
  6
CONTINUOUS
 62
     1
 10
75.0
 20
238.0
  0
VERTEX
  8
0
  6
CONTINUOUS
 62
     1
 10
75.0
 20
246.0
  0
VERTEX
  8
0
  6
CONTINUOUS
 62
     1
 10
77.0
 20
248.0
  0
SEQEND
  0
LINE
  8
0
  6
CONTINUOUS
 62
     1
 10
125.0
 20
246.0
 11
125.0
 21
238.0
  0
LINE
  8
0
  6
CONTINUOUS
 62
     1
 10
77.0
 20
248.0
 11
123.0
 21
248.0
  0
LINE
  8
0
  6
CONTINUOUS
 62
     1
 10
125.0
 20
246.0
 11
123.0
 21
248.0
  0
LINE
  8
0
  6
CONTINUOUS
 62
     1
 10
77.0
 20
183.0
 11
77.0
 21
203.0
  0
LINE
  8
0
  6
CONTINUOUS
 62
     1
 10
123.0
 20
183.0
 11
123.0
 21
203.0
  0
LINE
  8
0
  6
CONTINUOUS
 62
     1
 10
75.0
 20
203.0
 11
77.0
 21
203.0
  0
LINE
  8
0
  6
CONTINUOUS
 62
     1
 10
125.0
 20
203.0
 11
123.0
 21
203.0
  0
LINE
  8
0
  6
CONTINUOUS
 62
     1
 10
77.0
 20
183.0
 11
123.0
 21
183.0
  0
LINE
  8
0
  6
CONTINUOUS
 62
     1
 10
75.0
 20
238.0
 11
75.0
 21
203.0
  0
LINE
  8
0
  6
CONTINUOUS
 62
     1
 10
125.0
 20
203.0
 11
125.0
 21
238.0
  0
LINE
  8
0
  6
CONTINUOUS
 62
     1
 10
90.202041029
 20
203.0
 11
109.797958971
 21
203.0
  0
LINE
  8
0
  6
CONTINUOUS
 62
     1
 10
77.0
 20
185.0
 11
90.202041029
 21
185.0
  0
LINE
  8
0
  6
CONTINUOUS
 62
     1
 10
109.797958971
 20
185.0
 11
123.0
 21
185.0
  0
LINE
  8
0
  6
CONTINUOUS
 62
     1
 10
90.202041029
 20
185.0
 11
90.202041029
 21
203.0
  0
LINE
  8
0
  6
CONTINUOUS
 62
     1
 10
109.797958971
 20
203.0
 11
109.797958971
 21
185.0
  0
ARC
  8
0
  6
CONTINUOUS
 62
     1
 10
100.0
 20
208.0
 40
25.0
 50
246.926081934
 51
293.073918066
  0
LINE
  8
0
  6
CONTINUOUS
 62
     2
 10
91.619365609
 20
184.446550843
 11
109.797958971
 21
203.0
  0
LINE
  8
0
  6
CONTINUOUS
 62
     2
 10
108.380634391
 20
184.446550843
 11
90.202041029
 21
203.0
  0
LINE
  8
4
  6
CONTINUOUS
 62
     1
 10
92.0
 20
259.5
 11
108.0
 21
259.5
  0
LINE
  8
4
  6
CONTINUOUS
 62
     1
 10
89.5
 20
248.5
 11
110.5
 21
248.5
  0
ARC
  8
4
  6
CONTINUOUS
 62
     1
 10
108.0
 20
248.3975
 40
2.1025
 50
2.794362055
 51
177.205637945
  0
LINE
  8
4
  6
CONTINUOUS
 62
     1
 10
108.0
 20
259.5
 11
108.0
 21
250.5
  0
LINE
  8
4
  6
LTYPE3
 62
     2
 10
108.0
 20
250.5
 11
108.0
 21
245.5
  0
ARC
  8
4
  6
CONTINUOUS
 62
     1
 10
92.0
 20
248.3975
 40
2.1025
 50
2.794362055
 51
177.205637945
  0
LINE
  8
4
  6
CONTINUOUS
 62
     1
 10
92.0
 20
259.5
 11
92.0
 21
250.5
  0
LINE
  8
4
  6
LTYPE3
 62
     2
 10
92.0
 20
250.5
 11
92.0
 21
245.5
  0
LINE
  8
4
  6
CONTINUOUS
 62
     1
 10
89.5
 20
248.5
 11
89.5
 21
248.0
  0
LINE
  8
4
  6
CONTINUOUS
 62
     1
 10
110.5
 20
248.5
 11
110.5
 21
248.0
  0
LINE
  8
0
  6
CONTINUOUS
 62
     1
 10
108.331
 20
180.0
 11
91.669
 21
180.0
  0
LINE
  8
0
  6
CONTINUOUS
 62
     1
 10
92.525
 20
163.0
 11
91.669
 21
163.856
  0
LINE
  8
0
  6
CONTINUOUS
 62
     1
 10
108.331
 20
163.856
 11
108.331
 21
180.0
  0
LINE
  8
0
  6
CONTINUOUS
 62
     1
 10
107.475
 20
163.0
 11
108.331
 21
163.856
  0
LINE
  8
0
  6
CONTINUOUS
 62
     1
 10
91.669
 20
180.0
 11
91.669
 21
163.856
  0
LINE
  8
0
  6
LTYPE3
 62
     2
 10
100.0
 20
264.5
 11
100.0
 21
155.0
  0
LINE
  8
0
  6
CONTINUOUS
 62
     1
 10
97.5
 20
163.0
 11
97.5
 21
160.0
  0
LINE
  8
0
  6
CONTINUOUS
 62
     1
 10
97.5
 20
160.0
 11
102.5
 21
160.0
  0
LINE
  8
0
  6
CONTINUOUS
 62
     1
 10
102.5
 20
160.0
 11
102.5
 21
163.0
  0
ARC
  8
0
  6
CONTINUOUS
 62
     1
 10
91.669
 20
181.5
 40
1.5
 50
270.0
 51
90.0
  0
ARC
  8
0
  6
CONTINUOUS
 62
     1
 10
108.331
 20
181.5
 40
1.5
 50
90.0
 51
270.0
  0
LINE
  8
0
  6
CONTINUOUS
 62
     2
 10
92.525
 20
163.0
 11
92.525
 21
180.268227294
  0
LINE
  8
0
  6
CONTINUOUS
 62
     2
 10
107.475
 20
163.0
 11
107.475
 21
180.268227294
  0
POLYLINE
  8
0
  6
CONTINUOUS
 62
     1
 66
     1
 70
     1
  0
VERTEX
  8
0
  6
CONTINUOUS
 62
     1
 10
82.32233047
 20
205.5
 42
0.030828907
  0
VERTEX
  8
0
  6
CONTINUOUS
 62
     1
 10
82.045002595
 20
205.482876141
 42
0.030425797
  0
VERTEX
  8
0
  6
CONTINUOUS
 62
     1
 10
81.769785352
 20
205.431634889
 42
0.029607756
  0
VERTEX
  8
0
  6
CONTINUOUS
 62
     1
 10
81.498773312
 20
205.346666218
 42
0.028462655
  0
VERTEX
  8
0
  6
CONTINUOUS
 62
     1
 10
81.234029038
 20
205.228616794
 42
0.02709878
  0
VERTEX
  8
0
  6
CONTINUOUS
 62
     1
 10
80.977567396
 20
205.078385042
 42
0.025623927
  0
VERTEX
  8
0
  6
CONTINUOUS
 62
     1
 10
80.731340213
 20
204.897114317
 42
0.024130573
  0
VERTEX
  8
0
  6
CONTINUOUS
 62
     1
 10
80.497221426
 20
204.686184199
 42
0.022689019
  0
VERTEX
  8
0
  6
CONTINUOUS
 62
     1
 10
80.276992821
 20
204.447199994
 42
0.021347012
  0
VERTEX
  8
0
  6
CONTINUOUS
 62
     1
 10
80.07233047
 20
204.181980515
 42
0.020133139
  0
VERTEX
  8
0
  6
CONTINUOUS
 62
     1
 10
79.884791978
 20
203.892544244
 42
0.019061584
  0
VERTEX
  8
0
  6
CONTINUOUS
 62
     1
 10
79.715804626
 20
203.581093964
 42
0.018136748
  0
VERTEX
  8
0
  6
CONTINUOUS
 62
     1
 10
79.56665451
 20
203.25
 42
0.017357048
  0
VERTEX
  8
0
  6
CONTINUOUS
 62
     1
 10
79.438476751
 20
202.901782178
 42
0.016717738
  0
VERTEX
  8
0
  6
CONTINUOUS
 62
     1
 10
79.332246861
 20
202.539090645
 42
0.016212869
  0
VERTEX
  8
0
  6
CONTINUOUS
 62
     1
 10
79.248773312
 20
202.164685703
 42
0.015836575
  0
VERTEX
  8
0
  6
CONTINUOUS
 62
     1
 10
79.188691389
 20
201.7814168
 42
0.015583879
  0
VERTEX
  8
0
  6
CONTINUOUS
 62
     1
 10
79.152458352
 20
201.392200842
 42
0.01545117
  0
VERTEX
  8
0
  6
CONTINUOUS
 62
     1
 10
79.140349955
 20
201.0
 42
0.015436471
  0
VERTEX
  8
0
  6
CONTINUOUS
 62
     1
 10
79.152458352
 20
200.607799158
 42
0.01553956
  0
VERTEX
  8
0
  6
CONTINUOUS
 62
     1
 10
79.188691389
 20
200.2185832
 42
0.015761981
  0
VERTEX
  8
0
  6
CONTINUOUS
 62
     1
 10
79.248773312
 20
199.835314297
 42
0.016106956
  0
VERTEX
  8
0
  6
CONTINUOUS
 62
     1
 10
79.332246861
 20
199.460909355
 42
0.016579155
  0
VERTEX
  8
0
  6
CONTINUOUS
 62
     1
 10
79.438476751
 20
199.098217822
 42
0.017184283
  0
VERTEX
  8
0
  6
CONTINUOUS
 62
     1
 10
79.56665451
 20
198.75
 42
0.017928366
  0
VERTEX
  8
0
  6
CONTINUOUS
 62
     1
 10
79.715804626
 20
198.418906036
 42
0.018816605
  0
VERTEX
  8
0
  6
CONTINUOUS
 62
     1
 10
79.884791978
 20
198.107455756
 42
0.019851601
  0
VERTEX
  8
0
  6
CONTINUOUS
 62
     1
 10
80.07233047
 20
197.818019485
 42
0.021030768
  0
VERTEX
  8
0
  6
CONTINUOUS
 62
     1
 10
80.276992821
 20
197.552800006
 42
0.022342775
  0
VERTEX
  8
0
  6
CONTINUOUS
 62
     1
 10
80.497221426
 20
197.313815801
 42
0.023763095
  0
VERTEX
  8
0
  6
CONTINUOUS
 62
     1
 10
80.731340213
 20
197.102885683
 42
0.025249176
  0
VERTEX
  8
0
  6
CONTINUOUS
 62
     1
 10
80.977567396
 20
196.921614958
 42
0.026736517
  0
VERTEX
  8
0
  6
CONTINUOUS
 62
     1
 10
81.234029038
 20
196.771383206
 42
0.028137835
  0
VERTEX
  8
0
  6
CONTINUOUS
 62
     1
 10
81.498773312
 20
196.653333782
 42
0.029348088
  0
VERTEX
  8
0
  6
CONTINUOUS
 62
     1
 10
81.769785352
 20
196.568365111
 42
0.030257315
  0
VERTEX
  8
0
  6
CONTINUOUS
 62
     1
 10
82.045002595
 20
196.517123859
 42
0.030770446
  0
VERTEX
  8
0
  6
CONTINUOUS
 62
     1
 10
82.32233047
 20
196.5
 42
0.030828907
  0
VERTEX
  8
0
  6
CONTINUOUS
 62
     1
 10
82.599658346
 20
196.517123859
 42
0.030425797
  0
VERTEX
  8
0
  6
CONTINUOUS
 62
     1
 10
82.874875588
 20
196.568365111
 42
0.029607756
  0
VERTEX
  8
0
  6
CONTINUOUS
 62
     1
 10
83.145887629
 20
196.653333782
 42
0.028462655
  0
VERTEX
  8
0
  6
CONTINUOUS
 62
     1
 10
83.410631902
 20
196.771383206
 42
0.02709878
  0
VERTEX
  8
0
  6
CONTINUOUS
 62
     1
 10
83.667093545
 20
196.921614958
 42
0.025623927
  0
VERTEX
  8
0
  6
CONTINUOUS
 62
     1
 10
83.913320728
 20
197.102885683
 42
0.024130573
  0
VERTEX
  8
0
  6
CONTINUOUS
 62
     1
 10
84.147439515
 20
197.313815801
 42
0.022689019
  0
VERTEX
  8
0
  6
CONTINUOUS
 62
     1
 10
84.36766812
 20
197.552800006
 42
0.021347012
  0
VERTEX
  8
0
  6
CONTINUOUS
 62
     1
 10
84.57233047
 20
197.818019485
 42
0.020133139
  0
VERTEX
  8
0
  6
CONTINUOUS
 62
     1
 10
84.759868962
 20
198.107455756
 42
0.019061584
  0
VERTEX
  8
0
  6
CONTINUOUS
 62
     1
 10
84.928856314
 20
198.418906036
 42
0.018136748
  0
VERTEX
  8
0
  6
CONTINUOUS
 62
     1
 10
85.078006431
 20
198.75
 42
0.017357048
  0
VERTEX
  8
0
  6
CONTINUOUS
 62
     1
 10
85.20618419
 20
199.098217822
 42
0.016717738
  0
VERTEX
  8
0
  6
CONTINUOUS
 62
     1
 10
85.31241408
 20
199.460909355
 42
0.016212869
  0
VERTEX
  8
0
  6
CONTINUOUS
 62
     1
 10
85.395887629
 20
199.835314297
 42
0.015836575
  0
VERTEX
  8
0
  6
CONTINUOUS
 62
     1
 10
85.455969552
 20
200.2185832
 42
0.015583879
  0
VERTEX
  8
0
  6
CONTINUOUS
 62
     1
 10
85.492202589
 20
200.607799158
 42
0.01545117
  0
VERTEX
  8
0
  6
CONTINUOUS
 62
     1
 10
85.504310986
 20
201.0
 42
0.015436471
  0
VERTEX
  8
0
  6
CONTINUOUS
 62
     1
 10
85.492202589
 20
201.392200842
 42
0.01553956
  0
VERTEX
  8
0
  6
CONTINUOUS
 62
     1
 10
85.455969552
 20
201.7814168
 42
0.015761981
  0
VERTEX
  8
0
  6
CONTINUOUS
 62
     1
 10
85.395887629
 20
202.164685703
 42
0.016106956
  0
VERTEX
  8
0
  6
CONTINUOUS
 62
     1
 10
85.31241408
 20
202.539090645
 42
0.016579155
  0
VERTEX
  8
0
  6
CONTINUOUS
 62
     1
 10
85.20618419
 20
202.901782178
 42
0.017184283
  0
VERTEX
  8
0
  6
CONTINUOUS
 62
     1
 10
85.078006431
 20
203.25
 42
0.017928366
  0
VERTEX
  8
0
  6
CONTINUOUS
 62
     1
 10
84.928856314
 20
203.581093964
 42
0.018816605
  0
VERTEX
  8
0
  6
CONTINUOUS
 62
     1
 10
84.759868962
 20
203.892544244
 42
0.019851601
  0
VERTEX
  8
0
  6
CONTINUOUS
 62
     1
 10
84.57233047
 20
204.181980515
 42
0.021030768
  0
VERTEX
  8
0
  6
CONTINUOUS
 62
     1
 10
84.36766812
 20
204.447199994
 42
0.022342775
  0
VERTEX
  8
0
  6
CONTINUOUS
 62
     1
 10
84.147439515
 20
204.686184199
 42
0.023763095
  0
VERTEX
  8
0
  6
CONTINUOUS
 62
     1
 10
83.913320728
 20
204.897114317
 42
0.025249176
  0
VERTEX
  8
0
  6
CONTINUOUS
 62
     1
 10
83.667093545
 20
205.078385042
 42
0.026736517
  0
VERTEX
  8
0
  6
CONTINUOUS
 62
     1
 10
83.410631902
 20
205.228616794
 42
0.028137835
  0
VERTEX
  8
0
  6
CONTINUOUS
 62
     1
 10
83.145887629
 20
205.346666218
 42
0.029348088
  0
VERTEX
  8
0
  6
CONTINUOUS
 62
     1
 10
82.874875588
 20
205.431634889
 42
0.030257315
  0
VERTEX
  8
0
  6
CONTINUOUS
 62
     1
 10
82.599658346
 20
205.482876141
 42
0.030770446
  0
SEQEND
  8
0
  6
CONTINUOUS
 62
     1
  0
LINE
  8
0
  6
CONTINUOUS
 62
     1
 10
80.842364709
 20
198.313230131
 11
81.699686119
 21
198.313230131
  0
POLYLINE
  8
0
  6
CONTINUOUS
 62
     1
 66
     1
  0
VERTEX
  8
0
  6
CONTINUOUS
 62
     1
 10
81.271025414
 20
197.707012349
 42
0.022456436
  0
VERTEX
  8
0
  6
CONTINUOUS
 62
     1
 10
81.48021908
 20
197.486315897
 42
0.023877269
  0
VERTEX
  8
0
  6
CONTINUOUS
 62
     1
 10
81.70216388
 20
197.292120337
 42
0.02535481
  0
VERTEX
  8
0
  6
CONTINUOUS
 62
     1
 10
81.935185863
 20
197.12589033
 42
0.026822316
  0
VERTEX
  8
0
  6
CONTINUOUS
 62
     1
 10
82.17752753
 20
196.988879615
 42
0.028191063
  0
VERTEX
  8
0
  6
CONTINUOUS
 62
     1
 10
82.427361095
 20
196.882121554
 42
0.029356252
  0
VERTEX
  8
0
  6
CONTINUOUS
 62
     1
 10
82.682802263
 20
196.806421336
 42
0.030210601
  0
VERTEX
  8
0
  6
CONTINUOUS
 62
     1
 10
82.941924448
 20
196.762349908
 42
0.030664265
  0
VERTEX
  8
0
  6
CONTINUOUS
 62
     1
 10
83.202773299
 20
196.750239665
 42
0.030665536
  0
VERTEX
  8
0
  6
CONTINUOUS
 62
     1
 10
83.463381442
 20
196.770181945
 42
0.030214264
  0
VERTEX
  8
0
  6
CONTINUOUS
 62
     1
 10
83.721783322
 20
196.822026338
 42
0.0293619
  0
VERTEX
  8
0
  6
CONTINUOUS
 62
     1
 10
83.97603002
 20
196.905381825
 42
0.028198136
  0
VERTEX
  8
0
  6
CONTINUOUS
 62
     1
 10
84.224203957
 20
197.019619723
 42
0.026830213
  0
VERTEX
  8
0
  6
CONTINUOUS
 62
     1
 10
84.464433358
 20
197.163878426
 42
0.025362989
  0
VERTEX
  8
0
  6
CONTINUOUS
 62
     1
 10
84.694906366
 20
197.337069908
 42
0.023885299
  0
VERTEX
  8
0
  6
CONTINUOUS
 62
     1
 10
84.913884708
 20
197.537887924
 42
0.022464012
  0
VERTEX
  8
0
  6
CONTINUOUS
 62
     1
 10
85.119716806
 20
197.764817865
 42
0.021144138
  0
VERTEX
  8
0
  6
CONTINUOUS
 62
     1
 10
85.310850235
 20
198.016148183
 42
0.019952336
  0
VERTEX
  8
0
  6
CONTINUOUS
 62
     1
 10
85.485843429
 20
198.289983293
 42
0.018901585
  0
VERTEX
  8
0
  6
CONTINUOUS
 62
     1
 10
85.643376556
 20
198.584257879
 42
0.01799563
  0
VERTEX
  8
0
  6
CONTINUOUS
 62
     1
 10
85.782261469
 20
198.896752464
 42
0.017232603
  0
VERTEX
  8
0
  6
CONTINUOUS
 62
     1
 10
85.901450671
 20
199.225110153
 42
0.016607709
  0
VERTEX
  8
0
  6
CONTINUOUS
 62
     1
 10
86.000045215
 20
199.566854408
 42
0.016115079
  0
VERTEX
  8
0
  6
CONTINUOUS
 62
     1
 10
86.07730148
 20
199.919407727
 42
0.015748983
  0
VERTEX
  8
0
  6
CONTINUOUS
 62
     1
 10
86.132636786
 20
200.280111084
 42
0.015504597
  0
VERTEX
  8
0
  6
CONTINUOUS
 62
     1
 10
86.165633781
 20
200.646243984
 42
0.015378449
  0
VERTEX
  8
0
  6
CONTINUOUS
 62
     1
 10
86.176043598
 20
201.015044981
 42
0.015368675
  0
VERTEX
  8
0
  6
CONTINUOUS
 62
     1
 10
86.163787722
 20
201.383732506
 42
0.015475129
  0
VERTEX
  8
0
  6
CONTINUOUS
 62
     1
 10
86.12895859
 20
201.749525845
 42
0.015699391
  0
VERTEX
  8
0
  6
CONTINUOUS
 62
     1
 10
86.07181889
 20
202.109666113
 42
0.016044673
  0
VERTEX
  8
0
  6
CONTINUOUS
 62
     1
 10
85.992799581
 20
202.461437064
 42
0.016515598
  0
VERTEX
  8
0
  6
CONTINUOUS
 62
     1
 10
85.892496641
 20
202.80218557
 42
0.017117785
  0
VERTEX
  8
0
  6
CONTINUOUS
 62
     1
 10
85.771666576
 20
203.129341641
 42
0.017857152
  0
VERTEX
  8
0
  6
CONTINUOUS
 62
     1
 10
85.631220709
 20
203.440437801
 42
0.018738784
  0
VERTEX
  8
0
  6
CONTINUOUS
 62
     1
 10
85.472218311
 20
203.733127702
 42
0.019765206
  0
VERTEX
  8
0
  6
CONTINUOUS
 62
     1
 10
85.295858608
 20
204.00520382
 42
0.020933846
  0
VERTEX
  8
0
  6
CONTINUOUS
 62
     1
 10
85.10347174
 20
204.254614104
 42
0.022233575
  0
VERTEX
  8
0
  6
CONTINUOUS
 62
     1
 10
84.896508726
 20
204.479477452
 42
0.023640371
  0
VERTEX
  8
0
  6
CONTINUOUS
 62
     1
 10
84.676530521
 20
204.678097902
 42
0.025112618
  0
VERTEX
  8
0
  6
CONTINUOUS
 62
     1
 10
84.445196245
 20
204.848977419
 42
0.026587264
  0
VERTEX
  8
0
  6
CONTINUOUS
 62
     1
 10
84.204250666
 20
204.990827196
 42
0.027978955
  0
VERTEX
  8
0
  6
CONTINUOUS
 62
     1
 10
83.955511041
 20
205.102577375
 42
0.029184793
  0
VERTEX
  8
0
  6
CONTINUOUS
 62
     1
 10
83.700853415
 20
205.183385114
 42
0.030096665
  0
VERTEX
  8
0
  6
CONTINUOUS
 62
     1
 10
83.442198465
 20
205.232640944
 42
0.030620397
  0
VERTEX
  8
0
  6
CONTINUOUS
 62
     1
 10
83.181497016
 20
205.24997337
 42
0.030696858
  0
VERTEX
  8
0
  6
CONTINUOUS
 62
     1
 10
82.92071533
 20
205.235251667
 42
0.030317102
  0
VERTEX
  8
0
  6
CONTINUOUS
 62
     1
 10
82.661820274
 20
205.188586868
 42
0.029524775
  0
VERTEX
  8
0
  6
CONTINUOUS
 62
     1
 10
82.406764484
 20
205.110330928
 42
0.028404652
  0
VERTEX
  8
0
  6
CONTINUOUS
 62
     1
 10
82.157471641
 20
205.00107407
 42
0.027062583
  0
VERTEX
  8
0
  6
CONTINUOUS
 62
     1
 10
81.915821961
 20
204.861640329
 42
0.025604951
  0
VERTEX
  8
0
  6
CONTINUOUS
 62
     1
 10
81.683638013
 20
204.693081343
 42
0.024123801
  0
VERTEX
  8
0
  6
CONTINUOUS
 62
     1
 10
81.462670973
 20
204.496668415
 42
0.022689703
  0
VERTEX
  8
0
  6
CONTINUOUS
 62
     1
 10
81.254587417
 20
204.273882931
 42
0.02135105
  0
VERTEX
  8
0
  6
CONTINUOUS
 62
     1
 10
81.060956754
 20
204.026405183
 42
0.020137183
  0
VERTEX
  8
0
  6
CONTINUOUS
 62
     1
 10
80.883239382
 20
203.756101695
 42
0.019062991
  0
VERTEX
  8
0
  6
CONTINUOUS
 62
     1
 10
80.722775681
 20
203.46501115
 42
0.018133451
  0
VERTEX
  8
0
  6
CONTINUOUS
 62
     1
 10
80.580775901
 20
203.15532901
 42
0.017347403
  0
VERTEX
  8
0
  6
CONTINUOUS
 62
     1
 10
80.458311029
 20
202.829390956
 42
0.016700384
  0
VERTEX
  8
0
  6
CONTINUOUS
 62
     1
 10
80.356304722
 20
202.489655279
 42
0.016186601
  0
VERTEX
  8
0
  6
CONTINUOUS
 62
     1
 10
80.27552633
 20
202.138684331
 42
0.01580024
  0
VERTEX
  8
0
  6
CONTINUOUS
 62
     1
 10
80.2165851
 20
201.779125203
 42
0.015536292
  0
VERTEX
  8
0
  6
CONTINUOUS
 62
     1
 10
80.179925578
 20
201.41368976
 42
0.015391043
  0
VERTEX
  8
0
  6
CONTINUOUS
 62
     1
 10
80.165824256
 20
201.045134189
 42
0.015362357
  0
VERTEX
  8
0
  6
CONTINUOUS
 62
     1
 10
80.174387492
 20
200.676238206
 42
0.015449804
  0
VERTEX
  8
0
  6
CONTINUOUS
 62
     1
 10
80.205550697
 20
200.309784099
 42
0.015654685
  0
VERTEX
  8
0
  6
CONTINUOUS
 62
     1
 10
80.259078834
 20
199.948535734
 42
0.015979959
  0
VERTEX
  8
0
  6
CONTINUOUS
 62
     1
 10
80.334568184
 20
199.595217718
 42
0.016430041
  0
VERTEX
  8
0
  6
CONTINUOUS
 62
     1
 10
80.431449389
 20
199.252494845
 42
0.017010427
  0
VERTEX
  8
0
  6
CONTINUOUS
 62
     1
 10
80.548991754
 20
198.922951997
 42
0.017727048
  0
VERTEX
  8
0
  6
CONTINUOUS
 62
     1
 10
80.686308751
 20
198.609074651
 42
0.018585225
  0
VERTEX
  8
0
  6
CONTINUOUS
 62
     1
 10
80.842364709
 20
198.313230131
 42
1.812270361
  0
VERTEX
  8
0
  6
CONTINUOUS
 62
     1
 10
80.842364709
 20
198.313230131
  0
SEQEND
  8
0
  6
CONTINUOUS
 62
     1
  0
LINE
  8
0
  6
CONTINUOUS
 62
     1
 10
80.842364709
 20
198.313230131
 11
84.772448963
 21
203.871208585
  0
LINE
  8
0
  6
CONTINUOUS
 62
     1
 10
81.271025414
 20
197.707012349
 11
85.118399611
 21
203.148021117
  0
LINE
  8
0
  6
LTYPE3
 62
     2
 10
82.32233047
 20
208.0
 11
82.32233047
 21
194.0
  0
LINE
  8
0
  6
LTYPE3
 62
     2
 10
77.32233047
 20
201.0
 11
87.32233047
 21
201.0
  0
POLYLINE
  8
0
  6
CONTINUOUS
 62
     2
 66
     1
  0
VERTEX
  8
0
  6
CONTINUOUS
 62
     2
 10
91.669
 20
170.5
  0
VERTEX
  8
0
  6
CONTINUOUS
 62
     2
 10
92.6154
 20
170.288
  0
VERTEX
  8
0
  6
CONTINUOUS
 62
     2
 10
93.5602
 20
170.084
  0
VERTEX
  8
0
  6
CONTINUOUS
 62
     2
 10
94.5018
 20
169.896
  0
VERTEX
  8
0
  6
CONTINUOUS
 62
     2
 10
95.4386
 20
169.732
  0
VERTEX
  8
0
  6
CONTINUOUS
 62
     2
 10
96.369
 20
169.6
  0
VERTEX
  8
0
  6
CONTINUOUS
 62
     2
 10
97.3266
 20
169.5976
  0
VERTEX
  8
0
  6
CONTINUOUS
 62
     2
 10
98.2658
 20
169.6208
  0
VERTEX
  8
0
  6
CONTINUOUS
 62
     2
 10
99.1762
 20
169.6552
  0
VERTEX
  8
0
  6
CONTINUOUS
 62
     2
 10
100.0474
 20
169.6864
  0
VERTEX
  8
0
  6
CONTINUOUS
 62
     2
 10
100.869
 20
169.7
  0
VERTEX
  8
0
  6
CONTINUOUS
 62
     2
 10
101.557
 20
169.592
  0
VERTEX
  8
0
  6
CONTINUOUS
 62
     2
 10
102.193
 20
169.46
  0
VERTEX
  8
0
  6
CONTINUOUS
 62
     2
 10
102.785
 20
169.312
  0
VERTEX
  8
0
  6
CONTINUOUS
 62
     2
 10
103.341
 20
169.156
  0
VERTEX
  8
0
  6
CONTINUOUS
 62
     2
 10
103.869
 20
169.0
  0
VERTEX
  8
0
  6
CONTINUOUS
 62
     2
 10
104.410216
 20
168.8904
  0
VERTEX
  8
0
  6
CONTINUOUS
 62
     2
 10
104.931128
 20
168.7872
  0
VERTEX
  8
0
  6
CONTINUOUS
 62
     2
 10
105.431432
 20
168.6888
  0
VERTEX
  8
0
  6
CONTINUOUS
 62
     2
 10
105.910824
 20
168.5936
  0
VERTEX
  8
0
  6
CONTINUOUS
 62
     2
 10
106.369
 20
168.5
  0
VERTEX
  8
0
  6
CONTINUOUS
 62
     2
 10
106.787224
 20
168.4
  0
VERTEX
  8
0
  6
CONTINUOUS
 62
     2
 10
107.188232
 20
168.3
  0
VERTEX
  8
0
  6
CONTINUOUS
 62
     2
 10
107.576328
 20
168.2
  0
VERTEX
  8
0
  6
CONTINUOUS
 62
     2
 10
107.955816
 20
168.1
  0
VERTEX
  8
0
  6
CONTINUOUS
 62
     2
 10
108.331
 20
168.0
  0
SEQEND
  0
LINE
  8
0
  6
CONTINUOUS
 62
     1
 10
102.5
 20
163.0
 11
107.475
 21
163.0
  0
LINE
  8
0
  6
CONTINUOUS
 62
     1
 10
92.525
 20
163.0
 11
97.5
 21
163.0
  0
LINE
  8
0
  6
CONTINUOUS
 62
     1
 10
101.5
 20
169.600947674
 11
101.5
 21
160.0
  0
LINE
  8
0
  6
CONTINUOUS
 62
     1
 10
98.5
 20
169.629649385
 11
98.5
 21
160.0
  0
LINE
  8
5
  6
CONTINUOUS
 62
     2
 10
75.0
 20
247.0
 11
75.0
 21
270.5
  0
LINE
  8
5
  6
CONTINUOUS
 62
     2
 10
75.0
 20
269.5
 11
77.414814566
 21
268.852952387
  0
LINE
  8
5
  6
CONTINUOUS
 62
     2
 10
75.0
 20
269.5
 11
77.414814566
 21
270.147047613
  0
LINE
  8
5
  6
CONTINUOUS
 62
     2
 10
75.0
 20
269.5
 11
125.0
 21
269.5
  0
LINE
  8
5
  6
CONTINUOUS
 62
     2
 10
125.0
 20
269.5
 11
122.585185434
 21
270.147047613
  0
LINE
  8
5
  6
CONTINUOUS
 62
     2
 10
125.0
 20
269.5
 11
122.585185434
 21
268.852952387
  0
LINE
  8
5
  6
CONTINUOUS
 62
     2
 10
125.0
 20
247.0
 11
125.0
 21
270.5
  0
TEXT
  8
5
  6
CONTINUOUS
 62
     5
 10
94.65
 20
270.5
 30
0.1
 40
4.0
  1
φ５０
 50
0.0
 41
0.875
 51
0.0
  7
KANJI11
  0
LINE
  8
5
  6
CONTINUOUS
 62
     2
 10
97.5
 20
159.0
 11
97.5
 21
144.0
  0
LINE
  8
5
  6
CONTINUOUS
 62
     2
 10
97.5
 20
145.0
 11
95.085185434
 21
145.647047613
  0
LINE
  8
5
  6
CONTINUOUS
 62
     2
 10
97.5
 20
145.0
 11
95.085185434
 21
144.352952387
  0
LINE
  8
5
  6
CONTINUOUS
 62
     2
 10
93.75
 20
145.0
 11
97.5
 21
145.0
  0
LINE
  8
5
  6
CONTINUOUS
 62
     2
 10
97.5
 20
145.0
 11
102.5
 21
145.0
  0
LINE
  8
5
  6
CONTINUOUS
 62
     2
 10
102.5
 20
145.0
 11
113.35
 21
145.0
  0
LINE
  8
5
  6
CONTINUOUS
 62
     2
 10
102.5
 20
145.0
 11
104.914814566
 21
144.352952387
  0
LINE
  8
5
  6
CONTINUOUS
 62
     2
 10
102.5
 20
145.0
 11
104.914814566
 21
145.647047613
  0
LINE
  8
5
  6
CONTINUOUS
 62
     2
 10
102.5
 20
159.0
 11
102.5
 21
144.0
  0
TEXT
  8
5
  6
CONTINUOUS
 62
     5
 10
106.25
 20
146.0
 30
0.1
 40
4.0
  1
φ５
 50
0.0
 41
0.875
 51
0.0
  7
KANJI11
  0
LINE
  8
5
  6
CONTINUOUS
 62
     2
 10
126.0
 20
203.0
 11
141.0
 21
203.0
  0
LINE
  8
5
  6
CONTINUOUS
 62
     2
 10
140.0
 20
203.0
 11
139.352952387
 21
200.585185434
  0
LINE
  8
5
  6
CONTINUOUS
 62
     2
 10
140.0
 20
203.0
 11
140.647047613
 21
200.585185434
  0
LINE
  8
5
  6
CONTINUOUS
 62
     2
 10
140.0
 20
203.0
 11
140.0
 21
183.0
  0
LINE
  8
5
  6
CONTINUOUS
 62
     2
 10
140.0
 20
183.0
 11
140.647047613
 21
185.414814566
  0
LINE
  8
5
  6
CONTINUOUS
 62
     2
 10
140.0
 20
183.0
 11
139.352952387
 21
185.414814566
  0
LINE
  8
5
  6
CONTINUOUS
 62
     2
 10
124.0
 20
183.0
 11
141.0
 21
183.0
  0
TEXT
  8
5
  6
CONTINUOUS
 62
     5
 10
139.0
 20
189.45
 30
0.1
 40
4.0
  1
２０
 50
90.0
 41
0.875
 51
0.0
  7
KANJI11
  0
LINE
  8
5
  6
CONTINUOUS
 62
     2
 10
103.5
 20
160.0
 11
151.0
 21
160.0
  0
LINE
  8
5
  6
CONTINUOUS
 62
     2
 10
150.0
 20
160.0
 11
149.352952387
 21
157.585185434
  0
LINE
  8
5
  6
CONTINUOUS
 62
     2
 10
150.0
 20
160.0
 11
150.647047613
 21
157.585185434
  0
LINE
  8
5
  6
CONTINUOUS
 62
     2
 10
150.0
 20
152.75
 11
150.0
 21
160.0
  0
LINE
  8
5
  6
CONTINUOUS
 62
     2
 10
150.0
 20
160.0
 11
150.0
 21
163.0
  0
TEXT
  8
5
  6
CONTINUOUS
 62
     5
 10
149.0
 20
152.75
 30
0.1
 40
4.0
  1
３
 50
90.0
 41
0.875
 51
0.0
  7
KANJI11
  0
LINE
  8
5
  6
CONTINUOUS
 62
     2
 10
108.475
 20
163.0
 11
151.0
 21
163.0
  0
LINE
  8
5
  6
CONTINUOUS
 62
     2
 10
150.0
 20
163.0
 11
150.647047613
 21
165.414814566
  0
LINE
  8
5
  6
CONTINUOUS
 62
     2
 10
150.0
 20
163.0
 11
149.352952387
 21
165.414814566
  0
LINE
  8
5
  6
CONTINUOUS
 62
     2
 10
150.0
 20
163.0
 11
150.0
 21
183.0
  0
LINE
  8
5
  6
CONTINUOUS
 62
     2
 10
150.0
 20
183.0
 11
149.352952387
 21
180.585185434
  0
LINE
  8
5
  6
CONTINUOUS
 62
     2
 10
150.0
 20
183.0
 11
150.647047613
 21
180.585185434
  0
LINE
  8
5
  6
CONTINUOUS
 62
     2
 10
141.0
 20
183.0
 11
151.0
 21
183.0
  0
TEXT
  8
5
  6
CONTINUOUS
 62
     5
 10
149.0
 20
169.45
 30
0.1
 40
4.0
  1
２０
 50
90.0
 41
0.875
 51
0.0
  7
KANJI11
  0
LINE
  8
5
  6
CONTINUOUS
 62
     2
 10
150.0
 20
183.0
 11
150.647047613
 21
185.414814566
  0
LINE
  8
5
  6
CONTINUOUS
 62
     2
 10
150.0
 20
183.0
 11
149.352952387
 21
185.414814566
  0
LINE
  8
5
  6
CONTINUOUS
 62
     2
 10
150.0
 20
183.0
 11
150.0
 21
248.0
  0
LINE
  8
5
  6
CONTINUOUS
 62
     2
 10
150.0
 20
248.0
 11
149.352952387
 21
245.585185434
  0
LINE
  8
5
  6
CONTINUOUS
 62
     2
 10
150.0
 20
248.0
 11
150.647047613
 21
245.585185434
  0
LINE
  8
5
  6
CONTINUOUS
 62
     2
 10
124.0
 20
248.0
 11
151.0
 21
248.0
  0
TEXT
  8
5
  6
CONTINUOUS
 62
     5
 10
149.0
 20
211.95
 30
0.1
 40
4.0
  1
６５
 50
90.0
 41
0.875
 51
0.0
  7
KANJI11
  0
LINE
  8
5
  6
CONTINUOUS
 62
     2
 10
109.0
 20
259.5
 11
151.0
 21
259.5
  0
LINE
  8
5
  6
CONTINUOUS
 62
     2
 10
150.0
 20
259.5
 11
149.352952387
 21
257.085185434
  0
LINE
  8
5
  6
CONTINUOUS
 62
     2
 10
150.0
 20
259.5
 11
150.647047613
 21
257.085185434
  0
LINE
  8
5
  6
CONTINUOUS
 62
     2
 10
150.0
 20
259.5
 11
150.0
 21
248.0
  0
LINE
  8
5
  6
CONTINUOUS
 62
     2
 10
150.0
 20
248.0
 11
150.647047613
 21
250.414814566
  0
LINE
  8
5
  6
CONTINUOUS
 62
     2
 10
150.0
 20
248.0
 11
149.352952387
 21
250.414814566
  0
TEXT
  8
5
  6
CONTINUOUS
 62
     5
 10
149.0
 20
250.2
 30
0.1
 40
4.0
  1
１２
 50
90.0
 41
0.875
 51
0.0
  7
KANJI11
  0
LINE
  8
5
  6
CONTINUOUS
 62
     2
 10
151.0
 20
259.5
 11
161.0
 21
259.5
  0
LINE
  8
5
  6
CONTINUOUS
 62
     2
 10
160.0
 20
259.5
 11
159.352952387
 21
257.085185434
  0
LINE
  8
5
  6
CONTINUOUS
 62
     2
 10
160.0
 20
259.5
 11
160.647047613
 21
257.085185434
  0
LINE
  8
5
  6
CONTINUOUS
 62
     2
 10
160.0
 20
259.5
 11
160.0
 21
160.0
  0
LINE
  8
5
  6
CONTINUOUS
 62
     2
 10
160.0
 20
160.0
 11
160.647047613
 21
162.414814566
  0
LINE
  8
5
  6
CONTINUOUS
 62
     2
 10
160.0
 20
160.0
 11
159.352952387
 21
162.414814566
  0
LINE
  8
5
  6
CONTINUOUS
 62
     2
 10
151.0
 20
160.0
 11
161.0
 21
160.0
  0
TEXT
  8
5
  6
CONTINUOUS
 62
     5
 10
159.0
 20
204.4
 30
0.1
 40
4.0
  1
１００
 50
90.0
 41
0.875
 51
0.0
  7
KANJI11
  0
LINE
  8
5
  6
CONTINUOUS
 62
     2
 10
91.669
 20
175.0
 11
89.300835392
 21
174.198878043
  0
LINE
  8
5
  6
CONTINUOUS
 62
     2
 10
91.669
 20
175.0
 11
90.018670268
 21
173.12212573
  0
LINE
  8
5
  6
CONTINUOUS
 62
     2
 10
91.669
 20
175.0
 11
76.669
 21
165.0
  0
LINE
  8
5
  6
CONTINUOUS
 62
     2
 10
76.669
 20
165.0
 11
62.369
 21
165.0
  0
TEXT
  8
5
  6
CONTINUOUS
 62
     5
 10
62.369
 20
166.0
 30
0.1
 40
4.0
  1
Ｇ３／８
 50
0.0
 41
0.875
 51
0.0
  7
KANJI11
  0
LINE
  8
5
  6
CONTINUOUS
 62
     2
 10
67.32233047
 20
216.0
 11
45.82233047
 21
216.0
  0
TEXT
  8
5
  6
CONTINUOUS
 62
     5
 10
45.82233047
 20
217.0
 30
0.1
 40
4.0
  1
ドレンコック
 50
0.0
 41
0.875
 51
0.0
  7
KANJI11
  0
LINE
  8
5
  6
CONTINUOUS
 62
     2
 10
80.467100091
 20
202.85523038
 11
67.32233047
 21
216.0
  0
LINE
  8
5
  6
CONTINUOUS
 62
     2
 10
80.467100091
 20
202.85523038
 11
78.302036581
 21
204.10523038
  0
LINE
  8
5
  6
CONTINUOUS
 62
     2
 10
80.467100091
 20
202.85523038
 11
79.217100091
 21
205.020293889
  0
LINE
  8
0
  6
CONTINUOUS
 62
     1
 10
104.0
 20
163.0
 11
104.5
 21
163.5
  0
LINE
  8
0
  6
CONTINUOUS
 62
     1
 10
104.5
 20
163.5
 11
105.0
 21
163.0
  0
LINE
  8
0
  6
CONTINUOUS
 62
     1
 10
106.0
 20
163.0
 11
106.5
 21
163.5
  0
LINE
  8
0
  6
CONTINUOUS
 62
     1
 10
106.5
 20
163.5
 11
107.0
 21
163.0
  0
LINE
  8
0
  6
LTYPE3
 62
     2
 10
104.5
 20
165.5
 11
104.5
 21
161.0
  0
LINE
  8
0
  6
LTYPE3
 62
     2
 10
106.5
 20
165.5
 11
106.5
 21
161.0
  0
LINE
  8
0
  6
CONTINUOUS
 62
     1
 10
96.0
 20
163.0
 11
95.5
 21
163.5
  0
LINE
  8
0
  6
CONTINUOUS
 62
     1
 10
95.5
 20
163.5
 11
95.0
 21
163.0
  0
LINE
  8
0
  6
CONTINUOUS
 62
     1
 10
94.0
 20
163.0
 11
93.5
 21
163.5
  0
LINE
  8
0
  6
CONTINUOUS
 62
     1
 10
93.5
 20
163.5
 11
93.0
 21
163.0
  0
LINE
  8
0
  6
LTYPE3
 62
     2
 10
95.5
 20
165.5
 11
95.5
 21
161.0
  0
LINE
  8
0
  6
LTYPE3
 62
     2
 10
93.5
 20
165.5
 11
93.5
 21
161.0
  0
LINE
  8
5
  6
CONTINUOUS
 62
     2
 10
100.0
 20
160.0
 11
97.834936491
 21
158.75
  0
LINE
  8
5
  6
CONTINUOUS
 62
     2
 10
100.0
 20
160.0
 11
98.75
 21
157.834936491
  0
LINE
  8
5
  6
CONTINUOUS
 62
     2
 10
100.0
 20
160.0
 11
85.0
 21
145.0
  0
LINE
  8
5
  6
CONTINUOUS
 62
     2
 10
85.0
 20
145.0
 11
59.9
 21
145.0
  0
TEXT
  8
5
  6
CONTINUOUS
 62
     5
 10
59.9
 20
146.0
 30
0.1
 40
4.0
  1
φ３圧力導入部
 50
0.0
 41
0.875
 51
0.0
  7
KANJI11
  0
LINE
  8
5
  6
CONTINUOUS
 62
     2
 10
93.5
 20
163.0
 11
91.334936491
 21
161.75
  0
LINE
  8
5
  6
CONTINUOUS
 62
     2
 10
93.5
 20
163.0
 11
92.25
 21
160.834936491
  0
LINE
  8
5
  6
CONTINUOUS
 62
     2
 10
93.5
 20
163.0
 11
83.5
 21
153.0
  0
LINE
  8
5
  6
CONTINUOUS
 62
     2
 10
83.5
 20
153.0
 11
49.35
 21
153.0
  0
TEXT
  8
5
  6
CONTINUOUS
 62
     5
 10
49.35
 20
154.0
 30
0.1
 40
4.0
  1
２－Ｖ形溝深さ０．５
 50
0.0
 41
0.875
 51
0.0
  7
KANJI11
  0
ENDSEC
  0
EOF
