  0
SECTION
  2
HEADER
  9
$EXTMIN
 10
0.0
 20
0.0
 30
0.0
  9
$EXTMAX
 10
210.0
 20
148.5
 30
0.0
  9
$LIMMIN
 10
0.0
 20
0.0
  9
$LIMMAX
 10
210.0
 20
148.5
  9
$LTSCALE
 40
1.0
  9
$PDMODE
 70
     0
  0
ENDSEC
  0
SECTION
  2
TABLES
  0
TABLE
  2
LTYPE
 70
     4
  0
LTYPE
  2
CONTINUOUS
 70
    64
  3
Solid line
 72
    65
 73
     0
 40
0.0
  0
LTYPE
  2
LTYPE1
 70
    64
  3
HIDDEN
 72
    65
 73
     2
 40
1.0
 49
0.6
 49
-0.4
  0
LTYPE
  2
LTYPE2
 70
    64
  3
PHANTOM
 72
    65
 73
     6
 40
5.0
 49
3.75
 49
-0.25
 49
0.25
 49
-0.25
 49
0.25
 49
-0.25
  0
LTYPE
  2
LTYPE3
 70
    64
  3
CENTER
 72
    65
 73
     4
 40
5.0
 49
3.5
 49
-0.5
 49
0.5
 49
-0.5
  0
ENDTAB
  0
TABLE
  2
LAYER
 70
   128
  0
LAYER
  2
0
 70
     0
 62
     7
  6
CONTINUOUS
  0
LAYER
  2
2
 70
     0
 62
     7
  6
CONTINUOUS
  0
LAYER
  2
3
 70
     0
 62
     7
  6
CONTINUOUS
  0
LAYER
  2
4
 70
     0
 62
     7
  6
CONTINUOUS
  0
LAYER
  2
5
 70
     0
 62
     7
  6
CONTINUOUS
  0
LAYER
  2
6
 70
     0
 62
     7
  6
CONTINUOUS
  0
LAYER
  2
7
 70
     0
 62
     7
  6
CONTINUOUS
  0
LAYER
  2
8
 70
     0
 62
     7
  6
CONTINUOUS
  0
LAYER
  2
9
 70
     0
 62
     7
  6
CONTINUOUS
  0
LAYER
  2
10
 70
     0
 62
     7
  6
CONTINUOUS
  0
LAYER
  2
11
 70
     0
 62
     7
  6
CONTINUOUS
  0
LAYER
  2
12
 70
     0
 62
     7
  6
CONTINUOUS
  0
LAYER
  2
13
 70
     0
 62
     7
  6
CONTINUOUS
  0
LAYER
  2
14
 70
     0
 62
     7
  6
CONTINUOUS
  0
LAYER
  2
15
 70
     0
 62
     7
  6
CONTINUOUS
  0
LAYER
  2
16
 70
     0
 62
     7
  6
CONTINUOUS
  0
LAYER
  2
17
 70
     0
 62
     7
  6
CONTINUOUS
  0
LAYER
  2
18
 70
     0
 62
     7
  6
CONTINUOUS
  0
LAYER
  2
19
 70
     0
 62
     7
  6
CONTINUOUS
  0
LAYER
  2
20
 70
     0
 62
     7
  6
CONTINUOUS
  0
LAYER
  2
21
 70
     0
 62
     7
  6
CONTINUOUS
  0
LAYER
  2
22
 70
     0
 62
     7
  6
CONTINUOUS
  0
LAYER
  2
23
 70
     0
 62
     7
  6
CONTINUOUS
  0
LAYER
  2
24
 70
     0
 62
     7
  6
CONTINUOUS
  0
LAYER
  2
25
 70
     0
 62
     7
  6
CONTINUOUS
  0
LAYER
  2
26
 70
     0
 62
     7
  6
CONTINUOUS
  0
LAYER
  2
27
 70
     0
 62
     7
  6
CONTINUOUS
  0
LAYER
  2
28
 70
     0
 62
     7
  6
CONTINUOUS
  0
LAYER
  2
29
 70
     0
 62
     7
  6
CONTINUOUS
  0
LAYER
  2
30
 70
     0
 62
     7
  6
CONTINUOUS
  0
LAYER
  2
31
 70
     0
 62
     7
  6
CONTINUOUS
  0
LAYER
  2
32
 70
     0
 62
     7
  6
CONTINUOUS
  0
LAYER
  2
33
 70
     0
 62
     7
  6
CONTINUOUS
  0
LAYER
  2
34
 70
     0
 62
     7
  6
CONTINUOUS
  0
LAYER
  2
35
 70
     0
 62
     7
  6
CONTINUOUS
  0
LAYER
  2
36
 70
     0
 62
     7
  6
CONTINUOUS
  0
LAYER
  2
37
 70
     0
 62
     7
  6
CONTINUOUS
  0
LAYER
  2
38
 70
     0
 62
     7
  6
CONTINUOUS
  0
LAYER
  2
39
 70
     0
 62
     7
  6
CONTINUOUS
  0
LAYER
  2
40
 70
     0
 62
     7
  6
CONTINUOUS
  0
LAYER
  2
41
 70
     0
 62
     7
  6
CONTINUOUS
  0
LAYER
  2
42
 70
     0
 62
     7
  6
CONTINUOUS
  0
LAYER
  2
43
 70
     0
 62
     7
  6
CONTINUOUS
  0
LAYER
  2
44
 70
     0
 62
     7
  6
CONTINUOUS
  0
LAYER
  2
45
 70
     0
 62
     7
  6
CONTINUOUS
  0
LAYER
  2
46
 70
     0
 62
     7
  6
CONTINUOUS
  0
LAYER
  2
47
 70
     0
 62
     7
  6
CONTINUOUS
  0
LAYER
  2
48
 70
     0
 62
     7
  6
CONTINUOUS
  0
LAYER
  2
49
 70
     0
 62
     7
  6
CONTINUOUS
  0
LAYER
  2
50
 70
     0
 62
     7
  6
CONTINUOUS
  0
LAYER
  2
51
 70
     0
 62
     7
  6
CONTINUOUS
  0
LAYER
  2
52
 70
     0
 62
     7
  6
CONTINUOUS
  0
LAYER
  2
53
 70
     0
 62
     7
  6
CONTINUOUS
  0
LAYER
  2
54
 70
     0
 62
     7
  6
CONTINUOUS
  0
LAYER
  2
55
 70
     0
 62
     7
  6
CONTINUOUS
  0
LAYER
  2
56
 70
     0
 62
     7
  6
CONTINUOUS
  0
LAYER
  2
57
 70
     0
 62
     7
  6
CONTINUOUS
  0
LAYER
  2
58
 70
     0
 62
     7
  6
CONTINUOUS
  0
LAYER
  2
59
 70
     0
 62
     7
  6
CONTINUOUS
  0
LAYER
  2
60
 70
     0
 62
     7
  6
CONTINUOUS
  0
LAYER
  2
61
 70
     0
 62
     7
  6
CONTINUOUS
  0
LAYER
  2
62
 70
     0
 62
     7
  6
CONTINUOUS
  0
LAYER
  2
63
 70
     0
 62
     7
  6
CONTINUOUS
  0
LAYER
  2
64
 70
     0
 62
     7
  6
CONTINUOUS
  0
LAYER
  2
65
 70
     0
 62
     7
  6
CONTINUOUS
  0
LAYER
  2
66
 70
     0
 62
     7
  6
CONTINUOUS
  0
LAYER
  2
67
 70
     0
 62
     7
  6
CONTINUOUS
  0
LAYER
  2
68
 70
     0
 62
     7
  6
CONTINUOUS
  0
LAYER
  2
69
 70
     0
 62
     7
  6
CONTINUOUS
  0
LAYER
  2
70
 70
     0
 62
     7
  6
CONTINUOUS
  0
LAYER
  2
71
 70
     0
 62
     7
  6
CONTINUOUS
  0
LAYER
  2
72
 70
     0
 62
     7
  6
CONTINUOUS
  0
LAYER
  2
73
 70
     0
 62
     7
  6
CONTINUOUS
  0
LAYER
  2
74
 70
     0
 62
     7
  6
CONTINUOUS
  0
LAYER
  2
75
 70
     0
 62
     7
  6
CONTINUOUS
  0
LAYER
  2
76
 70
     0
 62
     7
  6
CONTINUOUS
  0
LAYER
  2
77
 70
     0
 62
     7
  6
CONTINUOUS
  0
LAYER
  2
78
 70
     0
 62
     7
  6
CONTINUOUS
  0
LAYER
  2
79
 70
     0
 62
     7
  6
CONTINUOUS
  0
LAYER
  2
80
 70
     0
 62
     7
  6
CONTINUOUS
  0
LAYER
  2
81
 70
     0
 62
     7
  6
CONTINUOUS
  0
LAYER
  2
82
 70
     0
 62
     7
  6
CONTINUOUS
  0
LAYER
  2
83
 70
     0
 62
     7
  6
CONTINUOUS
  0
LAYER
  2
84
 70
     0
 62
     7
  6
CONTINUOUS
  0
LAYER
  2
85
 70
     0
 62
     7
  6
CONTINUOUS
  0
LAYER
  2
86
 70
     0
 62
     7
  6
CONTINUOUS
  0
LAYER
  2
87
 70
     0
 62
     7
  6
CONTINUOUS
  0
LAYER
  2
88
 70
     0
 62
     7
  6
CONTINUOUS
  0
LAYER
  2
89
 70
     0
 62
     7
  6
CONTINUOUS
  0
LAYER
  2
90
 70
     0
 62
     7
  6
CONTINUOUS
  0
LAYER
  2
91
 70
     0
 62
     7
  6
CONTINUOUS
  0
LAYER
  2
92
 70
     0
 62
     7
  6
CONTINUOUS
  0
LAYER
  2
93
 70
     0
 62
     7
  6
CONTINUOUS
  0
LAYER
  2
94
 70
     0
 62
     7
  6
CONTINUOUS
  0
LAYER
  2
95
 70
     0
 62
     7
  6
CONTINUOUS
  0
LAYER
  2
96
 70
     0
 62
     7
  6
CONTINUOUS
  0
LAYER
  2
97
 70
     0
 62
     7
  6
CONTINUOUS
  0
LAYER
  2
98
 70
     0
 62
     7
  6
CONTINUOUS
  0
LAYER
  2
99
 70
     0
 62
     7
  6
CONTINUOUS
  0
LAYER
  2
100
 70
     0
 62
     7
  6
CONTINUOUS
  0
LAYER
  2
101
 70
     0
 62
     7
  6
CONTINUOUS
  0
LAYER
  2
102
 70
     0
 62
     7
  6
CONTINUOUS
  0
LAYER
  2
103
 70
     0
 62
     7
  6
CONTINUOUS
  0
LAYER
  2
104
 70
     0
 62
     7
  6
CONTINUOUS
  0
LAYER
  2
105
 70
     0
 62
     7
  6
CONTINUOUS
  0
LAYER
  2
106
 70
     0
 62
     7
  6
CONTINUOUS
  0
LAYER
  2
107
 70
     0
 62
     7
  6
CONTINUOUS
  0
LAYER
  2
108
 70
     0
 62
     7
  6
CONTINUOUS
  0
LAYER
  2
109
 70
     0
 62
     7
  6
CONTINUOUS
  0
LAYER
  2
110
 70
     0
 62
     7
  6
CONTINUOUS
  0
LAYER
  2
111
 70
     0
 62
     7
  6
CONTINUOUS
  0
LAYER
  2
112
 70
     0
 62
     7
  6
CONTINUOUS
  0
LAYER
  2
113
 70
     0
 62
     7
  6
CONTINUOUS
  0
LAYER
  2
114
 70
     0
 62
     7
  6
CONTINUOUS
  0
LAYER
  2
115
 70
     0
 62
     7
  6
CONTINUOUS
  0
LAYER
  2
116
 70
     0
 62
     7
  6
CONTINUOUS
  0
LAYER
  2
117
 70
     0
 62
     7
  6
CONTINUOUS
  0
LAYER
  2
118
 70
     0
 62
     7
  6
CONTINUOUS
  0
LAYER
  2
119
 70
     0
 62
     7
  6
CONTINUOUS
  0
LAYER
  2
120
 70
     0
 62
     7
  6
CONTINUOUS
  0
LAYER
  2
121
 70
     0
 62
     7
  6
CONTINUOUS
  0
LAYER
  2
122
 70
     0
 62
     7
  6
CONTINUOUS
  0
LAYER
  2
123
 70
     0
 62
     7
  6
CONTINUOUS
  0
LAYER
  2
124
 70
     0
 62
     7
  6
CONTINUOUS
  0
LAYER
  2
125
 70
     0
 62
     7
  6
CONTINUOUS
  0
LAYER
  2
126
 70
     0
 62
     7
  6
CONTINUOUS
  0
LAYER
  2
127
 70
     0
 62
     7
  6
CONTINUOUS
  0
LAYER
  2
128
 70
     0
 62
     7
  6
CONTINUOUS
  0
ENDTAB
  0
TABLE
  2
STYLE
 70
    13
  0
STYLE
  2
STANDARD
 70
     0
 40
0.0
 41
1.0
 50
0.0
 71
     0
 42
0.2
  3
txt
  4

  0
STYLE
  2
KANJI0
 70
     0
 40
2.5
 41
1.0
 50
0.0
 71
     0
 42
2.5
  3

  4
bigfont
  0
STYLE
  2
KANJI1
 70
     0
 40
2.5
 41
1.2
 50
0.0
 71
     0
 42
2.5
  3

  4
bigfont
  0
STYLE
  2
KANJI2
 70
     0
 40
1.5
 41
0.666666667
 50
0.0
 71
     0
 42
1.5
  3

  4
bigfont
  0
STYLE
  2
KANJI3
 70
     0
 40
1.5
 41
1.0
 50
0.0
 71
     0
 42
1.5
  3

  4
bigfont
  0
STYLE
  2
KANJI4
 70
     0
 40
2.0
 41
0.875
 50
0.0
 71
     0
 42
2.0
  3

  4
bigfont
  0
STYLE
  2
KANJI5
 70
     0
 40
1.25
 41
1.0
 50
0.0
 71
     0
 42
1.25
  3

  4
bigfont
  0
STYLE
  2
KANJI6
 70
     0
 40
1.25
 41
1.0
 50
0.0
 71
     0
 42
1.25
  3

  4
bigfont
  0
STYLE
  2
KANJI7
 70
     0
 40
1.25
 41
1.0
 50
0.0
 71
     0
 42
1.25
  3

  4
bigfont
  0
STYLE
  2
KANJI8
 70
     0
 40
2.0
 41
1.125
 50
0.0
 71
     0
 42
2.0
  3

  4
bigfont
  0
STYLE
  2
KANJI9
 70
     0
 40
3.5
 41
0.857142857
 50
0.0
 71
     0
 42
3.5
  3

  4
bigfont
  0
STYLE
  2
KANJI10
 70
     0
 40
2.0
 41
0.875
 50
0.0
 71
     0
 42
2.0
  3

  4
bigfont
  0
STYLE
  2
KANJI11
 70
     0
 40
1.5
 41
0.833333333
 50
0.0
 71
     0
 42
1.5
  3

  4
bigfont
  0
ENDTAB
  0
TABLE
  2
VIEW
 70
     0
  0
ENDTAB
  0
ENDSEC
  0
SECTION
  2
BLOCKS
  0
ENDSEC
  0
SECTION
  2
ENTITIES
  0
LINE
  8
7
  6
CONTINUOUS
 62
     2
 10
205.0
 20
99.25
 11
207.5
 21
99.25
  0
LINE
  8
7
  6
CONTINUOUS
 62
     2
 10
205.0
 20
124.25
 11
207.5
 21
124.25
  0
LINE
  8
7
  6
CONTINUOUS
 62
     2
 10
205.0
 20
49.25
 11
207.5
 21
49.25
  0
LINE
  8
7
  6
CONTINUOUS
 62
     2
 10
205.0
 20
24.25
 11
207.5
 21
24.25
  0
LINE
  8
7
  6
CONTINUOUS
 62
     2
 10
205.0
 20
37.5
 11
203.75
 21
37.5
  0
LINE
  8
7
  6
CONTINUOUS
 62
     2
 10
205.0
 20
41.5
 11
203.75
 21
41.5
  0
LINE
  8
7
  6
CONTINUOUS
 62
     2
 10
205.0
 20
45.5
 11
203.75
 21
45.5
  0
TEXT
  8
7
  6
CONTINUOUS
 62
     6
 10
205.75
 20
135.5
 30
0.0
 40
2.5
  1
Ａ
 50
0.0
 41
1.0
 51
0.0
  7
KANJI0
  0
TEXT
  8
7
  6
CONTINUOUS
 62
     6
 10
205.75
 20
110.5
 30
0.0
 40
2.5
  1
Ｂ
 50
0.0
 41
1.0
 51
0.0
  7
KANJI0
  0
TEXT
  8
7
  6
CONTINUOUS
 62
     6
 10
205.75
 20
85.5
 30
0.0
 40
2.5
  1
Ｃ
 50
0.0
 41
1.0
 51
0.0
  7
KANJI0
  0
TEXT
  8
7
  6
CONTINUOUS
 62
     6
 10
205.75
 20
60.5
 30
0.0
 40
2.5
  1
Ｄ
 50
0.0
 41
1.0
 51
0.0
  7
KANJI0
  0
TEXT
  8
7
  6
CONTINUOUS
 62
     6
 10
205.75
 20
35.5
 30
0.0
 40
2.5
  1
Ｅ
 50
0.0
 41
1.0
 51
0.0
  7
KANJI0
  0
TEXT
  8
7
  6
CONTINUOUS
 62
     6
 10
205.75
 20
10.5
 30
0.0
 40
2.5
  1
Ｆ
 50
0.0
 41
1.0
 51
0.0
  7
KANJI0
  0
LINE
  8
7
  6
CONTINUOUS
 62
     2
 10
12.5
 20
99.25
 11
10.0
 21
99.25
  0
LINE
  8
7
  6
CONTINUOUS
 62
     2
 10
12.5
 20
124.25
 11
10.0
 21
124.25
  0
LINE
  8
7
  6
CONTINUOUS
 62
     2
 10
12.5
 20
49.25
 11
10.0
 21
49.25
  0
LINE
  8
7
  6
CONTINUOUS
 62
     2
 10
12.5
 20
24.25
 11
10.0
 21
24.25
  0
TEXT
  8
7
  6
CONTINUOUS
 62
     6
 10
9.25
 20
135.5
 30
0.0
 40
2.5
  1
Ａ
 50
0.0
 41
1.0
 51
0.0
  7
KANJI0
  0
TEXT
  8
7
  6
CONTINUOUS
 62
     6
 10
9.25
 20
110.5
 30
0.0
 40
2.5
  1
Ｂ
 50
0.0
 41
1.0
 51
0.0
  7
KANJI0
  0
TEXT
  8
7
  6
CONTINUOUS
 62
     6
 10
9.25
 20
85.5
 30
0.0
 40
2.5
  1
Ｃ
 50
0.0
 41
1.0
 51
0.0
  7
KANJI0
  0
TEXT
  8
7
  6
CONTINUOUS
 62
     6
 10
9.25
 20
60.5
 30
0.0
 40
2.5
  1
Ｄ
 50
0.0
 41
1.0
 51
0.0
  7
KANJI0
  0
TEXT
  8
7
  6
CONTINUOUS
 62
     6
 10
9.25
 20
35.5
 30
0.0
 40
2.5
  1
Ｅ
 50
0.0
 41
1.0
 51
0.0
  7
KANJI0
  0
TEXT
  8
7
  6
CONTINUOUS
 62
     6
 10
9.25
 20
10.5
 30
0.0
 40
2.5
  1
Ｆ
 50
0.0
 41
1.0
 51
0.0
  7
KANJI0
  0
LINE
  8
7
  6
CONTINUOUS
 62
     2
 10
80.0
 20
143.5
 11
80.0
 21
146.0
  0
LINE
  8
7
  6
CONTINUOUS
 62
     2
 10
55.0
 20
146.0
 11
55.0
 21
143.5
  0
LINE
  8
7
  6
CONTINUOUS
 62
     2
 10
30.0
 20
146.0
 11
30.0
 21
143.5
  0
LINE
  8
7
  6
CONTINUOUS
 62
     2
 10
130.0
 20
146.0
 11
130.0
 21
143.5
  0
LINE
  8
7
  6
CONTINUOUS
 62
     2
 10
155.0
 20
146.0
 11
155.0
 21
143.5
  0
TEXT
  8
7
  6
CONTINUOUS
 62
     6
 10
16.0
 20
144.25
 30
0.0
 40
2.5
  1
１
 50
0.0
 41
1.2
 51
0.0
  7
KANJI1
  0
TEXT
  8
7
  6
CONTINUOUS
 62
     6
 10
41.0
 20
144.25
 30
0.0
 40
2.5
  1
２
 50
0.0
 41
1.2
 51
0.0
  7
KANJI1
  0
TEXT
  8
7
  6
CONTINUOUS
 62
     6
 10
66.0
 20
144.25
 30
0.0
 40
2.5
  1
３
 50
0.0
 41
1.2
 51
0.0
  7
KANJI1
  0
TEXT
  8
7
  6
CONTINUOUS
 62
     6
 10
91.0
 20
144.25
 30
0.0
 40
2.5
  1
４
 50
0.0
 41
1.2
 51
0.0
  7
KANJI1
  0
TEXT
  8
7
  6
CONTINUOUS
 62
     6
 10
116.0
 20
144.25
 30
0.0
 40
2.5
  1
５
 50
0.0
 41
1.2
 51
0.0
  7
KANJI1
  0
TEXT
  8
7
  6
CONTINUOUS
 62
     6
 10
141.0
 20
144.25
 30
0.0
 40
2.5
  1
６
 50
0.0
 41
1.2
 51
0.0
  7
KANJI1
  0
TEXT
  8
7
  6
CONTINUOUS
 62
     6
 10
166.0
 20
144.25
 30
0.0
 40
2.5
  1
７
 50
0.0
 41
1.2
 51
0.0
  7
KANJI1
  0
TEXT
  8
7
  6
CONTINUOUS
 62
     6
 10
191.0
 20
144.25
 30
0.0
 40
2.5
  1
８
 50
0.0
 41
1.2
 51
0.0
  7
KANJI1
  0
LINE
  8
7
  6
CONTINUOUS
 62
     2
 10
55.0
 20
2.5
 11
55.0
 21
5.0
  0
LINE
  8
7
  6
CONTINUOUS
 62
     2
 10
30.0
 20
2.5
 11
30.0
 21
5.0
  0
TEXT
  8
7
  6
CONTINUOUS
 62
     6
 10
16.0
 20
1.75
 30
0.0
 40
2.5
  1
１
 50
0.0
 41
1.2
 51
0.0
  7
KANJI1
  0
TEXT
  8
7
  6
CONTINUOUS
 62
     6
 10
41.0
 20
1.75
 30
0.0
 40
2.5
  1
２
 50
0.0
 41
1.2
 51
0.0
  7
KANJI1
  0
TEXT
  8
7
  6
CONTINUOUS
 62
     6
 10
66.0
 20
1.75
 30
0.0
 40
2.5
  1
３
 50
0.0
 41
1.2
 51
0.0
  7
KANJI1
  0
TEXT
  8
7
  6
CONTINUOUS
 62
     6
 10
141.0
 20
1.75
 30
0.0
 40
2.5
  1
６
 50
0.0
 41
1.2
 51
0.0
  7
KANJI1
  0
TEXT
  8
7
  6
CONTINUOUS
 62
     6
 10
166.0
 20
1.75
 30
0.0
 40
2.5
  1
７
 50
0.0
 41
1.2
 51
0.0
  7
KANJI1
  0
TEXT
  8
7
  6
CONTINUOUS
 62
     6
 10
191.0
 20
1.75
 30
0.0
 40
2.5
  1
８
 50
0.0
 41
1.2
 51
0.0
  7
KANJI1
  0
LINE
  8
7
  6
CONTINUOUS
 62
     2
 10
180.0
 20
143.5
 11
180.0
 21
146.0
  0
LINE
  8
7
  6
CONTINUOUS
 62
     6
 10
12.5
 20
143.5
 11
12.5
 21
5.0
  0
LINE
  8
7
  6
CONTINUOUS
 62
     6
 10
105.0
 20
5.0
 11
105.0
 21
0.0
  0
LINE
  8
7
  6
CONTINUOUS
 62
     6
 10
80.0
 20
5.0
 11
80.0
 21
2.5
  0
LINE
  8
7
  6
CONTINUOUS
 62
     6
 10
85.0
 20
5.0
 11
85.0
 21
2.5
  0
LINE
  8
7
  6
CONTINUOUS
 62
     6
 10
90.0
 20
5.0
 11
90.0
 21
2.5
  0
LINE
  8
7
  6
CONTINUOUS
 62
     6
 10
95.0
 20
5.0
 11
95.0
 21
2.5
  0
LINE
  8
7
  6
CONTINUOUS
 62
     6
 10
100.0
 20
5.0
 11
100.0
 21
2.5
  0
LINE
  8
7
  6
CONTINUOUS
 62
     6
 10
12.5
 20
5.0
 11
205.0
 21
5.0
  0
LINE
  8
7
  6
CONTINUOUS
 62
     6
 10
130.0
 20
2.5
 11
130.0
 21
5.0
  0
LINE
  8
7
  6
CONTINUOUS
 62
     6
 10
125.0
 20
2.5
 11
125.0
 21
5.0
  0
LINE
  8
7
  6
CONTINUOUS
 62
     6
 10
120.0
 20
2.5
 11
120.0
 21
5.0
  0
LINE
  8
7
  6
CONTINUOUS
 62
     6
 10
115.0
 20
2.5
 11
115.0
 21
5.0
  0
LINE
  8
7
  6
CONTINUOUS
 62
     6
 10
110.0
 20
2.5
 11
110.0
 21
5.0
  0
LINE
  8
7
  6
CONTINUOUS
 62
     6
 10
80.0
 20
2.5
 11
130.0
 21
2.5
  0
LINE
  8
7
  6
LTYPE1
 62
     2
 10
199.75
 20
10.5
 11
199.75
 21
5.0
  0
LINE
  8
7
  6
CONTINUOUS
 62
     2
 10
119.5
 20
33.5
 11
119.5
 21
5.0
  0
LINE
  8
7
  6
CONTINUOUS
 62
     2
 10
123.0
 20
33.5
 11
123.0
 21
5.0
  0
LINE
  8
7
  6
CONTINUOUS
 62
     2
 10
126.5
 20
33.5
 11
126.5
 21
5.0
  0
LINE
  8
7
  6
CONTINUOUS
 62
     2
 10
130.0
 20
33.5
 11
130.0
 21
5.0
  0
LINE
  8
7
  6
CONTINUOUS
 62
     2
 10
136.5
 20
10.5
 11
205.0
 21
10.5
  0
LINE
  8
7
  6
CONTINUOUS
 62
     2
 10
136.5
 20
16.0
 11
205.0
 21
16.0
  0
LINE
  8
7
  6
CONTINUOUS
 62
     2
 10
136.5
 20
21.5
 11
205.0
 21
21.5
  0
LINE
  8
7
  6
CONTINUOUS
 62
     2
 10
160.5
 20
21.5
 11
160.5
 21
10.5
  0
LINE
  8
7
  6
CONTINUOUS
 62
     2
 10
168.5
 20
21.5
 11
168.5
 21
10.5
  0
LINE
  8
7
  6
CONTINUOUS
 62
     2
 10
148.5
 20
21.5
 11
148.5
 21
16.0
  0
LINE
  8
7
  6
CONTINUOUS
 62
     2
 10
133.5
 20
33.5
 11
133.5
 21
5.0
  0
LINE
  8
7
  6
CONTINUOUS
 62
     2
 10
144.5
 20
16.0
 11
144.5
 21
5.0
  0
LINE
  8
7
  6
CONTINUOUS
 62
     2
 10
152.5
 20
16.0
 11
152.5
 21
5.0
  0
LINE
  8
7
  6
CONTINUOUS
 62
     2
 10
176.5
 20
21.5
 11
176.5
 21
5.0
  0
POLYLINE
  8
7
  6
LTYPE2
 62
     2
 66
     1
 70
     1
  0
VERTEX
  8
7
  6
LTYPE2
 62
     2
 10
155.5
 20
6.75
  0
VERTEX
  8
7
  6
LTYPE2
 62
     2
 10
157.5
 20
6.75
  0
VERTEX
  8
7
  6
LTYPE2
 62
     2
 10
157.5
 20
8.75
  0
VERTEX
  8
7
  6
LTYPE2
 62
     2
 10
155.5
 20
8.75
  0
SEQEND
  0
TEXT
  8
7
  6
CONTINUOUS
 62
     4
 10
177.0
 20
23.5
 30
-0.25
 40
1.5
  1
１セット分
 50
0.0
 41
0.666666667
 51
0.0
  7
KANJI2
  0
TEXT
  8
7
  6
CONTINUOUS
 62
     4
 10
171.5
 20
23.5
 30
0.0
 40
1.5
  1
１台分
 50
0.0
 41
1.0
 51
0.0
  7
KANJI3
  0
TEXT
  8
7
  6
CONTINUOUS
 62
     4
 10
172.5
 20
22.0
 30
0.0
 40
1.5
  1
個数
 50
0.0
 41
1.0
 51
0.0
  7
KANJI3
  0
TEXT
  8
7
  6
CONTINUOUS
 62
     4
 10
177.5
 20
22.0
 30
0.0
 40
1.5
  1
個数
 50
0.0
 41
1.0
 51
0.0
  7
KANJI3
  0
TEXT
  8
7
  6
CONTINUOUS
 62
     4
 10
182.25
 20
22.5
 30
0.0
 40
2.0
  1
総数
 50
0.0
 41
0.875
 51
0.0
  7
KANJI4
  0
TEXT
  8
7
  6
CONTINUOUS
 62
     4
 10
135.575
 20
26.25
 30
0.15
 40
1.25
  1
氏名
 50
90.0
 41
1.0
 51
0.0
  7
KANJI5
  0
TEXT
  8
7
  6
CONTINUOUS
 62
     4
 10
135.575
 20
20.2125
 30
0.5
 40
1.25
  1
年月日
 50
90.0
 41
1.0
 51
0.0
  7
KANJI6
  0
TEXT
  8
7
  6
CONTINUOUS
 62
     4
 10
135.575
 20
30.1875
 30
0.15
 40
1.25
  1
承認
 50
90.0
 41
1.0
 51
0.0
  7
KANJI5
  0
TEXT
  8
7
  6
CONTINUOUS
 62
     4
 10
137.0
 20
19.75
 30
0.0
 40
1.25
  1
熱処理
 50
0.0
 41
1.0
 51
0.0
  7
KANJI7
  0
TEXT
  8
7
  6
CONTINUOUS
 62
     4
 10
149.0
 20
19.75
 30
0.0
 40
1.25
  1
表面処理
 50
0.0
 41
1.0
 51
0.0
  7
KANJI7
  0
TEXT
  8
7
  6
CONTINUOUS
 62
     4
 10
161.0
 20
19.75
 30
0.0
 40
1.25
  1
台数
 50
0.0
 41
1.0
 51
0.0
  7
KANJI7
  0
TEXT
  8
7
  6
CONTINUOUS
 62
     4
 10
169.0
 20
19.75
 30
0.0
 40
1.25
  1
作成日付
 50
0.0
 41
1.0
 51
0.0
  7
KANJI7
  0
TEXT
  8
7
  6
CONTINUOUS
 62
     4
 10
177.0
 20
19.75
 30
0.0
 40
1.25
  1
名称
 50
0.0
 41
1.0
 51
0.0
  7
KANJI7
  0
TEXT
  8
7
  6
CONTINUOUS
 62
     4
 10
137.0
 20
14.25
 30
0.0
 40
1.25
  1
尺度
 50
0.0
 41
1.0
 51
0.0
  7
KANJI7
  0
TEXT
  8
7
  6
CONTINUOUS
 62
     4
 10
145.0
 20
14.25
 30
0.0
 40
1.25
  1
承認
 50
0.0
 41
1.0
 51
0.0
  7
KANJI7
  0
TEXT
  8
7
  6
CONTINUOUS
 62
     4
 10
153.0
 20
14.25
 30
0.0
 40
1.25
  1
検図
 50
0.0
 41
1.0
 51
0.0
  7
KANJI7
  0
TEXT
  8
7
  6
CONTINUOUS
 62
     4
 10
161.0
 20
14.25
 30
0.0
 40
1.25
  1
設計
 50
0.0
 41
1.0
 51
0.0
  7
KANJI7
  0
TEXT
  8
7
  6
CONTINUOUS
 62
     4
 10
169.0
 20
14.25
 30
0.0
 40
1.25
  1
製図
 50
0.0
 41
1.0
 51
0.0
  7
KANJI7
  0
TEXT
  8
7
  6
CONTINUOUS
 62
     4
 10
177.0
 20
14.25
 30
0.0
 40
1.25
  1
機名
 50
0.0
 41
1.0
 51
0.0
  7
KANJI7
  0
TEXT
  8
7
  6
CONTINUOUS
 62
     4
 10
135.575
 20
5.4375
 30
0.15
 40
1.25
  1
記号
 50
90.0
 41
1.0
 51
0.0
  7
KANJI5
  0
TEXT
  8
7
  6
CONTINUOUS
 62
     4
 10
177.0
 20
8.75
 30
0.0
 40
1.25
  1
図面番号
 50
0.0
 41
1.0
 51
0.0
  7
KANJI7
  0
TEXT
  8
7
  6
CONTINUOUS
 62
     4
 10
158.5
 20
7.125
 30
0.0
 40
1.25
  1
株式会社
 50
0.0
 41
1.0
 51
0.0
  7
KANJI7
  0
TEXT
  8
7
  6
CONTINUOUS
 62
     4
 10
164.5
 20
6.75
 30
0.0
 40
2.0
  1
昭和測器
 50
0.0
 41
1.125
 51
0.0
  7
KANJI8
  0
TEXT
  8
7
  6
CONTINUOUS
 62
     4
 10
135.575
 20
9.1875
 30
0.15
 40
1.25
  1
来歴・改訂記事
 50
90.0
 41
1.0
 51
0.0
  7
KANJI5
  0
TEXT
  8
7
  6
CONTINUOUS
 62
     1
 10
138.0
 20
7.75
 30
0.0
 40
2.5
  1
第３
 50
0.0
 41
1.0
 51
0.0
  7
KANJI0
  0
TEXT
  8
7
  6
CONTINUOUS
 62
     1
 10
138.0
 20
5.25
 30
0.0
 40
2.5
  1
角法
 50
0.0
 41
1.0
 51
0.0
  7
KANJI0
  0
LINE
  8
7
  6
CONTINUOUS
 62
     2
 10
153.5
 20
2.5
 11
153.5
 21
5.0
  0
LINE
  8
7
  6
CONTINUOUS
 62
     2
 10
178.5
 20
2.5
 11
178.5
 21
5.0
  0
LINE
  8
7
  6
CONTINUOUS
 62
     2
 10
116.0
 20
33.5
 11
116.0
 21
5.0
  0
LINE
  8
7
  6
CONTINUOUS
 62
     2
 10
115.5
 20
25.5
 11
205.0
 21
25.5
  0
LINE
  8
7
  6
CONTINUOUS
 62
     2
 10
115.5
 20
8.5
 11
136.5
 21
8.5
  0
TEXT
  8
7
  6
CONTINUOUS
 62
     4
 10
162.0
 20
22.5
 30
0.0
 40
2.0
  1
材　　質
 50
0.0
 41
0.875
 51
0.0
  7
KANJI4
  0
TEXT
  8
7
  6
CONTINUOUS
 62
     4
 10
190.625
 20
22.5
 30
0.0
 40
2.0
  1
摘　　　要
 50
0.0
 41
0.875
 51
0.0
  7
KANJI4
  0
TEXT
  8
7
  6
CONTINUOUS
 62
     4
 10
137.25
 20
22.5
 30
0.0
 40
2.0
  1
番号
 50
0.0
 41
0.875
 51
0.0
  7
KANJI4
  0
TEXT
  8
7
  6
CONTINUOUS
 62
     4
 10
146.125
 20
22.5
 30
0.0
 40
2.0
  1
部　品　名
 50
0.0
 41
0.875
 51
0.0
  7
KANJI4
  0
CIRCLE
  8
7
  6
CONTINUOUS
 62
     6
 10
140.5
 20
13.0
 40
0.1
  0
CIRCLE
  8
7
  6
CONTINUOUS
 62
     6
 10
140.5
 20
11.75
 40
0.1
  0
LINE
  8
7
  6
CONTINUOUS
 62
     6
 10
12.5
 20
74.25
 11
0.0
 21
74.25
  0
LINE
  8
7
  6
CONTINUOUS
 62
     6
 10
105.0
 20
143.5
 11
105.0
 21
148.5
  0
LINE
  8
7
  6
CONTINUOUS
 62
     6
 10
205.0
 20
143.5
 11
12.5
 21
143.5
  0
LINE
  8
7
  6
CONTINUOUS
 62
     6
 10
205.0
 20
74.25
 11
210.0
 21
74.25
  0
LINE
  8
7
  6
CONTINUOUS
 62
     6
 10
205.0
 20
5.0
 11
205.0
 21
143.5
  0
TEXT
  8
6
  6
CONTINUOUS
 62
     5
 10
141.25
 20
11.5
 30
0.0
 40
2.0
  1
１
 50
0.0
 41
0.875
 51
0.0
  7
KANJI4
  0
TEXT
  8
6
  6
CONTINUOUS
 62
     5
 10
187.0
 20
17.0
 30
0.0
 40
2.0
  1
外観図
 50
0.0
 41
0.875
 51
0.0
  7
KANJI4
  0
TEXT
  8
6
  6
CONTINUOUS
 62
     5
 10
170.5
 20
11.5
 30
0.0
 40
2.0
  1
益子
 50
0.0
 41
0.875
 51
0.0
  7
KANJI4
  0
TEXT
  8
7
  6
CONTINUOUS
 62
     6
 10
145.8625
 20
6.0125
 30
-0.5
 40
3.5
  1
Ａ３
 50
0.0
 41
0.857142857
 51
0.0
  7
KANJI9
  0
LINE
  8
7
  6
CONTINUOUS
 62
     2
 10
136.5
 20
33.5
 11
205.0
 21
33.5
  0
LINE
  8
7
  6
CONTINUOUS
 62
     2
 10
115.5
 20
33.5
 11
136.5
 21
33.5
  0
LINE
  8
7
  6
CONTINUOUS
 62
     2
 10
136.5
 20
29.5
 11
205.0
 21
29.5
  0
LINE
  8
7
  6
CONTINUOUS
 62
     2
 10
115.5
 20
29.5
 11
136.5
 21
29.5
  0
LINE
  8
7
  6
CONTINUOUS
 62
     2
 10
141.5
 20
25.5
 11
141.5
 21
21.5
  0
LINE
  8
7
  6
CONTINUOUS
 62
     2
 10
141.5
 20
33.5
 11
141.5
 21
25.5
  0
LINE
  8
7
  6
CONTINUOUS
 62
     2
 10
159.5
 20
25.5
 11
159.5
 21
21.5
  0
LINE
  8
7
  6
CONTINUOUS
 62
     2
 10
159.5
 20
33.5
 11
159.5
 21
25.5
  0
LINE
  8
7
  6
CONTINUOUS
 62
     2
 10
171.5
 20
25.5
 11
171.5
 21
21.5
  0
LINE
  8
7
  6
CONTINUOUS
 62
     2
 10
171.5
 20
33.5
 11
171.5
 21
25.5
  0
LINE
  8
7
  6
CONTINUOUS
 62
     2
 10
176.5
 20
25.5
 11
176.5
 21
21.5
  0
LINE
  8
7
  6
CONTINUOUS
 62
     2
 10
176.5
 20
33.5
 11
176.5
 21
25.5
  0
LINE
  8
7
  6
CONTINUOUS
 62
     2
 10
181.5
 20
25.5
 11
181.5
 21
21.5
  0
LINE
  8
7
  6
CONTINUOUS
 62
     2
 10
181.5
 20
33.5
 11
181.5
 21
25.5
  0
LINE
  8
7
  6
CONTINUOUS
 62
     2
 10
186.5
 20
25.5
 11
186.5
 21
21.5
  0
LINE
  8
7
  6
CONTINUOUS
 62
     2
 10
186.5
 20
33.5
 11
186.5
 21
25.5
  0
LINE
  8
7
  6
CONTINUOUS
 62
     2
 10
136.5
 20
25.5
 11
136.5
 21
5.0
  0
LINE
  8
7
  6
CONTINUOUS
 62
     2
 10
136.5
 20
33.5
 11
136.5
 21
25.5
  0
LINE
  8
7
  6
CONTINUOUS
 62
     2
 10
115.5
 20
19.5
 11
136.5
 21
19.5
  0
CIRCLE
  8
0
  6
CONTINUOUS
 62
     1
 10
185.0
 20
85.0
 40
15.0
  0
CIRCLE
  8
0
  6
CONTINUOUS
 62
     1
 10
185.0
 20
85.0
 40
13.0
  0
CIRCLE
  8
0
  6
CONTINUOUS
 62
     1
 10
185.0
 20
85.0
 40
12.0
  0
CIRCLE
  8
0
  6
CONTINUOUS
 62
     1
 10
185.0
 20
85.0
 40
9.5
  0
CIRCLE
  8
0
  6
CONTINUOUS
 62
     1
 10
185.0
 20
85.0
 40
2.5
  0
CIRCLE
  8
0
  6
CONTINUOUS
 62
     1
 10
185.0
 20
85.0
 40
1.5
  0
CIRCLE
  8
0
  6
CONTINUOUS
 62
     1
 10
185.0
 20
85.0
 40
6.5
  0
CIRCLE
  8
0
  6
CONTINUOUS
 62
     1
 10
185.0
 20
85.0
 40
4.5
  0
CIRCLE
  8
0
  6
CONTINUOUS
 62
     1
 10
185.0
 20
85.0
 40
5.0
  0
CIRCLE
  8
0
  6
CONTINUOUS
 62
     1
 10
185.0
 20
85.0
 40
4.0
  0
CIRCLE
  8
0
  6
CONTINUOUS
 62
     1
 10
185.0
 20
85.0
 40
7.0
  0
CIRCLE
  8
0
  6
CONTINUOUS
 62
     1
 10
185.0
 20
85.0
 40
6.0
  0
LINE
  8
0
  6
CONTINUOUS
 62
     1
 10
193.5
 20
80.757359313
 11
193.5
 21
89.242640687
  0
LINE
  8
0
  6
CONTINUOUS
 62
     1
 10
176.5
 20
80.757359313
 11
176.5
 21
89.242640687
  0
LINE
  8
0
  6
LTYPE3
 62
     2
 10
167.5
 20
85.0
 11
202.5
 21
85.0
  0
LINE
  8
0
  6
LTYPE3
 62
     2
 10
185.0
 20
67.5
 11
185.0
 21
106.3
  0
LINE
  8
0
  6
CONTINUOUS
 62
     1
 10
188.75
 20
103.8
 11
189.25
 21
103.3
  0
LINE
  8
0
  6
CONTINUOUS
 62
     1
 10
180.75
 20
103.3
 11
181.25
 21
103.8
  0
LINE
  8
0
  6
CONTINUOUS
 62
     1
 10
182.369219294
 20
103.3
 11
182.369219294
 21
102.3
  0
LINE
  8
0
  6
CONTINUOUS
 62
     1
 10
182.369219294
 20
102.3
 11
181.662112513
 21
102.3
  0
LINE
  8
0
  6
CONTINUOUS
 62
     1
 10
181.662112513
 20
102.3
 11
181.662112513
 21
103.3
  0
LINE
  8
0
  6
CONTINUOUS
 62
     1
 10
182.725578885
 20
103.8
 11
182.369219294
 21
103.3
  0
LINE
  8
0
  6
CONTINUOUS
 62
     1
 10
182.018472104
 20
103.8
 11
181.662112513
 21
103.3
  0
LINE
  8
0
  6
CONTINUOUS
 62
     1
 10
181.662112513
 20
103.3
 11
180.75
 21
103.3
  0
LINE
  8
0
  6
CONTINUOUS
 62
     1
 10
189.25
 20
103.3
 11
182.369219294
 21
103.3
  0
LINE
  8
0
  6
CONTINUOUS
 62
     1
 10
181.25
 20
103.8
 11
188.75
 21
103.8
  0
LINE
  8
0
  6
CONTINUOUS
 62
     1
 10
180.75
 20
99.385322381
 11
180.75
 21
103.3
  0
LINE
  8
0
  6
CONTINUOUS
 62
     1
 10
189.25
 20
103.3
 11
189.25
 21
99.385322381
  0
LINE
  8
5
  6
CONTINUOUS
 62
     2
 10
176.5
 20
80.257359313
 11
176.5
 21
62.0
  0
LINE
  8
5
  6
CONTINUOUS
 62
     2
 10
176.5
 20
62.5
 11
177.707407283
 21
62.176476194
  0
LINE
  8
5
  6
CONTINUOUS
 62
     2
 10
176.5
 20
62.5
 11
177.707407283
 21
62.823523806
  0
LINE
  8
5
  6
CONTINUOUS
 62
     2
 10
176.5
 20
62.5
 11
193.5
 21
62.5
  0
LINE
  8
5
  6
CONTINUOUS
 62
     2
 10
193.5
 20
62.5
 11
192.292592717
 21
62.823523806
  0
LINE
  8
5
  6
CONTINUOUS
 62
     2
 10
193.5
 20
62.5
 11
192.292592717
 21
62.176476194
  0
LINE
  8
5
  6
CONTINUOUS
 62
     2
 10
193.5
 20
80.257359313
 11
193.5
 21
62.0
  0
TEXT
  8
5
  6
CONTINUOUS
 62
     5
 10
183.225
 20
63.0
 30
0.05
 40
2.0
  1
１７
 50
0.0
 41
0.875
 51
0.0
  7
KANJI10
  0
LINE
  8
0
  6
CONTINUOUS
 62
     1
 10
97.0
 20
70.0
 11
97.0
 21
100.0
  0
LINE
  8
0
  6
CONTINUOUS
 62
     1
 10
117.5
 20
70.0
 11
117.5
 21
100.0
  0
LINE
  8
0
  6
CONTINUOUS
 62
     1
 10
119.5
 20
72.0
 11
119.5
 21
98.0
  0
LINE
  8
0
  6
CONTINUOUS
 62
     1
 10
117.5
 20
98.0
 11
119.5
 21
98.0
  0
LINE
  8
0
  6
CONTINUOUS
 62
     1
 10
117.5
 20
72.0
 11
119.5
 21
72.0
  0
LINE
  8
0
  6
CONTINUOUS
 62
     1
 10
121.0
 20
73.0
 11
121.0
 21
97.0
  0
LINE
  8
0
  6
CONTINUOUS
 62
     1
 10
119.5
 20
97.0
 11
121.0
 21
97.0
  0
LINE
  8
0
  6
CONTINUOUS
 62
     1
 10
119.5
 20
73.0
 11
121.0
 21
73.0
  0
LINE
  8
0
  6
CONTINUOUS
 62
     1
 10
121.0
 20
94.5
 11
129.5
 21
94.5
  0
LINE
  8
0
  6
CONTINUOUS
 62
     1
 10
129.5
 20
75.5
 11
121.0
 21
75.5
  0
LINE
  8
0
  6
CONTINUOUS
 62
     1
 10
129.5
 20
94.5
 11
129.5
 21
75.5
  0
LINE
  8
0
  6
CONTINUOUS
 62
     1
 10
129.5
 20
80.757359313
 11
121.5
 21
80.757359313
  0
LINE
  8
0
  6
CONTINUOUS
 62
     1
 10
121.5
 20
80.757359313
 11
121.5
 21
89.242640687
  0
LINE
  8
0
  6
CONTINUOUS
 62
     1
 10
121.5
 20
89.242640687
 11
129.5
 21
89.242640687
  0
LINE
  8
0
  6
CONTINUOUS
 62
     2
 10
129.5
 20
89.242640687
 11
121.5
 21
80.757359313
  0
LINE
  8
0
  6
CONTINUOUS
 62
     2
 10
129.5
 20
80.757359313
 11
121.5
 21
89.242640687
  0
LINE
  8
0
  6
CONTINUOUS
 62
     1
 10
143.644
 20
93.331
 11
144.5
 21
92.475
  0
LINE
  8
0
  6
CONTINUOUS
 62
     1
 10
144.5
 20
77.525
 11
143.644
 21
76.669
  0
LINE
  8
0
  6
CONTINUOUS
 62
     1
 10
144.5
 20
82.5
 11
147.5
 21
82.5
  0
LINE
  8
0
  6
CONTINUOUS
 62
     1
 10
147.5
 20
82.5
 11
147.5
 21
87.5
  0
LINE
  8
0
  6
CONTINUOUS
 62
     1
 10
147.5
 20
87.5
 11
144.5
 21
87.5
  0
ARC
  8
0
  6
CONTINUOUS
 62
     1
 10
130.5
 20
93.331
 40
1.0
 50
180.0
 51
0.0
  0
LINE
  8
0
  6
CONTINUOUS
 62
     1
 10
131.5
 20
93.331
 11
131.5
 21
76.669
  0
LINE
  8
0
  6
CONTINUOUS
 62
     1
 10
131.5
 20
93.331
 11
143.644
 21
93.331
  0
LINE
  8
0
  6
CONTINUOUS
 62
     1
 10
131.5
 20
76.669
 11
143.644
 21
76.669
  0
ARC
  8
0
  6
CONTINUOUS
 62
     1
 10
130.5
 20
76.669
 40
1.0
 50
360.0
 51
180.0
  0
LINE
  8
0
  6
CONTINUOUS
 62
     2
 10
131.016975821
 20
92.475
 11
144.5
 21
92.475
  0
LINE
  8
0
  6
CONTINUOUS
 62
     2
 10
131.016975821
 20
77.525
 11
144.5
 21
77.525
  0
POLYLINE
  8
0
  6
CONTINUOUS
 62
     2
 66
     1
  0
VERTEX
  8
0
  6
CONTINUOUS
 62
     2
 10
144.5
 20
81.0
  0
VERTEX
  8
0
  6
CONTINUOUS
 62
     2
 10
143.968
 20
81.352
  0
VERTEX
  8
0
  6
CONTINUOUS
 62
     2
 10
143.444
 20
81.716
  0
VERTEX
  8
0
  6
CONTINUOUS
 62
     2
 10
142.936
 20
82.104
  0
VERTEX
  8
0
  6
CONTINUOUS
 62
     2
 10
142.452
 20
82.528
  0
VERTEX
  8
0
  6
CONTINUOUS
 62
     2
 10
142.0
 20
83.0
  0
VERTEX
  8
0
  6
CONTINUOUS
 62
     2
 10
141.652
 20
83.628
  0
VERTEX
  8
0
  6
CONTINUOUS
 62
     2
 10
141.336
 20
84.304
  0
VERTEX
  8
0
  6
CONTINUOUS
 62
     2
 10
141.044
 20
85.016
  0
VERTEX
  8
0
  6
CONTINUOUS
 62
     2
 10
140.768
 20
85.752
  0
VERTEX
  8
0
  6
CONTINUOUS
 62
     2
 10
140.5
 20
86.5
  0
VERTEX
  8
0
  6
CONTINUOUS
 62
     2
 10
140.2
 20
87.205408
  0
VERTEX
  8
0
  6
CONTINUOUS
 62
     2
 10
139.9
 20
87.909464
  0
VERTEX
  8
0
  6
CONTINUOUS
 62
     2
 10
139.6
 20
88.610816
  0
VERTEX
  8
0
  6
CONTINUOUS
 62
     2
 10
139.3
 20
89.308112
  0
VERTEX
  8
0
  6
CONTINUOUS
 62
     2
 10
139.0
 20
90.0
  0
VERTEX
  8
0
  6
CONTINUOUS
 62
     2
 10
138.7
 20
90.674312
  0
VERTEX
  8
0
  6
CONTINUOUS
 62
     2
 10
138.4
 20
91.343216
  0
VERTEX
  8
0
  6
CONTINUOUS
 62
     2
 10
138.1
 20
92.008064
  0
VERTEX
  8
0
  6
CONTINUOUS
 62
     2
 10
137.8
 20
92.670208
  0
VERTEX
  8
0
  6
CONTINUOUS
 62
     2
 10
137.5
 20
93.331
  0
SEQEND
  0
LINE
  8
0
  6
CONTINUOUS
 62
     1
 10
143.644
 20
76.669
 11
143.644
 21
81.577068702
  0
LINE
  8
0
  6
CONTINUOUS
 62
     1
 10
143.644
 20
93.331
 11
143.644
 21
92.475
  0
LINE
  8
0
  6
CONTINUOUS
 62
     1
 10
144.5
 20
82.5
 11
144.5
 21
77.525
  0
LINE
  8
0
  6
CONTINUOUS
 62
     1
 10
144.5
 20
92.475
 11
144.5
 21
87.5
  0
LINE
  8
0
  6
CONTINUOUS
 62
     1
 10
140.5
 20
86.5
 11
147.5
 21
86.5
  0
LINE
  8
0
  6
CONTINUOUS
 62
     1
 10
141.722929936
 20
83.5
 11
147.5
 21
83.5
  0
LINE
  8
0
  6
CONTINUOUS
 62
     1
 10
57.0
 20
100.0
 11
97.0
 21
100.0
  0
LINE
  8
0
  6
CONTINUOUS
 62
     1
 10
97.0
 20
70.0
 11
57.0
 21
70.0
  0
LINE
  8
0
  6
CONTINUOUS
 62
     1
 10
57.0
 20
70.0
 11
57.0
 21
100.0
  0
LINE
  8
0
  6
CONTINUOUS
 62
     1
 10
57.0
 20
77.5
 11
53.0
 21
77.5
  0
LINE
  8
0
  6
CONTINUOUS
 62
     1
 10
53.0
 20
77.5
 11
53.0
 21
92.5
  0
LINE
  8
0
  6
CONTINUOUS
 62
     1
 10
53.0
 20
92.5
 11
57.0
 21
92.5
  0
LINE
  8
0
  6
CONTINUOUS
 62
     2
 10
57.0
 20
78.0
 11
53.0
 21
78.0
  0
LINE
  8
0
  6
CONTINUOUS
 62
     2
 10
53.0
 20
92.0
 11
57.0
 21
92.0
  0
LINE
  8
0
  6
CONTINUOUS
 62
     1
 10
53.0
 20
81.0
 11
28.0
 21
81.0
  0
LINE
  8
0
  6
CONTINUOUS
 62
     1
 10
28.0
 20
81.0
 11
28.0
 21
89.0
  0
LINE
  8
0
  6
CONTINUOUS
 62
     1
 10
28.0
 20
89.0
 11
53.0
 21
89.0
  0
ARC
  8
0
  6
CONTINUOUS
 62
     1
 10
106.5
 20
114.309088021
 40
15.0
 50
252.542396876
 51
287.457603124
  0
LINE
  8
0
  6
CONTINUOUS
 62
     1
 10
102.75
 20
103.8
 11
102.25
 21
103.3
  0
LINE
  8
0
  6
CONTINUOUS
 62
     1
 10
110.75
 20
103.3
 11
110.25
 21
103.8
  0
LINE
  8
0
  6
CONTINUOUS
 62
     1
 10
109.130780706
 20
103.3
 11
109.130780706
 21
102.3
  0
LINE
  8
0
  6
CONTINUOUS
 62
     1
 10
109.130780706
 20
102.3
 11
109.837887487
 21
102.3
  0
LINE
  8
0
  6
CONTINUOUS
 62
     1
 10
109.837887487
 20
102.3
 11
109.837887487
 21
103.3
  0
LINE
  8
0
  6
CONTINUOUS
 62
     1
 10
108.774421115
 20
103.8
 11
109.130780706
 21
103.3
  0
LINE
  8
0
  6
CONTINUOUS
 62
     1
 10
109.481527896
 20
103.8
 11
109.837887487
 21
103.3
  0
LINE
  8
0
  6
CONTINUOUS
 62
     1
 10
109.837887487
 20
103.3
 11
110.75
 21
103.3
  0
LINE
  8
0
  6
CONTINUOUS
 62
     1
 10
102.25
 20
103.3
 11
109.130780706
 21
103.3
  0
LINE
  8
0
  6
CONTINUOUS
 62
     1
 10
110.25
 20
103.8
 11
102.75
 21
103.8
  0
LINE
  8
0
  6
CONTINUOUS
 62
     1
 10
110.75
 20
99.92376564
 11
110.75
 21
103.3
  0
LINE
  8
0
  6
CONTINUOUS
 62
     1
 10
102.25
 20
103.3
 11
102.25
 21
99.92376564
  0
LINE
  8
0
  6
CONTINUOUS
 62
     1
 10
97.0
 20
100.0
 11
102.0
 21
100.0
  0
LINE
  8
0
  6
CONTINUOUS
 62
     1
 10
111.0
 20
100.0
 11
117.5
 21
100.0
  0
LINE
  8
0
  6
CONTINUOUS
 62
     1
 10
97.0
 20
70.0
 11
117.5
 21
70.0
  0
LINE
  8
0
  6
LTYPE3
 62
     2
 10
106.5
 20
106.3
 11
106.5
 21
96.809088021
  0
LINE
  8
5
  6
CONTINUOUS
 62
     2
 10
148.0
 20
86.5
 11
155.5
 21
86.5
  0
LINE
  8
5
  6
CONTINUOUS
 62
     2
 10
155.0
 20
86.5
 11
154.676476194
 21
85.292592717
  0
LINE
  8
5
  6
CONTINUOUS
 62
     2
 10
155.0
 20
86.5
 11
155.323523806
 21
85.292592717
  0
LINE
  8
5
  6
CONTINUOUS
 62
     2
 10
155.0
 20
86.5
 11
155.0
 21
83.5
  0
LINE
  8
5
  6
CONTINUOUS
 62
     2
 10
155.0
 20
83.5
 11
155.323523806
 21
84.707407283
  0
LINE
  8
5
  6
CONTINUOUS
 62
     2
 10
155.0
 20
83.5
 11
154.676476194
 21
84.707407283
  0
LINE
  8
5
  6
CONTINUOUS
 62
     2
 10
148.0
 20
83.5
 11
155.5
 21
83.5
  0
TEXT
  8
5
  6
CONTINUOUS
 62
     5
 10
154.5
 20
83.225
 30
0.05
 40
2.0
  1
φ３
 50
90.0
 41
0.875
 51
0.0
  7
KANJI10
  0
LINE
  8
5
  6
CONTINUOUS
 62
     2
 10
148.0
 20
87.5
 11
160.5
 21
87.5
  0
LINE
  8
5
  6
CONTINUOUS
 62
     2
 10
160.0
 20
87.5
 11
159.676476194
 21
86.292592717
  0
LINE
  8
5
  6
CONTINUOUS
 62
     2
 10
160.0
 20
87.5
 11
160.323523806
 21
86.292592717
  0
LINE
  8
5
  6
CONTINUOUS
 62
     2
 10
160.0
 20
87.5
 11
160.0
 21
82.5
  0
LINE
  8
5
  6
CONTINUOUS
 62
     2
 10
160.0
 20
82.5
 11
160.323523806
 21
83.707407283
  0
LINE
  8
5
  6
CONTINUOUS
 62
     2
 10
160.0
 20
82.5
 11
159.676476194
 21
83.707407283
  0
LINE
  8
5
  6
CONTINUOUS
 62
     2
 10
148.0
 20
82.5
 11
160.5
 21
82.5
  0
TEXT
  8
5
  6
CONTINUOUS
 62
     5
 10
159.5
 20
83.225
 30
0.05
 40
2.0
  1
φ５
 50
90.0
 41
0.875
 51
0.0
  7
KANJI10
  0
LINE
  8
5
  6
CONTINUOUS
 62
     2
 10
130.0
 20
94.5
 11
165.5
 21
94.5
  0
LINE
  8
5
  6
CONTINUOUS
 62
     2
 10
165.0
 20
94.5
 11
164.676476194
 21
93.292592717
  0
LINE
  8
5
  6
CONTINUOUS
 62
     2
 10
165.0
 20
94.5
 11
165.323523806
 21
93.292592717
  0
LINE
  8
5
  6
CONTINUOUS
 62
     2
 10
165.0
 20
94.5
 11
165.0
 21
75.5
  0
LINE
  8
5
  6
CONTINUOUS
 62
     2
 10
165.0
 20
75.5
 11
165.323523806
 21
76.707407283
  0
LINE
  8
5
  6
CONTINUOUS
 62
     2
 10
165.0
 20
75.5
 11
164.676476194
 21
76.707407283
  0
LINE
  8
5
  6
CONTINUOUS
 62
     2
 10
130.0
 20
75.5
 11
165.5
 21
75.5
  0
TEXT
  8
5
  6
CONTINUOUS
 62
     5
 10
164.5
 20
82.325
 30
0.05
 40
2.0
  1
φ１９
 50
90.0
 41
0.875
 51
0.0
  7
KANJI10
  0
LINE
  8
0
  6
CONTINUOUS
 62
     1
 10
28.0
 20
82.0
 11
23.0
 21
82.0
  0
LINE
  8
0
  6
CONTINUOUS
 62
     1
 10
23.0
 20
88.0
 11
28.0
 21
88.0
  0
ARC
  8
0
  6
CONTINUOUS
 62
     1
 10
24.125
 20
83.5
 40
1.875
 50
126.869897646
 51
233.130102354
  0
ARC
  8
0
  6
CONTINUOUS
 62
     1
 10
24.125
 20
86.5
 40
1.875
 50
126.869897646
 51
233.130102354
  0
ARC
  8
0
  6
CONTINUOUS
 62
     1
 10
21.875
 20
86.5
 40
1.875
 50
306.869897646
 51
53.130102354
  0
LINE
  8
0
  6
LTYPE3
 62
     2
 10
20.5
 20
85.0
 11
150.0
 21
85.0
  0
LINE
  8
5
  6
CONTINUOUS
 62
     2
 10
56.5
 20
100.0
 11
17.5
 21
100.0
  0
LINE
  8
5
  6
CONTINUOUS
 62
     2
 10
18.0
 20
100.0
 11
17.676476194
 21
98.792592717
  0
LINE
  8
5
  6
CONTINUOUS
 62
     2
 10
18.0
 20
100.0
 11
18.323523806
 21
98.792592717
  0
LINE
  8
5
  6
CONTINUOUS
 62
     2
 10
18.0
 20
100.0
 11
18.0
 21
70.0
  0
LINE
  8
5
  6
CONTINUOUS
 62
     2
 10
18.0
 20
70.0
 11
18.323523806
 21
71.207407283
  0
LINE
  8
5
  6
CONTINUOUS
 62
     2
 10
18.0
 20
70.0
 11
17.676476194
 21
71.207407283
  0
LINE
  8
5
  6
CONTINUOUS
 62
     2
 10
56.5
 20
70.0
 11
17.5
 21
70.0
  0
TEXT
  8
5
  6
CONTINUOUS
 62
     5
 10
17.5
 20
82.325
 30
0.05
 40
2.0
  1
φ３０
 50
90.0
 41
0.875
 51
0.0
  7
KANJI10
  0
LINE
  8
5
  6
CONTINUOUS
 62
     2
 10
57.0
 20
69.5
 11
57.0
 21
62.0
  0
LINE
  8
5
  6
CONTINUOUS
 62
     2
 10
57.0
 20
62.5
 11
58.207407283
 21
62.176476194
  0
LINE
  8
5
  6
CONTINUOUS
 62
     2
 10
57.0
 20
62.5
 11
58.207407283
 21
62.823523806
  0
LINE
  8
5
  6
CONTINUOUS
 62
     2
 10
57.0
 20
62.5
 11
117.5
 21
62.5
  0
LINE
  8
5
  6
CONTINUOUS
 62
     2
 10
117.5
 20
62.5
 11
116.292592717
 21
62.823523806
  0
LINE
  8
5
  6
CONTINUOUS
 62
     2
 10
117.5
 20
62.5
 11
116.292592717
 21
62.176476194
  0
LINE
  8
5
  6
CONTINUOUS
 62
     2
 10
117.5
 20
69.5
 11
117.5
 21
62.0
  0
TEXT
  8
5
  6
CONTINUOUS
 62
     5
 10
83.675
 20
63.0
 30
0.05
 40
2.0
  1
６０．５
 50
0.0
 41
0.875
 51
0.0
  7
KANJI10
  0
LINE
  8
5
  6
CONTINUOUS
 62
     2
 10
117.5
 20
62.5
 11
118.707407283
 21
62.176476194
  0
LINE
  8
5
  6
CONTINUOUS
 62
     2
 10
117.5
 20
62.5
 11
118.707407283
 21
62.823523806
  0
LINE
  8
5
  6
CONTINUOUS
 62
     2
 10
117.5
 20
62.5
 11
129.5
 21
62.5
  0
LINE
  8
5
  6
CONTINUOUS
 62
     2
 10
129.5
 20
62.5
 11
128.292592717
 21
62.823523806
  0
LINE
  8
5
  6
CONTINUOUS
 62
     2
 10
129.5
 20
62.5
 11
128.292592717
 21
62.176476194
  0
LINE
  8
5
  6
CONTINUOUS
 62
     2
 10
129.5
 20
75.0
 11
129.5
 21
62.0
  0
TEXT
  8
5
  6
CONTINUOUS
 62
     5
 10
121.725
 20
63.0
 30
0.05
 40
2.0
  1
１２
 50
0.0
 41
0.875
 51
0.0
  7
KANJI10
  0
LINE
  8
5
  6
CONTINUOUS
 62
     2
 10
129.5
 20
62.5
 11
130.707407283
 21
62.176476194
  0
LINE
  8
5
  6
CONTINUOUS
 62
     2
 10
129.5
 20
62.5
 11
130.707407283
 21
62.823523806
  0
LINE
  8
5
  6
CONTINUOUS
 62
     2
 10
129.5
 20
62.5
 11
147.5
 21
62.5
  0
LINE
  8
5
  6
CONTINUOUS
 62
     2
 10
147.5
 20
62.5
 11
146.292592717
 21
62.823523806
  0
LINE
  8
5
  6
CONTINUOUS
 62
     2
 10
147.5
 20
62.5
 11
146.292592717
 21
62.176476194
  0
LINE
  8
5
  6
CONTINUOUS
 62
     2
 10
147.5
 20
82.0
 11
147.5
 21
62.0
  0
TEXT
  8
5
  6
CONTINUOUS
 62
     5
 10
136.725
 20
63.0
 30
0.05
 40
2.0
  1
１８
 50
0.0
 41
0.875
 51
0.0
  7
KANJI10
  0
LINE
  8
5
  6
CONTINUOUS
 62
     2
 10
147.5
 20
62.0
 11
147.5
 21
57.0
  0
LINE
  8
5
  6
CONTINUOUS
 62
     2
 10
147.5
 20
57.5
 11
146.292592717
 21
57.823523806
  0
LINE
  8
5
  6
CONTINUOUS
 62
     2
 10
147.5
 20
57.5
 11
146.292592717
 21
57.176476194
  0
LINE
  8
5
  6
CONTINUOUS
 62
     2
 10
147.5
 20
57.5
 11
57.0
 21
57.5
  0
LINE
  8
5
  6
CONTINUOUS
 62
     2
 10
57.0
 20
57.5
 11
58.207407283
 21
57.176476194
  0
LINE
  8
5
  6
CONTINUOUS
 62
     2
 10
57.0
 20
57.5
 11
58.207407283
 21
57.823523806
  0
LINE
  8
5
  6
CONTINUOUS
 62
     2
 10
57.0
 20
62.0
 11
57.0
 21
57.0
  0
TEXT
  8
5
  6
CONTINUOUS
 62
     5
 10
98.675
 20
58.0
 30
0.05
 40
2.0
  1
９０．５
 50
0.0
 41
0.875
 51
0.0
  7
KANJI10
  0
LINE
  8
5
  6
CONTINUOUS
 62
     2
 10
108.0
 20
103.8
 11
108.829337442
 21
104.73525366
  0
LINE
  8
5
  6
CONTINUOUS
 62
     2
 10
108.0
 20
103.8
 11
108.250600463
 21
105.024622149
  0
LINE
  8
5
  6
CONTINUOUS
 62
     2
 10
108.0
 20
103.8
 11
113.0
 21
113.8
  0
LINE
  8
5
  6
CONTINUOUS
 62
     2
 10
113.0
 20
113.8
 11
123.75
 21
113.8
  0
TEXT
  8
5
  6
CONTINUOUS
 62
     5
 10
113.0
 20
114.3
 30
0.05
 40
2.0
  1
ドレンコック
 50
0.0
 41
0.875
 51
0.0
  7
KANJI10
  0
LINE
  8
5
  6
CONTINUOUS
 62
     2
 10
134.644
 20
93.331
 11
135.332737339
 21
94.374139913
  0
LINE
  8
5
  6
CONTINUOUS
 62
     2
 10
134.644
 20
93.331
 11
134.718894076
 21
94.578754334
  0
LINE
  8
5
  6
CONTINUOUS
 62
     2
 10
134.644
 20
93.331
 11
139.644
 21
108.331
  0
LINE
  8
5
  6
CONTINUOUS
 62
     2
 10
139.644
 20
108.331
 11
146.794
 21
108.331
  0
TEXT
  8
5
  6
CONTINUOUS
 62
     5
 10
139.644
 20
108.831
 30
0.05
 40
2.0
  1
Ｇ３／８
 50
0.0
 41
0.875
 51
0.0
  7
KANJI10
  0
TEXT
  8
6
  6
CONTINUOUS
 62
     5
 10
138.0
 20
11.5
 30
0.0
 40
2.0
  1
２
 50
0.0
 41
0.875
 51
0.0
  7
KANJI4
  0
TEXT
  8
6
  6
CONTINUOUS
 62
     5
 10
169.25
 20
18.0
 30
-0.25
 40
1.5
  1
２０１０．
 50
0.0
 41
0.833333333
 51
0.0
  7
KANJI11
  0
TEXT
  8
6
  6
CONTINUOUS
 62
     5
 10
170.5
 20
16.5
 30
-0.25
 40
1.5
  1
０４．０６
 50
0.0
 41
0.833333333
 51
0.0
  7
KANJI11
  0
TEXT
  8
6
  6
CONTINUOUS
 62
     5
 10
184.875
 20
11.5
 30
0.0
 40
2.0
  1
ＨＶＵ－□ＰＡ
 50
0.0
 41
0.875
 51
0.0
  7
KANJI4
  0
TEXT
  8
6
  6
CONTINUOUS
 62
     5
 10
179.375
 20
6.0
 30
0.0
 40
2.0
  1
Ｈ－０１１７－Ａ００１
 50
0.0
 41
0.875
 51
0.0
  7
KANJI4
  0
LINE
  8
5
  6
CONTINUOUS
 62
     2
 10
144.5
 20
91.5
 11
145.582531755
 21
92.125
  0
LINE
  8
5
  6
CONTINUOUS
 62
     2
 10
144.5
 20
91.5
 11
145.125
 21
92.582531755
  0
LINE
  8
5
  6
CONTINUOUS
 62
     2
 10
152.0
 20
99.0
 11
167.275
 21
99.0
  0
TEXT
  8
5
  6
CONTINUOUS
 62
     5
 10
152.0
 20
99.5
 30
0.05
 40
2.0
  1
２－巾０．５Ｖ形溝
 50
0.0
 41
0.875
 51
0.0
  7
KANJI10
  0
LINE
  8
5
  6
CONTINUOUS
 62
     2
 10
144.5
 20
91.5
 11
152.0
 21
99.0
  0
LINE
  8
0
  6
CONTINUOUS
 62
     1
 10
144.5
 20
89.0
 11
144.0
 21
89.5
  0
LINE
  8
0
  6
CONTINUOUS
 62
     1
 10
144.0
 20
89.5
 11
144.5
 21
90.0
  0
LINE
  8
0
  6
CONTINUOUS
 62
     1
 10
144.5
 20
91.0
 11
144.0
 21
91.5
  0
LINE
  8
0
  6
CONTINUOUS
 62
     1
 10
144.0
 20
91.5
 11
144.5
 21
92.0
  0
LINE
  8
0
  6
LTYPE3
 62
     2
 10
142.0
 20
91.5
 11
146.5
 21
91.5
  0
LINE
  8
0
  6
LTYPE3
 62
     2
 10
142.0
 20
89.5
 11
146.5
 21
89.5
  0
ENDSEC
  0
EOF
