  0
SECTION
  2
HEADER
  9
$ACADVER
  1
AC1015
  9
$ACADMAINTVER
 70
     6
  9
$DWGCODEPAGE
  3
ANSI_932
  9
$INSBASE
 10
0.0
 20
0.0
 30
0.0
  9
$EXTMIN
 10
29.10464486056883
 20
573.6165667232117
 30
0.0
  9
$EXTMAX
 10
614.8173390668516
 20
1039.578029762271
 30
0.0
  9
$LIMMIN
 10
0.0
 20
0.0
  9
$LIMMAX
 10
10000.0
 20
10000.0
  9
$ORTHOMODE
 70
     1
  9
$REGENMODE
 70
     1
  9
$FILLMODE
 70
     1
  9
$QTEXTMODE
 70
     0
  9
$MIRRTEXT
 70
     1
  9
$LTSCALE
 40
10.0
  9
$ATTMODE
 70
     1
  9
$TEXTSIZE
 40
3.5
  9
$TRACEWID
 40
1.0
  9
$TEXTSTYLE
  7
AD-STANDARD
  9
$CLAYER
  8
0
  9
$CELTYPE
  6
BYLAYER
  9
$CECOLOR
 62
     0
  9
$CELTSCALE
 40
1.0
  9
$DISPSILH
 70
     0
  9
$DIMSCALE
 40
1.0
  9
$DIMASZ
 40
2.5
  9
$DIMEXO
 40
1.0
  9
$DIMDLI
 40
0.38
  9
$DIMRND
 40
0.0
  9
$DIMDLE
 40
0.0
  9
$DIMEXE
 40
2.0
  9
$DIMTP
 40
0.0
  9
$DIMTM
 40
0.0
  9
$DIMTXT
 40
3.5
  9
$DIMCEN
 40
-2.0
  9
$DIMTSZ
 40
0.0
  9
$DIMTOL
 70
     0
  9
$DIMLIM
 70
     0
  9
$DIMTIH
 70
     0
  9
$DIMTOH
 70
     0
  9
$DIMSE1
 70
     0
  9
$DIMSE2
 70
     0
  9
$DIMTAD
 70
     1
  9
$DIMZIN
 70
     8
  9
$DIMBLK
  1

  9
$DIMASO
 70
     1
  9
$DIMSHO
 70
     1
  9
$DIMPOST
  1

  9
$DIMAPOST
  1

  9
$DIMALT
 70
     0
  9
$DIMALTD
 70
     2
  9
$DIMALTF
 40
25.4
  9
$DIMLFAC
 40
1.0
  9
$DIMTOFL
 70
     1
  9
$DIMTVP
 40
0.0
  9
$DIMTIX
 70
     0
  9
$DIMSOXD
 70
     0
  9
$DIMSAH
 70
     0
  9
$DIMBLK1
  1

  9
$DIMBLK2
  1

  9
$DIMSTYLE
  2
AD-STANDARD
  9
$DIMCLRD
 70
     9
  9
$DIMCLRE
 70
     9
  9
$DIMCLRT
 70
     2
  9
$DIMTFAC
 40
1.0
  9
$DIMGAP
 40
0.5
  9
$DIMJUST
 70
     0
  9
$DIMSD1
 70
     0
  9
$DIMSD2
 70
     0
  9
$DIMTOLJ
 70
     1
  9
$DIMTZIN
 70
     8
  9
$DIMALTZ
 70
     0
  9
$DIMALTTZ
 70
     0
  9
$DIMUPT
 70
     0
  9
$DIMDEC
 70
     4
  9
$DIMTDEC
 70
     4
  9
$DIMALTU
 70
     2
  9
$DIMALTTD
 70
     2
  9
$DIMTXSTY
  7
AD-STANDARD
  9
$DIMAUNIT
 70
     0
  9
$DIMADEC
 70
     0
  9
$DIMALTRND
 40
0.0
  9
$DIMAZIN
 70
     0
  9
$DIMDSEP
 70
    46
  9
$DIMATFIT
 70
     3
  9
$DIMFRAC
 70
     0
  9
$DIMLDRBLK
  1

  9
$DIMLUNIT
 70
     2
  9
$DIMLWD
 70
    -2
  9
$DIMLWE
 70
    -2
  9
$DIMTMOVE
 70
     0
  9
$LUNITS
 70
     2
  9
$LUPREC
 70
     4
  9
$SKETCHINC
 40
1.0
  9
$FILLETRAD
 40
0.0
  9
$AUNITS
 70
     0
  9
$AUPREC
 70
     0
  9
$MENU
  1
.
  9
$ELEVATION
 40
0.0
  9
$PELEVATION
 40
0.0
  9
$THICKNESS
 40
0.0
  9
$LIMCHECK
 70
     0
  9
$CHAMFERA
 40
0.0
  9
$CHAMFERB
 40
0.0
  9
$CHAMFERC
 40
673.4006734006733
  9
$CHAMFERD
 40
0.0
  9
$SKPOLY
 70
     0
  9
$TDCREATE
 40
2454008.800192616
  9
$TDUCREATE
 40
2454008.425192616
  9
$TDUPDATE
 40
2455307.867380914
  9
$TDUUPDATE
 40
2455307.492380914
  9
$TDINDWG
 40
0.3041921759
  9
$TDUSRTIMER
 40
0.3041916435
  9
$USRTIMER
 70
     1
  9
$ANGBASE
 50
0.0
  9
$ANGDIR
 70
     0
  9
$PDMODE
 70
     0
  9
$PDSIZE
 40
0.0
  9
$PLINEWID
 40
0.0
  9
$SPLFRAME
 70
     0
  9
$SPLINETYPE
 70
     6
  9
$SPLINESEGS
 70
     8
  9
$HANDSEED
  5
15C3
  9
$SURFTAB1
 70
     6
  9
$SURFTAB2
 70
     6
  9
$SURFTYPE
 70
     6
  9
$SURFU
 70
     6
  9
$SURFV
 70
     6
  9
$UCSBASE
  2

  9
$UCSNAME
  2

  9
$UCSORG
 10
0.0
 20
0.0
 30
0.0
  9
$UCSXDIR
 10
1.0
 20
0.0
 30
0.0
  9
$UCSYDIR
 10
0.0
 20
1.0
 30
0.0
  9
$UCSORTHOREF
  2

  9
$UCSORTHOVIEW
 70
     0
  9
$UCSORGTOP
 10
0.0
 20
0.0
 30
0.0
  9
$UCSORGBOTTOM
 10
0.0
 20
0.0
 30
0.0
  9
$UCSORGLEFT
 10
0.0
 20
0.0
 30
0.0
  9
$UCSORGRIGHT
 10
0.0
 20
0.0
 30
0.0
  9
$UCSORGFRONT
 10
0.0
 20
0.0
 30
0.0
  9
$UCSORGBACK
 10
0.0
 20
0.0
 30
0.0
  9
$PUCSBASE
  2

  9
$PUCSNAME
  2

  9
$PUCSORG
 10
0.0
 20
0.0
 30
0.0
  9
$PUCSXDIR
 10
1.0
 20
0.0
 30
0.0
  9
$PUCSYDIR
 10
0.0
 20
1.0
 30
0.0
  9
$PUCSORTHOREF
  2

  9
$PUCSORTHOVIEW
 70
     0
  9
$PUCSORGTOP
 10
0.0
 20
0.0
 30
0.0
  9
$PUCSORGBOTTOM
 10
0.0
 20
0.0
 30
0.0
  9
$PUCSORGLEFT
 10
0.0
 20
0.0
 30
0.0
  9
$PUCSORGRIGHT
 10
0.0
 20
0.0
 30
0.0
  9
$PUCSORGFRONT
 10
0.0
 20
0.0
 30
0.0
  9
$PUCSORGBACK
 10
0.0
 20
0.0
 30
0.0
  9
$USERI1
 70
     0
  9
$USERI2
 70
     0
  9
$USERI3
 70
     0
  9
$USERI4
 70
     0
  9
$USERI5
 70
     0
  9
$USERR1
 40
0.0
  9
$USERR2
 40
0.0
  9
$USERR3
 40
0.0
  9
$USERR4
 40
0.0
  9
$USERR5
 40
0.0
  9
$WORLDVIEW
 70
     1
  9
$SHADEDGE
 70
     3
  9
$SHADEDIF
 70
    70
  9
$TILEMODE
 70
     0
  9
$MAXACTVP
 70
    16
  9
$PINSBASE
 10
0.0
 20
0.0
 30
0.0
  9
$PLIMCHECK
 70
     0
  9
$PEXTMIN
 10
15.0
 20
16.84999999999994
 30
0.0
  9
$PEXTMAX
 10
405.1499999999999
 20
282.1499999999999
 30
0.0
  9
$PLIMMIN
 10
0.1028315396745825
 20
-2.997964686289435
  9
$PLIMMAX
 10
420.049486813112
 20
293.9280301867574
  9
$UNITMODE
 70
     0
  9
$VISRETAIN
 70
     0
  9
$PLINEGEN
 70
     0
  9
$PSLTSCALE
 70
     1
  9
$TREEDEPTH
 70
  3020
  9
$CMLSTYLE
  2
STANDARD
  9
$CMLJUST
 70
     0
  9
$CMLSCALE
 40
1.0
  9
$PROXYGRAPHICS
 70
     1
  9
$MEASUREMENT
 70
     1
  9
$CELWEIGHT
370
    -1
  9
$ENDCAPS
280
     0
  9
$JOINSTYLE
280
     0
  9
$LWDISPLAY
290
     0
  9
$INSUNITS
 70
     0
  9
$HYPERLINKBASE
  1

  9
$STYLESHEET
  1

  9
$XEDIT
290
     1
  9
$CEPSNTYPE
380
     0
  9
$PSTYLEMODE
290
     1
  9
$FINGERPRINTGUID
  2
{8ACAE060-96A8-11D3-AA4A-00A0247712C1}
  9
$VERSIONGUID
  2
{23259F8F-A955-4EA5-8777-AC5F957637BE}
  9
$EXTNAMES
290
     1
  9
$PSVPSCALE
 40
0.0
  9
$OLESTARTUP
290
     0
  0
ENDSEC
  0
SECTION
  2
CLASSES
  0
CLASS
  1
LWPOLYLINE
  2
AcDbPolyline
  3
AutoCAD 2000
 90
    32768
280
     0
281
     1
  0
CLASS
  1
ACDBDICTIONARYWDFLT
  2
AcDbDictionaryWithDefault
  3
AutoCAD 2000
 90
        0
280
     0
281
     0
  0
CLASS
  1
ACDBPLACEHOLDER
  2
AcDbPlaceHolder
  3
AutoCAD 2000
 90
        0
280
     0
281
     0
  0
CLASS
  1
LAYOUT
  2
AcDbLayout
  3
AutoCAD 2000
 90
        0
280
     0
281
     0
  0
CLASS
  1
PLOTSETTINGS
  2
AcDbPlotSettings
  3
AutoCAD 2000
 90
        0
280
     0
281
     0
  0
CLASS
  1
MATERIAL
  2
AcDbMaterial
  3
ObjectDBX Classes
 90
     1153
280
     0
281
     0
  0
CLASS
  1
VISUALSTYLE
  2
AcDbVisualStyle
  3
ObjectDBX Classes
 90
     4095
280
     0
281
     0
  0
CLASS
  1
TABLESTYLE
  2
AcDbTableStyle
  3
ObjectDBX Classes
 90
     4095
280
     0
281
     0
  0
CLASS
  1
DICTIONARYVAR
  2
AcDbDictionaryVar
  3
AutoCAD 2000
 90
        0
280
     0
281
     0
  0
ENDSEC
  0
SECTION
  2
TABLES
  0
TABLE
  2
VPORT
  5
8
102
{ACAD_XDICTIONARY
360
13C7
102
}
330
0
100
AcDbSymbolTable
 70
     2
  0
VPORT
  5
15C2
330
8
100
AcDbSymbolTableRecord
100
AcDbViewportTableRecord
  2
*Active
 70
     0
 10
0.0
 20
0.0
 11
1.0
 21
1.0
 12
329.7478402337462
 22
900.0639381785731
 13
0.0
 23
0.0
 14
168.0
 24
168.0
 15
0.0
 25
0.0
 16
0.0
 26
0.0
 36
1.0
 17
0.0
 27
0.0
 37
0.0
 40
538.4490361910439
 41
1.666225165562913
 42
50.0
 43
0.0
 44
0.0
 50
0.0
 51
0.0
 71
     0
 72
   100
 73
     1
 74
     0
 75
     0
 76
     0
 77
     0
 78
     1
281
     0
 65
     1
110
0.0
120
0.0
130
0.0
111
1.0
121
0.0
131
0.0
112
0.0
122
1.0
132
0.0
 79
     0
146
0.0
  0
ENDTAB
  0
TABLE
  2
LTYPE
  5
5
330
0
100
AcDbSymbolTable
 70
     2
  0
LTYPE
  5
14
330
5
100
AcDbSymbolTableRecord
100
AcDbLinetypeTableRecord
  2
BYBLOCK
 70
     0
  3

 72
    65
 73
     0
 40
0.0
  0
LTYPE
  5
15
330
5
100
AcDbSymbolTableRecord
100
AcDbLinetypeTableRecord
  2
BYLAYER
 70
     0
  3

 72
    65
 73
     0
 40
0.0
  0
LTYPE
  5
16
330
5
100
AcDbSymbolTableRecord
100
AcDbLinetypeTableRecord
  2
CONTINUOUS
 70
     0
  3
Solid line
 72
    65
 73
     0
 40
0.0
  0
LTYPE
  5
6F
330
5
100
AcDbSymbolTableRecord
100
AcDbLinetypeTableRecord
  2
HIDDEN
 70
     0
  3
__ __ __ __ __ __ __ __ __ __ __ __ __ __ __ __
 72
    65
 73
     2
 40
0.375
 49
0.25
 74
     0
 49
-0.125
 74
     0
  0
ENDTAB
  0
TABLE
  2
LAYER
  5
2
330
0
100
AcDbSymbolTable
 70
     2
  0
LAYER
  5
F
102
{ACAD_XDICTIONARY
360
13C9
102
}
330
2
100
AcDbSymbolTableRecord
100
AcDbLayerTableRecord
  2
0
 70
     0
 62
     7
  6
CONTINUOUS
370
    -3
390
2C1
  0
LAYER
  5
72
102
{ACAD_XDICTIONARY
360
13D1
102
}
330
2
100
AcDbSymbolTableRecord
100
AcDbLayerTableRecord
  2
DEFPOINTS
 70
     0
 62
     7
  6
CONTINUOUS
290
     0
370
    -3
390
2C1
  0
ENDTAB
  0
TABLE
  2
STYLE
  5
3
330
0
100
AcDbSymbolTable
 70
     2
  0
STYLE
  5
10
330
3
100
AcDbSymbolTableRecord
100
AcDbTextStyleTableRecord
  2
STANDARD
 70
     0
 40
0.0
 41
0.8
 50
0.0
 71
     0
 42
84.17508417508416
  3
TXT
  4
bigfont.shx
  0
STYLE
  5
63
330
3
100
AcDbSymbolTableRecord
100
AcDbTextStyleTableRecord
  2
AD-STANDARD
 70
     0
 40
0.0
 41
0.8
 50
0.0
 71
     0
 42
3.5
  3
C:\Program Files\AutoCAD LT\romans.shx
  4
bigfont.shx
  0
ENDTAB
  0
TABLE
  2
VIEW
  5
6
330
0
100
AcDbSymbolTable
 70
     0
  0
ENDTAB
  0
TABLE
  2
UCS
  5
7
330
0
100
AcDbSymbolTable
 70
     0
  0
ENDTAB
  0
TABLE
  2
APPID
  5
9
330
0
100
AcDbSymbolTable
 70
     6
  0
APPID
  5
11
330
9
100
AcDbSymbolTableRecord
100
AcDbRegAppTableRecord
  2
ACAD
 70
     0
  0
APPID
  5
22A
330
9
100
AcDbSymbolTableRecord
100
AcDbRegAppTableRecord
  2
CONTENTTABDATA
 70
     0
  0
APPID
  5
22B
330
9
100
AcDbSymbolTableRecord
100
AcDbRegAppTableRecord
  2
CONTENTCURRENTTAB
 70
     0
  0
APPID
  5
232
330
9
100
AcDbSymbolTableRecord
100
AcDbRegAppTableRecord
  2
CONTENTBLOCKDESCRIPTION
 70
     0
  0
APPID
  5
233
330
9
100
AcDbSymbolTableRecord
100
AcDbRegAppTableRecord
  2
CONTENTBLOCKICON
 70
     0
  0
APPID
  5
13BD
330
9
100
AcDbSymbolTableRecord
100
AcDbRegAppTableRecord
  2
ACAD_PSEXT
 70
     0
  0
ENDTAB
  0
TABLE
  2
DIMSTYLE
  5
A
330
0
100
AcDbSymbolTable
 70
     2
100
AcDbDimStyleTable
 71
     1
340
68
  0
DIMSTYLE
105
1D
330
A
100
AcDbSymbolTableRecord
100
AcDbDimStyleTableRecord
  2
STANDARD
 70
     0
340
10
  0
DIMSTYLE
105
68
330
A
100
AcDbSymbolTableRecord
100
AcDbDimStyleTableRecord
  2
AD-STANDARD
 70
     0
 41
2.5
 42
1.0
 44
2.0
 73
     0
 74
     0
 77
     1
 78
     8
140
3.5
141
-2.0
147
0.5
172
     1
176
     9
177
     9
178
     2
284
     8
340
63
  0
ENDTAB
  0
TABLE
  2
BLOCK_RECORD
  5
1
330
0
100
AcDbSymbolTable
 70
     0
  0
BLOCK_RECORD
  5
1A
330
1
100
AcDbSymbolTableRecord
100
AcDbBlockTableRecord
  2
*MODEL_SPACE
340
2C4
  0
BLOCK_RECORD
  5
17
330
1
100
AcDbSymbolTableRecord
100
AcDbBlockTableRecord
  2
*PAPER_SPACE
340
2C5
  0
ENDTAB
  0
ENDSEC
  0
SECTION
  2
BLOCKS
  0
BLOCK
  5
1B
330
1A
100
AcDbEntity
  8
0
100
AcDbBlockBegin
  2
*MODEL_SPACE
 70
     0
 10
0.0
 20
0.0
 30
0.0
  3
*MODEL_SPACE
  1

  0
ENDBLK
  5
1C
330
1A
100
AcDbEntity
  8
0
100
AcDbBlockEnd
  0
BLOCK
  5
18
330
17
100
AcDbEntity
 67
     1
  8
0
100
AcDbBlockBegin
  2
*PAPER_SPACE
 70
     0
 10
0.0
 20
0.0
 30
0.0
  3
*PAPER_SPACE
  1

  0
ENDBLK
  5
19
330
17
100
AcDbEntity
 67
     1
  8
0
100
AcDbBlockEnd
  0
ENDSEC
  0
SECTION
  2
ENTITIES
  0
MTEXT
  5
3AD
330
1A
100
AcDbEntity
  8
0
100
AcDbMText
 10
115.2929324332508
 20
130.8759996587505
 30
0.0
 40
3.5
 41
45.7425
 71
     1
 72
     5
  1

  7
AD-STANDARD
 73
     1
 44
1.0
1001
ACAD
1000
MTEXTBEGIN
1070
    73
1070
     1
1070
    44
1040
1.0
1070
    74
1070
     0
1000
MTEXTEND
  0
ARC
  5
AD1
330
1A
100
AcDbEntity
  8
0
100
AcDbCircle
 10
350.774464842897
 20
997.9995204289945
 30
0.0
 40
20.0
100
AcDbArc
 50
92.96975146140324
 51
175.7941030220115
  0
ARC
  5
AD2
330
1A
100
AcDbEntity
  8
0
100
AcDbCircle
 10
350.1189481680785
 20
999.9680994940502
 30
0.0
 40
20.5
100
AcDbArc
 50
92.99114916818775
 51
175.6821305450966
  0
ARC
  5
AD3
330
1A
100
AcDbEntity
  8
0
100
AcDbCircle
 10
350.1189481680785
 20
852.4002363464445
 30
0.0
 40
20.5
100
AcDbArc
 50
184.3178694549033
 51
267.0088508318122
  0
ARC
  5
AD4
330
1A
100
AcDbEntity
  8
0
100
AcDbCircle
 10
350.7376353678173
 20
854.8713997935704
 30
0.0
 40
20.0
100
AcDbArc
 50
184.1764104811913
 51
267.0278121870974
  0
LINE
  5
AD5
330
1A
100
AcDbEntity
  8
0
100
AcDbLine
 10
326.837446022168
 20
633.0659009795223
 30
0.0
 11
357.0588760227501
 21
633.0659009795214
 31
0.0
  0
LINE
  5
AD6
330
1A
100
AcDbEntity
  8
0
100
AcDbLine
 10
331.5222167767947
 20
631.5072973846859
 30
0.0
 11
345.1192153565926
 21
620.011337717634
 31
0.0
  0
LINE
  5
AD7
330
1A
100
AcDbEntity
  8
0
100
AcDbLine
 10
327.5610593380879
 20
647.8612505590177
 30
0.0
 11
418.5868342644903
 21
680.9919231832415
 31
0.0
  0
ARC
  5
ADD
330
1A
100
AcDbEntity
  8
0
100
AcDbCircle
 10
157.6516569373507
 20
3342.019991747201
 30
0.0
 40
2692.273543408273
100
AcDbArc
 50
268.3464664169731
 51
271.6535335830268
  0
LINE
  5
ADE
330
1A
100
AcDbEntity
  8
0
100
AcDbLine
 10
245.6200684610212
 20
674.2554128145854
 30
0.0
 11
69.68324541367952
 21
674.2554128145854
 31
0.0
  0
ARC
  5
ADF
330
1A
100
AcDbEntity
  8
0
100
AcDbCircle
 10
157.6516569373507
 20
3342.019991747201
 30
0.0
 40
2693.973543408273
100
AcDbArc
 50
268.0442161040549
 51
271.9557838959451
  0
LINE
  5
AE0
330
1A
100
AcDbEntity
  8
0
100
AcDbLine
 10
244.9615816437098
 20
619.0659009795214
 30
0.0
 11
70.34173223099083
 21
619.0659009795214
 31
0.0
  0
LINE
  5
AE1
330
1A
100
AcDbEntity
  8
0
100
AcDbLine
 10
253.3481567489716
 20
633.0659009795232
 30
0.0
 11
61.9551571257291
 21
633.0659009795214
 31
0.0
  0
LINE
  5
AE4
330
1A
100
AcDbEntity
  8
0
100
AcDbLine
 10
217.0157216941318
 20
697.065900979524
 30
0.0
 11
98.28759218057212
 21
697.0659009795233
 31
0.0
  0
LINE
  5
AE5
330
1A
100
AcDbEntity
  8
0
100
AcDbLine
 10
210.6516569373507
 20
670.7099026627408
 30
0.0
 11
104.6516569373507
 21
670.7099026627408
 31
0.0
  0
LINE
  5
AE6
330
1A
100
AcDbEntity
  8
0
100
AcDbLine
 10
210.6516569373507
 20
658.6988849319574
 30
0.0
 11
104.6516569373497
 21
658.6988849319574
 31
0.0
  0
ARC
  5
AE7
330
1A
100
AcDbEntity
  8
0
100
AcDbCircle
 10
157.6516569373507
 20
838.1753594377492
 30
0.0
 40
162.4070602292021
100
AcDbArc
 50
253.3623759182753
 51
286.6376240817246
  0
ARC
  5
AE9
330
1A
100
AcDbEntity
  8
0
100
AcDbCircle
 10
104.6516569373497
 20
660.6988849319574
 30
0.0
 40
2.0
100
AcDbArc
 50
180.0
 51
270.0
  0
LINE
  5
AEA
330
1A
100
AcDbEntity
  8
0
100
AcDbLine
 10
69.68324541367952
 20
674.2554128145854
 30
0.0
 11
70.26180956981102
 21
660.444812087259
 31
0.0
  0
LINE
  5
AEB
330
1A
100
AcDbEntity
  8
0
100
AcDbLine
 10
64.42893003756603
 20
680.2213554391106
 30
0.0
 11
65.71108156977084
 21
649.6157904459174
 31
0.0
  0
LINE
  5
AEC
330
1A
100
AcDbEntity
  8
0
100
AcDbLine
 10
64.2135898455474
 20
679.2429141111102
 30
0.0
 11
61.9551571257291
 21
633.0659009795214
 31
0.0
  0
ARC
  5
AED
330
1A
100
AcDbEntity
  8
0
100
AcDbCircle
 10
80.25304608715487
 20
660.8633725422675
 30
0.0
 40
10.0
100
AcDbArc
 50
182.398875545401
 51
268.3464664169731
  0
LINE
  5
AEE
330
1A
100
AcDbEntity
  8
0
100
AcDbLine
 10
94.65165693735071
 20
613.9148361451588
 30
0.0
 11
94.65165693735071
 21
615.9148361451587
 31
0.0
  0
LINE
  5
AEF
330
1A
100
AcDbEntity
  8
0
100
AcDbLine
 10
74.09068781150494
 20
612.9148361451588
 30
0.0
 11
74.09068781150494
 21
616.9148361451588
 31
0.0
  0
LINE
  5
AF0
330
1A
100
AcDbEntity
  8
0
100
AcDbLine
 10
75.45232378930563
 20
612.9148361451588
 30
0.0
 11
75.45232378930586
 21
616.9148361451588
 31
0.0
  0
LINE
  5
AF1
330
1A
100
AcDbEntity
  8
0
100
AcDbLine
 10
71.74443812902268
 20
612.9148361451588
 30
0.0
 11
71.74443812902291
 21
616.9148361451588
 31
0.0
  0
LINE
  5
AF2
330
1A
100
AcDbEntity
  8
0
100
AcDbLine
 10
77.85099008539623
 20
612.9148361451588
 30
0.0
 11
77.850990085396
 21
616.9148361451588
 31
0.0
  0
LINE
  5
AF3
330
1A
100
AcDbEntity
  8
0
100
AcDbLine
 10
79.21262606319692
 20
612.9148361451588
 30
0.0
 11
79.21262606319714
 21
616.9148361451588
 31
0.0
  0
ARC
  5
AF4
330
1A
100
AcDbEntity
  8
0
100
AcDbCircle
 10
85.00227440293475
 20
609.9148361451588
 30
0.0
 40
3.0
100
AcDbArc
 50
90.0
 51
107.8571981222183
  0
LINE
  5
AF5
330
1A
100
AcDbEntity
  8
0
100
AcDbLine
 10
81.55887574567804
 20
612.9148361451588
 30
0.0
 11
81.55887574567804
 21
616.9148361451588
 31
0.0
  0
LINE
  5
AF6
330
1A
100
AcDbEntity
  8
0
100
AcDbLine
 10
89.19602748634678
 20
612.9148361451588
 30
0.0
 11
89.19602748634678
 21
616.9148361451588
 31
0.0
  0
LINE
  5
AF7
330
1A
100
AcDbEntity
  8
0
100
AcDbLine
 10
90.80104851950181
 20
612.9148361451588
 30
0.0
 11
90.80104851950228
 21
616.9148361451588
 31
0.0
  0
LINE
  5
AF8
330
1A
100
AcDbEntity
  8
0
100
AcDbLine
 10
91.60580661529639
 20
612.9148361451588
 30
0.0
 11
91.60580661529683
 21
616.9148361451588
 31
0.0
  0
LINE
  5
AF9
330
1A
100
AcDbEntity
  8
0
100
AcDbLine
 10
92.80513976334168
 20
612.9148361451588
 30
0.0
 11
92.80513976334168
 21
616.9148361451588
 31
0.0
  0
LINE
  5
AFA
330
1A
100
AcDbEntity
  8
0
100
AcDbLine
 10
93.09547517491683
 20
612.9148361451588
 30
0.0
 11
93.09547517491683
 21
616.9148361451588
 31
0.0
  0
LINE
  5
AFB
330
1A
100
AcDbEntity
  8
0
100
AcDbLine
 10
93.77067423066273
 20
612.9219439637553
 30
0.0
 11
93.7706742306641
 21
616.9077283265623
 31
0.0
  0
ARC
  5
AFC
330
1A
100
AcDbEntity
  8
0
100
AcDbCircle
 10
93.6516569373507
 20
613.9148361451588
 30
0.0
 40
1.0
100
AcDbArc
 50
270.0
 51
0.0
  0
ARC
  5
AFD
330
1A
100
AcDbEntity
  8
0
100
AcDbCircle
 10
93.6516569373507
 20
615.9148361451587
 30
0.0
 40
1.0
100
AcDbArc
 50
0.0
 51
90.0
  0
ARC
  5
AFE
330
1A
100
AcDbEntity
  8
0
100
AcDbCircle
 10
59.65165693735094
 20
613.9148361451588
 30
0.0
 40
1.0
100
AcDbArc
 50
180.0
 51
270.0
  0
LINE
  5
AFF
330
1A
100
AcDbEntity
  8
0
100
AcDbLine
 10
58.65165693735093
 20
613.9148361451588
 30
0.0
 11
58.65165693735093
 21
615.9148361451587
 31
0.0
  0
ARC
  5
B00
330
1A
100
AcDbEntity
  8
0
100
AcDbCircle
 10
59.65165693735094
 20
615.9148361451587
 30
0.0
 40
1.0
100
AcDbArc
 50
90.0
 51
180.0
  0
LINE
  5
B01
330
1A
100
AcDbEntity
  8
0
100
AcDbLine
 10
62.50226535519892
 20
612.9148361451588
 30
0.0
 11
62.50226535519892
 21
616.9148361451588
 31
0.0
  0
LINE
  5
B02
330
1A
100
AcDbEntity
  8
0
100
AcDbLine
 10
61.69750725940435
 20
612.9148361451588
 30
0.0
 11
61.69750725940435
 21
616.9148361451588
 31
0.0
  0
LINE
  5
B03
330
1A
100
AcDbEntity
  8
0
100
AcDbLine
 10
60.49817411135904
 20
612.9148361451588
 30
0.0
 11
60.49817411135904
 21
616.9148361451588
 31
0.0
  0
LINE
  5
B04
330
1A
100
AcDbEntity
  8
0
100
AcDbLine
 10
60.20783869978391
 20
612.9148361451588
 30
0.0
 11
60.20783869978391
 21
616.9148361451588
 31
0.0
  0
LINE
  5
B05
330
1A
100
AcDbEntity
  8
0
100
AcDbLine
 10
59.532639644038
 20
612.9219439637553
 30
0.0
 11
59.532639644038
 21
616.9077283265623
 31
0.0
  0
LINE
  5
B06
330
1A
100
AcDbEntity
  8
0
100
AcDbLine
 10
63.45165693735021
 20
619.0659009795214
 30
0.0
 11
61.65165693735094
 21
619.0659009795214
 31
0.0
  0
ARC
  5
B07
330
1A
100
AcDbEntity
  8
0
100
AcDbCircle
 10
67.83011749770162
 20
609.9148361451588
 30
0.0
 40
3.0
100
AcDbArc
 50
72.14280187778165
 51
90.0
  0
LINE
  5
B08
330
1A
100
AcDbEntity
  8
0
100
AcDbLine
 10
64.10728638835394
 20
612.9148361451588
 30
0.0
 11
64.10728638835394
 21
616.9148361451588
 31
0.0
  0
LINE
  5
B09
330
1A
100
AcDbEntity
  8
0
100
AcDbLine
 10
63.75515712572928
 20
633.0659009795214
 30
0.0
 11
63.45165693735021
 21
619.0659009795214
 31
0.0
  0
LINE
  5
B0A
330
1A
100
AcDbEntity
  8
0
100
AcDbLine
 10
61.9551571257291
 20
633.0659009795214
 30
0.0
 11
61.65165693735094
 21
619.0659009795214
 31
0.0
  0
LINE
  5
B0B
330
1A
100
AcDbEntity
  8
0
100
AcDbLine
 10
65.45156624555807
 20
633.0659009795214
 30
0.0
 11
66.35695343862358
 21
622.7172780085307
 31
0.0
  0
LINE
  5
B0C
330
1A
100
AcDbEntity
  8
0
100
AcDbLine
 10
59.65165693735094
 20
616.9148361451588
 30
0.0
 11
93.6516569373507
 21
616.9148361451588
 31
0.0
  0
LINE
  5
B0D
330
1A
100
AcDbEntity
  8
0
100
AcDbLine
 10
59.65165693735094
 20
612.9148361451588
 30
0.0
 11
93.6516569373507
 21
612.9148361451588
 31
0.0
  0
ARC
  5
B0E
330
1A
100
AcDbEntity
  8
0
100
AcDbCircle
 10
70.34173223099083
 20
623.0659009795214
 30
0.0
 40
4.0
100
AcDbArc
 50
184.9999999999736
 51
270.0
  0
LINE
  5
B0F
330
1A
100
AcDbEntity
  8
0
100
AcDbLine
 10
65.71108156977084
 20
649.6157904459174
 30
0.0
 11
64.90165693735093
 21
633.0659009795214
 31
0.0
  0
ARC
  5
B10
330
1A
100
AcDbEntity
  8
0
100
AcDbCircle
 10
76.4161959503183
 20
636.5659009795234
 30
0.0
 40
25.0
100
AcDbArc
 50
252.1428018777816
 51
287.8571981222183
  0
ARC
  5
B12
330
1A
100
AcDbEntity
  8
0
  6
HIDDEN
100
AcDbCircle
 10
93.15165693735071
 20
696.5659009795233
 30
0.0
 40
0.5
100
AcDbArc
 50
90.0
 51
180.0
  0
LINE
  5
B13
330
1A
100
AcDbEntity
  8
0
  6
HIDDEN
100
AcDbLine
 10
98.28759218057212
 20
697.0659009795233
 30
0.0
 11
93.15165693735071
 21
697.0659009795233
 31
0.0
  0
LINE
  5
B14
330
1A
100
AcDbEntity
  8
0
  6
HIDDEN
100
AcDbLine
 10
92.6516569373507
 20
694.0659015028488
 30
0.0
 11
92.6516569373507
 21
696.5659009795233
 31
0.0
  0
ARC
  5
B15
330
1A
100
AcDbEntity
  8
0
100
AcDbCircle
 10
104.6516569373507
 20
668.7099026627407
 30
0.0
 40
2.0
100
AcDbArc
 50
90.0
 51
180.0
  0
LINE
  5
B16
330
1A
100
AcDbEntity
  8
0
100
AcDbLine
 10
73.05165693735057
 20
682.1591485679443
 30
0.0
 11
73.36271909749644
 21
683.1345101429787
 31
0.0
  0
LINE
  5
B17
330
1A
100
AcDbEntity
  8
0
100
AcDbLine
 10
102.6516569373498
 20
660.6988849319574
 30
0.0
 11
102.6516569373506
 21
668.7099026627407
 31
0.0
  0
ARC
  5
B18
330
1A
100
AcDbEntity
  8
0
100
AcDbCircle
 10
67.21000825757187
 20
679.0963648017237
 30
0.0
 40
3.0
100
AcDbArc
 50
90.61407916031285
 51
177.2000000000238
  0
LINE
  5
B19
330
1A
100
AcDbEntity
  8
0
100
AcDbLine
 10
111.1516569373434
 20
682.5675086965617
 30
0.0
 11
67.1778557634891
 21
682.0961924996287
 31
0.0
  0
LINE
  5
B1A
330
1A
100
AcDbEntity
  8
0
  6
HIDDEN
100
AcDbLine
 10
71.90165693735207
 20
777.0659015028479
 30
0.0
 11
71.90165693735207
 21
693.5659015028488
 31
0.0
  0
LINE
  5
B1B
330
1A
100
AcDbEntity
  8
0
100
AcDbLine
 10
82.73851721653818
 20
782.0659015028478
 30
0.0
 11
82.73851721653818
 21
694.0659015028479
 31
0.0
  0
LINE
  5
B1C
330
1A
100
AcDbEntity
  8
0
100
AcDbLine
 10
98.2875921805753
 20
782.5659015028479
 30
0.0
 11
98.28759218057212
 21
693.5659015028478
 31
0.0
  0
LINE
  5
B1D
330
1A
100
AcDbEntity
  8
0
100
AcDbLine
 10
69.90165693735207
 20
777.0659015028479
 30
0.0
 11
69.90165693735207
 21
693.5659015028488
 31
0.0
  0
LINE
  5
B1E
330
1A
100
AcDbEntity
  8
0
100
AcDbLine
 10
245.6200684610212
 20
674.2554128145854
 30
0.0
 11
245.0415043048897
 21
660.444812087259
 31
0.0
  0
LINE
  5
B1F
330
1A
100
AcDbEntity
  8
0
100
AcDbLine
 10
250.8743838371356
 20
680.2213554391097
 30
0.0
 11
249.5922323049307
 21
649.6157904459174
 31
0.0
  0
LINE
  5
B20
330
1A
100
AcDbEntity
  8
0
100
AcDbLine
 10
251.0897240291533
 20
679.2429141111093
 30
0.0
 11
253.3481567489716
 21
633.0659009795214
 31
0.0
  0
ARC
  5
B21
330
1A
100
AcDbEntity
  8
0
100
AcDbCircle
 10
210.6516569373507
 20
660.6988849319574
 30
0.0
 40
2.0
100
AcDbArc
 50
270.0
 51
0.0
  0
ARC
  5
B24
330
1A
100
AcDbEntity
  8
0
100
AcDbCircle
 10
235.0502677875456
 20
660.8633725422675
 30
0.0
 40
10.0
100
AcDbArc
 50
271.6535335830268
 51
357.601124454599
  0
LINE
  5
B25
330
1A
100
AcDbEntity
  8
0
100
AcDbLine
 10
221.6516569373506
 20
616.9148361451591
 30
0.0
 11
255.6516569373507
 21
616.9148361451591
 31
0.0
  0
LINE
  5
B26
330
1A
100
AcDbEntity
  8
0
100
AcDbLine
 10
221.6516569373506
 20
612.9148361451591
 30
0.0
 11
255.6516569373507
 21
612.9148361451591
 31
0.0
  0
ARC
  5
B27
330
1A
100
AcDbEntity
  8
0
100
AcDbCircle
 10
238.416195950318
 20
636.5659009795238
 30
0.0
 40
25.0
100
AcDbArc
 50
252.1428018777816
 51
287.8571981222183
  0
ARC
  5
B28
330
1A
100
AcDbEntity
  8
0
100
AcDbCircle
 10
221.6516569373506
 20
613.9148361451591
 30
0.0
 40
1.0
100
AcDbArc
 50
180.0
 51
270.0
  0
LINE
  5
B29
330
1A
100
AcDbEntity
  8
0
100
AcDbLine
 10
220.6516569373507
 20
613.9148361451591
 30
0.0
 11
220.6516569373507
 21
615.9148361451591
 31
0.0
  0
ARC
  5
B2A
330
1A
100
AcDbEntity
  8
0
100
AcDbCircle
 10
221.6516569373506
 20
615.9148361451591
 30
0.0
 40
1.0
100
AcDbArc
 50
90.0
 51
180.0
  0
LINE
  5
B2B
330
1A
100
AcDbEntity
  8
0
100
AcDbLine
 10
221.5326396440377
 20
612.9219439637556
 30
0.0
 11
221.5326396440377
 21
616.9077283265627
 31
0.0
  0
LINE
  5
B2C
330
1A
100
AcDbEntity
  8
0
100
AcDbLine
 10
222.4981741113588
 20
612.9148361451591
 30
0.0
 11
222.4981741113588
 21
616.9148361451591
 31
0.0
  0
LINE
  5
B2D
330
1A
100
AcDbEntity
  8
0
100
AcDbLine
 10
222.2078386997836
 20
612.9148361451591
 30
0.0
 11
222.2078386997836
 21
616.9148361451591
 31
0.0
  0
LINE
  5
B2E
330
1A
100
AcDbEntity
  8
0
100
AcDbLine
 10
226.1072863883537
 20
612.9148361451591
 30
0.0
 11
226.1072863883537
 21
616.9148361451591
 31
0.0
  0
LINE
  5
B2F
330
1A
100
AcDbEntity
  8
0
100
AcDbLine
 10
224.5022653551986
 20
612.9148361451591
 30
0.0
 11
224.5022653551986
 21
616.9148361451591
 31
0.0
  0
LINE
  5
B30
330
1A
100
AcDbEntity
  8
0
100
AcDbLine
 10
223.6975072594041
 20
612.9148361451591
 30
0.0
 11
223.6975072594041
 21
616.9148361451591
 31
0.0
  0
ARC
  5
B31
330
1A
100
AcDbEntity
  8
0
100
AcDbCircle
 10
229.8301174977004
 20
609.9148361451591
 30
0.0
 40
3.0
100
AcDbArc
 50
72.14280187778165
 51
90.0
  0
LINE
  5
B32
330
1A
100
AcDbEntity
  8
0
100
AcDbLine
 10
233.7444381290224
 20
612.9148361451591
 30
0.0
 11
233.7444381290224
 21
616.9148361451591
 31
0.0
  0
LINE
  5
B34
330
1A
100
AcDbEntity
  8
0
100
AcDbLine
 10
326.837446022168
 20
633.0659009795223
 30
0.0
 11
327.5610593380879
 21
647.8612505590177
 31
0.0
  0
ARC
  5
B35
330
1A
100
AcDbEntity
  8
0
100
AcDbCircle
 10
332.8134994026281
 20
633.0345790156313
 30
0.0
 40
2.0
100
AcDbArc
 50
182.9999999999795
 51
229.7862240477789
  0
ARC
  5
B36
330
1A
100
AcDbEntity
  8
0
100
AcDbCircle
 10
327.3622667826025
 20
633.5659009795223
 30
0.0
 40
0.5
100
AcDbArc
 50
177.1999999999977
 51
270.0
  0
ARC
  5
B37
330
1A
100
AcDbEntity
  8
0
100
AcDbCircle
 10
330.4601106217473
 20
645.7238856164536
 30
0.0
 40
3.0
100
AcDbArc
 50
110.0000000000029
 51
177.2000000000238
  0
ARC
  5
B38
330
1A
100
AcDbEntity
  8
0
100
AcDbCircle
 10
247.0022744029347
 20
609.9148361451591
 30
0.0
 40
3.0
100
AcDbArc
 50
90.0
 51
107.8571981222183
  0
ARC
  5
B39
330
1A
100
AcDbEntity
  8
0
100
AcDbCircle
 10
244.9615816437098
 20
623.0659009795214
 30
0.0
 40
4.0
100
AcDbArc
 50
270.0
 51
355.0000000000263
  0
LINE
  5
B3A
330
1A
100
AcDbEntity
  8
0
100
AcDbLine
 10
243.558875745678
 20
612.9148361451591
 30
0.0
 11
243.558875745678
 21
616.9148361451591
 31
0.0
  0
ARC
  5
B3B
330
1A
100
AcDbEntity
  8
0
100
AcDbCircle
 10
255.6516569373507
 20
613.9148361451591
 30
0.0
 40
1.0
100
AcDbArc
 50
270.0
 51
0.0
  0
LINE
  5
B3C
330
1A
100
AcDbEntity
  8
0
100
AcDbLine
 10
256.6516569373507
 20
613.9148361451591
 30
0.0
 11
256.6516569373507
 21
615.9148361451591
 31
0.0
  0
LINE
  5
B3D
330
1A
100
AcDbEntity
  8
0
100
AcDbLine
 10
251.1960274863468
 20
612.9148361451591
 30
0.0
 11
251.1960274863468
 21
616.9148361451591
 31
0.0
  0
ARC
  5
B3E
330
1A
100
AcDbEntity
  8
0
100
AcDbCircle
 10
255.6516569373507
 20
615.9148361451591
 30
0.0
 40
1.0
100
AcDbArc
 50
0.0
 51
90.0
  0
LINE
  5
B3F
330
1A
100
AcDbEntity
  8
0
100
AcDbLine
 10
255.7706742306627
 20
612.9219439637556
 30
0.0
 11
255.7706742306627
 21
616.9077283265626
 31
0.0
  0
LINE
  5
B40
330
1A
100
AcDbEntity
  8
0
100
AcDbLine
 10
254.8051397633416
 20
612.9148361451591
 30
0.0
 11
254.8051397633416
 21
616.9148361451591
 31
0.0
  0
LINE
  5
B41
330
1A
100
AcDbEntity
  8
0
100
AcDbLine
 10
255.0954751749168
 20
612.9148361451591
 30
0.0
 11
255.0954751749168
 21
616.9148361451591
 31
0.0
  0
LINE
  5
B42
330
1A
100
AcDbEntity
  8
0
100
AcDbLine
 10
253.6058066152964
 20
612.9148361451591
 30
0.0
 11
253.6058066152964
 21
616.9148361451591
 31
0.0
  0
LINE
  5
B43
330
1A
100
AcDbEntity
  8
0
100
AcDbLine
 10
252.8010485195018
 20
612.9148361451591
 30
0.0
 11
252.8010485195018
 21
616.9148361451591
 31
0.0
  0
LINE
  5
B44
330
1A
100
AcDbEntity
  8
0
100
AcDbLine
 10
253.6516569373507
 20
619.0659009795214
 30
0.0
 11
251.8516569373505
 21
619.0659009795214
 31
0.0
  0
LINE
  5
B45
330
1A
100
AcDbEntity
  8
0
100
AcDbLine
 10
239.8509900853951
 20
612.9148361451591
 30
0.0
 11
239.8509900853951
 21
616.9148361451591
 31
0.0
  0
LINE
  5
B46
330
1A
100
AcDbEntity
  8
0
100
AcDbLine
 10
237.4523237893054
 20
612.9148361451591
 30
0.0
 11
237.4523237893054
 21
616.9148361451591
 31
0.0
  0
LINE
  5
B47
330
1A
100
AcDbEntity
  8
0
100
AcDbLine
 10
236.0906878115037
 20
612.9148361451591
 30
0.0
 11
236.0906878115037
 21
616.9148361451591
 31
0.0
  0
LINE
  5
B48
330
1A
100
AcDbEntity
  8
0
100
AcDbLine
 10
241.2126260631966
 20
612.9148361451591
 30
0.0
 11
241.2126260631966
 21
616.9148361451591
 31
0.0
  0
LINE
  5
B49
330
1A
100
AcDbEntity
  8
0
100
AcDbLine
 10
253.3481567489716
 20
633.0659009795214
 30
0.0
 11
253.6516569373507
 21
619.0659009795214
 31
0.0
  0
LINE
  5
B4A
330
1A
100
AcDbEntity
  8
0
100
AcDbLine
 10
251.5481567489714
 20
633.0659009795214
 30
0.0
 11
251.8516569373505
 21
619.0659009795214
 31
0.0
  0
LINE
  5
B4B
330
1A
100
AcDbEntity
  8
0
100
AcDbLine
 10
249.8517476291426
 20
633.0659009795241
 30
0.0
 11
248.9463604360771
 21
622.7172780085307
 31
0.0
  0
LINE
  5
B4C
330
1A
100
AcDbEntity
  8
0
100
AcDbLine
 10
249.5922323049307
 20
649.6157904459174
 30
0.0
 11
250.4016569373507
 21
633.0659009795214
 31
0.0
  0
LINE
  5
B4D
330
1A
100
AcDbEntity
  8
0
100
AcDbLine
 10
204.1516569373507
 20
682.5675086965617
 30
0.0
 11
248.1254581112116
 21
682.0961924996278
 31
0.0
  0
ARC
  5
B4E
330
1A
100
AcDbEntity
  8
0
  6
HIDDEN
100
AcDbCircle
 10
222.1516569373506
 20
696.565900979524
 30
0.0
 40
0.5
100
AcDbArc
 50
0.0
 51
90.00000000000081
  0
LINE
  5
B4F
330
1A
100
AcDbEntity
  8
0
  6
HIDDEN
100
AcDbLine
 10
217.0157216941319
 20
697.065900979524
 30
0.0
 11
222.1516569373506
 21
697.065900979524
 31
0.0
  0
LINE
  5
B50
330
1A
100
AcDbEntity
  8
0
  6
HIDDEN
100
AcDbLine
 10
222.6516569373506
 20
694.0659015028488
 30
0.0
 11
222.6516569373506
 21
696.565900979524
 31
0.0
  0
ARC
  5
B51
330
1A
100
AcDbEntity
  8
0
100
AcDbCircle
 10
232.0647966581659
 20
782.0659015028478
 30
0.0
 40
0.5
100
AcDbArc
 50
0.0
 51
90.0
  0
ARC
  5
B52
330
1A
100
AcDbEntity
  8
0
100
AcDbCircle
 10
210.6516569373507
 20
668.7099026627407
 30
0.0
 40
2.0
100
AcDbArc
 50
0.0
 51
90.0
  0
LINE
  5
B53
330
1A
100
AcDbEntity
  8
0
100
AcDbLine
 10
212.6516569373507
 20
660.6988849319574
 30
0.0
 11
212.6516569373507
 21
668.7099026627407
 31
0.0
  0
LINE
  5
B54
330
1A
100
AcDbEntity
  8
0
100
AcDbLine
 10
217.0157216941288
 20
782.5659015028479
 30
0.0
 11
217.015721694132
 21
693.5659015028478
 31
0.0
  0
LINE
  5
B55
330
1A
100
AcDbEntity
  8
0
100
AcDbLine
 10
232.5647966581659
 20
782.0659015028478
 30
0.0
 11
232.5647966581659
 21
694.0659015028479
 31
0.0
  0
ARC
  5
B56
330
1A
100
AcDbEntity
  8
0
100
AcDbCircle
 10
248.0933056171288
 20
679.0963648017228
 30
0.0
 40
3.0
100
AcDbArc
 50
2.799999999976126
 51
89.38592083968714
  0
LINE
  5
B57
330
1A
100
AcDbEntity
  8
0
100
AcDbLine
 10
242.2516569373501
 20
682.1591485679434
 30
0.0
 11
241.9405947772038
 21
683.134510142979
 31
0.0
  0
LINE
  5
B58
330
1A
100
AcDbEntity
  8
0
  6
HIDDEN
100
AcDbLine
 10
243.401656937352
 20
777.0659015028479
 30
0.0
 11
243.401656937352
 21
693.5659015028488
 31
0.0
  0
LINE
  5
B59
330
1A
100
AcDbEntity
  8
0
100
AcDbLine
 10
245.401656937352
 20
777.0659015028479
 30
0.0
 11
245.401656937352
 21
693.5659015028488
 31
0.0
  0
ARC
  5
B5D
330
1A
100
AcDbEntity
  8
0
100
AcDbCircle
 10
1327.337414756544
 20
926.1841679202474
 30
0.0
 40
1000.5
100
AcDbArc
 50
175.6821305450966
 51
184.3178694549033
  0
ARC
  5
B5E
330
1A
100
AcDbEntity
  8
0
100
AcDbCircle
 10
1327.337414756544
 20
926.1841679202474
 30
0.0
 40
999.2
100
AcDbArc
 50
175.7941030220115
 51
184.1764104811651
  0
LINE
  5
B60
330
1A
100
AcDbEntity
  8
0
100
AcDbLine
 10
418.5558544123814
 20
850.1727705127461
 30
0.0
 11
418.5558544123814
 21
838.1820878470399
 31
0.0
  0
LINE
  5
B61
330
1A
100
AcDbEntity
  8
0
100
AcDbLine
 10
421.5377637072497
 20
832.8954001644401
 30
0.0
 11
422.0829705806727
 21
851.4075368003238
 31
0.0
  0
ARC
  5
B62
330
1A
100
AcDbEntity
  8
0
100
AcDbCircle
 10
350.6034259288071
 20
853.9373409858773
 30
0.0
 40
14.0
100
AcDbArc
 50
184.2261665108116
 51
266.9776104215993
  0
LINE
  5
B64
330
1A
100
AcDbEntity
  8
0
100
AcDbLine
 10
401.0788548032905
 20
838.1362487323913
 30
0.0
 11
401.0788548032905
 21
1014.236951543186
 31
0.0
  0
LINE
  5
B65
330
1A
100
AcDbEntity
  8
0
100
AcDbLine
 10
402.6594038061321
 20
838.1820878470399
 30
0.0
 11
402.6594038061321
 21
879.1866001377904
 31
0.0
  0
LINE
  5
B66
330
1A
100
AcDbEntity
  8
0
100
AcDbLine
 10
587.3374147565446
 20
833.8841679202481
 30
0.0
 11
587.3374147565446
 21
1018.984167920246
 31
0.0
  0
LINE
  5
B6B
330
1A
100
AcDbEntity
  8
0
100
AcDbLine
 10
504.3372150580558
 20
682.0659009795205
 30
0.0
 11
579.5372150580569
 21
683.0659009795351
 31
0.0
  0
LINE
  5
B6C
330
1A
100
AcDbEntity
  8
0
100
AcDbLine
 10
426.8273734300073
 20
682.0659009795186
 30
0.0
 11
586.8528361847425
 21
682.0659009795223
 31
0.0
  0
ARC
  5
B6D
330
1A
100
AcDbEntity
  8
0
100
AcDbCircle
 10
447.2061648517201
 20
-170.3703551481231
 30
0.0
 40
808.4468107411181
100
AcDbArc
 50
83.82732059675547
 51
96.36266602178068
  0
ARC
  5
B6E
330
1A
100
AcDbEntity
  8
0
100
AcDbCircle
 10
518.8374403428929
 20
736.0659009795227
 30
0.0
 40
120.0
100
AcDbArc
 50
262.3377443392412
 51
277.6622556607587
  0
LINE
  5
B71
330
1A
100
AcDbEntity
  8
0
100
AcDbLine
 10
502.8374403428929
 20
618.2659009795226
 30
0.0
 11
534.8374403428929
 21
618.2659009795226
 31
0.0
  0
LINE
  5
B74
330
1A
100
AcDbEntity
  8
0
100
AcDbLine
 10
554.7030937312929
 20
697.0659009795221
 30
0.0
 11
497.339028974522
 21
697.0659009795332
 31
0.0
  0
LINE
  5
B75
330
1A
100
AcDbEntity
  8
0
100
AcDbLine
 10
427.3374147565436
 20
832.8841679202481
 30
0.0
 11
586.3374147565446
 21
832.8841679202481
 31
0.0
  0
LINE
  5
B76
330
1A
100
AcDbEntity
  8
0
100
AcDbLine
 10
427.3318598867754
 20
829.8842296410231
 30
0.0
 11
536.3318598868281
 21
829.8842296410223
 31
0.0
  0
LINE
  5
B78
330
1A
100
AcDbEntity
  8
0
100
AcDbLine
 10
389.5367791702251
 20
612.91372728304
 30
0.0
 11
389.5367791702251
 21
616.91372728304
 31
0.0
  0
LINE
  5
B79
330
1A
100
AcDbEntity
  8
0
100
AcDbLine
 10
390.8984151480258
 20
612.91372728304
 30
0.0
 11
390.8984151480258
 21
616.91372728304
 31
0.0
  0
LINE
  5
B7A
330
1A
100
AcDbEntity
  8
0
100
AcDbLine
 10
391.3374460221798
 20
617.41372728304
 30
0.0
 11
391.4714206183953
 21
616.91372728304
 31
0.0
  0
LINE
  5
B7B
330
1A
100
AcDbEntity
  8
0
100
AcDbLine
 10
390.9585878221796
 20
617.41372728304
 30
0.0
 11
390.9585878221796
 21
622.3659009795225
 31
0.0
  0
LINE
  5
B7C
330
1A
100
AcDbEntity
  8
0
100
AcDbLine
 10
391.3374460221798
 20
622.3659009795225
 30
0.0
 11
391.3374460221798
 21
617.41372728304
 31
0.0
  0
LINE
  5
B7D
330
1A
100
AcDbEntity
  8
0
100
AcDbLine
 10
405.4564633154923
 20
612.920835101636
 30
0.0
 11
405.4564633154923
 21
616.9066194644434
 31
0.0
  0
LINE
  5
B7E
330
1A
100
AcDbEntity
  8
0
100
AcDbLine
 10
403.2915957001259
 20
612.91372728304
 30
0.0
 11
403.2915957001259
 21
616.91372728304
 31
0.0
  0
LINE
  5
B7F
330
1A
100
AcDbEntity
  8
0
100
AcDbLine
 10
404.7812642597464
 20
612.91372728304
 30
0.0
 11
404.7812642597464
 21
616.91372728304
 31
0.0
  0
LINE
  5
B80
330
1A
100
AcDbEntity
  8
0
100
AcDbLine
 10
404.4909288481708
 20
612.91372728304
 30
0.0
 11
404.4909288481708
 21
616.91372728304
 31
0.0
  0
LINE
  5
B81
330
1A
100
AcDbEntity
  8
0
100
AcDbLine
 10
402.4868376043314
 20
612.91372728304
 30
0.0
 11
402.4868376043314
 21
616.91372728304
 31
0.0
  0
LINE
  5
B82
330
1A
100
AcDbEntity
  8
0
100
AcDbLine
 10
400.8818165711759
 20
612.91372728304
 30
0.0
 11
400.8818165711759
 21
616.91372728304
 31
0.0
  0
ARC
  5
B83
330
1A
100
AcDbEntity
  8
0
100
AcDbCircle
 10
405.3374460221798
 20
615.9137272830399
 30
0.0
 40
1.0
100
AcDbArc
 50
0.0
 51
90.0
  0
LINE
  5
B84
330
1A
100
AcDbEntity
  8
0
100
AcDbLine
 10
393.2446648305076
 20
612.91372728304
 30
0.0
 11
393.2446648305076
 21
616.91372728304
 31
0.0
  0
LINE
  5
B85
330
1A
100
AcDbEntity
  8
0
100
AcDbLine
 10
406.3374460221798
 20
613.9137272830399
 30
0.0
 11
406.3374460221798
 21
615.9137272830399
 31
0.0
  0
ARC
  5
B86
330
1A
100
AcDbEntity
  8
0
100
AcDbCircle
 10
396.6880634877639
 20
609.9137272830399
 30
0.0
 40
3.0
100
AcDbArc
 50
90.0
 51
107.8571981222063
  0
ARC
  5
B87
330
1A
100
AcDbEntity
  8
0
100
AcDbCircle
 10
405.3374460221798
 20
613.9137272830399
 30
0.0
 40
1.0
100
AcDbArc
 50
270.0
 51
0.0
  0
LINE
  5
B88
330
1A
100
AcDbEntity
  8
0
100
AcDbLine
 10
406.8597344185199
 20
626.0659009795205
 30
0.0
 11
406.8374403428602
 21
626.0659009795205
 31
0.0
  0
ARC
  5
B89
330
1A
100
AcDbEntity
  8
0
100
AcDbCircle
 10
406.8597344185195
 20
622.8659009795206
 30
0.0
 40
3.2
100
AcDbArc
 50
26.56505117706615
 51
90.0
  0
LINE
  5
B8A
330
1A
100
AcDbEntity
  8
0
100
AcDbLine
 10
401.3374403428611
 20
625.5659009795209
 30
0.0
 11
405.3374403428611
 21
625.5659009795209
 31
0.0
  0
LINE
  5
B8B
330
1A
100
AcDbEntity
  8
0
100
AcDbLine
 10
399.8374403428611
 20
626.0659009795209
 30
0.0
 11
401.3374403428611
 21
625.5659009795209
 31
0.0
  0
LINE
  5
B8C
330
1A
100
AcDbEntity
  8
0
100
AcDbLine
 10
397.5742467036721
 20
626.0659009795209
 30
0.0
 11
399.8374403428615
 21
626.0659009795209
 31
0.0
  0
LINE
  5
B8D
330
1A
100
AcDbEntity
  8
0
100
AcDbLine
 10
406.837440342861
 20
626.0659009795209
 30
0.0
 11
405.3374403428611
 21
625.5659009795209
 31
0.0
  0
LINE
  5
B8E
330
1A
100
AcDbEntity
  8
0
100
AcDbLine
 10
392.8374460221789
 20
622.3659009795225
 30
0.0
 11
392.8374460221789
 21
626.0659009795213
 31
0.0
  0
LINE
  5
B8F
330
1A
100
AcDbEntity
  8
0
100
AcDbLine
 10
409.7219014297193
 20
624.2969844851209
 30
0.0
 11
411.2318703735191
 21
621.2770465975214
 31
0.0
  0
ARC
  5
B90
330
1A
100
AcDbEntity
  8
0
100
AcDbCircle
 10
376.3374460221793
 20
625.0659009795232
 30
0.0
 40
1.5
100
AcDbArc
 50
270.0
 51
0.0
  0
LINE
  5
B91
330
1A
100
AcDbEntity
  8
0
100
AcDbLine
 10
377.8374460221793
 20
626.0659009795232
 30
0.0
 11
370.8374460221794
 21
626.0659009795232
 31
0.0
  0
ARC
  5
B92
330
1A
100
AcDbEntity
  8
0
100
AcDbCircle
 10
369.8151519465186
 20
622.8659009795234
 30
0.0
 40
3.2
100
AcDbArc
 50
90.0
 51
153.4349488229343
  0
LINE
  5
B93
330
1A
100
AcDbEntity
  8
0
100
AcDbLine
 10
366.9529849353189
 20
624.2969844851228
 30
0.0
 11
365.4430159915195
 21
621.2770465975242
 31
0.0
  0
LINE
  5
B94
330
1A
100
AcDbEntity
  8
0
100
AcDbLine
 10
375.7930754731833
 20
612.91372728304
 30
0.0
 11
375.7930754731833
 21
616.91372728304
 31
0.0
  0
ARC
  5
B95
330
1A
100
AcDbEntity
  8
0
100
AcDbCircle
 10
371.3374460221798
 20
615.9137272830399
 30
0.0
 40
1.0
100
AcDbArc
 50
90.0
 51
180.0
  0
LINE
  5
B96
330
1A
100
AcDbEntity
  8
0
100
AcDbLine
 10
374.1880544400282
 20
612.91372728304
 30
0.0
 11
374.1880544400282
 21
616.91372728304
 31
0.0
  0
LINE
  5
B97
330
1A
100
AcDbEntity
  8
0
100
AcDbLine
 10
373.3832963442337
 20
612.91372728304
 30
0.0
 11
373.3832963442337
 21
616.91372728304
 31
0.0
  0
LINE
  5
B98
330
1A
100
AcDbEntity
  8
0
100
AcDbLine
 10
372.1839631961884
 20
612.91372728304
 30
0.0
 11
372.1839631961884
 21
616.91372728304
 31
0.0
  0
LINE
  5
B99
330
1A
100
AcDbEntity
  8
0
100
AcDbLine
 10
371.8936277846128
 20
612.91372728304
 30
0.0
 11
371.8936277846128
 21
616.91372728304
 31
0.0
  0
LINE
  5
B9A
330
1A
100
AcDbEntity
  8
0
100
AcDbLine
 10
371.2184287288669
 20
612.920835101636
 30
0.0
 11
371.2184287288669
 21
616.9066194644434
 31
0.0
  0
ARC
  5
B9B
330
1A
100
AcDbEntity
  8
0
100
AcDbCircle
 10
371.3374460221798
 20
613.9137272830399
 30
0.0
 40
1.0
100
AcDbArc
 50
180.0
 51
270.0
  0
LINE
  5
B9C
330
1A
100
AcDbEntity
  8
0
100
AcDbLine
 10
370.3374460221798
 20
613.9137272830399
 30
0.0
 11
370.3374460221798
 21
615.9137272830399
 31
0.0
  0
LINE
  5
B9D
330
1A
100
AcDbEntity
  8
0
100
AcDbLine
 10
370.8374460221794
 20
625.0659009795232
 30
0.0
 11
370.8374460221794
 21
626.0659009795232
 31
0.0
  0
ARC
  5
B9E
330
1A
100
AcDbEntity
  8
0
100
AcDbCircle
 10
372.3374460221794
 20
625.0659009795232
 30
0.0
 40
1.5
100
AcDbArc
 50
180.0
 51
270.0
  0
LINE
  5
B9F
330
1A
100
AcDbEntity
  8
0
100
AcDbLine
 10
376.3374460221793
 20
623.5659009795232
 30
0.0
 11
372.3374460221794
 21
623.5659009795232
 31
0.0
  0
LINE
  5
BA0
330
1A
100
AcDbEntity
  8
0
100
AcDbLine
 10
383.430227213852
 20
612.91372728304
 30
0.0
 11
383.430227213852
 21
616.91372728304
 31
0.0
  0
LINE
  5
BA1
330
1A
100
AcDbEntity
  8
0
100
AcDbLine
 10
385.7764768963338
 20
612.91372728304
 30
0.0
 11
385.7764768963338
 21
616.91372728304
 31
0.0
  0
LINE
  5
BA2
330
1A
100
AcDbEntity
  8
0
100
AcDbLine
 10
387.1381128741345
 20
612.91372728304
 30
0.0
 11
387.1381128741345
 21
616.91372728304
 31
0.0
  0
ARC
  5
BA3
330
1A
100
AcDbEntity
  8
0
100
AcDbCircle
 10
379.5159065825305
 20
609.9137272830399
 30
0.0
 40
3.0
100
AcDbArc
 50
72.14280187779365
 51
90.0
  0
LINE
  5
BA4
330
1A
100
AcDbEntity
  8
0
100
AcDbLine
 10
383.8374460221789
 20
622.3659009795225
 30
0.0
 11
383.8374460221789
 21
626.0659009795223
 31
0.0
  0
LINE
  5
BA5
330
1A
100
AcDbEntity
  8
0
100
AcDbLine
 10
377.8374460221793
 20
625.0659009795232
 30
0.0
 11
377.8374460221793
 21
626.0659009795241
 31
0.0
  0
LINE
  5
BA6
330
1A
100
AcDbEntity
  8
0
100
AcDbLine
 10
385.3374460221798
 20
617.41372728304
 30
0.0
 11
385.2034714259644
 21
616.91372728304
 31
0.0
  0
LINE
  5
BA7
330
1A
100
AcDbEntity
  8
0
100
AcDbLine
 10
385.71630422218
 20
617.41372728304
 30
0.0
 11
385.7163042221801
 21
622.3659009795225
 31
0.0
  0
LINE
  5
BA8
330
1A
100
AcDbEntity
  8
0
100
AcDbLine
 10
385.3374460221798
 20
617.41372728304
 30
0.0
 11
385.3374460221798
 21
622.3659009795225
 31
0.0
  0
LINE
  5
BA9
330
1A
100
AcDbEntity
  8
0
100
AcDbLine
 10
371.3374460221798
 20
612.9137272830395
 30
0.0
 11
405.3374460221798
 21
612.91372728304
 31
0.0
  0
LINE
  5
BAA
330
1A
100
AcDbEntity
  8
0
100
AcDbLine
 10
399.437440342866
 20
626.0659009795213
 30
0.0
 11
369.8151519465191
 21
626.0659009795232
 31
0.0
  0
LINE
  5
BAB
330
1A
100
AcDbEntity
  8
0
100
AcDbLine
 10
371.3374460221798
 20
616.91372728304
 30
0.0
 11
405.3374460221798
 21
616.91372728304
 31
0.0
  0
LINE
  5
BAC
330
1A
100
AcDbEntity
  8
0
100
AcDbLine
 10
383.8374460221789
 20
622.3659009795225
 30
0.0
 11
392.8374460221789
 21
622.3659009795225
 31
0.0
  0
LINE
  5
BAD
330
1A
100
AcDbEntity
  8
0
100
AcDbLine
 10
391.1928639550383
 20
616.91372728304
 30
0.0
 11
385.4820280893209
 21
616.91372728304
 31
0.0
  0
LINE
  5
BAE
330
1A
100
AcDbEntity
  8
0
100
AcDbLine
 10
385.3374460221798
 20
617.41372728304
 30
0.0
 11
391.3374460221798
 21
617.41372728304
 31
0.0
  0
ARC
  5
BAF
330
1A
100
AcDbEntity
  8
0
100
AcDbCircle
 10
357.0588760227501
 20
638.0659009795214
 30
0.0
 40
5.0
100
AcDbArc
 50
270.0
 51
276.3626660217807
  0
LINE
  5
BB0
330
1A
100
AcDbEntity
  8
0
100
AcDbLine
 10
347.701780608259
 20
619.0659009795232
 30
0.0
 11
361.8653072275197
 21
619.0659009795236
 31
0.0
  0
ARC
  5
BB1
330
1A
100
AcDbEntity
  8
0
100
AcDbCircle
 10
347.701780608259
 20
623.0659009795236
 30
0.0
 40
4.0
100
AcDbArc
 50
229.7862240477789
 51
270.0
  0
LINE
  5
BB2
330
1A
100
AcDbEntity
  8
0
100
AcDbLine
 10
361.8653072275197
 20
619.0659009795214
 30
0.0
 11
385.3374460221798
 21
619.0659009795214
 31
0.0
  0
ARC
  5
BB3
330
1A
100
AcDbEntity
  8
0
100
AcDbCircle
 10
361.8653072275197
 20
623.0659009795232
 30
0.0
 40
4.0
100
AcDbArc
 50
270.0
 51
333.4349488229343
  0
ARC
  5
BB4
330
1A
100
AcDbEntity
  8
0
100
AcDbCircle
 10
414.8095791375185
 20
623.0659009795214
 30
0.0
 40
4.0
100
AcDbArc
 50
206.5650511770719
 51
270.0
  0
LINE
  5
BB5
330
1A
100
AcDbEntity
  8
0
 48
3.0
100
AcDbLine
 10
388.3374460221798
 20
610.6165239784446
 30
0.0
 11
388.3374460221798
 21
626.0173589923693
 31
0.0
  0
ARC
  5
BB6
330
1A
100
AcDbEntity
  8
0
100
AcDbCircle
 10
388.1019850351472
 20
636.5647921174046
 30
0.0
 40
25.0
100
AcDbArc
 50
252.1428018777936
 51
287.8571981222063
  0
LINE
  5
BB7
330
1A
100
AcDbEntity
  8
0
100
AcDbLine
 10
502.8374403428929
 20
617.1373510009744
 30
0.0
 11
502.8374403428929
 21
618.2659009795226
 31
0.0
  0
LINE
  5
BB8
330
1A
100
AcDbEntity
  8
0
100
AcDbLine
 10
504.8374403428929
 20
618.2659009795226
 30
0.0
 11
504.8374403428929
 21
619.0659009795236
 31
0.0
  0
ARC
  5
BB9
330
1A
100
AcDbEntity
  8
0
100
AcDbCircle
 10
468.3374403428611
 20
623.0659009795214
 30
0.0
 40
5.0
100
AcDbArc
 50
233.1301023541638
 51
306.8698976458362
  0
LINE
  5
BBB
330
1A
100
AcDbEntity
  8
0
100
AcDbLine
 10
484.337215058058
 20
682.0659009795205
 30
0.0
 11
429.2463394665341
 21
682.798492410269
 31
0.0
  0
ARC
  5
BBC
330
1A
100
AcDbEntity
  8
0
100
AcDbCircle
 10
428.3376457207014
 20
2326.186600137786
 30
0.0
 40
1488.299999999999
100
AcDbArc
 50
266.9776104215993
 51
268.9505469282456
  0
ARC
  5
BBD
330
1A
100
AcDbEntity
  8
0
100
AcDbCircle
 10
427.3374147565491
 20
2330.184167920247
 30
0.0
 40
1500.3
100
AcDbArc
 50
267.0088508318122
 51
270.0
  0
ARC
  5
BBE
330
1A
100
AcDbEntity
  8
0
100
AcDbCircle
 10
427.3374147565436
 20
2330.184167920247
 30
0.0
 40
1497.3
100
AcDbArc
 50
267.0278121870844
 51
270.0
  0
LINE
  5
BBF
330
1A
100
AcDbEntity
  8
0
100
AcDbLine
 10
402.6594038061321
 20
838.1820878470399
 30
0.0
 11
418.5558544123814
 21
838.1820878470399
 31
0.0
  0
ARC
  5
BC0
330
1A
100
AcDbEntity
  8
0
100
AcDbCircle
 10
426.8273734300082
 20
652.0659009795187
 30
0.0
 40
30.0
100
AcDbArc
 50
90.0
 51
110.0000000000029
  0
LINE
  5
BC1
330
1A
100
AcDbEntity
  8
0
100
AcDbLine
 10
408.4115157191681
 20
683.9140255873958
 30
0.0
 11
404.2350453462891
 21
675.768299208547
 31
0.0
  0
ARC
  5
BC2
330
1A
100
AcDbEntity
  8
0
100
AcDbCircle
 10
428.8474385642598
 20
652.8011445596645
 30
0.0
 40
30.0
100
AcDbArc
 50
89.23813294411718
 51
110.0000000000029
  0
LINE
  5
BC3
330
1A
100
AcDbEntity
  8
0
100
AcDbLine
 10
407.5890289745134
 20
777.0659009795239
 30
0.0
 11
407.5890289745134
 21
693.5659009795249
 31
0.0
  0
LINE
  5
BC4
330
1A
100
AcDbEntity
  8
0
  6
HIDDEN
100
AcDbLine
 10
409.5890289745134
 20
777.0659009795239
 30
0.0
 11
409.5890289745134
 21
693.5659009795249
 31
0.0
  0
LINE
  5
BC5
330
1A
100
AcDbEntity
  8
0
100
AcDbLine
 10
420.4258892536995
 20
782.0659009795239
 30
0.0
 11
420.4258892536995
 21
694.0659009795239
 31
0.0
  0
LINE
  5
BC6
330
1A
100
AcDbEntity
  8
0
 62
     9
100
AcDbLine
 10
495.3390289745134
 20
705.1369262485308
 30
0.0
 11
495.3390289745134
 21
686.9948757105166
 31
0.0
  0
LINE
  5
BC7
330
1A
100
AcDbEntity
  8
0
100
AcDbLine
 10
497.339028974522
 20
697.0659009795332
 30
0.0
 11
496.8390289745221
 21
696.5659009795237
 31
0.0
  0
LINE
  5
BC8
330
1A
100
AcDbEntity
  8
0
100
AcDbLine
 10
493.3390289745047
 20
697.0659009795237
 30
0.0
 11
493.8390289745048
 21
696.5659009795237
 31
0.0
  0
LINE
  5
BC9
330
1A
100
AcDbEntity
  8
0
100
AcDbLine
 10
493.8390289745048
 20
696.5659009795237
 30
0.0
 11
496.8390289745221
 21
696.5659009795237
 31
0.0
  0
LINE
  5
BCA
330
1A
100
AcDbEntity
  8
0
100
AcDbLine
 10
435.974964217733
 20
697.0659009795234
 30
0.0
 11
436.8390289745057
 21
697.0659009795237
 31
0.0
  0
LINE
  5
BCB
330
1A
100
AcDbEntity
  8
0
100
AcDbLine
 10
493.3390289745047
 20
697.0659009795237
 30
0.0
 11
436.3390289745066
 21
697.0659009795237
 31
0.0
  0
LINE
  5
BCC
330
1A
100
AcDbEntity
  8
0
100
AcDbLine
 10
435.9749642177367
 20
782.565900979524
 30
0.0
 11
435.9749642177335
 21
693.5659009795239
 31
0.0
  0
LINE
  5
BCE
330
1A
100
AcDbEntity
  8
0
100
AcDbLine
 10
587.3054690263088
 20
683.0659009795351
 30
0.0
 11
589.3372150580544
 21
619.0659009795223
 31
0.0
  0
ARC
  5
BCF
330
1A
100
AcDbEntity
  8
0
100
AcDbCircle
 10
583.8372150580553
 20
614.5659009795241
 30
0.0
 40
3.0
100
AcDbArc
 50
270.0
 51
0.0
  0
ARC
  5
BD0
330
1A
100
AcDbEntity
  8
0
100
AcDbCircle
 10
581.8372150580553
 20
614.5659009795241
 30
0.0
 40
3.0
100
AcDbArc
 50
180.0
 51
270.0
  0
LINE
  5
BD1
330
1A
100
AcDbEntity
  8
0
100
AcDbLine
 10
586.8372150580553
 20
614.5659009795241
 30
0.0
 11
586.8372150580553
 21
619.0659009795222
 31
0.0
  0
ARC
  5
BD2
330
1A
100
AcDbEntity
  8
0
100
AcDbCircle
 10
587.2727154378231
 20
621.0659009795232
 30
0.0
 40
2.0
100
AcDbArc
 50
270.0
 51
1.818302964414785
  0
LINE
  5
BD3
330
1A
100
AcDbEntity
  8
0
100
AcDbLine
 10
578.8372150580553
 20
614.5659009795241
 30
0.0
 11
578.8372150580553
 21
619.0659009795216
 31
0.0
  0
ARC
  5
BD4
330
1A
100
AcDbEntity
  8
0
100
AcDbCircle
 10
533.0593961940958
 20
623.4473394460033
 30
0.0
 40
10.0
100
AcDbArc
 50
50.95707345174488
 51
83.82732059674252
  0
ARC
  5
BD5
330
1A
100
AcDbEntity
  8
0
100
AcDbCircle
 10
558.337446022168
 20
618.0659009795209
 30
0.0
 40
1.5
100
AcDbArc
 50
270.0
 51
0.0
  0
ARC
  5
BD6
330
1A
100
AcDbEntity
  8
0
100
AcDbCircle
 10
554.337446022168
 20
618.0659009795209
 30
0.0
 40
1.5
100
AcDbArc
 50
180.0
 51
270.0
  0
LINE
  5
BD7
330
1A
100
AcDbEntity
  8
0
100
AcDbLine
 10
558.337446022168
 20
616.5659009795209
 30
0.0
 11
554.337446022168
 21
616.5659009795209
 31
0.0
  0
LINE
  5
BD8
330
1A
100
AcDbEntity
  8
0
100
AcDbLine
 10
559.837446022168
 20
618.0659009795209
 30
0.0
 11
559.837446022168
 21
619.0659009795218
 31
0.0
  0
LINE
  5
BD9
330
1A
100
AcDbEntity
  8
0
100
AcDbLine
 10
552.837446022168
 20
618.0659009795209
 30
0.0
 11
552.837446022168
 21
619.0659009795218
 31
0.0
  0
ARC
  5
BDA
330
1A
100
AcDbEntity
  8
0
100
AcDbCircle
 10
557.8826171451724
 20
629.0659009795205
 30
0.0
 40
10.0
100
AcDbArc
 50
230.9570734517449
 51
270.0
  0
LINE
  5
BDB
330
1A
100
AcDbEntity
  8
0
100
AcDbLine
 10
534.8374403428929
 20
617.1373510009744
 30
0.0
 11
534.8374403428929
 21
618.2659009795226
 31
0.0
  0
LINE
  5
BDC
330
1A
100
AcDbEntity
  8
0
100
AcDbLine
 10
532.8374403428929
 20
618.2659009795226
 30
0.0
 11
532.8374403428929
 21
619.0659009795227
 31
0.0
  0
LINE
  5
BDD
330
1A
100
AcDbEntity
  8
0
100
AcDbLine
 10
391.3374460221798
 20
619.0659009795256
 30
0.0
 11
557.8826171451724
 21
619.0659009795204
 31
0.0
  0
LINE
  5
BDE
330
1A
100
AcDbEntity
  8
0
100
AcDbLine
 10
539.358420789992
 20
631.2140819510883
 30
0.0
 11
551.583592549276
 21
621.2991584744355
 31
0.0
  0
LINE
  5
BDF
330
1A
100
AcDbEntity
  8
0
100
AcDbLine
 10
557.8826171451728
 20
619.0659009795204
 30
0.0
 11
589.3372150580544
 21
619.0659009795223
 31
0.0
  0
LINE
  5
BE0
330
1A
100
AcDbEntity
  8
0
100
AcDbLine
 10
581.8372150580553
 20
611.5659009795241
 30
0.0
 11
583.8372150580553
 21
611.5659009795241
 31
0.0
  0
LINE
  5
BE1
330
1A
100
AcDbEntity
  8
0
100
AcDbLine
 10
587.3374147565446
 20
837.924257205171
 30
0.0
 11
589.3374147565436
 21
835.2242572051721
 31
0.0
  0
LINE
  5
BE2
330
1A
100
AcDbEntity
  8
0
100
AcDbLine
 10
587.3374147565446
 20
832.8841679202481
 30
0.0
 11
589.2573926749214
 21
830.2921977304384
 31
0.0
  0
LINE
  5
BE3
330
1A
100
AcDbEntity
  8
0
100
AcDbLine
 10
589.3374147565445
 20
830.6841679202474
 30
0.0
 11
589.3374147565445
 21
835.2242572051721
 31
0.0
  0
ARC
  5
BE4
330
1A
100
AcDbEntity
  8
0
100
AcDbCircle
 10
588.3374147565445
 20
830.6841679202474
 30
0.0
 40
1.0
100
AcDbArc
 50
270.0
 51
0.0
  0
ARC
  5
BE5
330
1A
100
AcDbEntity
  8
0
100
AcDbCircle
 10
586.3374147565446
 20
833.8841679202481
 30
0.0
 40
1.0
100
AcDbArc
 50
270.0
 51
0.0
  0
LINE
  5
BE6
330
1A
100
AcDbEntity
  8
0
100
AcDbLine
 10
554.3374147565454
 20
829.6841679202474
 30
0.0
 11
536.3374147565946
 21
829.8841679202473
 31
0.0
  0
LINE
  5
BE7
330
1A
100
AcDbEntity
  8
0
100
AcDbLine
 10
554.3374147565454
 20
829.6841679202474
 30
0.0
 11
588.3374147565445
 21
829.6841679202474
 31
0.0
  0
ARC
  5
BE8
330
1A
100
AcDbEntity
  8
0
100
AcDbCircle
 10
569.7521686953272
 20
782.0659009795239
 30
0.0
 40
0.5
100
AcDbArc
 50
0.0
 51
90.0
  0
ARC
  5
BE9
330
1A
100
AcDbEntity
  8
0
100
AcDbCircle
 10
569.7521686953272
 20
694.0659009795239
 30
0.0
 40
0.5
100
AcDbArc
 50
270.0
 51
0.0
  0
LINE
  5
BEA
330
1A
100
AcDbEntity
  8
0
100
AcDbLine
 10
587.3525844223904
 20
681.5817660029521
 30
0.0
 11
587.3372150580544
 21
682.5659009795351
 31
0.0
  0
ARC
  5
BEB
330
1A
100
AcDbEntity
  8
0
100
AcDbCircle
 10
586.8528361847425
 20
681.565900979535
 30
0.0
 40
0.5
100
AcDbArc
 50
1.818302964414785
 51
90.0
  0
ARC
  5
BEC
330
1A
100
AcDbEntity
  8
0
100
AcDbCircle
 10
586.8372150580544
 20
682.5659009795351
 30
0.0
 40
0.5
100
AcDbArc
 50
0.0
 51
90.0
  0
LINE
  5
BED
330
1A
100
AcDbEntity
  8
0
100
AcDbLine
 10
579.5372150580569
 20
683.0659009795351
 30
0.0
 11
587.3054690263088
 21
683.0659009795351
 31
0.0
  0
LINE
  5
BEE
330
1A
100
AcDbEntity
  8
0
100
AcDbLine
 10
581.0650672694777
 20
683.862917450505
 30
0.0
 11
581.3443579151926
 21
683.0659009795223
 31
0.0
  0
LINE
  5
BEF
330
1A
100
AcDbEntity
  8
0
100
AcDbLine
 10
583.0890289745134
 20
777.0659009795239
 30
0.0
 11
583.0890289745134
 21
693.5659009795249
 31
0.0
  0
LINE
  5
BF0
330
1A
100
AcDbEntity
  8
0
100
AcDbLine
 10
554.7030937312902
 20
782.565900979524
 30
0.0
 11
554.7030937312934
 21
693.5659009795239
 31
0.0
  0
LINE
  5
BF1
330
1A
100
AcDbEntity
  8
0
100
AcDbLine
 10
570.2521686953273
 20
782.0659009795239
 30
0.0
 11
570.2521686953273
 21
694.0659009795239
 31
0.0
  0
LINE
  5
BF2
330
1A
100
AcDbEntity
  8
0
  6
HIDDEN
100
AcDbLine
 10
581.0890289745134
 20
777.0659009795239
 30
0.0
 11
581.0890289745134
 21
693.5659009795249
 31
0.0
  0
LINE
  5
BF3
330
1A
100
AcDbEntity
  8
0
100
AcDbLine
 10
427.3374147565436
 20
1019.984167920246
 30
0.0
 11
586.3374147565446
 21
1019.984167920246
 31
0.0
  0
LINE
  5
BF4
330
1A
100
AcDbEntity
  8
0
100
AcDbLine
 10
427.3318598867754
 20
1022.484106199471
 30
0.0
 11
536.3318598868281
 21
1022.484106199472
 31
0.0
  0
LINE
  5
BF5
330
1A
100
AcDbEntity
  8
0
100
AcDbLine
 10
421.5377637072488
 20
1019.472935676055
 30
0.0
 11
422.0859635380443
 21
1000.859175163941
 31
0.0
  0
LINE
  5
BF6
330
1A
100
AcDbEntity
  8
0
100
AcDbLine
 10
418.5558544123841
 20
1002.200429762832
 30
0.0
 11
418.5558544123841
 21
1014.191112428538
 31
0.0
  0
ARC
  5
BF7
330
1A
100
AcDbEntity
  8
0
100
AcDbCircle
 10
350.603425928808
 20
998.4358592897017
 30
0.0
 40
14.0
100
AcDbArc
 50
93.02238957840065
 51
175.7738334891883
  0
ARC
  5
BF8
330
1A
100
AcDbEntity
  8
0
100
AcDbCircle
 10
428.3376457206696
 20
-473.8133998622097
 30
0.0
 40
1488.299999999999
100
AcDbArc
 50
91.04945307175436
 51
93.02238957840065
  0
ARC
  5
BF9
330
1A
100
AcDbEntity
  8
0
100
AcDbCircle
 10
427.3374147565091
 20
-477.8158320797556
 30
0.0
 40
1497.799999999999
100
AcDbArc
 50
90.0
 51
92.96975146140324
  0
ARC
  5
BFA
330
1A
100
AcDbEntity
  8
0
100
AcDbCircle
 10
427.3374147565491
 20
-477.8158320797529
 30
0.0
 40
1500.3
100
AcDbArc
 50
90.0
 51
92.99114916818775
  0
LINE
  5
BFB
330
1A
100
AcDbEntity
  8
0
100
AcDbLine
 10
402.6594038061339
 20
1014.19111242854
 30
0.0
 11
418.5558544123841
 21
1014.191112428538
 31
0.0
  0
ARC
  5
BFC
330
1A
100
AcDbEntity
  8
0
100
AcDbCircle
 10
389.3376457206704
 20
979.1866001377904
 30
0.0
 40
2.0
100
AcDbArc
 50
0.0
 51
90.0
  0
LINE
  5
BFD
330
1A
100
AcDbEntity
  8
0
100
AcDbLine
 10
407.8496300311135
 20
973.1866001377886
 30
0.0
 11
402.659403806133
 21
973.1866001377904
 31
0.0
  0
ARC
  5
BFE
330
1A
100
AcDbEntity
  8
0
100
AcDbCircle
 10
360.3376457206704
 20
979.1866001377904
 30
0.0
 40
2.0
100
AcDbArc
 50
90.0
 51
180.0
  0
CIRCLE
  5
BFF
330
1A
100
AcDbEntity
  8
0
100
AcDbCircle
 10
347.23432298447
 20
975.6866001377904
 30
0.0
 40
5.75
  0
LINE
  5
C00
330
1A
100
AcDbEntity
  8
0
100
AcDbLine
 10
360.3376457206704
 20
981.1866001377904
 30
0.0
 11
389.3376457206704
 21
981.1866001377904
 31
0.0
  0
CIRCLE
  5
C01
330
1A
100
AcDbEntity
  8
0
100
AcDbCircle
 10
347.23432298447
 20
953.6866001377903
 30
0.0
 40
5.75
  0
CIRCLE
  5
C02
330
1A
100
AcDbEntity
  8
0
100
AcDbCircle
 10
347.23432298447
 20
931.6866001377903
 30
0.0
 40
5.75
  0
CIRCLE
  5
C03
330
1A
100
AcDbEntity
  8
0
100
AcDbCircle
 10
347.23432298447
 20
909.6866001377904
 30
0.0
 40
5.75
  0
LINE
  5
C04
330
1A
100
AcDbEntity
  8
0
100
AcDbLine
 10
407.8496300311144
 20
879.1866001377904
 30
0.0
 11
402.6594038061321
 21
879.1866001377904
 31
0.0
  0
ARC
  5
C05
330
1A
100
AcDbEntity
  8
0
100
AcDbCircle
 10
389.3376457206704
 20
873.1866001377904
 30
0.0
 40
2.0
100
AcDbArc
 50
270.0
 51
0.0
  0
ARC
  5
C06
330
1A
100
AcDbEntity
  8
0
100
AcDbCircle
 10
360.3376457206695
 20
873.1866001377904
 30
0.0
 40
2.0
100
AcDbArc
 50
180.0
 51
270.0
  0
CIRCLE
  5
C07
330
1A
100
AcDbEntity
  8
0
100
AcDbCircle
 10
347.23432298447
 20
865.6866001377904
 30
0.0
 40
5.75
  0
LINE
  5
C08
330
1A
100
AcDbEntity
  8
0
100
AcDbLine
 10
360.3376457206695
 20
871.1866001377904
 30
0.0
 11
389.3376457206704
 21
871.1866001377904
 31
0.0
  0
CIRCLE
  5
C09
330
1A
100
AcDbEntity
  8
0
100
AcDbCircle
 10
347.23432298447
 20
887.6866001377903
 30
0.0
 40
5.75
  0
LINE
  5
C0A
330
1A
100
AcDbEntity
  8
0
100
AcDbLine
 10
358.3376457206695
 20
873.1866001377904
 30
0.0
 11
358.3376457206704
 21
979.1866001377904
 31
0.0
  0
LINE
  5
C0B
330
1A
100
AcDbEntity
  8
0
100
AcDbLine
 10
391.3376457206704
 20
873.1866001377904
 30
0.0
 11
391.3376457206704
 21
979.1866001377904
 31
0.0
  0
CIRCLE
  5
C0C
330
1A
100
AcDbEntity
  8
0
100
AcDbCircle
 10
349.3376457206704
 20
998.6866001377903
 30
0.0
 40
7.0
  0
ARC
  5
C0D
330
1A
100
AcDbEntity
  8
0
100
AcDbCircle
 10
579.8862604800787
 20
926.186600137783
 30
0.0
 40
178.3412521438422
100
AcDbArc
 50
154.7716564239287
 51
164.7198004509633
  0
LINE
  5
C0E
330
1A
100
AcDbEntity
  8
0
100
AcDbLine
 10
402.6594038061339
 20
1014.19111242854
 30
0.0
 11
402.659403806133
 21
973.1866001377904
 31
0.0
  0
ARC
  5
C0F
330
1A
100
AcDbEntity
  8
0
100
AcDbCircle
 10
1328.33764572067
 20
926.1866001377903
 30
0.0
 40
994.4
100
AcDbArc
 50
175.7738334891883
 51
184.2261665108116
  0
ARC
  5
C10
330
1A
100
AcDbEntity
  8
0
100
AcDbCircle
 10
579.8862604800787
 20
926.1866001377912
 30
0.0
 40
178.3412521438422
100
AcDbArc
 50
195.2801995490906
 51
205.2283435760712
  0
ARC
  5
C11
330
1A
100
AcDbEntity
  8
0
100
AcDbCircle
 10
586.3374147565446
 20
1018.984167920246
 30
0.0
 40
1.0
100
AcDbArc
 50
0.0
 51
90.0
  0
ARC
  5
C12
330
1A
100
AcDbEntity
  8
0
100
AcDbCircle
 10
588.3374147565445
 20
1021.684167920247
 30
0.0
 40
1.0
100
AcDbArc
 50
0.0
 51
90.0
  0
LINE
  5
C13
330
1A
100
AcDbEntity
  8
0
100
AcDbLine
 10
589.3374147565445
 20
1017.644078635322
 30
0.0
 11
587.3374147565446
 21
1014.944078635322
 31
0.0
  0
LINE
  5
C14
330
1A
100
AcDbEntity
  8
0
100
AcDbLine
 10
589.3374147565445
 20
1017.644078635322
 30
0.0
 11
589.3374147565445
 21
1021.684167920247
 31
0.0
  0
LINE
  5
C15
330
1A
100
AcDbEntity
  8
0
100
AcDbLine
 10
589.0869870054429
 20
1022.34609045626
 30
0.0
 11
587.3374147565446
 21
1019.984167920246
 31
0.0
  0
LINE
  5
C16
330
1A
100
AcDbEntity
  8
0
100
AcDbLine
 10
554.3374147565454
 20
1022.684167920247
 30
0.0
 11
536.3374147565946
 21
1022.484167920247
 31
0.0
  0
LINE
  5
C17
330
1A
100
AcDbEntity
  8
0
100
AcDbLine
 10
554.3374147565454
 20
1022.684167920247
 30
0.0
 11
588.3374147565445
 21
1022.684167920247
 31
0.0
  0
LINE
  5
DFE
330
1A
100
AcDbEntity
  8
0
100
AcDbLine
 10
157.6516569373503
 20
619.0659009795214
 30
0.0
 11
160.6516569373503
 21
619.0659009795214
 31
0.0
  0
LINE
  5
DFF
330
1A
100
AcDbEntity
  8
0
100
AcDbLine
 10
157.6516569373503
 20
619.0659009795214
 30
0.0
 11
160.6516569373503
 21
619.0659009795214
 31
0.0
  0
LINE
  5
116C
330
1A
100
AcDbEntity
  8
0
 62
     9
100
AcDbLine
 10
157.6516569373507
 20
612.5659009795241
 30
0.0
 11
157.6516569373507
 21
701.8792479899142
 31
0.0
  0
LINE
  5
122A
330
1A
100
AcDbEntity
  8
0
100
AcDbLine
 10
73.9161959503183
 20
619.0659009795214
 30
0.0
 11
73.9161959503183
 21
616.9148361451588
 31
0.0
  0
LINE
  5
122B
330
1A
100
AcDbEntity
  8
0
100
AcDbLine
 10
78.9161959503183
 20
619.0659009795214
 30
0.0
 11
78.9161959503183
 21
616.9148361451588
 31
0.0
  0
LINE
  5
122C
330
1A
100
AcDbEntity
  8
0
100
AcDbLine
 10
63.45165693735021
 20
619.0659009795214
 30
0.0
 11
70.34173223099083
 21
619.0659009795214
 31
0.0
  0
LINE
  5
122D
330
1A
100
AcDbEntity
  8
0
100
AcDbLine
 10
251.8516569373505
 20
619.0659009795214
 30
0.0
 11
244.9615816437098
 21
619.0659009795214
 31
0.0
  0
LINE
  5
1231
330
1A
100
AcDbEntity
  8
0
100
AcDbLine
 10
235.916195950318
 20
619.0659009795214
 30
0.0
 11
235.9161959503182
 21
616.9148361451591
 31
0.0
  0
LINE
  5
1232
330
1A
100
AcDbEntity
  8
0
100
AcDbLine
 10
240.9161959503181
 20
619.0659009795214
 30
0.0
 11
240.9161959503181
 21
616.9148361451591
 31
0.0
  0
ARC
  5
12DA
330
1A
100
AcDbEntity
  8
0
100
AcDbCircle
 10
157.6516569373507
 20
736.0659009795227
 30
0.0
 40
120.0
100
AcDbArc
 50
262.3377443392412
 51
277.6622556607587
  0
LINE
  5
12DB
330
1A
100
AcDbEntity
  8
0
100
AcDbLine
 10
173.6516569373507
 20
617.1373510009744
 30
0.0
 11
173.6516569373507
 21
618.2659009795226
 31
0.0
  0
LINE
  5
12DC
330
1A
100
AcDbEntity
  8
0
100
AcDbLine
 10
141.6516569373507
 20
618.2659009795226
 30
0.0
 11
173.6516569373507
 21
618.2659009795226
 31
0.0
  0
LINE
  5
12DD
330
1A
100
AcDbEntity
  8
0
100
AcDbLine
 10
171.6516569373507
 20
618.2659009795226
 30
0.0
 11
171.6516569373507
 21
619.0659009795227
 31
0.0
  0
LINE
  5
12DE
330
1A
100
AcDbEntity
  8
0
100
AcDbLine
 10
143.6516569373507
 20
618.2659009795226
 30
0.0
 11
143.6516569373507
 21
619.0659009795236
 31
0.0
  0
LINE
  5
12DF
330
1A
100
AcDbEntity
  8
0
100
AcDbLine
 10
141.6516569373507
 20
617.1373510009744
 30
0.0
 11
141.6516569373507
 21
618.2659009795226
 31
0.0
  0
ARC
  5
12E0
330
1A
100
AcDbEntity
  8
0
100
AcDbCircle
 10
157.6516569373507
 20
617.5659009795241
 30
0.0
 40
6.0
100
AcDbArc
 50
193.0773242585889
 51
346.922675741411
  0
LINE
  5
12F7
330
1A
100
AcDbEntity
  8
0
 62
     9
100
AcDbLine
 10
65.85072459435105
 20
779.0659015028478
 30
0.0
 11
65.85072459435105
 21
819.2750219422924
 31
0.0
  0
LINE
  5
12F8
330
1A
100
AcDbEntity
  8
0
 62
     9
100
AcDbLine
 10
249.452589280353
 20
779.0659015028477
 30
0.0
 11
249.452589280353
 21
819.2750219422924
 31
0.0
  0
LINE
  5
12F9
330
1A
100
AcDbEntity
  8
0
 62
     9
100
AcDbLine
 10
70.85072459435105
 20
817.2750219422924
 30
0.0
 11
244.4525892803531
 21
817.2750219422924
 31
0.0
  0
SOLID
  5
12FB
330
1A
100
AcDbEntity
  8
0
 62
     9
100
AcDbTrace
 10
70.85072459435105
 20
818.1083552756259
 30
0.0
 11
70.85072459435105
 21
816.4416886089592
 31
0.0
 12
65.85072459435105
 22
817.2750219422924
 32
0.0
 13
65.85072459435105
 23
817.2750219422924
 33
0.0
  0
SOLID
  5
12FC
330
1A
100
AcDbEntity
  8
0
 62
     9
100
AcDbTrace
 10
244.4525892803531
 20
818.1083552756259
 30
0.0
 11
244.4525892803531
 21
816.4416886089592
 31
0.0
 12
249.452589280353
 22
817.2750219422924
 32
0.0
 13
249.452589280353
 23
817.2750219422924
 33
0.0
  0
LINE
  5
12FD
330
1A
100
AcDbEntity
  8
0
 62
     9
100
AcDbLine
 10
98.28759218057525
 20
782.0594644488852
 30
0.0
 11
98.28759218057525
 21
804.37750925367
 31
0.0
  0
LINE
  5
12FE
330
1A
100
AcDbEntity
  8
0
 62
     9
100
AcDbLine
 10
217.0157216941287
 20
783.5659015028475
 30
0.0
 11
217.0157216941287
 21
804.37750925367
 31
0.0
  0
LINE
  5
12FF
330
1A
100
AcDbEntity
  8
0
 62
     9
100
AcDbLine
 10
103.2875921805752
 20
802.3775092536698
 30
0.0
 11
212.0157216941287
 21
802.3775092536698
 31
0.0
  0
SOLID
  5
1301
330
1A
100
AcDbEntity
  8
0
 62
     9
100
AcDbTrace
 10
103.2875921805752
 20
803.2108425870033
 30
0.0
 11
103.2875921805752
 21
801.5441759203365
 31
0.0
 12
98.28759218057525
 22
802.3775092536698
 32
0.0
 13
98.28759218057525
 23
802.3775092536698
 33
0.0
  0
SOLID
  5
1302
330
1A
100
AcDbEntity
  8
0
 62
     9
100
AcDbTrace
 10
212.0157216941287
 20
803.2108425870033
 30
0.0
 11
212.0157216941287
 21
801.5441759203365
 31
0.0
 12
217.0157216941287
 22
802.3775092536698
 32
0.0
 13
217.0157216941287
 23
802.3775092536698
 33
0.0
  0
LINE
  5
1303
330
1A
100
AcDbEntity
  8
0
 62
     9
100
AcDbLine
 10
71.90165693735207
 20
758.7396663630966
 30
0.0
 11
71.90165693735207
 21
763.1346446471829
 31
0.0
  0
LINE
  5
1304
330
1A
100
AcDbEntity
  8
0
 62
     9
100
AcDbLine
 10
243.401656937352
 20
758.7396663630966
 30
0.0
 11
243.401656937352
 21
763.1346446471829
 31
0.0
  0
LINE
  5
1305
330
1A
100
AcDbEntity
  8
0
 62
     9
100
AcDbLine
 10
74.40165693735207
 20
761.134644647183
 30
0.0
 11
240.901656937352
 21
761.134644647183
 31
0.0
  0
SOLID
  5
1307
330
1A
100
AcDbEntity
  8
0
 62
     9
100
AcDbTrace
 10
74.40165693735207
 20
761.5513113138496
 30
0.0
 11
74.40165693735207
 21
760.7179779805163
 31
0.0
 12
71.90165693735207
 22
761.134644647183
 32
0.0
 13
71.90165693735207
 23
761.134644647183
 33
0.0
  0
SOLID
  5
1308
330
1A
100
AcDbEntity
  8
0
 62
     9
100
AcDbTrace
 10
240.901656937352
 20
761.5513113138496
 30
0.0
 11
240.901656937352
 21
760.7179779805163
 31
0.0
 12
243.401656937352
 22
761.134644647183
 32
0.0
 13
243.401656937352
 23
761.134644647183
 33
0.0
  0
LINE
  5
1309
330
1A
100
AcDbEntity
  8
0
 62
     9
100
AcDbLine
 10
91.65165693735071
 20
697.0659009795233
 30
0.0
 11
40.46555729047849
 21
697.0659009795233
 31
0.0
  0
LINE
  5
130A
330
1A
100
AcDbEntity
  8
0
 62
     9
100
AcDbLine
 10
79.00015479347712
 20
782.5659015028482
 30
0.0
 11
40.46555729047851
 21
782.5659015028482
 31
0.0
  0
LINE
  5
130B
330
1A
100
AcDbEntity
  8
0
 62
     9
100
AcDbLine
 10
42.46555729047849
 20
701.5659009795233
 30
0.0
 11
42.46555729047851
 21
777.5659015028481
 31
0.0
  0
SOLID
  5
130D
330
1A
100
AcDbEntity
  8
0
 62
     9
100
AcDbTrace
 10
41.63222395714515
 20
702.0659009795233
 30
0.0
 11
43.29889062381183
 21
702.0659009795233
 31
0.0
 12
42.46555729047849
 22
697.0659009795233
 32
0.0
 13
42.46555729047849
 23
697.0659009795233
 33
0.0
  0
SOLID
  5
130E
330
1A
100
AcDbEntity
  8
0
 62
     9
100
AcDbTrace
 10
41.63222395714517
 20
777.5659015028481
 30
0.0
 11
43.29889062381184
 21
777.5659015028481
 31
0.0
 12
42.46555729047851
 22
782.5659015028482
 32
0.0
 13
42.46555729047851
 23
782.5659015028482
 33
0.0
  0
LINE
  5
130F
330
1A
100
AcDbEntity
  8
0
 62
     9
100
AcDbLine
 10
247.6502845913537
 20
693.5659015028488
 30
0.0
 11
272.805271100332
 21
693.5659015028488
 31
0.0
  0
LINE
  5
1310
330
1A
100
AcDbEntity
  8
0
 62
     9
100
AcDbLine
 10
249.4525892803526
 20
777.0659015028479
 30
0.0
 11
272.805271100332
 21
777.0659015028477
 31
0.0
  0
LINE
  5
1311
330
1A
100
AcDbEntity
  8
0
 62
     9
100
AcDbLine
 10
270.805271100332
 20
698.5659015028487
 30
0.0
 11
270.805271100332
 21
772.0659015028477
 31
0.0
  0
SOLID
  5
1313
330
1A
100
AcDbEntity
  8
0
 62
     9
100
AcDbTrace
 10
269.9719377669986
 20
698.5659015028487
 30
0.0
 11
271.6386044336652
 21
698.5659015028487
 31
0.0
 12
270.805271100332
 22
693.5659015028488
 32
0.0
 13
270.805271100332
 23
693.5659015028488
 33
0.0
  0
SOLID
  5
1314
330
1A
100
AcDbEntity
  8
0
 62
     9
100
AcDbTrace
 10
269.9719377669986
 20
772.0659015028477
 30
0.0
 11
271.6386044336652
 21
772.0659015028477
 31
0.0
 12
270.805271100332
 22
777.0659015028477
 32
0.0
 13
270.805271100332
 23
777.0659015028477
 33
0.0
  0
LINE
  5
1315
330
1A
100
AcDbEntity
  8
0
 62
     9
100
AcDbLine
 10
92.6516569373507
 20
697.5659009795233
 30
0.0
 11
92.6516569373507
 21
718.1579065153173
 31
0.0
  0
LINE
  5
1316
330
1A
100
AcDbEntity
  8
0
 62
     9
100
AcDbLine
 10
222.6516569373506
 20
697.5659009795233
 30
0.0
 11
222.6516569373506
 21
718.1579065153173
 31
0.0
  0
LINE
  5
1317
330
1A
100
AcDbEntity
  8
0
 62
     9
100
AcDbLine
 10
95.1516569373507
 20
716.1579065153173
 30
0.0
 11
220.1516569373506
 21
716.1579065153173
 31
0.0
  0
SOLID
  5
1319
330
1A
100
AcDbEntity
  8
0
 62
     9
100
AcDbTrace
 10
95.1516569373507
 20
716.5745731819839
 30
0.0
 11
95.1516569373507
 21
715.7412398486506
 31
0.0
 12
92.6516569373507
 22
716.1579065153173
 32
0.0
 13
92.6516569373507
 23
716.1579065153173
 33
0.0
  0
SOLID
  5
131A
330
1A
100
AcDbEntity
  8
0
 62
     9
100
AcDbTrace
 10
220.1516569373506
 20
716.5745731819839
 30
0.0
 11
220.1516569373506
 21
715.7412398486506
 31
0.0
 12
222.6516569373506
 22
716.1579065153173
 32
0.0
 13
222.6516569373506
 23
716.1579065153173
 33
0.0
  0
LINE
  5
131B
330
1A
100
AcDbEntity
  8
0
 62
     9
100
AcDbLine
 10
174.651656937352
 20
787.5659015028478
 30
0.0
 11
288.6723861291603
 21
787.5659015028477
 31
0.0
  0
LINE
  5
131C
330
1A
100
AcDbEntity
  8
0
 62
     9
100
AcDbLine
 10
239.416195950318
 20
611.5659009795238
 30
0.0
 11
288.6723861291602
 21
611.5659009795237
 31
0.0
  0
LINE
  5
131D
330
1A
100
AcDbEntity
  8
0
 62
     9
100
AcDbLine
 10
286.6723861291603
 20
782.5659015028477
 30
0.0
 11
286.6723861291602
 21
616.5659009795237
 31
0.0
  0
SOLID
  5
131F
330
1A
100
AcDbEntity
  8
0
 62
     9
100
AcDbTrace
 10
285.8390527958269
 20
782.5659015028477
 30
0.0
 11
287.5057194624936
 21
782.5659015028477
 31
0.0
 12
286.6723861291603
 22
787.5659015028477
 32
0.0
 13
286.6723861291603
 23
787.5659015028477
 33
0.0
  0
SOLID
  5
1320
330
1A
100
AcDbEntity
  8
0
 62
     9
100
AcDbTrace
 10
285.8390527958269
 20
616.5659009795237
 30
0.0
 11
287.5057194624935
 21
616.5659009795237
 31
0.0
 12
286.6723861291602
 22
611.5659009795237
 32
0.0
 13
286.6723861291602
 23
611.5659009795237
 33
0.0
  0
LINE
  5
1322
330
1A
100
AcDbEntity
  8
0
 62
     9
100
AcDbLine
 10
239.416195950318
 20
611.5659009795238
 30
0.0
 11
272.8052711003319
 21
611.5659009795237
 31
0.0
  0
LINE
  5
1323
330
1A
100
AcDbEntity
  8
0
 62
     9
100
AcDbLine
 10
247.6502845913537
 20
693.5659015028488
 30
0.0
 11
272.805271100332
 21
693.5659015028488
 31
0.0
  0
LINE
  5
1324
330
1A
100
AcDbEntity
  8
0
 62
     9
100
AcDbLine
 10
270.8052711003319
 20
616.5659009795237
 30
0.0
 11
270.805271100332
 21
688.5659015028487
 31
0.0
  0
SOLID
  5
1326
330
1A
100
AcDbEntity
  8
0
 62
     9
100
AcDbTrace
 10
269.9719377669986
 20
616.5659009795237
 30
0.0
 11
271.6386044336652
 21
616.5659009795237
 31
0.0
 12
270.8052711003319
 22
611.5659009795237
 32
0.0
 13
270.8052711003319
 23
611.5659009795237
 33
0.0
  0
SOLID
  5
1327
330
1A
100
AcDbEntity
  8
0
 62
     9
100
AcDbTrace
 10
269.9719377669986
 20
688.5659015028487
 30
0.0
 11
271.6386044336652
 21
688.5659015028487
 31
0.0
 12
270.805271100332
 22
693.5659015028488
 32
0.0
 13
270.805271100332
 23
693.5659015028488
 33
0.0
  0
LINE
  5
1329
330
1A
100
AcDbEntity
  8
0
 62
     9
100
AcDbLine
 10
75.41619595031829
 20
611.5659009795234
 30
0.0
 11
40.46555729047848
 21
611.5659009795234
 31
0.0
  0
LINE
  5
132A
330
1A
100
AcDbEntity
  8
0
 62
     9
100
AcDbLine
 10
91.65165693735071
 20
697.0659009795233
 30
0.0
 11
40.4655572904785
 21
697.0659009795233
 31
0.0
  0
LINE
  5
132B
330
1A
100
AcDbEntity
  8
0
 62
     9
100
AcDbLine
 10
42.46555729047847
 20
616.5659009795234
 30
0.0
 11
42.4655572904785
 21
691.5659009795233
 31
0.0
  0
SOLID
  5
132D
330
1A
100
AcDbEntity
  8
0
 62
     9
100
AcDbTrace
 10
41.63222395714514
 20
616.5659009795234
 30
0.0
 11
43.29889062381181
 21
616.5659009795234
 31
0.0
 12
42.46555729047847
 22
611.5659009795234
 32
0.0
 13
42.46555729047847
 23
611.5659009795234
 33
0.0
  0
SOLID
  5
132E
330
1A
100
AcDbEntity
  8
0
 62
     9
100
AcDbTrace
 10
41.63222395714516
 20
692.0659009795233
 30
0.0
 11
43.29889062381183
 21
692.0659009795233
 31
0.0
 12
42.4655572904785
 22
697.0659009795233
 32
0.0
 13
42.4655572904785
 23
697.0659009795233
 33
0.0
  0
LINE
  5
132F
330
1A
100
AcDbEntity
  8
0
 62
     9
100
AcDbLine
 10
157.6516569373507
 20
617.5659009795241
 30
0.0
 11
157.6516569373507
 21
595.5299819104582
 31
0.0
  0
LINE
  5
1330
330
1A
100
AcDbEntity
  8
0
 62
     9
100
AcDbLine
 10
160.6516569373503
 20
618.0659009795213
 30
0.0
 11
160.6516569373503
 21
595.5299819104582
 31
0.0
  0
LINE
  5
1331
330
1A
100
AcDbEntity
  8
0
 62
     9
100
AcDbLine
 10
152.6516569373507
 20
597.5299819104582
 30
0.0
 11
147.6516569373507
 21
597.5299819104582
 31
0.0
  0
LINE
  5
1332
330
1A
100
AcDbEntity
  8
0
 62
     9
100
AcDbLine
 10
165.6516569373503
 20
597.5299819104582
 30
0.0
 11
170.6516569373503
 21
597.5299819104582
 31
0.0
  0
LINE
  5
1334
330
1A
100
AcDbEntity
  8
0
 62
     9
100
AcDbLine
 10
157.6516569373507
 20
597.5299819104582
 30
0.0
 11
160.6516569373503
 21
597.5299819104582
 31
0.0
  0
SOLID
  5
1335
330
1A
100
AcDbEntity
  8
0
 62
     9
100
AcDbTrace
 10
152.6516569373507
 20
598.3633152437915
 30
0.0
 11
152.6516569373507
 21
596.6966485771248
 31
0.0
 12
157.6516569373507
 22
597.5299819104582
 32
0.0
 13
157.6516569373507
 23
597.5299819104582
 33
0.0
  0
SOLID
  5
1336
330
1A
100
AcDbEntity
  8
0
 62
     9
100
AcDbTrace
 10
165.6516569373503
 20
598.3633152437915
 30
0.0
 11
165.6516569373503
 21
596.6966485771248
 31
0.0
 12
160.6516569373503
 22
597.5299819104582
 32
0.0
 13
160.6516569373503
 23
597.5299819104582
 33
0.0
  0
LINE
  5
1337
330
1A
100
AcDbEntity
  8
0
 62
     9
100
AcDbLine
 10
76.4161959503183
 20
611.5659009795234
 30
0.0
 11
76.4161959503183
 21
573.6165667232117
 31
0.0
  0
LINE
  5
1338
330
1A
100
AcDbEntity
  8
0
 62
     9
100
AcDbLine
 10
238.4161959503181
 20
611.5659009795238
 30
0.0
 11
238.4161959503181
 21
573.6165667232117
 31
0.0
  0
LINE
  5
1339
330
1A
100
AcDbEntity
  8
0
 62
     9
100
AcDbLine
 10
81.4161959503183
 20
575.6165667232116
 30
0.0
 11
233.416195950318
 21
575.6165667232116
 31
0.0
  0
SOLID
  5
133B
330
1A
100
AcDbEntity
  8
0
 62
     9
100
AcDbTrace
 10
81.4161959503183
 20
576.449900056545
 30
0.0
 11
81.4161959503183
 21
574.7832333898783
 31
0.0
 12
76.4161959503183
 22
575.6165667232116
 32
0.0
 13
76.4161959503183
 23
575.6165667232116
 33
0.0
  0
SOLID
  5
133C
330
1A
100
AcDbEntity
  8
0
 62
     9
100
AcDbTrace
 10
233.416195950318
 20
576.449900056545
 30
0.0
 11
233.416195950318
 21
574.7832333898783
 31
0.0
 12
238.4161959503181
 22
575.6165667232116
 32
0.0
 13
238.4161959503181
 23
575.6165667232116
 33
0.0
  0
LINE
  5
133D
330
1A
100
AcDbEntity
  8
0
 62
     9
100
AcDbLine
 10
326.8374147565446
 20
922.1841679202475
 30
0.0
 11
326.8374147565446
 21
1032.087975250797
 31
0.0
  0
LINE
  5
133E
330
1A
100
AcDbEntity
  8
0
 62
     9
100
AcDbLine
 10
589.3374147565445
 20
1017.684167920247
 30
0.0
 11
589.3374147565445
 21
1032.087975250797
 31
0.0
  0
LINE
  5
133F
330
1A
100
AcDbEntity
  8
0
 62
     9
100
AcDbLine
 10
331.8374147565446
 20
1030.087975250797
 30
0.0
 11
584.3374147565445
 21
1030.087975250797
 31
0.0
  0
SOLID
  5
1341
330
1A
100
AcDbEntity
  8
0
 62
     9
100
AcDbTrace
 10
331.8374147565446
 20
1030.92130858413
 30
0.0
 11
331.8374147565446
 21
1029.254641917464
 31
0.0
 12
326.8374147565446
 22
1030.087975250797
 32
0.0
 13
326.8374147565446
 23
1030.087975250797
 33
0.0
  0
SOLID
  5
1342
330
1A
100
AcDbEntity
  8
0
 62
     9
100
AcDbTrace
 10
584.3374147565445
 20
1030.92130858413
 30
0.0
 11
584.3374147565445
 21
1029.254641917464
 31
0.0
 12
589.3374147565445
 22
1030.087975250797
 32
0.0
 13
589.3374147565445
 23
1030.087975250797
 33
0.0
  0
LINE
  5
1343
330
1A
100
AcDbEntity
  8
0
 62
     9
100
AcDbLine
 10
589.2227946430973
 20
829.6841679202474
 30
0.0
 11
611.084940566729
 21
829.6841679202474
 31
0.0
  0
LINE
  5
1344
330
1A
100
AcDbEntity
  8
0
 62
     9
100
AcDbLine
 10
589.2227946430973
 20
1022.684167920247
 30
0.0
 11
611.084940566729
 21
1022.684167920247
 31
0.0
  0
LINE
  5
1345
330
1A
100
AcDbEntity
  8
0
 62
     9
100
AcDbLine
 10
609.0849405667291
 20
834.6841679202475
 30
0.0
 11
609.0849405667291
 21
1017.684167920247
 31
0.0
  0
SOLID
  5
1347
330
1A
100
AcDbEntity
  8
0
 62
     9
100
AcDbTrace
 10
608.2516072333957
 20
834.6841679202475
 30
0.0
 11
609.9182739000625
 21
834.6841679202475
 31
0.0
 12
609.0849405667291
 22
829.6841679202474
 32
0.0
 13
609.0849405667291
 23
829.6841679202474
 33
0.0
  0
SOLID
  5
1348
330
1A
100
AcDbEntity
  8
0
 62
     9
100
AcDbTrace
 10
608.2516072333957
 20
1017.684167920247
 30
0.0
 11
609.9182739000625
 21
1017.684167920247
 31
0.0
 12
609.0849405667291
 22
1022.684167920247
 32
0.0
 13
609.0849405667291
 23
1022.684167920247
 33
0.0
  0
LINE
  5
1349
330
1A
100
AcDbEntity
  8
0
 62
     9
100
AcDbLine
 10
403.5380966315123
 20
781.0659009795239
 30
0.0
 11
403.5380966315123
 21
815.8712116267816
 31
0.0
  0
LINE
  5
134A
330
1A
100
AcDbEntity
  8
0
 62
     9
100
AcDbLine
 10
587.1399613175144
 20
781.0659009795238
 30
0.0
 11
587.1399613175144
 21
815.8712116267816
 31
0.0
  0
LINE
  5
134B
330
1A
100
AcDbEntity
  8
0
 62
     9
100
AcDbLine
 10
408.5380966315124
 20
813.8712116267816
 30
0.0
 11
582.1399613175144
 21
813.8712116267816
 31
0.0
  0
SOLID
  5
134D
330
1A
100
AcDbEntity
  8
0
 62
     9
100
AcDbTrace
 10
408.5380966315124
 20
814.7045449601149
 30
0.0
 11
408.5380966315124
 21
813.0378782934482
 31
0.0
 12
403.5380966315123
 22
813.8712116267816
 32
0.0
 13
403.5380966315123
 23
813.8712116267816
 33
0.0
  0
SOLID
  5
134E
330
1A
100
AcDbEntity
  8
0
 62
     9
100
AcDbTrace
 10
582.1399613175144
 20
814.7045449601149
 30
0.0
 11
582.1399613175144
 21
813.0378782934482
 31
0.0
 12
587.1399613175144
 22
813.8712116267816
 32
0.0
 13
587.1399613175144
 23
813.8712116267816
 33
0.0
  0
LINE
  5
134F
330
1A
100
AcDbEntity
  8
0
 62
     9
100
AcDbLine
 10
326.837446022168
 20
634.0659009795223
 30
0.0
 11
326.837446022168
 21
796.3716803307773
 31
0.0
  0
LINE
  5
1350
330
1A
100
AcDbEntity
  8
0
 62
     9
100
AcDbLine
 10
495.3390289745134
 20
706.1369262485308
 30
0.0
 11
495.3390289745134
 21
796.3716803307773
 31
0.0
  0
LINE
  5
1351
330
1A
100
AcDbEntity
  8
0
 62
     9
100
AcDbLine
 10
331.837446022168
 20
794.3716803307774
 30
0.0
 11
490.3390289745134
 21
794.3716803307774
 31
0.0
  0
SOLID
  5
1353
330
1A
100
AcDbEntity
  8
0
 62
     9
100
AcDbTrace
 10
331.837446022168
 20
795.2050136641108
 30
0.0
 11
331.837446022168
 21
793.538346997444
 31
0.0
 12
326.837446022168
 22
794.3716803307774
 32
0.0
 13
326.837446022168
 23
794.3716803307774
 33
0.0
  0
SOLID
  5
1354
330
1A
100
AcDbEntity
  8
0
 62
     9
100
AcDbTrace
 10
490.3390289745134
 20
795.2050136641108
 30
0.0
 11
490.3390289745134
 21
793.538346997444
 31
0.0
 12
495.3390289745134
 22
794.3716803307774
 32
0.0
 13
495.3390289745134
 23
794.3716803307774
 33
0.0
  0
LINE
  5
1355
330
1A
100
AcDbEntity
  8
0
 62
     9
100
AcDbLine
 10
435.9749642177366
 20
781.793669239298
 30
0.0
 11
435.9749642177366
 21
802.3782234405446
 31
0.0
  0
LINE
  5
1356
330
1A
100
AcDbEntity
  8
0
 62
     9
100
AcDbLine
 10
554.7030937312903
 20
781.7936692393023
 30
0.0
 11
554.7030937312903
 21
802.3782234405446
 31
0.0
  0
LINE
  5
1357
330
1A
100
AcDbEntity
  8
0
 62
     9
100
AcDbLine
 10
440.9749642177366
 20
800.3782234405445
 30
0.0
 11
549.7030937312903
 21
800.3782234405445
 31
0.0
  0
SOLID
  5
1359
330
1A
100
AcDbEntity
  8
0
 62
     9
100
AcDbTrace
 10
440.9749642177366
 20
801.211556773878
 30
0.0
 11
440.9749642177366
 21
799.5448901072112
 31
0.0
 12
435.9749642177366
 22
800.3782234405445
 32
0.0
 13
435.9749642177366
 23
800.3782234405445
 33
0.0
  0
SOLID
  5
135A
330
1A
100
AcDbEntity
  8
0
 62
     9
100
AcDbTrace
 10
549.7030937312903
 20
801.211556773878
 30
0.0
 11
549.7030937312903
 21
799.5448901072112
 31
0.0
 12
554.7030937312903
 22
800.3782234405445
 32
0.0
 13
554.7030937312903
 23
800.3782234405445
 33
0.0
  0
LINE
  5
135B
330
1A
100
AcDbEntity
  8
0
 62
     9
100
AcDbLine
 10
409.5890289745134
 20
758.7396658397726
 30
0.0
 11
409.5890289745134
 21
762.8723489006034
 31
0.0
  0
LINE
  5
135C
330
1A
100
AcDbEntity
  8
0
 62
     9
100
AcDbLine
 10
581.0890289745134
 20
758.7396658397726
 30
0.0
 11
581.0890289745134
 21
762.8723489006034
 31
0.0
  0
LINE
  5
135D
330
1A
100
AcDbEntity
  8
0
 62
     9
100
AcDbLine
 10
412.0890289745134
 20
760.8723489006035
 30
0.0
 11
578.5890289745134
 21
760.8723489006035
 31
0.0
  0
SOLID
  5
135F
330
1A
100
AcDbEntity
  8
0
 62
     9
100
AcDbTrace
 10
412.0890289745134
 20
761.2890155672701
 30
0.0
 11
412.0890289745134
 21
760.4556822339368
 31
0.0
 12
409.5890289745134
 22
760.8723489006035
 32
0.0
 13
409.5890289745134
 23
760.8723489006035
 33
0.0
  0
SOLID
  5
1360
330
1A
100
AcDbEntity
  8
0
 62
     9
100
AcDbTrace
 10
578.5890289745134
 20
761.2890155672701
 30
0.0
 11
578.5890289745134
 21
760.4556822339368
 31
0.0
 12
581.0890289745134
 22
760.8723489006035
 32
0.0
 13
581.0890289745134
 23
760.8723489006035
 33
0.0
  0
LINE
  5
1361
330
1A
100
AcDbEntity
  8
0
 62
     9
100
AcDbLine
 10
584.8372150580553
 20
611.5659009795241
 30
0.0
 11
614.8173390668516
 21
611.5659009795241
 31
0.0
  0
LINE
  5
1362
330
1A
100
AcDbEntity
  8
0
 62
     9
100
AcDbLine
 10
588.3054690263088
 20
683.0659009795351
 30
0.0
 11
614.8173390668516
 21
683.0659009795351
 31
0.0
  0
LINE
  5
1363
330
1A
100
AcDbEntity
  8
0
 62
     9
100
AcDbLine
 10
612.8173390668516
 20
616.5659009795241
 30
0.0
 11
612.8173390668516
 21
678.065900979535
 31
0.0
  0
SOLID
  5
1365
330
1A
100
AcDbEntity
  8
0
 62
     9
100
AcDbTrace
 10
611.9840057335182
 20
616.5659009795241
 30
0.0
 11
613.650672400185
 21
616.5659009795241
 31
0.0
 12
612.8173390668516
 22
611.5659009795241
 32
0.0
 13
612.8173390668516
 23
611.5659009795241
 33
0.0
  0
SOLID
  5
1366
330
1A
100
AcDbEntity
  8
0
 62
     9
100
AcDbTrace
 10
611.9840057335182
 20
678.065900979535
 30
0.0
 11
613.650672400185
 21
678.065900979535
 31
0.0
 12
612.8173390668516
 22
683.0659009795351
 32
0.0
 13
612.8173390668516
 23
683.0659009795351
 33
0.0
  0
LINE
  5
1367
330
1A
100
AcDbEntity
  8
0
 62
     9
100
AcDbLine
 10
388.3374460221798
 20
609.6165239784446
 30
0.0
 11
388.3374460221798
 21
604.8597513123325
 31
0.0
  0
LINE
  5
1368
330
1A
100
AcDbEntity
  8
0
 62
     9
100
AcDbLine
 10
582.8372150580553
 20
611.5659009795241
 30
0.0
 11
582.8372150580553
 21
604.8597513123325
 31
0.0
  0
LINE
  5
1369
330
1A
100
AcDbEntity
  8
0
 62
     9
100
AcDbLine
 10
393.3374460221798
 20
606.8597513123324
 30
0.0
 11
577.8372150580553
 21
606.8597513123324
 31
0.0
  0
SOLID
  5
136B
330
1A
100
AcDbEntity
  8
0
 62
     9
100
AcDbTrace
 10
393.3374460221798
 20
607.6930846456658
 30
0.0
 11
393.3374460221798
 21
606.026417978999
 31
0.0
 12
388.3374460221798
 22
606.8597513123324
 32
0.0
 13
388.3374460221798
 23
606.8597513123324
 33
0.0
  0
SOLID
  5
136C
330
1A
100
AcDbEntity
  8
0
 62
     9
100
AcDbTrace
 10
577.8372150580553
 20
607.6930846456658
 30
0.0
 11
577.8372150580553
 21
606.026417978999
 31
0.0
 12
582.8372150580553
 22
606.8597513123324
 32
0.0
 13
582.8372150580553
 23
606.8597513123324
 33
0.0
  0
LINE
  5
136D
330
1A
100
AcDbEntity
  8
0
 62
     9
100
AcDbLine
 10
326.837446022168
 20
632.0659009795223
 30
0.0
 11
326.837446022168
 21
604.8597513123325
 31
0.0
  0
LINE
  5
136E
330
1A
100
AcDbEntity
  8
0
 62
     9
100
AcDbLine
 10
388.3374460221798
 20
609.6165239784446
 30
0.0
 11
388.3374460221798
 21
604.8597513123325
 31
0.0
  0
LINE
  5
136F
330
1A
100
AcDbEntity
  8
0
 62
     9
100
AcDbLine
 10
331.837446022168
 20
606.8597513123324
 30
0.0
 11
383.3374460221798
 21
606.8597513123324
 31
0.0
  0
SOLID
  5
1371
330
1A
100
AcDbEntity
  8
0
 62
     9
100
AcDbTrace
 10
331.837446022168
 20
607.6930846456658
 30
0.0
 11
331.837446022168
 21
606.026417978999
 31
0.0
 12
326.837446022168
 22
606.8597513123324
 32
0.0
 13
326.837446022168
 23
606.8597513123324
 33
0.0
  0
SOLID
  5
1372
330
1A
100
AcDbEntity
  8
0
 62
     9
100
AcDbTrace
 10
383.3374460221798
 20
607.6930846456658
 30
0.0
 11
383.3374460221798
 21
606.026417978999
 31
0.0
 12
388.3374460221798
 22
606.8597513123324
 32
0.0
 13
388.3374460221798
 23
606.8597513123324
 33
0.0
  0
LINE
  5
1373
330
1A
100
AcDbEntity
  8
0
 62
     9
100
AcDbLine
 10
326.837446022168
 20
632.0659009795223
 30
0.0
 11
326.837446022168
 21
593.6676876645241
 31
0.0
  0
LINE
  5
1374
330
1A
100
AcDbEntity
  8
0
 62
     9
100
AcDbLine
 10
518.8374403428929
 20
615.0659009795227
 30
0.0
 11
518.8374403428929
 21
593.6676876645241
 31
0.0
  0
LINE
  5
1375
330
1A
100
AcDbEntity
  8
0
 62
     9
100
AcDbLine
 10
331.837446022168
 20
595.6676876645241
 30
0.0
 11
513.8374403428929
 21
595.6676876645241
 31
0.0
  0
SOLID
  5
1377
330
1A
100
AcDbEntity
  8
0
 62
     9
100
AcDbTrace
 10
331.837446022168
 20
596.5010209978575
 30
0.0
 11
331.837446022168
 21
594.8343543311907
 31
0.0
 12
326.837446022168
 22
595.6676876645241
 32
0.0
 13
326.837446022168
 23
595.6676876645241
 33
0.0
  0
SOLID
  5
1378
330
1A
100
AcDbEntity
  8
0
 62
     9
100
AcDbTrace
 10
513.8374403428929
 20
596.5010209978575
 30
0.0
 11
513.8374403428929
 21
594.8343543311907
 31
0.0
 12
518.8374403428929
 22
595.6676876645241
 32
0.0
 13
518.8374403428929
 23
595.6676876645241
 33
0.0
  0
LINE
  5
14C4
330
1A
100
AcDbEntity
  8
0
100
AcDbLine
 10
406.2879935412285
 20
693.5659009795249
 30
0.0
 11
584.3900644077979
 21
693.5659009795249
 31
0.0
  0
LINE
  5
14C5
330
1A
100
AcDbEntity
  8
0
100
AcDbLine
 10
495.3390289745132
 20
683.0659009795229
 30
0.0
 11
425.5476419454704
 21
683.1850919734367
 31
0.0
  0
LINE
  5
14C6
330
1A
100
AcDbEntity
  8
0
100
AcDbLine
 10
404.8411550713242
 20
684.0659009795236
 30
0.0
 11
425.5476419454704
 21
683.1850919734367
 31
0.0
  0
LINE
  5
14C7
330
1A
100
AcDbEntity
  8
0
100
AcDbLine
 10
404.8411550713242
 20
684.0659009795236
 30
0.0
 11
405.2893640064739
 21
692.6182369357682
 31
0.0
  0
LINE
  5
14C8
330
1A
100
AcDbEntity
  8
0
100
AcDbLine
 10
407.4855859594492
 20
684.0659009795229
 30
0.0
 11
404.8411550713242
 21
684.0659009795236
 31
0.0
  0
ARC
  5
14C9
330
1A
100
AcDbEntity
  8
0
100
AcDbCircle
 10
406.2879935412285
 20
692.5659009795252
 30
0.0
 40
1.0
100
AcDbArc
 50
90.00000000000651
 51
176.9999999999944
  0
LINE
  5
14CA
330
1A
100
AcDbEntity
  8
0
100
AcDbLine
 10
425.5476419454704
 20
685.3605825211404
 30
0.0
 11
425.5476419454704
 21
691.4950886519088
 31
0.0
  0
LINE
  5
14CB
330
1A
100
AcDbEntity
  8
0
100
AcDbLine
 10
495.3390289745132
 20
683.0659009795229
 30
0.0
 11
565.1304160035559
 21
683.1850919734367
 31
0.0
  0
LINE
  5
14CC
330
1A
100
AcDbEntity
  8
0
100
AcDbLine
 10
585.8369028777022
 20
684.0659009795236
 30
0.0
 11
565.1304160035559
 21
683.1850919734367
 31
0.0
  0
LINE
  5
14CD
330
1A
100
AcDbEntity
  8
0
100
AcDbLine
 10
565.1304160035559
 20
685.3605825211404
 30
0.0
 11
565.1304160035559
 21
691.4950886519088
 31
0.0
  0
LINE
  5
14CE
330
1A
100
AcDbEntity
  8
0
100
AcDbLine
 10
585.8369028777022
 20
684.0659009795236
 30
0.0
 11
585.3886939425525
 21
692.6182369357682
 31
0.0
  0
LINE
  5
14CF
330
1A
100
AcDbEntity
  8
0
100
AcDbLine
 10
583.1924719895771
 20
684.0659009795229
 30
0.0
 11
585.8369028777022
 21
684.0659009795236
 31
0.0
  0
ARC
  5
14D0
330
1A
100
AcDbEntity
  8
0
100
AcDbCircle
 10
584.3900644077979
 20
692.5659009795252
 30
0.0
 40
1.0
100
AcDbArc
 50
3.000000000005594
 51
89.99999999999349
  0
LINE
  5
14D1
330
1A
100
AcDbEntity
  8
0
100
AcDbLine
 10
68.6530292833495
 20
693.5659015028488
 30
0.0
 11
246.6502845913534
 21
693.5659015028488
 31
0.0
  0
LINE
  5
14D2
330
1A
100
AcDbEntity
  8
0
100
AcDbLine
 10
157.6516569373516
 20
684.065901502847
 30
0.0
 11
248.1495308405408
 21
683.065901502847
 31
0.0
  0
LINE
  5
14D3
330
1A
100
AcDbEntity
  8
0
100
AcDbLine
 10
67.15378303416264
 20
683.0659015028468
 30
0.0
 11
157.6516569373516
 21
684.065901502847
 31
0.0
  0
LINE
  5
14D4
330
1A
100
AcDbEntity
  8
0
100
AcDbLine
 10
67.15378303416264
 20
683.0659015028468
 30
0.0
 11
67.6543997485951
 21
692.6182374590919
 31
0.0
  0
ARC
  5
14D5
330
1A
100
AcDbEntity
  8
0
100
AcDbCircle
 10
68.6530292833495
 20
692.5659015028489
 30
0.0
 40
1.0
100
AcDbArc
 50
90.0
 51
176.9999999999944
  0
LINE
  5
14D6
330
1A
100
AcDbEntity
  8
0
100
AcDbLine
 10
248.1495308405408
 20
683.065901502847
 30
0.0
 11
247.6489141261081
 21
692.6182374590919
 31
0.0
  0
ARC
  5
14D7
330
1A
100
AcDbEntity
  8
0
100
AcDbCircle
 10
246.6502845913534
 20
692.5659015028489
 30
0.0
 40
1.0
100
AcDbArc
 50
3.000000000005594
 51
90.0
  0
ARC
  5
14D8
330
1A
100
AcDbEntity
  8
0
100
AcDbCircle
 10
173.651656937352
 20
742.5659015028478
 30
0.0
 40
45.0
100
AcDbArc
 50
68.96053021869781
 51
90.0
  0
LINE
  5
14D9
330
1A
100
AcDbEntity
  8
0
100
AcDbLine
 10
211.2977185089212
 20
777.0659015028479
 30
0.0
 11
104.1497698070238
 21
777.0659015028479
 31
0.0
  0
LINE
  5
14DA
330
1A
100
AcDbEntity
  8
0
100
AcDbLine
 10
248.0933122243627
 20
784.5659015028473
 30
0.0
 11
68.82956971673138
 21
784.5659015028492
 31
0.0
  0
ARC
  5
14DB
330
1A
100
AcDbEntity
  8
0
100
AcDbCircle
 10
141.651656937352
 20
742.5659015028478
 30
0.0
 40
45.0
100
AcDbArc
 50
90.0
 51
111.0394697813021
  0
LINE
  5
14DC
330
1A
100
AcDbEntity
  8
0
100
AcDbLine
 10
79.57200543145927
 20
782.5659015028487
 30
0.0
 11
100.6383464783216
 21
782.5659015028474
 31
0.0
  0
LINE
  5
14DD
330
1A
100
AcDbEntity
  8
0
100
AcDbLine
 10
87.91456101263838
 20
783.1659015028478
 30
0.0
 11
100.3003399967315
 21
783.1659015028478
 31
0.0
  0
ARC
  5
14DE
330
1A
100
AcDbEntity
  8
0
100
AcDbCircle
 10
80.00015479347712
 20
783.1659015028482
 30
0.0
 40
0.6
100
AcDbArc
 50
180.0
 51
270.0
  0
ARC
  5
14DF
330
1A
100
AcDbEntity
  8
0
100
AcDbCircle
 10
87.52520145284142
 20
783.1659015028482
 30
0.0
 40
0.6
100
AcDbArc
 50
154.6230664745794
 51
270.0
  0
LINE
  5
14E0
330
1A
100
AcDbEntity
  8
0
100
AcDbLine
 10
80.00015479347712
 20
783.1659015028482
 30
0.0
 11
86.20878839470197
 21
783.1659015028482
 31
0.0
  0
ARC
  5
14E1
330
1A
100
AcDbEntity
  8
0
100
AcDbCircle
 10
88.79011251689371
 20
782.5659015028478
 30
0.0
 40
2.0
100
AcDbArc
 50
90.0
 51
154.6230664745794
  0
ARC
  5
14E2
330
1A
100
AcDbEntity
  8
0
100
AcDbCircle
 10
76.31459252419881
 20
778.0659015028478
 30
0.0
 40
1.0
100
AcDbArc
 50
270.0
 51
338.483374411389
  0
ARC
  5
14E3
330
1A
100
AcDbEntity
  8
0
100
AcDbCircle
 10
77.86454043742833
 20
778.0659015028478
 30
0.0
 40
1.0
100
AcDbArc
 50
270.0
 51
338.483374411389
  0
LINE
  5
14E4
330
1A
100
AcDbEntity
  8
0
100
AcDbLine
 10
79.01381872304546
 20
782.1859642178866
 30
0.0
 11
77.24490370488865
 21
777.6991303111177
 31
0.0
  0
ARC
  5
14E5
330
1A
100
AcDbEntity
  8
0
100
AcDbCircle
 10
68.82956971673138
 20
782.5659015028478
 30
0.0
 40
2.0
100
AcDbArc
 50
90.0
 51
167.9999999999837
  0
ARC
  5
14E6
330
1A
100
AcDbEntity
  8
0
100
AcDbCircle
 10
66.85072459435104
 20
778.0659015028478
 30
0.0
 40
1.0
100
AcDbArc
 50
167.9999999999837
 51
270.0
  0
LINE
  5
14E7
330
1A
100
AcDbEntity
  8
0
100
AcDbLine
 10
66.85072459435104
 20
777.0659015028479
 30
0.0
 11
66.85072459435151
 21
777.0659015028479
 31
0.0
  0
LINE
  5
14E8
330
1A
100
AcDbEntity
  8
0
100
AcDbLine
 10
66.8732745152638
 20
782.9817248844834
 30
0.0
 11
65.87257699361726
 21
778.2738131936659
 31
0.0
  0
LINE
  5
14E9
330
1A
100
AcDbEntity
  8
0
100
AcDbLine
 10
66.85072459435104
 20
777.0659015028479
 30
0.0
 11
77.86454043742833
 21
777.0659015028479
 31
0.0
  0
LINE
  5
14EA
330
1A
100
AcDbEntity
  8
0
100
AcDbLine
 10
80.71355528084996
 20
782.5659015028478
 30
0.0
 11
78.79485161811818
 21
777.6991303111177
 31
0.0
  0
ARC
  5
14EB
330
1A
100
AcDbEntity
  8
0
100
AcDbCircle
 10
79.57200543145927
 20
781.9659015028483
 30
0.0
 40
0.6
100
AcDbArc
 50
90.0
 51
158.483374411389
  0
ARC
  5
14EC
330
1A
100
AcDbEntity
  8
0
100
AcDbCircle
 10
104.1497698070243
 20
778.0659015028478
 30
0.0
 40
1.0
100
AcDbArc
 50
201.3023113507667
 51
270.0
  0
ARC
  5
14ED
330
1A
100
AcDbEntity
  8
0
100
AcDbCircle
 10
100.6383464783216
 20
781.5659015028473
 30
0.0
 40
1.0
100
AcDbArc
 50
21.30231135076676
 51
90.0
  0
LINE
  5
14EE
330
1A
100
AcDbEntity
  8
0
100
AcDbLine
 10
101.5700230513471
 20
781.9291903180839
 30
0.0
 11
103.2180932339988
 21
777.7026126876117
 31
0.0
  0
ARC
  5
14EF
330
1A
100
AcDbEntity
  8
0
100
AcDbCircle
 10
100.6383464783216
 20
783.1659015028478
 30
0.0
 40
0.6
100
AcDbArc
 50
270.0
 51
0.0
  0
LINE
  5
14F0
330
1A
100
AcDbEntity
  8
0
100
AcDbLine
 10
173.651656937352
 20
787.5659015028478
 30
0.0
 11
141.651656937352
 21
787.5659015028478
 31
0.0
  0
LINE
  5
14F1
330
1A
100
AcDbEntity
  8
0
100
AcDbLine
 10
235.4473335224684
 20
783.1659015028482
 30
0.0
 11
229.2386999212435
 21
783.1659015028482
 31
0.0
  0
LINE
  5
14F2
330
1A
100
AcDbEntity
  8
0
100
AcDbLine
 10
235.8754828844862
 20
782.5659015028487
 30
0.0
 11
214.8091418376238
 21
782.5659015028474
 31
0.0
  0
ARC
  5
14F3
330
1A
100
AcDbEntity
  8
0
100
AcDbCircle
 10
227.9222868631041
 20
783.1659015028482
 30
0.0
 40
0.6
100
AcDbArc
 50
270.0
 51
25.37693352542055
  0
ARC
  5
14F4
330
1A
100
AcDbEntity
  8
0
100
AcDbCircle
 10
226.6573757990518
 20
782.5659015028478
 30
0.0
 40
2.0
100
AcDbArc
 50
25.37693352542055
 51
90.0
  0
ARC
  5
14F5
330
1A
100
AcDbEntity
  8
0
100
AcDbCircle
 10
214.8091418376238
 20
781.5659015028473
 30
0.0
 40
1.0
100
AcDbArc
 50
90.0
 51
158.6976886492332
  0
LINE
  5
14F6
330
1A
100
AcDbEntity
  8
0
100
AcDbLine
 10
227.5329273033071
 20
783.1659015028478
 30
0.0
 11
215.1471483192139
 21
783.1659015028478
 31
0.0
  0
ARC
  5
14F7
330
1A
100
AcDbEntity
  8
0
100
AcDbCircle
 10
214.8091418376238
 20
783.1659015028478
 30
0.0
 40
0.6
100
AcDbArc
 50
180.0
 51
270.0
  0
ARC
  5
14F8
330
1A
100
AcDbEntity
  8
0
100
AcDbCircle
 10
211.2977185089212
 20
778.0659015028478
 30
0.0
 40
1.0
100
AcDbArc
 50
270.0
 51
338.6976886492332
  0
LINE
  5
14F9
330
1A
100
AcDbEntity
  8
0
100
AcDbLine
 10
213.8774652645984
 20
781.9291903180839
 30
0.0
 11
212.2293950819466
 21
777.7026126876117
 31
0.0
  0
ARC
  5
14FA
330
1A
100
AcDbEntity
  8
0
100
AcDbCircle
 10
235.8754828844862
 20
781.9659015028483
 30
0.0
 40
0.6
100
AcDbArc
 50
21.51662558861092
 51
90.0
  0
ARC
  5
14FB
330
1A
100
AcDbEntity
  8
0
100
AcDbCircle
 10
235.4473335224684
 20
783.1659015028482
 30
0.0
 40
0.6
100
AcDbArc
 50
270.0
 51
359.9999999999739
  0
ARC
  5
14FC
330
1A
100
AcDbEntity
  8
0
100
AcDbCircle
 10
237.5829478785171
 20
778.0659015028478
 30
0.0
 40
1.0
100
AcDbArc
 50
201.5166255886109
 51
270.0
  0
ARC
  5
14FD
330
1A
100
AcDbEntity
  8
0
100
AcDbCircle
 10
239.1328957917467
 20
778.0659015028478
 30
0.0
 40
1.0
100
AcDbArc
 50
201.5166255886109
 51
270.0
  0
LINE
  5
14FE
330
1A
100
AcDbEntity
  8
0
100
AcDbLine
 10
236.4336695929
 20
782.1859642178866
 30
0.0
 11
238.2025846110568
 21
777.6991303111177
 31
0.0
  0
LINE
  5
14FF
330
1A
100
AcDbEntity
  8
0
100
AcDbLine
 10
234.7339330350955
 20
782.5659015028478
 30
0.0
 11
236.6526366978269
 21
777.6991303111177
 31
0.0
  0
LINE
  5
1500
330
1A
100
AcDbEntity
  8
0
100
AcDbLine
 10
248.4525892803531
 20
777.0659015028479
 30
0.0
 11
248.4525892803526
 21
777.0659015028479
 31
0.0
  0
LINE
  5
1501
330
1A
100
AcDbEntity
  8
0
100
AcDbLine
 10
248.0933122243627
 20
784.5659015028473
 30
0.0
 11
249.4307368810869
 21
778.2738131936659
 31
0.0
  0
ARC
  5
1502
330
1A
100
AcDbEntity
  8
0
100
AcDbCircle
 10
248.4525892803531
 20
778.0659015028477
 30
0.0
 40
1.0
100
AcDbArc
 50
270.0
 51
12.00000000001622
  0
ARC
  5
1503
330
1A
100
AcDbEntity
  8
0
100
AcDbCircle
 10
246.4737441579727
 20
782.5659015028477
 30
0.0
 40
2.0
100
AcDbArc
 50
12.00000000001622
 51
90.0
  0
LINE
  5
1504
330
1A
100
AcDbEntity
  8
0
100
AcDbLine
 10
248.4525892803531
 20
777.0659015028479
 30
0.0
 11
237.5829478785171
 21
777.0659015028479
 31
0.0
  0
ARC
  5
1505
330
1A
100
AcDbEntity
  8
0
100
AcDbCircle
 10
511.3390289745134
 20
742.5659009795239
 30
0.0
 40
45.0
100
AcDbArc
 50
68.96053021869857
 51
90.0
  0
LINE
  5
1506
330
1A
100
AcDbEntity
  8
0
100
AcDbLine
 10
548.9850905460825
 20
777.0659009795239
 30
0.0
 11
441.8371418441852
 21
777.0659009795239
 31
0.0
  0
LINE
  5
1507
330
1A
100
AcDbEntity
  8
0
100
AcDbLine
 10
585.7806842615241
 20
784.5659009795235
 30
0.0
 11
406.5169417538927
 21
784.5659009795252
 31
0.0
  0
ARC
  5
1508
330
1A
100
AcDbEntity
  8
0
100
AcDbCircle
 10
479.3390289745134
 20
742.5659009795239
 30
0.0
 40
45.0
100
AcDbArc
 50
90.0
 51
111.0394697813014
  0
LINE
  5
1509
330
1A
100
AcDbEntity
  8
0
100
AcDbLine
 10
417.2593774686206
 20
782.5659009795248
 30
0.0
 11
438.325718515483
 21
782.5659009795234
 31
0.0
  0
LINE
  5
150A
330
1A
100
AcDbEntity
  8
0
100
AcDbLine
 10
425.6019330497997
 20
783.1659009795238
 30
0.0
 11
437.9877120338928
 21
783.1659009795238
 31
0.0
  0
ARC
  5
150B
330
1A
100
AcDbEntity
  8
0
100
AcDbCircle
 10
417.6875268306385
 20
783.1659009795242
 30
0.0
 40
0.6
100
AcDbArc
 50
180.0
 51
270.0
  0
ARC
  5
150C
330
1A
100
AcDbEntity
  8
0
100
AcDbCircle
 10
425.2125734900028
 20
783.1659009795242
 30
0.0
 40
0.6
100
AcDbArc
 50
154.6230664745797
 51
270.0
  0
LINE
  5
150D
330
1A
100
AcDbEntity
  8
0
100
AcDbLine
 10
417.6875268306385
 20
783.1659009795242
 30
0.0
 11
423.8961604318633
 21
783.1659009795242
 31
0.0
  0
ARC
  5
150E
330
1A
100
AcDbEntity
  8
0
100
AcDbCircle
 10
426.477484554055
 20
782.5659009795239
 30
0.0
 40
2.0
100
AcDbArc
 50
90.0
 51
154.6230664745797
  0
ARC
  5
150F
330
1A
100
AcDbEntity
  8
0
100
AcDbCircle
 10
414.0019645613602
 20
778.0659009795239
 30
0.0
 40
1.0
100
AcDbArc
 50
270.0
 51
338.483374411389
  0
ARC
  5
1510
330
1A
100
AcDbEntity
  8
0
100
AcDbCircle
 10
415.5519124745897
 20
778.0659009795239
 30
0.0
 40
1.0
100
AcDbArc
 50
270.0
 51
338.483374411389
  0
LINE
  5
1511
330
1A
100
AcDbEntity
  8
0
100
AcDbLine
 10
416.7011907602068
 20
782.1859636945626
 30
0.0
 11
414.93227574205
 21
777.6991297877938
 31
0.0
  0
ARC
  5
1512
330
1A
100
AcDbEntity
  8
0
100
AcDbCircle
 10
406.5169417538927
 20
782.5659009795239
 30
0.0
 40
2.0
100
AcDbArc
 50
90.0
 51
167.9999999999836
  0
ARC
  5
1513
330
1A
100
AcDbEntity
  8
0
100
AcDbCircle
 10
404.5380966315124
 20
778.0659009795239
 30
0.0
 40
1.0
100
AcDbArc
 50
167.9999999999836
 51
270.0
  0
LINE
  5
1514
330
1A
100
AcDbEntity
  8
0
100
AcDbLine
 10
404.5380966315124
 20
777.0659009795239
 30
0.0
 11
404.5380966315129
 21
777.0659009795239
 31
0.0
  0
LINE
  5
1515
330
1A
100
AcDbEntity
  8
0
100
AcDbLine
 10
404.5606465524251
 20
782.9817243611595
 30
0.0
 11
403.5599490307786
 21
778.2738126703419
 31
0.0
  0
LINE
  5
1516
330
1A
100
AcDbEntity
  8
0
100
AcDbLine
 10
404.5380966315124
 20
777.0659009795239
 30
0.0
 11
415.5519124745897
 21
777.0659009795239
 31
0.0
  0
LINE
  5
1517
330
1A
100
AcDbEntity
  8
0
100
AcDbLine
 10
418.4009273180113
 20
782.5659009795239
 30
0.0
 11
416.4822236552795
 21
777.6991297877938
 31
0.0
  0
ARC
  5
1518
330
1A
100
AcDbEntity
  8
0
100
AcDbCircle
 10
417.2593774686206
 20
781.9659009795245
 30
0.0
 40
0.6
100
AcDbArc
 50
90.0
 51
158.483374411389
  0
ARC
  5
1519
330
1A
100
AcDbEntity
  8
0
100
AcDbCircle
 10
441.8371418441856
 20
778.0659009795239
 30
0.0
 40
1.0
100
AcDbArc
 50
201.302311350767
 51
270.0
  0
ARC
  5
151A
330
1A
100
AcDbEntity
  8
0
100
AcDbCircle
 10
438.325718515483
 20
781.5659009795234
 30
0.0
 40
1.0
100
AcDbArc
 50
21.30231135076706
 51
90.0
  0
LINE
  5
151B
330
1A
100
AcDbEntity
  8
0
100
AcDbLine
 10
439.2573950885084
 20
781.9291897947599
 30
0.0
 11
440.9054652711602
 21
777.7026121642879
 31
0.0
  0
ARC
  5
151C
330
1A
100
AcDbEntity
  8
0
100
AcDbCircle
 10
438.325718515483
 20
783.1659009795238
 30
0.0
 40
0.6
100
AcDbArc
 50
270.0
 51
0.0
  0
LINE
  5
151D
330
1A
100
AcDbEntity
  8
0
100
AcDbLine
 10
511.3390289745134
 20
787.5659009795239
 30
0.0
 11
479.3390289745134
 21
787.5659009795239
 31
0.0
  0
LINE
  5
151E
330
1A
100
AcDbEntity
  8
0
100
AcDbLine
 10
573.1347055596297
 20
783.1659009795242
 30
0.0
 11
566.9260719584049
 21
783.1659009795242
 31
0.0
  0
LINE
  5
151F
330
1A
100
AcDbEntity
  8
0
100
AcDbLine
 10
573.5628549216476
 20
782.5659009795248
 30
0.0
 11
552.4965138747852
 21
782.5659009795234
 31
0.0
  0
ARC
  5
1520
330
1A
100
AcDbEntity
  8
0
100
AcDbCircle
 10
565.6096589002654
 20
783.1659009795242
 30
0.0
 40
0.6
100
AcDbArc
 50
270.0
 51
25.3769335254202
  0
ARC
  5
1521
330
1A
100
AcDbEntity
  8
0
100
AcDbCircle
 10
564.3447478362132
 20
782.5659009795239
 30
0.0
 40
2.0
100
AcDbArc
 50
25.3769335254202
 51
90.0
  0
ARC
  5
1522
330
1A
100
AcDbEntity
  8
0
100
AcDbCircle
 10
552.4965138747852
 20
781.5659009795234
 30
0.0
 40
1.0
100
AcDbArc
 50
90.0
 51
158.6976886492329
  0
LINE
  5
1523
330
1A
100
AcDbEntity
  8
0
100
AcDbLine
 10
565.2202993404684
 20
783.1659009795238
 30
0.0
 11
552.8345203563754
 21
783.1659009795238
 31
0.0
  0
ARC
  5
1524
330
1A
100
AcDbEntity
  8
0
100
AcDbCircle
 10
552.4965138747852
 20
783.1659009795238
 30
0.0
 40
0.6
100
AcDbArc
 50
180.0
 51
270.0
  0
ARC
  5
1525
330
1A
100
AcDbEntity
  8
0
100
AcDbCircle
 10
548.9850905460825
 20
778.0659009795239
 30
0.0
 40
1.0
100
AcDbArc
 50
270.0
 51
338.6976886492329
  0
LINE
  5
1526
330
1A
100
AcDbEntity
  8
0
100
AcDbLine
 10
551.5648373017597
 20
781.9291897947599
 30
0.0
 11
549.916767119108
 21
777.7026121642879
 31
0.0
  0
ARC
  5
1527
330
1A
100
AcDbEntity
  8
0
100
AcDbCircle
 10
573.5628549216476
 20
781.9659009795245
 30
0.0
 40
0.6
100
AcDbArc
 50
21.51662558861092
 51
90.0
  0
ARC
  5
1528
330
1A
100
AcDbEntity
  8
0
100
AcDbCircle
 10
573.1347055596297
 20
783.1659009795242
 30
0.0
 40
0.6
100
AcDbArc
 50
270.0
 51
359.9999999999739
  0
ARC
  5
1529
330
1A
100
AcDbEntity
  8
0
100
AcDbCircle
 10
575.2703199156785
 20
778.0659009795239
 30
0.0
 40
1.0
100
AcDbArc
 50
201.5166255886109
 51
270.0
  0
ARC
  5
152A
330
1A
100
AcDbEntity
  8
0
100
AcDbCircle
 10
576.820267828908
 20
778.0659009795239
 30
0.0
 40
1.0
100
AcDbArc
 50
201.5166255886109
 51
270.0
  0
LINE
  5
152B
330
1A
100
AcDbEntity
  8
0
100
AcDbLine
 10
574.1210416300614
 20
782.1859636945626
 30
0.0
 11
575.8899566482182
 21
777.6991297877938
 31
0.0
  0
LINE
  5
152C
330
1A
100
AcDbEntity
  8
0
100
AcDbLine
 10
572.4213050722569
 20
782.5659009795239
 30
0.0
 11
574.3400087349882
 21
777.6991297877938
 31
0.0
  0
LINE
  5
152D
330
1A
100
AcDbEntity
  8
0
100
AcDbLine
 10
586.1399613175144
 20
777.0659009795239
 30
0.0
 11
586.139961317514
 21
777.0659009795239
 31
0.0
  0
LINE
  5
152E
330
1A
100
AcDbEntity
  8
0
100
AcDbLine
 10
585.7806842615241
 20
784.5659009795235
 30
0.0
 11
587.1181089182482
 21
778.2738126703419
 31
0.0
  0
ARC
  5
152F
330
1A
100
AcDbEntity
  8
0
100
AcDbCircle
 10
586.1399613175144
 20
778.0659009795238
 30
0.0
 40
1.0
100
AcDbArc
 50
270.0
 51
12.00000000001639
  0
ARC
  5
1530
330
1A
100
AcDbEntity
  8
0
100
AcDbCircle
 10
584.1611161951341
 20
782.5659009795238
 30
0.0
 40
2.0
100
AcDbArc
 50
12.00000000001639
 51
90.0
  0
LINE
  5
1531
330
1A
100
AcDbEntity
  8
0
100
AcDbLine
 10
586.1399613175144
 20
777.0659009795239
 30
0.0
 11
575.2703199156785
 21
777.0659009795239
 31
0.0
  0
ARC
  5
1532
330
1A
100
AcDbEntity
  8
0
100
AcDbCircle
 10
575.3345141766649
 20
926.13028695684
 30
0.0
 40
170.4978739031881
100
AcDbArc
 50
153.3554633342693
 51
165.865755323638
  0
ARC
  5
1533
330
1A
100
AcDbEntity
  8
0
100
AcDbCircle
 10
575.3345141766649
 20
926.13028695684
 30
0.0
 40
170.4978739031881
100
AcDbArc
 50
194.134244676362
 51
206.6445366657306
  0
ARC
  5
1535
330
1A
100
AcDbEntity
  8
0
100
AcDbCircle
 10
495.3345141766658
 20
1086.130286956838
 30
0.0
 40
250.497873903188
100
AcDbArc
 50
254.70171854009
 51
263.7146325837145
  0
ARC
  5
1536
330
1A
100
AcDbEntity
  8
0
100
AcDbCircle
 10
575.3345141766649
 20
926.13028695684
 30
0.0
 40
168.4978739031881
100
AcDbArc
 50
199.8322880634766
 51
206.6445366657306
  0
ARC
  5
1537
330
1A
100
AcDbEntity
  8
0
100
AcDbCircle
 10
495.3345141766658
 20
1086.130286956838
 30
0.0
 40
248.497873903188
100
AcDbArc
 50
254.70171854009
 51
259.804891081241
  0
ARC
  5
1538
330
1A
100
AcDbEntity
  8
0
100
AcDbCircle
 10
431.8805645790862
 20
854.1543752064564
 30
0.0
 40
8.0
100
AcDbArc
 50
206.6445366657306
 51
254.70171854009
  0
ARC
  5
1539
330
1A
100
AcDbEntity
  8
0
100
AcDbCircle
 10
431.8805645790862
 20
854.1543752064564
 30
0.0
 40
10.0
100
AcDbArc
 50
206.6445366657306
 51
254.70171854009
  0
ARC
  5
153A
330
1A
100
AcDbEntity
  8
0
100
AcDbCircle
 10
495.3345141766658
 20
1086.130286956838
 30
0.0
 40
248.497873903188
100
AcDbArc
 50
280.1951089187589
 51
285.2982814599099
  0
ARC
  5
153B
330
1A
100
AcDbEntity
  8
0
100
AcDbCircle
 10
495.3345141766658
 20
1086.130286956838
 30
0.0
 40
250.497873903188
100
AcDbArc
 50
276.2853674162854
 51
285.2982814599099
  0
ARC
  5
153C
330
1A
100
AcDbEntity
  8
0
100
AcDbCircle
 10
415.3345141766667
 20
926.13028695684
 30
0.0
 40
168.4978739031881
100
AcDbArc
 50
333.3554633342693
 51
340.1677119365233
  0
ARC
  5
153D
330
1A
100
AcDbEntity
  8
0
100
AcDbCircle
 10
415.3345141766667
 20
926.13028695684
 30
0.0
 40
170.4978739031881
100
AcDbArc
 50
333.3554633342693
 51
345.865755323638
  0
ARC
  5
153E
330
1A
100
AcDbEntity
  8
0
100
AcDbCircle
 10
558.7884637742449
 20
854.1543752064564
 30
0.0
 40
8.0
100
AcDbArc
 50
285.2982814599099
 51
333.3554633342693
  0
ARC
  5
153F
330
1A
100
AcDbEntity
  8
0
100
AcDbCircle
 10
558.7884637742449
 20
854.1543752064564
 30
0.0
 40
10.0
100
AcDbArc
 50
285.2982814599099
 51
333.3554633342693
  0
ARC
  5
1540
330
1A
100
AcDbEntity
  8
0
100
AcDbCircle
 10
575.3345141766649
 20
926.13028695684
 30
0.0
 40
168.4978739031881
100
AcDbArc
 50
153.3554633342693
 51
160.1677119365232
  0
ARC
  5
1541
330
1A
100
AcDbEntity
  8
0
100
AcDbCircle
 10
495.3345141766658
 20
766.1302869568413
 30
0.0
 40
250.497873903188
100
AcDbArc
 50
96.28536741628543
 51
105.2982814599099
  0
ARC
  5
1542
330
1A
100
AcDbEntity
  8
0
100
AcDbCircle
 10
495.3345141766658
 20
766.1302869568413
 30
0.0
 40
248.497873903188
100
AcDbArc
 50
100.195108918759
 51
105.2982814599099
  0
ARC
  5
1543
330
1A
100
AcDbEntity
  8
0
100
AcDbCircle
 10
431.8805645790862
 20
998.1061987072244
 30
0.0
 40
10.0
100
AcDbArc
 50
105.2982814599099
 51
153.3554633342693
  0
ARC
  5
1544
330
1A
100
AcDbEntity
  8
0
100
AcDbCircle
 10
431.8805645790862
 20
998.1061987072244
 30
0.0
 40
8.0
100
AcDbArc
 50
105.2982814599099
 51
153.3554633342693
  0
ARC
  5
1545
330
1A
100
AcDbEntity
  8
0
100
AcDbCircle
 10
415.3345141766667
 20
926.13028695684
 30
0.0
 40
168.4978739031881
100
AcDbArc
 50
19.83228806347673
 51
26.64453666573064
  0
ARC
  5
1546
330
1A
100
AcDbEntity
  8
0
100
AcDbCircle
 10
415.3345141766667
 20
926.13028695684
 30
0.0
 40
170.4978739031881
100
AcDbArc
 50
14.13424467636198
 51
26.64453666573064
  0
ARC
  5
1547
330
1A
100
AcDbEntity
  8
0
100
AcDbCircle
 10
495.3345141766658
 20
766.1302869568413
 30
0.0
 40
250.497873903188
100
AcDbArc
 50
74.70171854009004
 51
83.71463258371456
  0
ARC
  5
1548
330
1A
100
AcDbEntity
  8
0
100
AcDbCircle
 10
495.3345141766658
 20
766.1302869568413
 30
0.0
 40
248.497873903188
100
AcDbArc
 50
74.70171854009004
 51
79.804891081241
  0
ARC
  5
1549
330
1A
100
AcDbEntity
  8
0
100
AcDbCircle
 10
558.7884637742445
 20
998.1061987072244
 30
0.0
 40
10.0
100
AcDbArc
 50
26.64453666573064
 51
74.70171854009004
  0
ARC
  5
154A
330
1A
100
AcDbEntity
  8
0
100
AcDbCircle
 10
558.7884637742445
 20
998.1061987072244
 30
0.0
 40
8.0
100
AcDbArc
 50
26.64453666573064
 51
74.70171854009004
  0
ARC
  5
154B
330
1A
100
AcDbEntity
  8
0
100
AcDbCircle
 10
448.284514176666
 20
926.13028695684
 30
0.0
 40
137.8
100
AcDbArc
 50
330.0892726305424
 51
29.9107273694576
  0
ARC
  5
154C
330
1A
100
AcDbEntity
  8
0
100
AcDbCircle
 10
542.384514176666
 20
926.13028695684
 30
0.0
 40
137.8
100
AcDbArc
 50
150.0892726305423
 51
209.9107273694576
  0
ARC
  5
154D
330
1A
100
AcDbEntity
  8
0
100
AcDbCircle
 10
448.284514176666
 20
926.13028695684
 30
0.0
 40
138.7788451223799
100
AcDbArc
 50
335.8923273835078
 51
24.10767261649217
  0
ARC
  5
154E
330
1A
100
AcDbEntity
  8
0
100
AcDbCircle
 10
542.384514176666
 20
926.13028695684
 30
0.0
 40
138.7788451223799
100
AcDbArc
 50
155.8923273835078
 51
204.1076726164921
  0
ARC
  5
154F
330
1A
100
AcDbEntity
  8
0
100
AcDbCircle
 10
495.3345141766658
 20
973.1802869568399
 30
0.0
 40
137.8
100
AcDbArc
 50
240.0892726305512
 51
299.9107273694547
  0
ARC
  5
1550
330
1A
100
AcDbEntity
  8
0
100
AcDbCircle
 10
495.3345141766658
 20
973.1802869568399
 30
0.0
 40
138.7788451223799
100
AcDbArc
 50
245.8923273834873
 51
294.1076726165126
  0
ARC
  5
1551
330
1A
100
AcDbEntity
  8
0
100
AcDbCircle
 10
416.5315324469861
 20
869.8133008688923
 30
0.0
 40
0.9
100
AcDbArc
 50
204.1076726164921
 51
299.3198580083683
  0
ARC
  5
1552
330
1A
100
AcDbEntity
  8
0
100
AcDbCircle
 10
439.0175280887183
 20
847.3273052271601
 30
0.0
 40
0.9
100
AcDbArc
 50
150.6801419916404
 51
245.8923273834873
  0
ARC
  5
1553
330
1A
100
AcDbEntity
  8
0
100
AcDbCircle
 10
431.6070392833998
 20
862.402812063574
 30
0.0
 40
10.0
100
AcDbArc
 50
209.9107273694576
 51
240.0892726305512
  0
ARC
  5
1554
330
1A
100
AcDbEntity
  8
0
100
AcDbCircle
 10
559.0619890699318
 20
862.402812063574
 30
0.0
 40
10.0
100
AcDbArc
 50
299.9107273694487
 51
330.0892726305424
  0
ARC
  5
1555
330
1A
100
AcDbEntity
  8
0
100
AcDbCircle
 10
551.6515002646133
 20
847.3273052271601
 30
0.0
 40
0.9
100
AcDbArc
 50
294.1076726165126
 51
29.31985800835953
  0
ARC
  5
1556
330
1A
100
AcDbEntity
  8
0
100
AcDbCircle
 10
574.1374959063455
 20
869.8133008688923
 30
0.0
 40
0.9
100
AcDbArc
 50
240.680141991661
 51
335.8923273835078
  0
CIRCLE
  5
1557
330
1A
100
AcDbEntity
  8
0
100
AcDbCircle
 10
495.7650520518941
 20
926.13028695684
 30
0.0
 40
31.72495654617569
  0
ARC
  5
1558
330
1A
100
AcDbEntity
  8
0
100
AcDbCircle
 10
495.3345141766658
 20
879.08028695684
 30
0.0
 40
137.8
100
AcDbArc
 50
60.08927263054523
 51
119.9107273694487
  0
CIRCLE
  5
1559
330
1A
100
AcDbEntity
  8
0
100
AcDbCircle
 10
495.3345141766658
 20
926.13028695684
 30
0.0
 40
14.99999999999999
  0
ARC
  5
155A
330
1A
100
AcDbEntity
  8
0
100
AcDbCircle
 10
495.3345141766658
 20
879.08028695684
 30
0.0
 40
138.7788451223799
100
AcDbArc
 50
65.89232738348733
 51
114.1076726165126
  0
ARC
  5
155B
330
1A
100
AcDbEntity
  8
0
100
AcDbCircle
 10
416.5315324469861
 20
982.4472730447874
 30
0.0
 40
0.9
100
AcDbArc
 50
60.6801419916316
 51
155.8923273835078
  0
ARC
  5
155C
330
1A
100
AcDbEntity
  8
0
100
AcDbCircle
 10
439.0175280887183
 20
1004.933268686519
 30
0.0
 40
0.9
100
AcDbArc
 50
114.1076726165126
 51
209.3198580083595
  0
ARC
  5
155D
330
1A
100
AcDbEntity
  8
0
100
AcDbCircle
 10
431.6070392833998
 20
989.8577618501059
 30
0.0
 40
10.0
100
AcDbArc
 50
119.9107273694487
 51
150.0892726305423
  0
ARC
  5
155E
330
1A
100
AcDbEntity
  8
0
100
AcDbCircle
 10
559.0619890699318
 20
989.8577618501059
 30
0.0
 40
10.0
100
AcDbArc
 50
29.9107273694576
 51
60.0892726305513
  0
ARC
  5
155F
330
1A
100
AcDbEntity
  8
0
100
AcDbCircle
 10
551.6515002646137
 20
1004.933268686519
 30
0.0
 40
0.9
100
AcDbArc
 50
330.6801419916404
 51
65.89232738348733
  0
ARC
  5
1560
330
1A
100
AcDbEntity
  8
0
100
AcDbCircle
 10
574.137495906346
 20
982.4472730447874
 30
0.0
 40
0.9
100
AcDbArc
 50
24.10767261649217
 51
119.3198580083683
  0
TEXT
  5
156C
330
1A
100
AcDbEntity
  8
0
100
AcDbText
 10
39.19850867508506
 20
1003.96639072363
 30
0.0
 40
10.5
  1
FX-120iWP／200iWP／300iWP
 41
0.8
  7
AD-STANDARD
100
AcDbText
1001
ACAD
1000
MTEXTBEGIN
1070
    73
1070
     1
1070
    44
1040
1.0
1070
    74
1070
     0
1000
MTEXTEND
  0
TEXT
  5
156D
330
1A
100
AcDbEntity
  8
0
 62
     2
100
AcDbText
 10
428.0938808098756
 20
596.5278205367038
 30
0.0
 40
7.0
  1
（床下秤量金具位置）
 41
0.8
  7
AD-STANDARD
100
AcDbText
1001
ACAD
1000
MTEXTBEGIN
1070
    73
1070
     1
1070
    44
1040
1.0
1070
    74
1070
     0
1000
MTEXTEND
  0
TEXT
  5
156E
330
1A
100
AcDbEntity
  8
0
 62
     2
100
AcDbText
 10
173.8975122151987
 20
590.9660532850791
 30
0.0
 40
7.0
  1
（床下秤量金具位置）
 41
0.8
  7
AD-STANDARD
100
AcDbText
1001
ACAD
1000
MTEXTBEGIN
1070
    73
1070
     1
1070
    44
1040
1.0
1070
    74
1070
     0
1000
MTEXTEND
  0
SOLID
  5
156F
330
1A
100
AcDbEntity
  8
0
100
AcDbTrace
 10
170.7964284216303
 20
595.2379853640874
 30
0.0
 11
169.7421633154499
 21
597.5427925571084
 31
0.0
 12
171.4869461541679
 22
595.7044933549037
 32
0.0
 13
171.4869461541679
 23
595.7044933549037
 33
0.0
1001
ACAD
1000
DSTYLE
1002
{
1070
   147
1040
0.5
1070
    77
1070
     1
1002
}
  0
TEXT
  5
1571
330
1A
100
AcDbEntity
  8
0
 62
     2
100
AcDbText
 10
145.8731302939907
 20
578.2693689418677
 30
0.0
 40
7.0
  1
162
 41
0.8
  7
AD-STANDARD
100
AcDbText
1001
ACAD
1000
MTEXTBEGIN
1070
    73
1070
     1
1070
    44
1040
1.0
1070
    74
1070
     0
1000
MTEXTEND
  0
TEXT
  5
1572
330
1A
100
AcDbEntity
  8
0
 62
     2
100
AcDbText
 10
166.9674653897055
 20
598.0518544912427
 30
0.0
 40
7.0
  1
3
 41
0.8
  7
AD-STANDARD
100
AcDbText
1001
ACAD
1000
MTEXTBEGIN
1070
    73
1070
     1
1070
    44
1040
1.0
1070
    74
1070
     0
1000
MTEXTEND
  0
TEXT
  5
1573
330
1A
100
AcDbEntity
  8
0
 62
     2
100
AcDbText
 10
39.3444974941342
 20
647.772166872187
 30
0.0
 40
7.0
  1
85.5
 50
90.0
 41
0.8
  7
AD-STANDARD
100
AcDbText
1001
ACAD
1000
MTEXTBEGIN
1070
    73
1070
     1
1070
    44
1040
1.0
1070
    74
1070
     0
1000
MTEXTEND
  0
TEXT
  5
1574
330
1A
100
AcDbEntity
  8
0
 62
     2
100
AcDbText
 10
37.43797819390218
 20
727.8873074233872
 30
0.0
 40
7.0
  1
85(※4)
 50
90.0
 41
0.8
  7
AD-STANDARD
100
AcDbText
1001
ACAD
1000
MTEXTBEGIN
1070
    73
1070
     1
1070
    44
1040
1.0
1070
    74
1070
     0
1000
MTEXTEND
  0
TEXT
  5
1575
330
1A
100
AcDbEntity
  8
0
 62
     2
100
AcDbText
 10
268.2784499146778
 20
643.5685282898027
 30
0.0
 40
7.0
  1
82
 50
90.0
 41
0.8
  7
AD-STANDARD
100
AcDbText
1001
ACAD
1000
MTEXTBEGIN
1070
    73
1070
     1
1070
    44
1040
1.0
1070
    74
1070
     0
1000
MTEXTEND
  0
TEXT
  5
1576
330
1A
100
AcDbEntity
  8
0
 62
     2
100
AcDbText
 10
266.7209246997651
 20
723.7254683274511
 30
0.0
 40
7.0
  1
83.5(※5)
 50
90.0
 41
0.8
  7
AD-STANDARD
100
AcDbText
1001
ACAD
1000
MTEXTBEGIN
1070
    73
1070
     1
1070
    44
1040
1.0
1070
    74
1070
     0
1000
MTEXTEND
  0
TEXT
  5
1577
330
1A
100
AcDbEntity
  8
0
 62
     2
100
AcDbText
 10
284.5033678062083
 20
691.0296513770938
 30
0.0
 40
7.0
  1
176
 50
90.0
 41
0.8
  7
AD-STANDARD
100
AcDbText
1001
ACAD
1000
MTEXTBEGIN
1070
    73
1070
     1
1070
    44
1040
1.0
1070
    74
1070
     0
1000
MTEXTEND
  0
TEXT
  5
1578
330
1A
100
AcDbEntity
  8
0
 62
     2
100
AcDbText
 10
137.0262280526407
 20
718.8606222785743
 30
0.0
 40
7.0
  1
φ130(※3)
 41
0.8
  7
AD-STANDARD
100
AcDbText
1001
ACAD
1000
MTEXTBEGIN
1070
    73
1070
     1
1070
    44
1040
1.0
1070
    74
1070
     0
1000
MTEXTEND
  0
TEXT
  5
1579
330
1A
100
AcDbEntity
  8
0
 62
     2
100
AcDbText
 10
134.7768439540177
 20
761.8346379298375
 30
0.0
 40
7.0
  1
171.5(※2)
 41
0.8
  7
AD-STANDARD
100
AcDbText
1001
ACAD
1000
MTEXTBEGIN
1070
    73
1070
     1
1070
    44
1040
1.0
1070
    74
1070
     0
1000
MTEXTEND
  0
TEXT
  5
157A
330
1A
100
AcDbEntity
  8
0
 62
     2
100
AcDbText
 10
134.9856372273025
 20
803.7287865328519
 30
0.0
 40
7.0
  1
115(※1)
 41
0.8
  7
AD-STANDARD
100
AcDbText
1001
ACAD
1000
MTEXTBEGIN
1070
    73
1070
     1
1070
    44
1040
1.0
1070
    74
1070
     0
1000
MTEXTEND
  0
TEXT
  5
157B
330
1A
100
AcDbEntity
  8
0
 62
     2
100
AcDbText
 10
143.3841892256097
 20
819.8211907758301
 30
0.0
 40
7.0
  1
184
 41
0.8
  7
AD-STANDARD
100
AcDbText
1001
ACAD
1000
MTEXTBEGIN
1070
    73
1070
     1
1070
    44
1040
1.0
1070
    74
1070
     0
1000
MTEXTEND
  0
TEXT
  5
157C
330
1A
100
AcDbEntity
  8
0
 62
     2
100
AcDbText
 10
346.1754007152516
 20
607.6883925682653
 30
0.0
 40
7.0
  1
61.5
 41
0.8
  7
AD-STANDARD
100
AcDbText
1001
ACAD
1000
MTEXTBEGIN
1070
    73
1070
     1
1070
    44
1040
1.0
1070
    74
1070
     0
1000
MTEXTEND
  0
TEXT
  5
157D
330
1A
100
AcDbEntity
  8
0
 62
     2
100
AcDbText
 10
410.5547557627215
 20
596.1518374815538
 30
0.0
 40
7.0
  1
192
 41
0.8
  7
AD-STANDARD
100
AcDbText
1001
ACAD
1000
MTEXTBEGIN
1070
    73
1070
     1
1070
    44
1040
1.0
1070
    74
1070
     0
1000
MTEXTEND
  0
TEXT
  5
157E
330
1A
100
AcDbEntity
  8
0
 62
     2
100
AcDbText
 10
447.4092976978055
 20
607.491297178523
 30
0.0
 40
7.0
  1
194.5
 41
0.8
  7
AD-STANDARD
100
AcDbText
1001
ACAD
1000
MTEXTBEGIN
1070
    73
1070
     1
1070
    44
1040
1.0
1070
    74
1070
     0
1000
MTEXTEND
  0
TEXT
  5
157F
330
1A
100
AcDbEntity
  8
0
 62
     2
100
AcDbText
 10
610.071665960167
 20
640.6598804917446
 30
0.0
 40
7.0
  1
71.5
 50
90.0
 41
0.8
  7
AD-STANDARD
100
AcDbText
1001
ACAD
1000
MTEXTBEGIN
1070
    73
1070
     1
1070
    44
1040
1.0
1070
    74
1070
     0
1000
MTEXTEND
  0
TEXT
  5
1580
330
1A
100
AcDbEntity
  8
0
 62
     2
100
AcDbText
 10
351.5086714637774
 20
798.804064936201
 30
0.0
 40
7.0
  1
168.5
 41
0.8
  7
AD-STANDARD
100
AcDbText
1001
ACAD
1000
MTEXTBEGIN
1070
    73
1070
     1
1070
    44
1040
1.0
1070
    74
1070
     0
1000
MTEXTEND
  0
TEXT
  5
1581
330
1A
100
AcDbEntity
  8
0
 62
     2
100
AcDbText
 10
479.7905542506021
 20
763.7363222893293
 30
0.0
 40
7.0
  1
171.5(※2)
 41
0.8
  7
AD-STANDARD
100
AcDbText
1001
ACAD
1000
MTEXTBEGIN
1070
    73
1070
     1
1070
    44
1040
1.0
1070
    74
1070
     0
1000
MTEXTEND
  0
TEXT
  5
1582
330
1A
100
AcDbEntity
  8
0
 62
     2
100
AcDbText
 10
483.026506179722
 20
802.5746283001604
 30
0.0
 40
7.0
  1
115(※1)
 41
0.8
  7
AD-STANDARD
100
AcDbText
1001
ACAD
1000
MTEXTBEGIN
1070
    73
1070
     1
1070
    44
1040
1.0
1070
    74
1070
     0
1000
MTEXTEND
  0
TEXT
  5
1583
330
1A
100
AcDbEntity
  8
0
 62
     2
100
AcDbText
 10
481.8030740446003
 20
817.2335382984382
 30
0.0
 40
7.0
  1
184
 41
0.8
  7
AD-STANDARD
100
AcDbText
1001
ACAD
1000
MTEXTBEGIN
1070
    73
1070
     1
1070
    44
1040
1.0
1070
    74
1070
     0
1000
MTEXTEND
  0
TEXT
  5
1584
330
1A
100
AcDbEntity
  8
0
 62
     2
100
AcDbText
 10
605.9657465473365
 20
916.3839945194125
 30
0.0
 40
7.0
  1
193
 50
90.0
 41
0.8
  7
AD-STANDARD
100
AcDbText
1001
ACAD
1000
MTEXTBEGIN
1070
    73
1070
     1
1070
    44
1040
1.0
1070
    74
1070
     0
1000
MTEXTEND
  0
TEXT
  5
1585
330
1A
100
AcDbEntity
  8
0
 62
     2
100
AcDbText
 10
466.3870753395781
 20
1032.578029762271
 30
0.0
 40
7.0
  1
262.5
 41
0.8
  7
AD-STANDARD
100
AcDbText
1001
ACAD
1000
MTEXTBEGIN
1070
    73
1070
     1
1070
    44
1040
1.0
1070
    74
1070
     0
1000
MTEXTEND
  0
TEXT
  5
1586
330
1A
100
AcDbEntity
  8
0
100
AcDbText
 10
39.19850867508506
 20
1024.180527908267
 30
0.0
 40
10.5
  1
FX-120i／200i／300i
 41
0.8
  7
AD-STANDARD
100
AcDbText
1001
ACAD
1000
MTEXTBEGIN
1070
    73
1070
     1
1070
    44
1040
1.0
1070
    74
1070
     0
1000
MTEXTEND
  0
TEXT
  5
1587
330
1A
100
AcDbEntity
  8
0
100
AcDbText
 10
108.7791477747825
 20
891.1090694550168
 30
0.0
 40
7.0
  1
※1：透明な板を取り外した時の開口幅
 41
0.8
  7
AD-STANDARD
100
AcDbText
1001
ACAD
1000
MTEXTBEGIN
1070
    73
1070
     1
1070
    44
1040
1.0
1070
    74
1070
     0
1000
MTEXTEND
  0
TEXT
  5
1588
330
1A
100
AcDbEntity
  8
0
100
AcDbText
 10
108.7791477747825
 20
879.4424027883501
 30
0.0
 40
7.0
  1
※2：内寸
 41
0.8
  7
AD-STANDARD
100
AcDbText
1001
ACAD
1000
MTEXTBEGIN
1070
    73
1070
     1
1070
    44
1040
1.0
1070
    74
1070
     0
1000
MTEXTEND
  0
TEXT
  5
1589
330
1A
100
AcDbEntity
  8
0
100
AcDbText
 10
108.7791477747825
 20
867.7757361216833
 30
0.0
 40
7.0
  1
※3：計量皿径
 41
0.8
  7
AD-STANDARD
100
AcDbText
1001
ACAD
1000
MTEXTBEGIN
1070
    73
1070
     1
1070
    44
1040
1.0
1070
    74
1070
     0
1000
MTEXTEND
  0
TEXT
  5
158A
330
1A
100
AcDbEntity
  8
0
100
AcDbText
 10
108.7791477747825
 20
856.1090694550168
 30
0.0
 40
7.0
  1
※4：計量皿からフタまでの高さ（内寸）
 41
0.8
  7
AD-STANDARD
100
AcDbText
1001
ACAD
1000
MTEXTBEGIN
1070
    73
1070
     1
1070
    44
1040
1.0
1070
    74
1070
     0
1000
MTEXTEND
  0
TEXT
  5
158B
330
1A
100
AcDbEntity
  8
0
100
AcDbText
 10
108.7791477747825
 20
844.4424027883501
 30
0.0
 40
7.0
  1
※5：透明な板を取り外した時の開口高さ
 41
0.8
  7
AD-STANDARD
100
AcDbText
1001
ACAD
1000
MTEXTBEGIN
1070
    73
1070
     1
1070
    44
1040
1.0
1070
    74
1070
     0
1000
MTEXTEND
  0
LINE
  5
158C
330
1A
100
AcDbEntity
  8
0
100
AcDbLine
 10
171.1416872878991
 20
595.4712393594956
 30
0.0
 11
175.2780787049991
 21
589.3486183573869
 31
0.0
1001
ACAD
1000
DSTYLE
1002
{
1070
   147
1040
0.5
1070
    77
1070
     1
1002
}
  0
LINE
  5
158D
330
1A
100
AcDbEntity
  8
0
100
AcDbLine
 10
175.2780787049991
 20
589.3486183573869
 30
0.0
 11
236.8883984965163
 21
589.3486183573869
 31
0.0
1001
ACAD
1000
DSTYLE
1002
{
1070
   147
1040
0.5
1070
    77
1070
     1
1002
}
  0
TEXT
  5
1597
330
1A
100
AcDbEntity
  8
0
100
AcDbText
 10
39.19850867508506
 20
973.2746126184023
 30
0.0
 40
10.5
  1
FZ-120i／200i／300i
 41
0.8
  7
AD-STANDARD
100
AcDbText
1001
ACAD
1000
MTEXTBEGIN
1070
    73
1070
     1
1070
    44
1040
1.0
1070
    74
1070
     0
1000
MTEXTEND
  0
TEXT
  5
1598
330
1A
100
AcDbEntity
  8
0
100
AcDbText
 10
39.19850867508506
 20
953.0604754337646
 30
0.0
 40
10.5
  1
FZ-120iWP／200iWP／300iWP
 41
0.8
  7
AD-STANDARD
100
AcDbText
1001
ACAD
1000
MTEXTBEGIN
1070
    73
1070
     1
1070
    44
1040
1.0
1070
    74
1070
     0
1000
MTEXTEND
  0
VIEWPORT
  5
22
102
{ACAD_XDICTIONARY
360
13CB
102
}
330
17
100
AcDbEntity
 67
     1
  8
0
100
AcDbViewport
 10
217.0121647964259
 20
162.4703616522642
 30
0.0
 40
425.4077477657479
 41
237.4556018749207
 68
     1
 69
     1
 12
217.0121647964259
 22
162.4703616522642
 13
0.0
 23
0.0
 14
1.0
 24
1.0
 15
10.0
 25
10.0
 16
0.0
 26
0.0
 36
1.0
 17
0.0
 27
0.0
 37
0.0
 42
50.0
 43
0.0
 44
0.0
 45
237.4556018749207
 50
0.0
 51
0.0
 72
   100
 90
    32768
  1

281
     0
 71
     1
 74
     0
110
0.0
120
0.0
130
0.0
111
1.0
121
0.0
131
0.0
112
0.0
122
1.0
132
0.0
 79
     0
146
0.0
  0
VIEWPORT
  5
399
102
{ACAD_XDICTIONARY
360
13E1
102
}
330
17
100
AcDbEntity
 67
     1
  8
0
100
AcDbViewport
 10
212.5
 20
149.4999999999999
 30
0.0
 40
385.0
 41
264.9999999999999
 68
     2
 69
     2
 12
323.7521898967015
 22
800.2894076268924
 13
0.0
 23
0.0
 14
168.0
 24
168.0
 15
0.0
 25
0.0
 16
0.0
 26
0.0
 36
1.0
 17
0.0
 27
0.0
 37
0.0
 42
50.0
 43
0.0
 44
0.0
 45
529.9999999999998
 50
0.0
 51
0.0
 72
   100
 90
    36864
  1

281
     0
 71
     1
 74
     0
110
0.0
120
0.0
130
0.0
111
1.0
121
0.0
131
0.0
112
0.0
122
1.0
132
0.0
 79
     0
146
0.0
  0
LWPOLYLINE
  5
1461
330
17
100
AcDbEntity
 67
     1
  8
0
100
AcDbPolyline
 90
        4
 70
     1
 43
0.3
 10
405.0
 20
281.9999999999999
 10
20.0
 20
281.9999999999999
 10
20.0
 20
17.0
 10
404.9999999999998
 20
16.99999999999994
  0
VIEWPORT
  5
1462
102
{ACAD_XDICTIONARY
360
1463
102
}
330
17
100
AcDbEntity
 67
     1
  8
DEFPOINTS
100
AcDbViewport
 10
212.4999999999999
 20
149.4999999999999
 30
0.0
 40
385.0
 41
264.9999999999999
 68
     0
 69
     3
 12
190.8230237662355
 22
130.5307286144516
 13
0.0
 23
0.0
 14
168.0
 24
168.0
 15
0.0
 25
0.0
 16
0.0
 26
0.0
 36
1.0
 17
0.0
 27
0.0
 37
0.0
 42
50.0
 43
0.0
 44
0.0
 45
265.0000003883643
 50
0.0
 51
0.0
 72
   100
 90
   167936
  1

281
     0
 71
     1
 74
     0
110
0.0
120
0.0
130
0.0
111
1.0
121
0.0
131
0.0
112
0.0
122
1.0
132
0.0
 79
     0
146
0.0
  0
LINE
  5
1465
330
17
100
AcDbEntity
 67
     1
  8
0
100
AcDbLine
 10
20.0
 20
147.0
 30
0.0
 11
15.0
 21
147.0
 31
0.0
  0
ENDSEC
  0
SECTION
  2
OBJECTS
  0
DICTIONARY
  5
C
330
0
100
AcDbDictionary
281
     1
  3
ACAD_COLOR
350
13A2
  3
ACAD_GROUP
350
D
  3
ACAD_LAYOUT
350
2C2
  3
ACAD_MATERIAL
350
138D
  3
ACAD_MLINESTYLE
350
E
  3
ACAD_PLOTSETTINGS
350
2C3
  3
ACAD_PLOTSTYLENAME
350
2C0
  3
ACAD_TABLESTYLE
350
13A3
  3
ACAD_VISUALSTYLE
350
1391
  3
AcadDim
350
2CE
  3
AcDbVariableDictionary
350
13F5
  3
CONTENTDICTIONARY
350
234
  3
DWGPROPS
350
15A0
  0
DICTIONARY
  5
13C7
330
8
100
AcDbDictionary
280
     1
281
     1
  3
ACAD_XREC_ROUNDTRIP
360
13C8
  0
DICTIONARY
  5
13C9
330
F
100
AcDbDictionary
280
     1
281
     1
  3
ACAD_XREC_ROUNDTRIP
360
13CA
  0
DICTIONARY
  5
13D1
330
72
100
AcDbDictionary
280
     1
281
     1
  3
ACAD_XREC_ROUNDTRIP
360
13D2
  0
DICTIONARY
  5
13CB
330
22
100
AcDbDictionary
280
     1
281
     1
  3
ACAD_XREC_ROUNDTRIP
360
13CC
  0
DICTIONARY
  5
13E1
330
399
100
AcDbDictionary
280
     1
281
     1
  3
ACAD_XREC_ROUNDTRIP
360
13E2
  0
DICTIONARY
  5
1463
330
1462
100
AcDbDictionary
280
     1
281
     1
  3
ACAD_XREC_ROUNDTRIP
360
1464
  0
DICTIONARY
  5
13A2
102
{ACAD_REACTORS
330
C
102
}
330
C
100
AcDbDictionary
281
     1
  0
DICTIONARY
  5
D
102
{ACAD_REACTORS
330
C
102
}
330
C
100
AcDbDictionary
281
     1
  0
DICTIONARY
  5
2C2
102
{ACAD_REACTORS
330
C
102
}
330
C
100
AcDbDictionary
281
     1
  3
Model
350
2C4
  3
ﾚｲｱｳﾄ1
350
2C5
  0
DICTIONARY
  5
138D
102
{ACAD_REACTORS
330
C
102
}
330
C
100
AcDbDictionary
281
     1
  3
ByBlock
350
138F
  3
ByLayer
350
138E
  3
Global
350
1390
  0
DICTIONARY
  5
E
102
{ACAD_REACTORS
330
C
102
}
330
C
100
AcDbDictionary
281
     1
  3
STANDARD
350
13
  0
DICTIONARY
  5
2C3
102
{ACAD_REACTORS
330
C
102
}
330
C
100
AcDbDictionary
281
     1
  3
A3form
350
2DD
  0
ACDBDICTIONARYWDFLT
  5
2C0
102
{ACAD_REACTORS
330
C
102
}
330
C
100
AcDbDictionary
281
     1
  3
Normal
350
2C1
100
AcDbDictionaryWithDefault
340
2C1
  0
DICTIONARY
  5
13A3
102
{ACAD_REACTORS
330
C
102
}
330
C
100
AcDbDictionary
281
     1
  3
Standard
350
13A4
  0
DICTIONARY
  5
1391
102
{ACAD_REACTORS
330
C
102
}
330
C
100
AcDbDictionary
281
     1
  3
2dWireframe
350
1397
  3
3D Hidden
350
1399
  3
3dWireframe
350
1398
  3
Basic
350
1396
  3
Brighten
350
139D
  3
ColorChange
350
13A1
  3
Conceptual
350
139A
  3
Dim
350
139C
  3
Facepattern
350
13A0
  3
Flat
350
1392
  3
FlatWithEdges
350
1393
  3
Gouraud
350
1394
  3
GouraudWithEdges
350
1395
  3
Linepattern
350
139F
  3
Realistic
350
139B
  3
Thicken
350
139E
  0
XRECORD
  5
2CE
102
{ACAD_REACTORS
330
C
102
}
330
C
100
AcDbXrecord
280
     1
 90
   990106
  3

 60
     0
 61
     0
 62
     4
 63
     4
 64
     1
 65
     0
 66
     0
 67
     3
 68
     1
 69
     0
 70
     0
 71
     0
 72
     0
 40
0.0
170
     2
  0
DICTIONARY
  5
13F5
102
{ACAD_REACTORS
330
C
102
}
330
C
100
AcDbDictionary
281
     1
  3
CTABLESTYLE
350
13F6
  3
DIMASSOC
350
13F9
  3
INDEXCTL
350
13F8
  3
SORTENTS
350
13F7
  0
DICTIONARY
  5
234
102
{ACAD_REACTORS
330
C
102
}
330
C
100
AcDbDictionary
281
     1
  0
XRECORD
  5
15A0
102
{ACAD_REACTORS
330
C
102
}
330
C
100
AcDbXrecord
280
     1
  1
DWGPROPS COOKIE
  2

  3

  4

  6

  7

  8
ADJ-DV01-W73
  9

300
=
301
=
302
=
303
=
304
=
305
=
306
=
307
=
308
=
309
=
 40
0.22418
 41
2454008.800192616
 42
2455307.784128101
  1

 90
        0
  0
XRECORD
  5
13C8
102
{ACAD_REACTORS
330
13C7
102
}
330
13C7
100
AcDbXrecord
280
     1
102
VTR_0.000_0.000_1.000_1.000_VISUALSTYLE
340
1397
102
VTR_0.000_0.000_1.000_1.000_GRIDDISPLAY
 70
     3
102
VTR_0.000_0.000_1.000_1.000_GRIDMAJOR
 70
     5
102
VTR_0.000_0.000_1.000_1.000_DEFAULTLIGHTING
280
     1
102
VTR_0.000_0.000_1.000_1.000_DEFAULTLIGHTINGTYPE
 70
     1
102
VTR_0.000_0.000_1.000_1.000_BRIGHTNESS
141
0.0
102
VTR_0.000_0.000_1.000_1.000_CONTRAST
142
0.0
  0
XRECORD
  5
13CA
102
{ACAD_REACTORS
330
13C9
102
}
330
13C9
100
AcDbXrecord
280
     1
102
MATERIAL
340
1390
  0
XRECORD
  5
13D2
102
{ACAD_REACTORS
330
13D1
102
}
330
13D1
100
AcDbXrecord
280
     1
102
MATERIAL
340
1390
  0
XRECORD
  5
13CC
102
{ACAD_REACTORS
330
13CB
102
}
330
13CB
100
AcDbXrecord
280
     1
102
SHADEPLOT
 70
     0
102
VISUALSTYLE
340
1397
102
GRIDDISPLAY
 70
     0
102
GRIDMAJOR
 70
     5
102
DEFAULTLIGHTING
280
     1
102
DEFAULTLIGHTINGTYPE
 70
     1
102
BRIGHTNESS
141
0.0
102
CONTRAST
142
0.0
  0
XRECORD
  5
13E2
102
{ACAD_REACTORS
330
13E1
102
}
330
13E1
100
AcDbXrecord
280
     1
102
SHADEPLOT
 70
     0
102
VISUALSTYLE
340
1397
102
GRIDDISPLAY
 70
     0
102
GRIDMAJOR
 70
     5
102
DEFAULTLIGHTING
280
     1
102
DEFAULTLIGHTINGTYPE
 70
     1
102
BRIGHTNESS
141
0.0
102
CONTRAST
142
0.0
  0
XRECORD
  5
1464
102
{ACAD_REACTORS
330
1463
102
}
330
1463
100
AcDbXrecord
280
     1
102
SHADEPLOT
 70
     0
102
VISUALSTYLE
340
1397
102
GRIDDISPLAY
 70
     0
102
GRIDMAJOR
 70
     5
102
DEFAULTLIGHTING
280
     1
102
DEFAULTLIGHTINGTYPE
 70
     1
102
BRIGHTNESS
141
0.0
102
CONTRAST
142
0.0
  0
LAYOUT
  5
2C4
102
{ACAD_XDICTIONARY
360
13D9
102
}
102
{ACAD_REACTORS
330
2C2
102
}
330
2C2
100
AcDbPlotSettings
  1

  2
Laser Wind 2080W
  4

  6

 40
0.0
 41
0.0
 42
0.0
 43
0.0
 44
0.0
 45
0.0
 46
0.0
 47
0.0
 48
0.0
 49
0.0
140
0.0
141
0.0
142
1.0
143
1.0
 70
  1712
 72
     0
 73
     0
 74
     0
  7

 75
     0
147
1.0
148
0.0
149
0.0
100
AcDbLayout
  1
Model
 70
     1
 71
     0
 10
0.0
 20
0.0
 11
12.0
 21
9.0
 12
0.0
 22
0.0
 32
0.0
 14
0.0
 24
0.0
 34
0.0
 15
0.0
 25
0.0
 35
0.0
146
0.0
 13
0.0
 23
0.0
 33
0.0
 16
1.0
 26
0.0
 36
0.0
 17
0.0
 27
1.0
 37
0.0
 76
     0
330
1A
  0
LAYOUT
  5
2C5
102
{ACAD_XDICTIONARY
360
13DB
102
}
102
{ACAD_REACTORS
330
2C2
102
}
330
2C2
100
AcDbPlotSettings
  1

  2
\\Adj-dv01-sv2\Canon LBP5700 LIPS
  4
A3
  6

 40
5.873749732971191
 41
5.873747825622558
 42
5.873748779296875
 43
5.873748779296875
 44
296.9259948730469
 45
419.9466552734374
 46
5.903438514819697
 47
9.011750985502146
 48
0.0
 49
0.0
140
0.0
141
0.0
142
1.0
143
1.0
 70
   692
 72
     1
 73
     1
 74
     1
  7
monochrome.ctb
 75
    16
147
1.0
148
-14.9883313044736
149
-8.779223561501453
100
AcDbLayout
  1
ﾚｲｱｳﾄ1
 70
     1
 71
     1
 10
0.1028315396745825
 20
-2.997964686289435
 11
420.049486813112
 21
293.9280301867574
 12
0.0
 22
0.0
 32
0.0
 14
15.0
 24
16.84999999999994
 34
0.0
 15
405.1499999999999
 25
282.1499999999999
 35
0.0
146
0.0
 13
0.0
 23
0.0
 33
0.0
 16
1.0
 26
0.0
 36
0.0
 17
0.0
 27
1.0
 37
0.0
 76
     0
330
17
331
22
1001
ACAD_PSEXT
1000
\\Adj-dv01-sv2\Canon LBP5700 LIPS
1000
Canon LBP5700 LIPS
1000
\\Adj-dv01-sv2
1000

1070
     0
  0
ACAD_PROXY_OBJECT
  5
138F
102
{ACAD_XDICTIONARY
360
13EF
102
}
102
{ACAD_REACTORS
330
138D
102
}
330
138D
100
AcDbProxyObject
 90
      499
 91
      505
 95
   393239
 70
     0
 93
      582
310
42109E509B1BD8DAC02004014040405AA6A9AA4060050101016A9AA6A9018000000000000E03F4040405AA6A9AA40650101016A9AA6A90190101016A9AA6A90194040405AA6A9AA400
 94
        0
  0
ACAD_PROXY_OBJECT
  5
138E
102
{ACAD_XDICTIONARY
360
13ED
102
}
102
{ACAD_REACTORS
330
138D
102
}
330
138D
100
AcDbProxyObject
 90
      499
 91
      505
 95
   393239
 70
     0
 93
      582
310
42109E53185E595C802004014040405AA6A9AA4060050101016A9AA6A9018000000000000E03F4040405AA6A9AA40650101016A9AA6A90190101016A9AA6A90194040405AA6A9AA400
 94
        0
  0
ACAD_PROXY_OBJECT
  5
1390
102
{ACAD_XDICTIONARY
360
13F1
102
}
102
{ACAD_REACTORS
330
138D
102
}
330
138D
100
AcDbProxyObject
 90
      499
 91
      505
 95
   393239
 70
     0
 93
      574
310
41D1DB1BD8985B002004014040405AA6A9AA4060050101016A9AA6A9018000000000000E03F4040405AA6A9AA40650101016A9AA6A90190101016A9AA6A90194040405AA6A9AA400
 94
        0
  0
MLINESTYLE
  5
13
102
{ACAD_REACTORS
330
E
102
}
330
E
100
AcDbMlineStyle
  2
STANDARD
 70
     0
  3

 62
     0
 51
90.0
 52
90.0
 71
     2
 49
0.5
 62
   256
  6
BYLAYER
 49
-0.5
 62
   256
  6
BYLAYER
  0
PLOTSETTINGS
  5
2DD
102
{ACAD_XDICTIONARY
360
13DD
102
}
102
{ACAD_REACTORS
330
2C3
102
}
330
2C3
100
AcDbPlotSettings
  1
A3form
  2
Laser Wind 2080W
  4
A3
  6

 40
4.773083209991455
 41
4.773059368133544
 42
4.7730712890625
 43
4.7730712890625
 44
297.0106506347656
 45
419.9889831542968
 46
0.0
 47
0.0
 48
0.0
 49
0.0
140
0.0
141
0.0
142
1.0
143
1.000041778052157
 70
   688
 72
     1
 73
     1
 74
     2
  7
monochrome.ctb
 75
     0
147
0.9999582236931756
148
0.0
149
0.0
  0
ACDBPLACEHOLDER
  5
2C1
102
{ACAD_REACTORS
330
2C0
102
}
330
2C0
  0
ACAD_PROXY_OBJECT
  5
13A4
102
{ACAD_XDICTIONARY
360
13F3
102
}
102
{ACAD_REACTORS
330
13A3
102
}
330
13A3
100
AcDbProxyObject
 90
      499
 91
      507
 95
   393239
 70
     0
 93
     1849
310
4254DD185B99185C990028000000000000F83F0000000000003E0FC00000000000004901028000000C1008070000C3001FDFF8000000C1003FBFF000000182007F7FE00000030400FEFFC00000060801FDFF8000000C1003FBFF000000182000000000000000C2020B0000001820100E000186003FBFF000000182007F7FE0
310
0000030400FEFFC00000060801FDFF8000000C1003FBFF000000182007F7FE0000003040000000000000012404160000003040201C00030C007F7FE00000030400FEFFC00000060801FDFF8000000C1003FBFF000000182007F7FE00000030400FEFFC000000608000
340
10
340
10
340
10
 94
        0
  0
ACAD_PROXY_OBJECT
  5
1397
102
{ACAD_REACTORS
330
1391
102
}
330
1391
100
AcDbProxyObject
 90
      499
 91
      506
 95
   393239
 70
     0
 93
      444
310
430C9915DA5C99599C985B59401049028333333333333E3BF0000000000000FB0107901411070040501600405405064090741402480A0340
 94
        0
1001
ACAD
1000
AcDbSavedByObjectVersion
1070
     0
  0
ACAD_PROXY_OBJECT
  5
1399
102
{ACAD_REACTORS
330
1391
102
}
330
1391
100
AcDbProxyObject
 90
      499
 91
      506
 95
   393239
 70
     0
 93
      508
310
428CD108121A5919195B8010640502408333333333333E3BF0000000000000FB01079024090700405020000000000001110200405405064090740C02480A0344
 94
        0
1001
ACAD
1000
AcDbSavedByObjectVersion
1070
     0
  0
ACAD_PROXY_OBJECT
  5
1398
102
{ACAD_REACTORS
330
1391
102
}
330
1391
100
AcDbProxyObject
 90
      499
 91
      506
 95
   393239
 70
     0
 93
      444
310
430CD915DA5C99599C985B59401059028333333333333E3BF0000000000000FB0107901411070040501600405405064090741402480A0340
 94
        0
1001
ACAD
1000
AcDbSavedByObjectVersion
1070
     0
  0
ACAD_PROXY_OBJECT
  5
1396
102
{ACAD_REACTORS
330
1391
102
}
330
1391
100
AcDbProxyObject
 90
      499
 91
      506
 95
   393239
 70
     0
 93
      396
310
4190985CDA58C0107406404333333333333E3BF0000000000000FB0107A41107004050150841D405064090741402480A0356
 94
        0
1001
ACAD
1000
AcDbSavedByObjectVersion
1070
     0
  0
ACAD_PROXY_OBJECT
  5
139D
102
{ACAD_REACTORS
330
1391
102
}
330
1391
100
AcDbProxyObject
 90
      499
 91
      506
 95
   393239
 70
     0
 93
      436
310
42509C9A59DA1D195B8010C409028333333333333E3BF0000000000000FB010790141107004050150841D405064090741402480A029956
 94
        0
1001
ACAD
1000
AcDbSavedByObjectVersion
1070
     0
  0
ACAD_PROXY_OBJECT
  5
13A1
102
{ACAD_REACTORS
330
1391
102
}
330
1391
100
AcDbProxyObject
 90
      499
 91
      506
 95
   393239
 70
     0
 93
      460
310
4310DBDB1BDC90DA185B99D9401104090240C333333333333E3BF0000000000000FB0108901411070040501508421405064090741402480A0350
 94
        0
1001
ACAD
1000
AcDbSavedByObjectVersion
1070
     0
  0
ACAD_PROXY_OBJECT
  5
139A
102
{ACAD_REACTORS
330
1391
102
}
330
1391
100
AcDbProxyObject
 90
      499
 91
      506
 95
   393239
 70
     0
 93
      508
310
42D0DBDB98D95C1D1D585B0010940D028333333333333E3BF0000000000000FB0107902409070040501000000000000111010841D405064090740C02480A0344
 94
        0
1001
ACAD
1000
AcDbSavedByObjectVersion
1070
     0
  0
ACAD_PROXY_OBJECT
  5
139C
102
{ACAD_REACTORS
330
1391
102
}
330
1391
100
AcDbProxyObject
 90
      499
 91
      506
 95
   393239
 70
     0
 93
      420
310
41111A5B4010B409028333333333333E3BF0000000000000FB010790141107004050150841D405064090741402480A02677FFFFFDB
 94
        0
1001
ACAD
1000
AcDbSavedByObjectVersion
1070
     0
  0
ACAD_PROXY_OBJECT
  5
13A0
102
{ACAD_REACTORS
330
1391
102
}
330
1391
100
AcDbProxyObject
 90
      499
 91
      506
 95
   393239
 70
     0
 93
      452
310
43119858D95C185D1D195C9B8010F409028333333333333E3BF0000000000000FB010790141107004050150841D405064090741402480A0351
 94
        0
1001
ACAD
1000
AcDbSavedByObjectVersion
1070
     0
  0
ACAD_PROXY_OBJECT
  5
1392
102
{ACAD_REACTORS
330
1391
102
}
330
1391
100
AcDbProxyObject
 90
      499
 91
      506
 95
   393239
 70
     0
 93
      396
310
41519B185D00240901404333333333333E3BF0000000000000F9010740A41107004050150841D405064090741402480A1B56
 94
        0
1001
ACAD
1000
AcDbSavedByObjectVersion
1070
     0
  0
ACAD_PROXY_OBJECT
  5
1393
102
{ACAD_REACTORS
330
1391
102
}
330
1391
100
AcDbProxyObject
 90
      499
 91
      506
 95
   393239
 70
     0
 93
      484
310
43919B185D15DA5D1A115919D95CC010140901404333333333333E3BF0000000000000F9010740901411070040501600405405064090741402480A1B56
 94
        0
1001
ACAD
1000
AcDbSavedByObjectVersion
1070
     0
  0
ACAD_PROXY_OBJECT
  5
1394
102
{ACAD_REACTORS
330
1391
102
}
330
1391
100
AcDbProxyObject
 90
      499
 91
      506
 95
   393239
 70
     0
 93
      420
310
4211DBDD5C985D590010240902404333333333333E3BF0000000000000F9010740A411070040501641D405064090741402480A1B50
 94
        0
1001
ACAD
1000
AcDbSavedByObjectVersion
1070
     0
  0
ACAD_PROXY_OBJECT
  5
1395
102
{ACAD_REACTORS
330
1391
102
}
330
1391
100
AcDbProxyObject
 90
      499
 91
      506
 95
   393239
 70
     0
 93
      508
310
4451DBDD5C985D5915DA5D1A115919D95CC010340902404333333333333E3BF0000000000000F9010740901411070040501600405405064090741402480A1B54
 94
        0
1001
ACAD
1000
AcDbSavedByObjectVersion
1070
     0
  0
ACAD_PROXY_OBJECT
  5
139F
102
{ACAD_REACTORS
330
1391
102
}
330
1391
100
AcDbProxyObject
 90
      499
 91
      506
 95
   393239
 70
     0
 93
      452
310
43131A5B995C185D1D195C9B8010E409028333333333333E3BF0000000000000FB010790141107004050750841D405064090741402483A0350
 94
        0
1001
ACAD
1000
AcDbSavedByObjectVersion
1070
     0
  0
ACAD_PROXY_OBJECT
  5
139B
102
{ACAD_REACTORS
330
1391
102
}
330
1391
100
AcDbProxyObject
 90
      499
 91
      506
 95
   393239
 70
     0
 93
      428
310
429499585B1A5CDD1A58C0108409028333333333333E3BF0000000000000FB01079019070040501508421405064090741402480A1B45
 94
        0
1001
ACAD
1000
AcDbSavedByObjectVersion
1070
     0
  0
ACAD_PROXY_OBJECT
  5
139E
102
{ACAD_REACTORS
330
1391
102
}
330
1391
100
AcDbProxyObject
 90
      499
 91
      506
 95
   393239
 70
     0
 93
      420
310
42151A1A58DAD95B8010D409028333333333333E3BF0000000000000FB010790141107004050150C41D405064090741402480A0352
 94
        0
1001
ACAD
1000
AcDbSavedByObjectVersion
1070
     0
  0
DICTIONARYVAR
  5
13F6
102
{ACAD_REACTORS
330
13F5
102
}
330
13F5
100
DictionaryVariables
280
     0
  1
STANDARD
  0
DICTIONARYVAR
  5
13F9
102
{ACAD_REACTORS
330
13F5
102
}
330
13F5
100
DictionaryVariables
280
     0
  1
1
  0
DICTIONARYVAR
  5
13F8
102
{ACAD_REACTORS
330
13F5
102
}
330
13F5
100
DictionaryVariables
280
     0
  1
0
  0
DICTIONARYVAR
  5
13F7
102
{ACAD_REACTORS
330
13F5
102
}
330
13F5
100
DictionaryVariables
280
     0
  1
127
  0
DICTIONARY
  5
13D9
330
2C4
100
AcDbDictionary
280
     1
281
     1
  3
ACAD_XREC_ROUNDTRIP
360
13DA
  0
DICTIONARY
  5
13DB
330
2C5
100
AcDbDictionary
280
     1
281
     1
  3
ACAD_XREC_ROUNDTRIP
360
13DC
  0
DICTIONARY
  5
13EF
330
138F
100
AcDbDictionary
280
     1
281
     1
  3
ACAD_XREC_ROUNDTRIP
360
13F0
  0
DICTIONARY
  5
13ED
330
138E
100
AcDbDictionary
280
     1
281
     1
  3
ACAD_XREC_ROUNDTRIP
360
13EE
  0
DICTIONARY
  5
13F1
330
1390
100
AcDbDictionary
280
     1
281
     1
  3
ACAD_XREC_ROUNDTRIP
360
13F2
  0
DICTIONARY
  5
13DD
330
2DD
100
AcDbDictionary
280
     1
281
     1
  3
ACAD_XREC_ROUNDTRIP
360
13DE
  0
DICTIONARY
  5
13F3
330
13A4
100
AcDbDictionary
280
     1
281
     1
  3
ACAD_XREC_ROUNDTRIP
360
13F4
  0
XRECORD
  5
13DA
102
{ACAD_REACTORS
330
13D9
102
}
330
13D9
100
AcDbXrecord
280
     1
102
SHADEPLOT
 70
     0
102
SHADEPLOTRESLEVEL
 70
     2
102
SHADEPLOTCUSTOMDPI
 70
   300
  0
XRECORD
  5
13DC
102
{ACAD_REACTORS
330
13DB
102
}
330
13DB
100
AcDbXrecord
280
     1
102
SHADEPLOT
 70
     0
102
SHADEPLOTRESLEVEL
 70
     2
102
SHADEPLOTCUSTOMDPI
 70
   300
  0
XRECORD
  5
13F0
102
{ACAD_REACTORS
330
13EF
102
}
330
13EF
100
AcDbXrecord
280
     1
102
MATERIAL
148
0.0
149
0.0
149
0.0
 93
        0
 94
       63
282
     0
 72
     1
 77
     1
171
     1
175
     1
179
     1
273
     0
  0
XRECORD
  5
13EE
102
{ACAD_REACTORS
330
13ED
102
}
330
13ED
100
AcDbXrecord
280
     1
102
MATERIAL
148
0.0
149
0.0
149
0.0
 93
        0
 94
       63
282
     0
 72
     1
 77
     1
171
     1
175
     1
179
     1
273
     0
  0
XRECORD
  5
13F2
102
{ACAD_REACTORS
330
13F1
102
}
330
13F1
100
AcDbXrecord
280
     1
102
MATERIAL
148
0.0
149
0.0
149
0.0
 93
        0
 94
       63
282
     0
 72
     1
 77
     1
171
     1
175
     1
179
     1
273
     0
  0
XRECORD
  5
13DE
102
{ACAD_REACTORS
330
13DD
102
}
330
13DD
100
AcDbXrecord
280
     1
102
SHADEPLOT
 70
     0
102
SHADEPLOTRESLEVEL
 70
     2
102
SHADEPLOTCUSTOMDPI
 70
   300
  0
XRECORD
  5
13F4
102
{ACAD_REACTORS
330
13F3
102
}
330
13F3
100
AcDbXrecord
280
     1
102
ACAD_ROUNDTRIP_PRE2007_TABLESTYLE
 90
      512
 91
        0
  1

 92
      512
 93
        0
  2

 94
      512
 95
        0
  3

  0
ENDSEC
  0
EOF
