  0
SECTION
  2
HEADER
  9
$ACADVER
  1
AC1015
  9
$ACADMAINTVER
 70
     6
  9
$DWGCODEPAGE
  3
ANSI_932
  9
$INSBASE
 10
0.0
 20
0.0
 30
0.0
  9
$EXTMIN
 10
47.16403166665641
 20
35.55707100530571
 30
0.0
  9
$EXTMAX
 10
624.2164869111697
 20
427.9841507275127
 30
0.0
  9
$LIMMIN
 10
0.0
 20
0.0
  9
$LIMMAX
 10
10000.0
 20
10000.0
  9
$ORTHOMODE
 70
     1
  9
$REGENMODE
 70
     1
  9
$FILLMODE
 70
     1
  9
$QTEXTMODE
 70
     0
  9
$MIRRTEXT
 70
     1
  9
$LTSCALE
 40
10.0
  9
$ATTMODE
 70
     1
  9
$TEXTSIZE
 40
3.5
  9
$TRACEWID
 40
1.0
  9
$TEXTSTYLE
  7
AD-STANDARD
  9
$CLAYER
  8
0
  9
$CELTYPE
  6
BYLAYER
  9
$CECOLOR
 62
   256
  9
$CELTSCALE
 40
1.0
  9
$DISPSILH
 70
     0
  9
$DIMSCALE
 40
1.0
  9
$DIMASZ
 40
2.5
  9
$DIMEXO
 40
1.0
  9
$DIMDLI
 40
0.38
  9
$DIMRND
 40
0.0
  9
$DIMDLE
 40
0.0
  9
$DIMEXE
 40
2.0
  9
$DIMTP
 40
0.0
  9
$DIMTM
 40
0.0
  9
$DIMTXT
 40
3.5
  9
$DIMCEN
 40
-2.0
  9
$DIMTSZ
 40
0.0
  9
$DIMTOL
 70
     0
  9
$DIMLIM
 70
     0
  9
$DIMTIH
 70
     0
  9
$DIMTOH
 70
     0
  9
$DIMSE1
 70
     0
  9
$DIMSE2
 70
     0
  9
$DIMTAD
 70
     1
  9
$DIMZIN
 70
     8
  9
$DIMBLK
  1

  9
$DIMASO
 70
     1
  9
$DIMSHO
 70
     1
  9
$DIMPOST
  1

  9
$DIMAPOST
  1

  9
$DIMALT
 70
     0
  9
$DIMALTD
 70
     2
  9
$DIMALTF
 40
25.4
  9
$DIMLFAC
 40
1.0
  9
$DIMTOFL
 70
     1
  9
$DIMTVP
 40
0.0
  9
$DIMTIX
 70
     0
  9
$DIMSOXD
 70
     0
  9
$DIMSAH
 70
     0
  9
$DIMBLK1
  1

  9
$DIMBLK2
  1

  9
$DIMSTYLE
  2
AD-STANDARD
  9
$DIMCLRD
 70
     9
  9
$DIMCLRE
 70
     9
  9
$DIMCLRT
 70
     2
  9
$DIMTFAC
 40
1.0
  9
$DIMGAP
 40
0.5
  9
$DIMJUST
 70
     0
  9
$DIMSD1
 70
     0
  9
$DIMSD2
 70
     0
  9
$DIMTOLJ
 70
     1
  9
$DIMTZIN
 70
     8
  9
$DIMALTZ
 70
     0
  9
$DIMALTTZ
 70
     0
  9
$DIMUPT
 70
     0
  9
$DIMDEC
 70
     4
  9
$DIMTDEC
 70
     4
  9
$DIMALTU
 70
     2
  9
$DIMALTTD
 70
     2
  9
$DIMTXSTY
  7
AD-STANDARD
  9
$DIMAUNIT
 70
     0
  9
$DIMADEC
 70
     0
  9
$DIMALTRND
 40
0.0
  9
$DIMAZIN
 70
     0
  9
$DIMDSEP
 70
    46
  9
$DIMATFIT
 70
     3
  9
$DIMFRAC
 70
     0
  9
$DIMLDRBLK
  1

  9
$DIMLUNIT
 70
     2
  9
$DIMLWD
 70
    -2
  9
$DIMLWE
 70
    -2
  9
$DIMTMOVE
 70
     0
  9
$LUNITS
 70
     2
  9
$LUPREC
 70
     4
  9
$SKETCHINC
 40
1.0
  9
$FILLETRAD
 40
0.0
  9
$AUNITS
 70
     0
  9
$AUPREC
 70
     0
  9
$MENU
  1
.
  9
$ELEVATION
 40
0.0
  9
$PELEVATION
 40
0.0
  9
$THICKNESS
 40
0.0
  9
$LIMCHECK
 70
     0
  9
$CHAMFERA
 40
0.0
  9
$CHAMFERB
 40
0.0
  9
$CHAMFERC
 40
673.4006734006733
  9
$CHAMFERD
 40
0.0
  9
$SKPOLY
 70
     0
  9
$TDCREATE
 40
2454008.800192616
  9
$TDUCREATE
 40
2454008.425192616
  9
$TDUPDATE
 40
2455307.868522431
  9
$TDUUPDATE
 40
2455307.493522430
  9
$TDINDWG
 40
0.1522354282
  9
$TDUSRTIMER
 40
0.1522348958
  9
$USRTIMER
 70
     1
  9
$ANGBASE
 50
0.0
  9
$ANGDIR
 70
     0
  9
$PDMODE
 70
     0
  9
$PDSIZE
 40
0.0
  9
$PLINEWID
 40
0.0
  9
$SPLFRAME
 70
     0
  9
$SPLINETYPE
 70
     6
  9
$SPLINESEGS
 70
     8
  9
$HANDSEED
  5
CF6
  9
$SURFTAB1
 70
     6
  9
$SURFTAB2
 70
     6
  9
$SURFTYPE
 70
     6
  9
$SURFU
 70
     6
  9
$SURFV
 70
     6
  9
$UCSBASE
  2

  9
$UCSNAME
  2

  9
$UCSORG
 10
0.0
 20
0.0
 30
0.0
  9
$UCSXDIR
 10
1.0
 20
0.0
 30
0.0
  9
$UCSYDIR
 10
0.0
 20
1.0
 30
0.0
  9
$UCSORTHOREF
  2

  9
$UCSORTHOVIEW
 70
     0
  9
$UCSORGTOP
 10
0.0
 20
0.0
 30
0.0
  9
$UCSORGBOTTOM
 10
0.0
 20
0.0
 30
0.0
  9
$UCSORGLEFT
 10
0.0
 20
0.0
 30
0.0
  9
$UCSORGRIGHT
 10
0.0
 20
0.0
 30
0.0
  9
$UCSORGFRONT
 10
0.0
 20
0.0
 30
0.0
  9
$UCSORGBACK
 10
0.0
 20
0.0
 30
0.0
  9
$PUCSBASE
  2

  9
$PUCSNAME
  2

  9
$PUCSORG
 10
0.0
 20
0.0
 30
0.0
  9
$PUCSXDIR
 10
1.0
 20
0.0
 30
0.0
  9
$PUCSYDIR
 10
0.0
 20
1.0
 30
0.0
  9
$PUCSORTHOREF
  2

  9
$PUCSORTHOVIEW
 70
     0
  9
$PUCSORGTOP
 10
0.0
 20
0.0
 30
0.0
  9
$PUCSORGBOTTOM
 10
0.0
 20
0.0
 30
0.0
  9
$PUCSORGLEFT
 10
0.0
 20
0.0
 30
0.0
  9
$PUCSORGRIGHT
 10
0.0
 20
0.0
 30
0.0
  9
$PUCSORGFRONT
 10
0.0
 20
0.0
 30
0.0
  9
$PUCSORGBACK
 10
0.0
 20
0.0
 30
0.0
  9
$USERI1
 70
     0
  9
$USERI2
 70
     0
  9
$USERI3
 70
     0
  9
$USERI4
 70
     0
  9
$USERI5
 70
     0
  9
$USERR1
 40
0.0
  9
$USERR2
 40
0.0
  9
$USERR3
 40
0.0
  9
$USERR4
 40
0.0
  9
$USERR5
 40
0.0
  9
$WORLDVIEW
 70
     1
  9
$SHADEDGE
 70
     3
  9
$SHADEDIF
 70
    70
  9
$TILEMODE
 70
     0
  9
$MAXACTVP
 70
    16
  9
$PINSBASE
 10
0.0
 20
0.0
 30
0.0
  9
$PLIMCHECK
 70
     0
  9
$PEXTMIN
 10
15.0
 20
16.84999999999994
 30
0.0
  9
$PEXTMAX
 10
405.1499999999999
 20
282.1499999999999
 30
0.0
  9
$PLIMMIN
 10
2.537824465103376
 20
-2.97231243875411
  9
$PLIMMAX
 10
422.4844797385408
 20
294.0383381960115
  9
$UNITMODE
 70
     0
  9
$VISRETAIN
 70
     0
  9
$PLINEGEN
 70
     0
  9
$PSLTSCALE
 70
     1
  9
$TREEDEPTH
 70
  3020
  9
$CMLSTYLE
  2
STANDARD
  9
$CMLJUST
 70
     0
  9
$CMLSCALE
 40
1.0
  9
$PROXYGRAPHICS
 70
     1
  9
$MEASUREMENT
 70
     1
  9
$CELWEIGHT
370
    -1
  9
$ENDCAPS
280
     0
  9
$JOINSTYLE
280
     0
  9
$LWDISPLAY
290
     0
  9
$INSUNITS
 70
     0
  9
$HYPERLINKBASE
  1

  9
$STYLESHEET
  1

  9
$XEDIT
290
     1
  9
$CEPSNTYPE
380
     0
  9
$PSTYLEMODE
290
     1
  9
$FINGERPRINTGUID
  2
{8ACAE060-96A8-11D3-AA4A-00A0247712C1}
  9
$VERSIONGUID
  2
{27E1F797-5227-4B79-B9C0-BBFC0639BD49}
  9
$EXTNAMES
290
     1
  9
$PSVPSCALE
 40
0.0
  9
$OLESTARTUP
290
     0
  0
ENDSEC
  0
SECTION
  2
CLASSES
  0
CLASS
  1
LWPOLYLINE
  2
AcDbPolyline
  3
AutoCAD 2000
 90
    32768
280
     0
281
     1
  0
CLASS
  1
ACDBDICTIONARYWDFLT
  2
AcDbDictionaryWithDefault
  3
AutoCAD 2000
 90
        0
280
     0
281
     0
  0
CLASS
  1
ACDBPLACEHOLDER
  2
AcDbPlaceHolder
  3
AutoCAD 2000
 90
        0
280
     0
281
     0
  0
CLASS
  1
LAYOUT
  2
AcDbLayout
  3
AutoCAD 2000
 90
        0
280
     0
281
     0
  0
CLASS
  1
PLOTSETTINGS
  2
AcDbPlotSettings
  3
AutoCAD 2000
 90
        0
280
     0
281
     0
  0
ENDSEC
  0
SECTION
  2
TABLES
  0
TABLE
  2
VPORT
  5
8
330
0
100
AcDbSymbolTable
 70
     1
  0
VPORT
  5
CE6
330
8
100
AcDbSymbolTableRecord
100
AcDbViewportTableRecord
  2
*Active
 70
     0
 10
0.0
 20
0.0
 11
1.0
 21
1.0
 12
317.2454070754181
 22
216.6107805631574
 13
0.0
 23
0.0
 14
168.0
 24
168.0
 15
0.0
 25
0.0
 16
0.0
 26
0.0
 36
1.0
 17
0.0
 27
0.0
 37
0.0
 40
515.7835239011717
 41
1.666225165562913
 42
50.0
 43
0.0
 44
0.0
 50
0.0
 51
0.0
 71
     0
 72
   100
 73
     1
 74
     0
 75
     0
 76
     0
 77
     0
 78
     1
281
     0
 65
     1
110
0.0
120
0.0
130
0.0
111
1.0
121
0.0
131
0.0
112
0.0
122
1.0
132
0.0
 79
     0
146
0.0
  0
ENDTAB
  0
TABLE
  2
LTYPE
  5
5
330
0
100
AcDbSymbolTable
 70
     1
  0
LTYPE
  5
14
330
5
100
AcDbSymbolTableRecord
100
AcDbLinetypeTableRecord
  2
BYBLOCK
 70
     0
  3

 72
    65
 73
     0
 40
0.0
  0
LTYPE
  5
15
330
5
100
AcDbSymbolTableRecord
100
AcDbLinetypeTableRecord
  2
BYLAYER
 70
     0
  3

 72
    65
 73
     0
 40
0.0
  0
LTYPE
  5
16
330
5
100
AcDbSymbolTableRecord
100
AcDbLinetypeTableRecord
  2
CONTINUOUS
 70
     0
  3
Solid line
 72
    65
 73
     0
 40
0.0
  0
ENDTAB
  0
TABLE
  2
LAYER
  5
2
330
0
100
AcDbSymbolTable
 70
     3
  0
LAYER
  5
F
330
2
100
AcDbSymbolTableRecord
100
AcDbLayerTableRecord
  2
0
 70
     0
 62
     7
  6
CONTINUOUS
370
    -3
390
2C1
  0
LAYER
  5
71
330
2
100
AcDbSymbolTableRecord
100
AcDbLayerTableRecord
  2
MEASURE
 70
     0
 62
     9
  6
CONTINUOUS
370
    -3
390
2C1
  0
LAYER
  5
72
330
2
100
AcDbSymbolTableRecord
100
AcDbLayerTableRecord
  2
DEFPOINTS
 70
     0
 62
     7
  6
CONTINUOUS
290
     0
370
    -3
390
2C1
  0
ENDTAB
  0
TABLE
  2
STYLE
  5
3
330
0
100
AcDbSymbolTable
 70
     2
  0
STYLE
  5
10
330
3
100
AcDbSymbolTableRecord
100
AcDbTextStyleTableRecord
  2
STANDARD
 70
     0
 40
0.0
 41
0.8
 50
0.0
 71
     0
 42
84.17508417508416
  3
TXT
  4
bigfont.shx
  0
STYLE
  5
63
330
3
100
AcDbSymbolTableRecord
100
AcDbTextStyleTableRecord
  2
AD-STANDARD
 70
     0
 40
0.0
 41
0.8
 50
0.0
 71
     0
 42
3.5
  3
C:\Program Files\AutoCAD LT\romans.shx
  4
bigfont.shx
  0
ENDTAB
  0
TABLE
  2
VIEW
  5
6
330
0
100
AcDbSymbolTable
 70
     0
  0
ENDTAB
  0
TABLE
  2
UCS
  5
7
330
0
100
AcDbSymbolTable
 70
     0
  0
ENDTAB
  0
TABLE
  2
APPID
  5
9
330
0
100
AcDbSymbolTable
 70
     5
  0
APPID
  5
11
330
9
100
AcDbSymbolTableRecord
100
AcDbRegAppTableRecord
  2
ACAD
 70
     0
  0
APPID
  5
22A
330
9
100
AcDbSymbolTableRecord
100
AcDbRegAppTableRecord
  2
CONTENTTABDATA
 70
     0
  0
APPID
  5
22B
330
9
100
AcDbSymbolTableRecord
100
AcDbRegAppTableRecord
  2
CONTENTCURRENTTAB
 70
     0
  0
APPID
  5
232
330
9
100
AcDbSymbolTableRecord
100
AcDbRegAppTableRecord
  2
CONTENTBLOCKDESCRIPTION
 70
     0
  0
APPID
  5
233
330
9
100
AcDbSymbolTableRecord
100
AcDbRegAppTableRecord
  2
CONTENTBLOCKICON
 70
     0
  0
ENDTAB
  0
TABLE
  2
DIMSTYLE
  5
A
330
0
100
AcDbSymbolTable
 70
     2
100
AcDbDimStyleTable
 71
     1
340
68
  0
DIMSTYLE
105
1D
330
A
100
AcDbSymbolTableRecord
100
AcDbDimStyleTableRecord
  2
STANDARD
 70
     0
340
10
  0
DIMSTYLE
105
68
330
A
100
AcDbSymbolTableRecord
100
AcDbDimStyleTableRecord
  2
AD-STANDARD
 70
     0
 41
2.5
 42
1.0
 44
2.0
 73
     0
 74
     0
 77
     1
 78
     8
140
3.5
141
-2.0
147
0.5
172
     1
176
     9
177
     9
178
     2
284
     8
340
63
  0
ENDTAB
  0
TABLE
  2
BLOCK_RECORD
  5
1
330
0
100
AcDbSymbolTable
 70
     0
  0
BLOCK_RECORD
  5
1A
330
1
100
AcDbSymbolTableRecord
100
AcDbBlockTableRecord
  2
*MODEL_SPACE
340
2C4
  0
BLOCK_RECORD
  5
17
330
1
100
AcDbSymbolTableRecord
100
AcDbBlockTableRecord
  2
*PAPER_SPACE
340
2C5
  0
ENDTAB
  0
ENDSEC
  0
SECTION
  2
BLOCKS
  0
BLOCK
  5
1B
330
1A
100
AcDbEntity
  8
0
100
AcDbBlockBegin
  2
*MODEL_SPACE
 70
     0
 10
0.0
 20
0.0
 30
0.0
  3
*MODEL_SPACE
  1

  0
ENDBLK
  5
1C
330
1A
100
AcDbEntity
  8
0
100
AcDbBlockEnd
  0
BLOCK
  5
18
330
17
100
AcDbEntity
 67
     1
  8
0
100
AcDbBlockBegin
  2
*PAPER_SPACE
 70
     0
 10
0.0
 20
0.0
 30
0.0
  3
*PAPER_SPACE
  1

  0
ENDBLK
  5
19
330
17
100
AcDbEntity
 67
     1
  8
0
100
AcDbBlockEnd
  0
ENDSEC
  0
SECTION
  2
ENTITIES
  0
MTEXT
  5
3AD
330
1A
100
AcDbEntity
  8
0
100
AcDbMText
 10
115.2929324332508
 20
130.8759996587505
 30
0.0
 40
3.5
 41
45.7425
 71
     1
 72
     5
  1

  7
AD-STANDARD
 73
     1
 44
1.0
  0
ARC
  5
5CC
330
1A
100
AcDbEntity
  8
0
100
AcDbCircle
 10
365.492102208363
 20
366.0671007412968
 30
0.0
 40
20.5
100
AcDbArc
 50
92.99114916818764
 51
175.6821305450966
  0
ARC
  5
5CD
330
1A
100
AcDbEntity
  8
0
100
AcDbCircle
 10
366.1476188831815
 20
364.098521676241
 30
0.0
 40
20.0
100
AcDbArc
 50
92.96975146140324
 51
175.7941030220115
  0
ARC
  5
5CF
330
1A
100
AcDbEntity
  8
0
100
AcDbCircle
 10
366.1107894081014
 20
220.970401040817
 30
0.0
 40
20.0
100
AcDbArc
 50
184.1764104811912
 51
267.0278121870974
  0
ARC
  5
5D0
330
1A
100
AcDbEntity
  8
0
100
AcDbCircle
 10
365.492102208363
 20
218.499237593691
 30
0.0
 40
20.5
100
AcDbArc
 50
184.3178694549033
 51
267.0088508318123
  0
LINE
  5
5D1
330
1A
100
AcDbEntity
  8
0
100
AcDbLine
 10
342.2106000624521
 20
99.03749923463465
 30
0.0
 11
372.4320300630346
 21
99.03749923463374
 31
0.0
  0
LINE
  5
5D2
330
1A
100
AcDbEntity
  8
0
100
AcDbLine
 10
342.9342133783724
 20
113.83284881413
 30
0.0
 11
433.9599883047748
 21
146.9635214383538
 31
0.0
  0
LINE
  5
5D3
330
1A
100
AcDbEntity
  8
0
100
AcDbLine
 10
346.8953708170792
 20
97.47889563979834
 30
0.0
 11
360.4923693968771
 21
85.98293597274619
 31
0.0
  0
LINE
  5
5D8
330
1A
100
AcDbEntity
  8
0
100
AcDbLine
 10
226.0248109776357
 20
124.6704831870695
 30
0.0
 11
120.0248109776348
 21
124.6704831870695
 31
0.0
  0
LINE
  5
5D9
330
1A
100
AcDbEntity
  8
0
100
AcDbLine
 10
226.0248109776357
 20
136.6815009178528
 30
0.0
 11
120.0248109776357
 21
136.6815009178528
 31
0.0
  0
ARC
  5
5DA
330
1A
100
AcDbEntity
  8
0
100
AcDbCircle
 10
173.0248109776357
 20
2807.991590002314
 30
0.0
 40
2692.273543408273
100
AcDbArc
 50
268.3464664169731
 51
271.6535335830268
  0
ARC
  5
5DB
330
1A
100
AcDbEntity
  8
0
100
AcDbCircle
 10
173.0248109776357
 20
304.1469576928613
 30
0.0
 40
162.4070602292021
100
AcDbArc
 50
253.3623759182686
 51
286.6376240817313
  0
LINE
  5
5DD
330
1A
100
AcDbEntity
  8
0
100
AcDbLine
 10
254.6248109776352
 20
157.5374992346344
 30
0.0
 11
91.42481097763539
 21
157.5374992346344
 31
0.0
  0
LINE
  5
5DE
330
1A
100
AcDbEntity
  8
0
100
AcDbLine
 10
268.7213107892566
 20
99.03749923463534
 30
0.0
 11
77.32831116601392
 21
99.03749923463351
 31
0.0
  0
ARC
  5
5DF
330
1A
100
AcDbEntity
  8
0
100
AcDbCircle
 10
173.0248109776357
 20
2807.991590002314
 30
0.0
 40
2693.973543408273
100
AcDbArc
 50
268.0442161040549
 51
271.9557838959451
  0
LINE
  5
5E0
330
1A
100
AcDbEntity
  8
0
100
AcDbLine
 10
260.3347356839949
 20
85.03749923463351
 30
0.0
 11
85.71488627127564
 21
85.03749923463351
 31
0.0
  0
LINE
  5
5E1
330
1A
100
AcDbEntity
  8
0
100
AcDbLine
 10
260.9932225013062
 20
140.2270110696974
 30
0.0
 11
85.05639945396433
 21
140.2270110696974
 31
0.0
  0
ARC
  5
5E3
330
1A
100
AcDbEntity
  8
0
100
AcDbCircle
 10
91.78934999060322
 20
102.5374992346355
 30
0.0
 40
25.0
100
AcDbArc
 50
252.1428018777806
 51
287.8571981222193
  0
LINE
  5
5E4
330
1A
100
AcDbEntity
  8
0
100
AcDbLine
 10
75.02481097763586
 20
78.8864344002709
 30
0.0
 11
109.0248109776356
 21
78.8864344002709
 31
0.0
  0
LINE
  5
5E5
330
1A
100
AcDbEntity
  8
0
100
AcDbLine
 10
75.02481097763586
 20
82.8864344002709
 30
0.0
 11
109.0248109776356
 21
82.8864344002709
 31
0.0
  0
LINE
  5
5E6
330
1A
100
AcDbEntity
  8
0
100
AcDbLine
 10
79.48044042863887
 20
78.8864344002709
 30
0.0
 11
79.48044042863887
 21
82.8864344002709
 31
0.0
  0
ARC
  5
5E7
330
1A
100
AcDbEntity
  8
0
100
AcDbCircle
 10
83.20327153798656
 20
75.8864344002709
 30
0.0
 40
3.0
100
AcDbArc
 50
72.14280187778065
 51
90.0
  0
LINE
  5
5E8
330
1A
100
AcDbEntity
  8
0
100
AcDbLine
 10
74.90579368432292
 20
78.89354221886742
 30
0.0
 11
74.90579368432292
 21
82.87932658167438
 31
0.0
  0
LINE
  5
5E9
330
1A
100
AcDbEntity
  8
0
100
AcDbLine
 10
75.58099274006884
 20
78.8864344002709
 30
0.0
 11
75.58099274006884
 21
82.8864344002709
 31
0.0
  0
LINE
  5
5EA
330
1A
100
AcDbEntity
  8
0
100
AcDbLine
 10
75.87132815164398
 20
78.8864344002709
 30
0.0
 11
75.87132815164398
 21
82.8864344002709
 31
0.0
  0
LINE
  5
5EB
330
1A
100
AcDbEntity
  8
0
100
AcDbLine
 10
77.07066129968928
 20
78.8864344002709
 30
0.0
 11
77.07066129968928
 21
82.8864344002709
 31
0.0
  0
LINE
  5
5EC
330
1A
100
AcDbEntity
  8
0
100
AcDbLine
 10
77.87541939548384
 20
78.8864344002709
 30
0.0
 11
77.87541939548384
 21
82.8864344002709
 31
0.0
  0
ARC
  5
5ED
330
1A
100
AcDbEntity
  8
0
100
AcDbCircle
 10
75.02481097763586
 20
81.88643440027091
 30
0.0
 40
1.0
100
AcDbArc
 50
90.0
 51
180.0
  0
LINE
  5
5EE
330
1A
100
AcDbEntity
  8
0
100
AcDbLine
 10
74.02481097763587
 20
79.8864344002709
 30
0.0
 11
74.02481097763587
 21
81.88643440027091
 31
0.0
  0
ARC
  5
5EF
330
1A
100
AcDbEntity
  8
0
100
AcDbCircle
 10
75.02481097763586
 20
79.8864344002709
 30
0.0
 40
1.0
100
AcDbArc
 50
180.0
 51
270.0
  0
ARC
  5
5F0
330
1A
100
AcDbEntity
  8
0
100
AcDbCircle
 10
109.0248109776356
 20
81.88643440027091
 30
0.0
 40
1.0
100
AcDbArc
 50
0.0
 51
90.0
  0
ARC
  5
5F1
330
1A
100
AcDbEntity
  8
0
100
AcDbCircle
 10
109.0248109776356
 20
79.8864344002709
 30
0.0
 40
1.0
100
AcDbArc
 50
270.0
 51
0.0
  0
LINE
  5
5F2
330
1A
100
AcDbEntity
  8
0
100
AcDbLine
 10
109.1438282709476
 20
78.89354221886742
 30
0.0
 11
109.143828270949
 21
82.87932658167454
 31
0.0
  0
LINE
  5
5F3
330
1A
100
AcDbEntity
  8
0
100
AcDbLine
 10
108.4686292152017
 20
78.8864344002709
 30
0.0
 11
108.4686292152017
 21
82.8864344002709
 31
0.0
  0
LINE
  5
5F4
330
1A
100
AcDbEntity
  8
0
100
AcDbLine
 10
108.1782938036266
 20
78.8864344002709
 30
0.0
 11
108.1782938036266
 21
82.8864344002709
 31
0.0
  0
LINE
  5
5F5
330
1A
100
AcDbEntity
  8
0
100
AcDbLine
 10
106.9789606555813
 20
78.8864344002709
 30
0.0
 11
106.9789606555817
 21
82.8864344002709
 31
0.0
  0
LINE
  5
5F6
330
1A
100
AcDbEntity
  8
0
100
AcDbLine
 10
106.1742025597867
 20
78.8864344002709
 30
0.0
 11
106.1742025597872
 21
82.8864344002709
 31
0.0
  0
LINE
  5
5F7
330
1A
100
AcDbEntity
  8
0
100
AcDbLine
 10
104.5691815266317
 20
78.8864344002709
 30
0.0
 11
104.5691815266317
 21
82.8864344002709
 31
0.0
  0
LINE
  5
5F8
330
1A
100
AcDbEntity
  8
0
100
AcDbLine
 10
96.93202978596298
 20
78.8864344002709
 30
0.0
 11
96.93202978596298
 21
82.8864344002709
 31
0.0
  0
ARC
  5
5F9
330
1A
100
AcDbEntity
  8
0
100
AcDbCircle
 10
100.3754284432196
 20
75.8864344002709
 30
0.0
 40
3.0
100
AcDbArc
 50
90.0
 51
107.8571981222193
  0
LINE
  5
5FA
330
1A
100
AcDbEntity
  8
0
100
AcDbLine
 10
94.58578010348185
 20
78.8864344002709
 30
0.0
 11
94.58578010348208
 21
82.8864344002709
 31
0.0
  0
LINE
  5
5FB
330
1A
100
AcDbEntity
  8
0
100
AcDbLine
 10
93.22414412568116
 20
78.8864344002709
 30
0.0
 11
93.22414412568093
 21
82.8864344002709
 31
0.0
  0
LINE
  5
5FC
330
1A
100
AcDbEntity
  8
0
100
AcDbLine
 10
87.11759216930762
 20
78.8864344002709
 30
0.0
 11
87.11759216930785
 21
82.8864344002709
 31
0.0
  0
LINE
  5
5FD
330
1A
100
AcDbEntity
  8
0
100
AcDbLine
 10
90.82547782959057
 20
78.8864344002709
 30
0.0
 11
90.8254778295908
 21
82.8864344002709
 31
0.0
  0
LINE
  5
5FE
330
1A
100
AcDbEntity
  8
0
100
AcDbLine
 10
89.46384185178988
 20
78.8864344002709
 30
0.0
 11
89.46384185178988
 21
82.8864344002709
 31
0.0
  0
LINE
  5
5FF
330
1A
100
AcDbEntity
  8
0
100
AcDbLine
 10
110.0248109776356
 20
79.8864344002709
 30
0.0
 11
110.0248109776356
 21
81.88643440027091
 31
0.0
  0
ARC
  5
600
330
1A
100
AcDbEntity
  8
0
100
AcDbCircle
 10
120.0248109776357
 20
134.6815009178528
 30
0.0
 40
2.0
100
AcDbArc
 50
90.0
 51
180.0
  0
ARC
  5
601
330
1A
100
AcDbEntity
  8
0
100
AcDbCircle
 10
120.0248109776348
 20
126.6704831870695
 30
0.0
 40
2.0
100
AcDbArc
 50
180.0
 51
270.0
  0
LINE
  5
602
330
1A
100
AcDbEntity
  8
0
100
AcDbLine
 10
118.0248109776348
 20
126.6704831870695
 30
0.0
 11
118.0248109776357
 21
134.6815009178528
 31
0.0
  0
ARC
  5
603
330
1A
100
AcDbEntity
  8
0
100
AcDbCircle
 10
98.97377554435161
 20
162.0374992346391
 30
0.0
 40
1.0
100
AcDbArc
 50
90.00000000001303
 51
176.9999999999944
  0
LINE
  5
604
330
1A
100
AcDbEntity
  8
0
100
AcDbLine
 10
97.73656819157984
 20
157.5374992346344
 30
0.0
 11
97.97514600959699
 21
162.089835190882
 31
0.0
  0
ARC
  5
605
330
1A
100
AcDbEntity
  8
0
100
AcDbCircle
 10
82.58316229785668
 20
145.0679630568358
 30
0.0
 40
3.0
100
AcDbArc
 50
90.61407916031287
 51
177.2000000000238
  0
LINE
  5
606
330
1A
100
AcDbEntity
  8
0
100
AcDbLine
 10
88.42481097763538
 20
148.1307468230563
 30
0.0
 11
91.42481097763539
 21
157.5374992346344
 31
0.0
  0
LINE
  5
607
330
1A
100
AcDbEntity
  8
0
100
AcDbLine
 10
81.08423561005565
 20
115.5873887010295
 30
0.0
 11
80.27481097763574
 21
99.03749923463351
 31
0.0
  0
ARC
  5
608
330
1A
100
AcDbEntity
  8
0
100
AcDbCircle
 10
95.62620012743991
 20
126.8349707973795
 30
0.0
 40
10.0
100
AcDbArc
 50
182.398875545401
 51
268.3464664169731
  0
LINE
  5
609
330
1A
100
AcDbEntity
  8
0
100
AcDbLine
 10
79.58674388583222
 20
145.2145123662223
 30
0.0
 11
77.32831116601392
 21
99.03749923463351
 31
0.0
  0
LINE
  5
60A
330
1A
100
AcDbEntity
  8
0
100
AcDbLine
 10
79.80208407785085
 20
146.1929536942227
 30
0.0
 11
81.08423561005565
 21
115.5873887010295
 31
0.0
  0
LINE
  5
60B
330
1A
100
AcDbEntity
  8
0
100
AcDbLine
 10
85.05639945396433
 20
140.2270110696974
 30
0.0
 11
85.63496361009583
 21
126.4164103423711
 31
0.0
  0
LINE
  5
60C
330
1A
100
AcDbEntity
  8
0
100
AcDbLine
 10
98.97377554435138
 20
163.0374992346389
 30
0.0
 11
247.0758464109222
 21
163.0374992346632
 31
0.0
  0
LINE
  5
60D
330
1A
100
AcDbEntity
  8
0
100
AcDbLine
 10
126.5248109776284
 20
148.5391069516738
 30
0.0
 11
82.55100980377392
 21
148.0677907547408
 31
0.0
  0
LINE
  5
60E
330
1A
100
AcDbEntity
  8
0
100
AcDbLine
 10
78.82481097763502
 20
85.03749923463351
 30
0.0
 11
77.02481097763575
 21
85.03749923463351
 31
0.0
  0
ARC
  5
60F
330
1A
100
AcDbEntity
  8
0
100
AcDbCircle
 10
85.71488627127564
 20
89.03749923463351
 30
0.0
 40
4.0
100
AcDbArc
 50
184.9999999999736
 51
270.0
  0
LINE
  5
610
330
1A
100
AcDbEntity
  8
0
100
AcDbLine
 10
80.82472028584289
 20
99.03749923463351
 30
0.0
 11
81.7301074789084
 21
88.68887626364289
 31
0.0
  0
LINE
  5
611
330
1A
100
AcDbEntity
  8
0
100
AcDbLine
 10
77.32831116601392
 20
99.03749923463351
 30
0.0
 11
77.02481097763575
 21
85.03749923463351
 31
0.0
  0
LINE
  5
612
330
1A
100
AcDbEntity
  8
0
100
AcDbLine
 10
79.1283111660141
 20
99.03749923463351
 30
0.0
 11
78.82481097763502
 21
85.03749923463351
 31
0.0
  0
ARC
  5
613
330
1A
100
AcDbEntity
  8
0
100
AcDbCircle
 10
253.7893499906029
 20
102.5374992346358
 30
0.0
 40
25.0
100
AcDbArc
 50
252.1428018777806
 51
287.8571981222193
  0
LINE
  5
614
330
1A
100
AcDbEntity
  8
0
100
AcDbLine
 10
237.0248109776356
 20
78.88643440027118
 30
0.0
 11
271.0248109776356
 21
78.88643440027118
 31
0.0
  0
LINE
  5
615
330
1A
100
AcDbEntity
  8
0
100
AcDbLine
 10
237.0248109776356
 20
82.88643440027119
 30
0.0
 11
271.0248109776356
 21
82.88643440027119
 31
0.0
  0
ARC
  5
616
330
1A
100
AcDbEntity
  8
0
100
AcDbCircle
 10
250.4234218278306
 20
126.8349707973795
 30
0.0
 40
10.0
100
AcDbArc
 50
271.6535335830268
 51
357.601124454599
  0
LINE
  5
617
330
1A
100
AcDbEntity
  8
0
100
AcDbLine
 10
219.5248109776357
 20
148.5391069516738
 30
0.0
 11
263.4986121514966
 21
148.0677907547399
 31
0.0
  0
LINE
  5
618
330
1A
100
AcDbEntity
  8
0
100
AcDbLine
 10
249.1175921693074
 20
78.88643440027118
 30
0.0
 11
249.1175921693074
 21
82.88643440027119
 31
0.0
  0
ARC
  5
619
330
1A
100
AcDbEntity
  8
0
100
AcDbCircle
 10
245.2032715379854
 20
75.88643440027118
 30
0.0
 40
3.0
100
AcDbArc
 50
72.14280187778065
 51
90.0
  0
LINE
  5
61A
330
1A
100
AcDbEntity
  8
0
100
AcDbLine
 10
239.070661299689
 20
78.88643440027118
 30
0.0
 11
239.070661299689
 21
82.88643440027119
 31
0.0
  0
LINE
  5
61B
330
1A
100
AcDbEntity
  8
0
100
AcDbLine
 10
239.8754193954836
 20
78.88643440027118
 30
0.0
 11
239.8754193954836
 21
82.88643440027119
 31
0.0
  0
LINE
  5
61C
330
1A
100
AcDbEntity
  8
0
100
AcDbLine
 10
241.4804404286386
 20
78.88643440027118
 30
0.0
 11
241.4804404286386
 21
82.88643440027119
 31
0.0
  0
LINE
  5
61D
330
1A
100
AcDbEntity
  8
0
100
AcDbLine
 10
237.5809927400686
 20
78.88643440027118
 30
0.0
 11
237.5809927400686
 21
82.88643440027119
 31
0.0
  0
LINE
  5
61E
330
1A
100
AcDbEntity
  8
0
100
AcDbLine
 10
237.8713281516437
 20
78.88643440027118
 30
0.0
 11
237.8713281516437
 21
82.88643440027119
 31
0.0
  0
LINE
  5
61F
330
1A
100
AcDbEntity
  8
0
100
AcDbLine
 10
236.9057936843227
 20
78.89354221886771
 30
0.0
 11
236.9057936843227
 21
82.87932658167482
 31
0.0
  0
ARC
  5
620
330
1A
100
AcDbEntity
  8
0
100
AcDbCircle
 10
237.0248109776356
 20
81.88643440027119
 30
0.0
 40
1.0
100
AcDbArc
 50
90.0
 51
180.0
  0
LINE
  5
621
330
1A
100
AcDbEntity
  8
0
100
AcDbLine
 10
236.0248109776356
 20
79.88643440027118
 30
0.0
 11
236.0248109776356
 21
81.88643440027119
 31
0.0
  0
ARC
  5
622
330
1A
100
AcDbEntity
  8
0
100
AcDbCircle
 10
237.0248109776356
 20
79.88643440027118
 30
0.0
 40
1.0
100
AcDbArc
 50
180.0
 51
270.0
  0
ARC
  5
624
330
1A
100
AcDbEntity
  8
0
100
AcDbCircle
 10
247.0758464109223
 20
162.0374992346391
 30
0.0
 40
1.0
100
AcDbArc
 50
3.000000000005594
 51
89.99999999998697
  0
LINE
  5
625
330
1A
100
AcDbEntity
  8
0
100
AcDbLine
 10
248.313053763694
 20
157.5374992346344
 30
0.0
 11
248.0744759456768
 21
162.089835190882
 31
0.0
  0
ARC
  5
626
330
1A
100
AcDbEntity
  8
0
100
AcDbCircle
 10
226.0248109776357
 20
134.6815009178528
 30
0.0
 40
2.0
100
AcDbArc
 50
0.0
 51
90.0
  0
ARC
  5
627
330
1A
100
AcDbEntity
  8
0
100
AcDbCircle
 10
226.0248109776357
 20
126.6704831870695
 30
0.0
 40
2.0
100
AcDbArc
 50
270.0
 51
0.0
  0
LINE
  5
628
330
1A
100
AcDbEntity
  8
0
100
AcDbLine
 10
228.0248109776357
 20
126.6704831870695
 30
0.0
 11
228.0248109776357
 21
134.6815009178528
 31
0.0
  0
LINE
  5
629
330
1A
100
AcDbEntity
  8
0
100
AcDbLine
 10
256.5857801034816
 20
78.88643440027118
 30
0.0
 11
256.5857801034816
 21
82.88643440027119
 31
0.0
  0
LINE
  5
62A
330
1A
100
AcDbEntity
  8
0
100
AcDbLine
 10
251.4638418517887
 20
78.88643440027118
 30
0.0
 11
251.4638418517887
 21
82.88643440027119
 31
0.0
  0
LINE
  5
62B
330
1A
100
AcDbEntity
  8
0
100
AcDbLine
 10
252.8254778295903
 20
78.88643440027118
 30
0.0
 11
252.8254778295903
 21
82.88643440027119
 31
0.0
  0
LINE
  5
62C
330
1A
100
AcDbEntity
  8
0
100
AcDbLine
 10
255.22414412568
 20
78.88643440027118
 30
0.0
 11
255.22414412568
 21
82.88643440027119
 31
0.0
  0
LINE
  5
62D
330
1A
100
AcDbEntity
  8
0
100
AcDbLine
 10
268.1742025597867
 20
78.88643440027118
 30
0.0
 11
268.1742025597867
 21
82.88643440027119
 31
0.0
  0
LINE
  5
62E
330
1A
100
AcDbEntity
  8
0
100
AcDbLine
 10
268.9789606555813
 20
78.88643440027118
 30
0.0
 11
268.9789606555813
 21
82.88643440027119
 31
0.0
  0
LINE
  5
62F
330
1A
100
AcDbEntity
  8
0
100
AcDbLine
 10
270.4686292152017
 20
78.88643440027118
 30
0.0
 11
270.4686292152017
 21
82.88643440027119
 31
0.0
  0
LINE
  5
630
330
1A
100
AcDbEntity
  8
0
100
AcDbLine
 10
270.1782938036266
 20
78.88643440027118
 30
0.0
 11
270.1782938036266
 21
82.88643440027119
 31
0.0
  0
LINE
  5
631
330
1A
100
AcDbEntity
  8
0
100
AcDbLine
 10
271.1438282709476
 20
78.89354221886771
 30
0.0
 11
271.1438282709476
 21
82.87932658167466
 31
0.0
  0
ARC
  5
632
330
1A
100
AcDbEntity
  8
0
100
AcDbCircle
 10
271.0248109776356
 20
81.88643440027119
 30
0.0
 40
1.0
100
AcDbArc
 50
0.0
 51
90.0
  0
LINE
  5
633
330
1A
100
AcDbEntity
  8
0
100
AcDbLine
 10
266.5691815266317
 20
78.88643440027118
 30
0.0
 11
266.5691815266317
 21
82.88643440027119
 31
0.0
  0
LINE
  5
634
330
1A
100
AcDbEntity
  8
0
100
AcDbLine
 10
272.0248109776356
 20
79.88643440027118
 30
0.0
 11
272.0248109776356
 21
81.88643440027119
 31
0.0
  0
ARC
  5
635
330
1A
100
AcDbEntity
  8
0
100
AcDbCircle
 10
271.0248109776356
 20
79.88643440027118
 30
0.0
 40
1.0
100
AcDbArc
 50
270.0
 51
0.0
  0
LINE
  5
636
330
1A
100
AcDbEntity
  8
0
100
AcDbLine
 10
258.9320297859629
 20
78.88643440027118
 30
0.0
 11
258.9320297859629
 21
82.88643440027119
 31
0.0
  0
ARC
  5
637
330
1A
100
AcDbEntity
  8
0
100
AcDbCircle
 10
262.3754284432196
 20
75.88643440027118
 30
0.0
 40
3.0
100
AcDbArc
 50
90.0
 51
107.8571981222193
  0
ARC
  5
638
330
1A
100
AcDbEntity
  8
0
100
AcDbCircle
 10
263.4664596574139
 20
145.0679630568349
 30
0.0
 40
3.0
100
AcDbArc
 50
2.799999999976126
 51
89.38592083968712
  0
LINE
  5
639
330
1A
100
AcDbEntity
  8
0
100
AcDbLine
 10
257.6248109776352
 20
148.1307468230554
 30
0.0
 11
254.6248109776352
 21
157.5374992346344
 31
0.0
  0
ARC
  5
63A
330
1A
100
AcDbEntity
  8
0
100
AcDbCircle
 10
345.8332646620314
 20
111.695483871566
 30
0.0
 40
3.0
100
AcDbArc
 50
110.0000000000034
 51
177.2000000000108
  0
ARC
  5
63B
330
1A
100
AcDbEntity
  8
0
100
AcDbCircle
 10
342.7354208228866
 20
99.53749923463465
 30
0.0
 40
0.5
100
AcDbArc
 50
177.1999999999977
 51
270.0
  0
LINE
  5
63C
330
1A
100
AcDbEntity
  8
0
100
AcDbLine
 10
342.2106000624521
 20
99.03749923463465
 30
0.0
 11
342.9342133783724
 21
113.83284881413
 31
0.0
  0
LINE
  5
63D
330
1A
100
AcDbEntity
  8
0
100
AcDbLine
 10
264.9653863452158
 20
115.5873887010295
 30
0.0
 11
265.7748109776357
 21
99.03749923463351
 31
0.0
  0
LINE
  5
63E
330
1A
100
AcDbEntity
  8
0
100
AcDbLine
 10
266.4628780694383
 20
145.2145123662214
 30
0.0
 11
268.7213107892566
 21
99.03749923463351
 31
0.0
  0
LINE
  5
63F
330
1A
100
AcDbEntity
  8
0
100
AcDbLine
 10
266.2475378774206
 20
146.1929536942218
 30
0.0
 11
264.9653863452158
 21
115.5873887010295
 31
0.0
  0
LINE
  5
640
330
1A
100
AcDbEntity
  8
0
100
AcDbLine
 10
260.9932225013062
 20
140.2270110696974
 30
0.0
 11
260.4146583451747
 21
126.4164103423711
 31
0.0
  0
LINE
  5
641
330
1A
100
AcDbEntity
  8
0
100
AcDbLine
 10
269.0248109776357
 20
85.03749923463351
 30
0.0
 11
267.2248109776355
 21
85.03749923463351
 31
0.0
  0
ARC
  5
642
330
1A
100
AcDbEntity
  8
0
100
AcDbCircle
 10
260.3347356839949
 20
89.03749923463351
 30
0.0
 40
4.0
100
AcDbArc
 50
270.0
 51
355.0000000000263
  0
ARC
  5
643
330
1A
100
AcDbEntity
  8
0
100
AcDbCircle
 10
348.1866534429122
 20
99.00617727074314
 30
0.0
 40
2.0
100
AcDbArc
 50
182.9999999999925
 51
229.7862240477749
  0
LINE
  5
644
330
1A
100
AcDbEntity
  8
0
100
AcDbLine
 10
268.7213107892566
 20
99.03749923463351
 30
0.0
 11
269.0248109776357
 21
85.03749923463351
 31
0.0
  0
LINE
  5
645
330
1A
100
AcDbEntity
  8
0
100
AcDbLine
 10
265.2249016694276
 20
99.03749923463625
 30
0.0
 11
264.3195144763621
 21
88.68887626364289
 31
0.0
  0
LINE
  5
646
330
1A
100
AcDbEntity
  8
0
100
AcDbLine
 10
266.9213107892565
 20
99.03749923463351
 30
0.0
 11
267.2248109776355
 21
85.03749923463351
 31
0.0
  0
ARC
  5
647
330
1A
100
AcDbEntity
  8
0
100
AcDbCircle
 10
1342.710568796828
 20
292.2831691674939
 30
0.0
 40
999.2
100
AcDbArc
 50
175.7941030220115
 51
184.1764104811651
  0
ARC
  5
648
330
1A
100
AcDbEntity
  8
0
100
AcDbCircle
 10
1342.710568796828
 20
292.2831691674939
 30
0.0
 40
1000.5
100
AcDbArc
 50
175.6821305450835
 51
184.3178694549164
  0
LINE
  5
64A
330
1A
100
AcDbEntity
  8
0
100
AcDbLine
 10
604.4601410457271
 20
388.4450917035069
 30
0.0
 11
602.7105687968291
 21
386.0831691674932
 31
0.0
  0
ARC
  5
64B
330
1A
100
AcDbEntity
  8
0
100
AcDbCircle
 10
603.7105687968287
 20
387.7831691674939
 30
0.0
 40
1.0
100
AcDbArc
 50
0.0
 51
90.0
  0
ARC
  5
64C
330
1A
100
AcDbEntity
  8
0
100
AcDbCircle
 10
442.7105687968332
 20
-1111.716830832506
 30
0.0
 40
1500.3
100
AcDbArc
 50
90.0
 51
92.99114916818764
  0
ARC
  5
64F
330
1A
100
AcDbEntity
  8
0
100
AcDbCircle
 10
510.7105687968286
 20
292.2831691674939
 30
0.0
 40
80.5
100
AcDbArc
 50
44.55318485864165
 51
82.24315388478757
  0
LINE
  5
650
330
1A
100
AcDbEntity
  8
0
100
AcDbLine
 10
442.7105687968282
 20
386.0831691674932
 30
0.0
 11
601.7105687968292
 21
386.0831691674932
 31
0.0
  0
ARC
  5
651
330
1A
100
AcDbEntity
  8
0
100
AcDbCircle
 10
510.7105687968286
 20
292.2831691674939
 30
0.0
 40
80.5
100
AcDbArc
 50
277.7568461152124
 51
311.4475149216961
  0
LINE
  5
652
330
1A
100
AcDbEntity
  8
0
100
AcDbLine
 10
579.2121830147993
 20
163.0374992346403
 30
0.0
 11
512.7121830147975
 21
163.0374992346403
 31
0.0
  0
LINE
  5
653
330
1A
100
AcDbEntity
  8
0
100
AcDbLine
 10
519.7103690983404
 20
148.0374992346328
 30
0.0
 11
594.9103690983415
 21
149.0374992346473
 31
0.0
  0
LINE
  5
654
330
1A
100
AcDbEntity
  8
0
100
AcDbLine
 10
524.3327272963374
 20
157.5374992346373
 30
0.0
 11
593.3843406699657
 21
157.5374992346364
 31
0.0
  0
LINE
  5
655
330
1A
100
AcDbEntity
  8
0
100
AcDbLine
 10
518.210594383177
 20
84.2374992346347
 30
0.0
 11
550.2105943831771
 21
84.2374992346347
 31
0.0
  0
ARC
  5
657
330
1A
100
AcDbEntity
  8
0
100
AcDbCircle
 10
534.2105943831771
 20
202.0374992346348
 30
0.0
 40
120.0
100
AcDbArc
 50
262.3377443392409
 51
277.662255660759
  0
LINE
  5
659
330
1A
100
AcDbEntity
  8
0
100
AcDbLine
 10
442.7105687968282
 20
198.9831691674946
 30
0.0
 11
601.7105687968292
 21
198.9831691674946
 31
0.0
  0
LINE
  5
65A
330
1A
100
AcDbEntity
  8
0
100
AcDbLine
 10
442.2005274702918
 20
148.037499234631
 30
0.0
 11
602.225990225027
 21
148.0374992346346
 31
0.0
  0
ARC
  5
65B
330
1A
100
AcDbEntity
  8
0
100
AcDbCircle
 10
462.5793188920046
 20
-704.3987568930113
 30
0.0
 40
808.4468107411181
100
AcDbArc
 50
83.82732059675534
 51
96.36266602178045
  0
LINE
  5
65C
330
1A
100
AcDbEntity
  8
0
100
AcDbLine
 10
442.7050139270595
 20
195.9832308882696
 30
0.0
 11
551.7050139271122
 21
195.9832308882687
 31
0.0
  0
ARC
  5
65D
330
1A
100
AcDbEntity
  8
0
100
AcDbCircle
 10
510.7076682169504
 20
292.2292882040865
 30
0.0
 40
68.0
100
AcDbArc
 50
272.4919063689765
 51
87.5080936310235
  0
ARC
  5
65E
330
1A
100
AcDbEntity
  8
0
100
AcDbCircle
 10
510.7076682169504
 20
292.2292882040863
 30
0.0
 40
67.5
100
AcDbArc
 50
272.0915513375759
 51
87.90844866242407
  0
CIRCLE
  5
65F
330
1A
100
AcDbEntity
  8
0
100
AcDbCircle
 10
510.7076682169504
 20
292.2292882040865
 30
0.0
 40
75.0
  0
CIRCLE
  5
660
330
1A
100
AcDbEntity
  8
0
100
AcDbCircle
 10
510.7076682169504
 20
292.2292882040863
 30
0.0
 40
75.35
  0
ARC
  5
661
330
1A
100
AcDbEntity
  8
0
100
AcDbCircle
 10
510.7105687968286
 20
292.2821704584232
 30
0.0
 40
86.0
100
AcDbArc
 50
277.4356017815552
 51
82.5643982184448
  0
ARC
  5
662
330
1A
100
AcDbEntity
  8
0
100
AcDbCircle
 10
510.7105687968286
 20
292.2831691674939
 30
0.0
 40
83.0
100
AcDbArc
 50
278.7147420186101
 51
81.28525798137671
  0
LINE
  5
663
330
1A
100
AcDbEntity
  8
0
100
AcDbLine
 10
406.7106000624641
 20
85.03749923463374
 30
0.0
 11
573.2557711854564
 21
85.03749923463283
 31
0.0
  0
LINE
  5
664
330
1A
100
AcDbEntity
  8
0
100
AcDbLine
 10
428.0134635302792
 20
157.5374992346346
 30
0.0
 11
497.0876195111809
 21
157.5374992346346
 31
0.0
  0
LINE
  5
665
330
1A
100
AcDbEntity
  8
0
100
AcDbLine
 10
499.7103690983421
 20
148.0374992346328
 30
0.0
 11
444.6194935068187
 21
148.7700906653813
 31
0.0
  0
ARC
  5
667
330
1A
100
AcDbEntity
  8
0
100
AcDbCircle
 10
403.4751390754322
 20
102.5363903725162
 30
0.0
 40
25.0
100
AcDbArc
 50
252.1428018777935
 51
287.8571981222064
  0
LINE
  5
668
330
1A
100
AcDbEntity
  8
0
100
AcDbLine
 10
400.7106000624648
 20
83.38532553815161
 30
0.0
 11
406.7106000624648
 21
83.38532553815161
 31
0.0
  0
LINE
  5
669
330
1A
100
AcDbEntity
  8
0
100
AcDbLine
 10
406.5660179953233
 20
82.88532553815162
 30
0.0
 11
400.8551821296059
 21
82.88532553815162
 31
0.0
  0
LINE
  5
66A
330
1A
100
AcDbEntity
  8
0
100
AcDbLine
 10
386.7106000624648
 20
82.88532553815162
 30
0.0
 11
420.7106000624648
 21
82.88532553815162
 31
0.0
  0
LINE
  5
66B
330
1A
100
AcDbEntity
  8
0
100
AcDbLine
 10
386.7106000624648
 20
78.88532553815116
 30
0.0
 11
420.7106000624648
 21
78.88532553815162
 31
0.0
  0
LINE
  5
66C
330
1A
100
AcDbEntity
  8
0
100
AcDbLine
 10
400.7106000624648
 20
83.38532553815161
 30
0.0
 11
400.5766254662494
 21
82.88532553815162
 31
0.0
  0
ARC
  5
66D
330
1A
100
AcDbEntity
  8
0
100
AcDbCircle
 10
394.8890606228155
 20
75.88532553815162
 30
0.0
 40
3.0
100
AcDbArc
 50
72.14280187779353
 51
90.0
  0
LINE
  5
66E
330
1A
100
AcDbEntity
  8
0
100
AcDbLine
 10
402.5112669144195
 20
78.88532553815162
 30
0.0
 11
402.5112669144195
 21
82.88532553815162
 31
0.0
  0
LINE
  5
66F
330
1A
100
AcDbEntity
  8
0
100
AcDbLine
 10
401.1496309366188
 20
78.88532553815162
 30
0.0
 11
401.1496309366188
 21
82.88532553815162
 31
0.0
  0
LINE
  5
670
330
1A
100
AcDbEntity
  8
0
100
AcDbLine
 10
398.803381254137
 20
78.88532553815162
 30
0.0
 11
398.803381254137
 21
82.88532553815162
 31
0.0
  0
LINE
  5
671
330
1A
100
AcDbEntity
  8
0
100
AcDbLine
 10
385.7106000624648
 20
79.88532553815161
 30
0.0
 11
385.7106000624648
 21
81.88532553815162
 31
0.0
  0
ARC
  5
672
330
1A
100
AcDbEntity
  8
0
100
AcDbCircle
 10
386.7106000624648
 20
79.88532553815161
 30
0.0
 40
1.0
100
AcDbArc
 50
180.0
 51
270.0
  0
LINE
  5
673
330
1A
100
AcDbEntity
  8
0
100
AcDbLine
 10
386.5915827691519
 20
78.89243335674769
 30
0.0
 11
386.5915827691519
 21
82.8782177195551
 31
0.0
  0
LINE
  5
674
330
1A
100
AcDbEntity
  8
0
100
AcDbLine
 10
387.2667818248978
 20
78.88532553815162
 30
0.0
 11
387.2667818248978
 21
82.88532553815162
 31
0.0
  0
LINE
  5
675
330
1A
100
AcDbEntity
  8
0
100
AcDbLine
 10
387.5571172364733
 20
78.88532553815162
 30
0.0
 11
387.5571172364733
 21
82.88532553815162
 31
0.0
  0
LINE
  5
676
330
1A
100
AcDbEntity
  8
0
100
AcDbLine
 10
388.7564503845187
 20
78.88532553815162
 30
0.0
 11
388.7564503845187
 21
82.88532553815162
 31
0.0
  0
LINE
  5
677
330
1A
100
AcDbEntity
  8
0
100
AcDbLine
 10
389.5612084803132
 20
78.88532553815162
 30
0.0
 11
389.5612084803132
 21
82.88532553815162
 31
0.0
  0
ARC
  5
678
330
1A
100
AcDbEntity
  8
0
100
AcDbCircle
 10
386.7106000624648
 20
81.88532553815162
 30
0.0
 40
1.0
100
AcDbArc
 50
90.0
 51
180.0
  0
LINE
  5
679
330
1A
100
AcDbEntity
  8
0
100
AcDbLine
 10
391.1662295134683
 20
78.88532553815162
 30
0.0
 11
391.1662295134683
 21
82.88532553815162
 31
0.0
  0
ARC
  5
67A
330
1A
100
AcDbEntity
  8
0
100
AcDbCircle
 10
420.7106000624648
 20
79.88532553815161
 30
0.0
 40
1.0
100
AcDbArc
 50
270.0
 51
0.0
  0
ARC
  5
67B
330
1A
100
AcDbEntity
  8
0
100
AcDbCircle
 10
412.0612175280489
 20
75.88532553815162
 30
0.0
 40
3.0
100
AcDbArc
 50
90.0
 51
107.8571981222064
  0
LINE
  5
67C
330
1A
100
AcDbEntity
  8
0
100
AcDbLine
 10
421.7106000624648
 20
79.88532553815161
 30
0.0
 11
421.7106000624648
 21
81.88532553815162
 31
0.0
  0
LINE
  5
67D
330
1A
100
AcDbEntity
  8
0
100
AcDbLine
 10
408.6178188707926
 20
78.88532553815162
 30
0.0
 11
408.6178188707926
 21
82.88532553815162
 31
0.0
  0
ARC
  5
67E
330
1A
100
AcDbEntity
  8
0
100
AcDbCircle
 10
420.7106000624648
 20
81.88532553815162
 30
0.0
 40
1.0
100
AcDbArc
 50
0.0
 51
90.0
  0
LINE
  5
67F
330
1A
100
AcDbEntity
  8
0
100
AcDbLine
 10
416.2549706114608
 20
78.88532553815162
 30
0.0
 11
416.2549706114608
 21
82.88532553815162
 31
0.0
  0
LINE
  5
680
330
1A
100
AcDbEntity
  8
0
100
AcDbLine
 10
417.8599916446164
 20
78.88532553815162
 30
0.0
 11
417.8599916446164
 21
82.88532553815162
 31
0.0
  0
LINE
  5
681
330
1A
100
AcDbEntity
  8
0
100
AcDbLine
 10
419.8640828884558
 20
78.88532553815162
 30
0.0
 11
419.8640828884558
 21
82.88532553815162
 31
0.0
  0
LINE
  5
682
330
1A
100
AcDbEntity
  8
0
100
AcDbLine
 10
420.1544183000313
 20
78.88532553815162
 30
0.0
 11
420.1544183000313
 21
82.88532553815162
 31
0.0
  0
LINE
  5
683
330
1A
100
AcDbEntity
  8
0
100
AcDbLine
 10
418.6647497404109
 20
78.88532553815162
 30
0.0
 11
418.6647497404109
 21
82.88532553815162
 31
0.0
  0
LINE
  5
684
330
1A
100
AcDbEntity
  8
0
100
AcDbLine
 10
420.8296173557773
 20
78.89243335674769
 30
0.0
 11
420.8296173557773
 21
82.8782177195551
 31
0.0
  0
LINE
  5
685
330
1A
100
AcDbEntity
  8
0
100
AcDbLine
 10
406.7106000624648
 20
83.38532553815161
 30
0.0
 11
406.8445746586802
 21
82.88532553815162
 31
0.0
  0
LINE
  5
686
330
1A
100
AcDbEntity
  8
0
100
AcDbLine
 10
406.2715691883107
 20
78.88532553815162
 30
0.0
 11
406.2715691883107
 21
82.88532553815162
 31
0.0
  0
LINE
  5
687
330
1A
100
AcDbEntity
  8
0
100
AcDbLine
 10
404.9099332105101
 20
78.88532553815162
 30
0.0
 11
404.9099332105101
 21
82.88532553815162
 31
0.0
  0
LINE
  5
688
330
1A
100
AcDbEntity
  8
0
100
AcDbLine
 10
436.6611475815138
 20
163.0374992346391
 30
0.0
 11
508.7121830147878
 21
163.037499234651
 31
0.0
  0
ARC
  5
68B
330
1A
100
AcDbEntity
  8
0
100
AcDbCircle
 10
428.0134635302792
 20
157.0374992346346
 30
0.0
 40
0.5
100
AcDbArc
 50
90.0
 51
152.8549142481771
  0
LINE
  5
68C
330
1A
100
AcDbEntity
  8
0
100
AcDbLine
 10
435.4239402287423
 20
157.5374992346346
 30
0.0
 11
435.6625180467594
 21
162.0898351908822
 31
0.0
  0
ARC
  5
68D
330
1A
100
AcDbEntity
  8
0
100
AcDbCircle
 10
436.6611475815142
 20
162.0374992346394
 30
0.0
 40
1.0
100
AcDbArc
 50
90.00000000001303
 51
176.9999999999944
  0
ARC
  5
68E
330
1A
100
AcDbEntity
  8
0
100
AcDbCircle
 10
444.2205926045444
 20
118.7727428147768
 30
0.0
 40
30.0
100
AcDbArc
 50
89.23813294411713
 51
110.0000000000034
  0
ARC
  5
68F
330
1A
100
AcDbEntity
  8
0
100
AcDbCircle
 10
442.2005274702923
 20
118.037499234631
 30
0.0
 40
30.0
100
AcDbArc
 50
90.0
 51
110.0000000000034
  0
LINE
  5
690
330
1A
100
AcDbEntity
  8
0
100
AcDbLine
 10
427.5685364987238
 20
157.2656218696165
 30
0.0
 11
419.6081993865736
 21
141.7398974636594
 31
0.0
  0
ARC
  5
691
330
1A
100
AcDbEntity
  8
0
100
AcDbCircle
 10
372.4320300630346
 20
104.0374992346337
 30
0.0
 40
5.0
100
AcDbArc
 50
270.0
 51
276.3626660217804
  0
ARC
  5
692
330
1A
100
AcDbEntity
  8
0
100
AcDbCircle
 10
430.1827331778031
 20
89.03749923463374
 30
0.0
 40
4.0
100
AcDbArc
 50
206.56505117708
 51
270.0
  0
LINE
  5
693
330
1A
100
AcDbEntity
  8
0
100
AcDbLine
 10
425.0950554700033
 20
90.26858274023288
 30
0.0
 11
426.6050244138031
 21
87.24864485263379
 31
0.0
  0
LINE
  5
694
330
1A
100
AcDbEntity
  8
0
100
AcDbLine
 10
422.2105943831456
 20
92.03749923463306
 30
0.0
 11
420.7105943831455
 21
91.53749923463307
 31
0.0
  0
LINE
  5
695
330
1A
100
AcDbEntity
  8
0
100
AcDbLine
 10
422.2328884588045
 20
92.03749923463261
 30
0.0
 11
422.2105943831442
 21
92.03749923463261
 31
0.0
  0
LINE
  5
697
330
1A
100
AcDbEntity
  8
0
100
AcDbLine
 10
415.2105943831456
 20
92.03749923463306
 30
0.0
 11
416.7105943831456
 21
91.53749923463307
 31
0.0
  0
LINE
  5
698
330
1A
100
AcDbEntity
  8
0
100
AcDbLine
 10
416.7105943831456
 20
91.53749923463307
 30
0.0
 11
420.7105943831455
 21
91.53749923463307
 31
0.0
  0
LINE
  5
699
330
1A
100
AcDbEntity
  8
0
100
AcDbLine
 10
406.7106000624638
 20
88.33749923463484
 30
0.0
 11
406.7106000624641
 21
83.38532553815417
 31
0.0
  0
LINE
  5
69A
330
1A
100
AcDbEntity
  8
0
100
AcDbLine
 10
406.3317418624639
 20
83.38532553815161
 30
0.0
 11
406.3317418624642
 21
88.33749923463484
 31
0.0
  0
LINE
  5
69B
330
1A
100
AcDbEntity
  8
0
100
AcDbLine
 10
400.7106000624641
 20
83.38532553814877
 30
0.0
 11
400.7106000624638
 21
88.33749923463484
 31
0.0
  0
LINE
  5
69C
330
1A
100
AcDbEntity
  8
0
100
AcDbLine
 10
401.0894582624643
 20
83.38532553815161
 30
0.0
 11
401.089458262464
 21
88.33749923463484
 31
0.0
  0
LINE
  5
69D
330
1A
100
AcDbEntity
  8
0
100
AcDbLine
 10
399.2106000624634
 20
88.33749923463484
 30
0.0
 11
408.2106000624635
 21
88.33749923463484
 31
0.0
  0
LINE
  5
69E
330
1A
100
AcDbEntity
  8
0
100
AcDbLine
 10
408.2106000624635
 20
88.33749923463484
 30
0.0
 11
408.2106000624635
 21
92.03749923463375
 31
0.0
  0
LINE
  5
69F
330
1A
100
AcDbEntity
  8
0
100
AcDbLine
 10
399.2106000624634
 20
88.33749923463484
 30
0.0
 11
399.2106000624634
 21
92.03749923463465
 31
0.0
  0
LINE
  5
6A0
330
1A
100
AcDbEntity
  8
0
 48
3.0
100
AcDbLine
 10
403.7106000624639
 20
78.08812223355653
 30
0.0
 11
403.7106000624639
 21
93.48895724748127
 31
0.0
  0
ARC
  5
6A1
330
1A
100
AcDbEntity
  8
0
100
AcDbCircle
 10
422.2328884588041
 20
88.83749923463255
 30
0.0
 40
3.2
100
AcDbArc
 50
26.56505117707999
 51
90.0
  0
LINE
  5
6A2
330
1A
100
AcDbEntity
  8
0
100
AcDbLine
 10
377.2384612678042
 20
85.03749923463374
 30
0.0
 11
400.7106000624641
 21
85.03749923463374
 31
0.0
  0
LINE
  5
6A3
330
1A
100
AcDbEntity
  8
0
100
AcDbLine
 10
393.2106000624634
 20
91.03749923463533
 30
0.0
 11
393.2106000624634
 21
92.03749923463623
 31
0.0
  0
LINE
  5
6A4
330
1A
100
AcDbEntity
  8
0
100
AcDbLine
 10
386.2106000624634
 20
91.03749923463533
 30
0.0
 11
386.2106000624634
 21
92.03749923463533
 31
0.0
  0
LINE
  5
6A5
330
1A
100
AcDbEntity
  8
0
100
AcDbLine
 10
391.7106000624634
 20
89.53749923463533
 30
0.0
 11
387.7106000624634
 21
89.53749923463533
 31
0.0
  0
LINE
  5
6A6
330
1A
100
AcDbEntity
  8
0
100
AcDbLine
 10
393.2106000624634
 20
92.03749923463533
 30
0.0
 11
386.2106000624634
 21
92.03749923463533
 31
0.0
  0
ARC
  5
6A7
330
1A
100
AcDbEntity
  8
0
100
AcDbCircle
 10
391.7106000624634
 20
91.03749923463533
 30
0.0
 40
1.5
100
AcDbArc
 50
270.0
 51
0.0
  0
ARC
  5
6A8
330
1A
100
AcDbEntity
  8
0
100
AcDbCircle
 10
387.7106000624634
 20
91.03749923463533
 30
0.0
 40
1.5
100
AcDbArc
 50
180.0
 51
270.0
  0
ARC
  5
6A9
330
1A
100
AcDbEntity
  8
0
100
AcDbCircle
 10
385.1883059868031
 20
88.83749923463573
 30
0.0
 40
3.2
100
AcDbArc
 50
90.0
 51
153.4349488229345
  0
ARC
  5
6AA
330
1A
100
AcDbEntity
  8
0
100
AcDbCircle
 10
377.2384612678042
 20
89.03749923463555
 30
0.0
 40
4.0
100
AcDbArc
 50
270.0
 51
333.4349488229345
  0
LINE
  5
6AB
330
1A
100
AcDbEntity
  8
0
100
AcDbLine
 10
382.326138975603
 20
90.26858274023515
 30
0.0
 11
380.8161700318041
 21
87.24864485263607
 31
0.0
  0
ARC
  5
6AC
330
1A
100
AcDbEntity
  8
0
100
AcDbCircle
 10
363.074934648543
 20
89.03749923463578
 30
0.0
 40
4.0
100
AcDbArc
 50
229.7862240477749
 51
270.0
  0
LINE
  5
6AD
330
1A
100
AcDbEntity
  8
0
100
AcDbLine
 10
363.074934648543
 20
85.03749923463557
 30
0.0
 11
377.2384612678042
 21
85.03749923463578
 31
0.0
  0
LINE
  5
6AE
330
1A
100
AcDbEntity
  8
0
100
AcDbLine
 10
415.210594383145
 20
92.03749923463325
 30
0.0
 11
385.1883059868031
 21
92.03749923463556
 31
0.0
  0
LINE
  5
6AF
330
1A
100
AcDbEntity
  8
0
100
AcDbLine
 10
519.7106000624644
 20
151.0374992346364
 30
0.0
 11
519.7106000624644
 21
153.0374992346364
 31
0.0
  0
LINE
  5
6B0
330
1A
100
AcDbEntity
  8
0
100
AcDbLine
 10
519.7121830147903
 20
151.0374992346364
 30
0.0
 11
519.7121830147903
 21
153.0374992346364
 31
0.0
  0
ARC
  5
6B1
330
1A
100
AcDbEntity
  8
0
100
AcDbCircle
 10
524.3327272963374
 20
155.5374992346373
 30
0.0
 40
2.0
100
AcDbArc
 50
90.0
 51
168.0964841985105
  0
LINE
  5
6B2
330
1A
100
AcDbEntity
  8
0
100
AcDbLine
 10
518.2106000624637
 20
155.5374992346358
 30
0.0
 11
518.2106000624639
 21
153.0374992346364
 31
0.0
  0
LINE
  5
6B3
330
1A
100
AcDbEntity
  8
0
100
AcDbLine
 10
508.7121830147984
 20
163.0374992346403
 30
0.0
 11
509.2121830147984
 21
162.5374992346403
 31
0.0
  0
LINE
  5
6B4
330
1A
100
AcDbEntity
  8
0
100
AcDbLine
 10
512.2121830147976
 20
162.5374992346403
 30
0.0
 11
509.2121830147984
 21
162.5374992346403
 31
0.0
  0
LINE
  5
6B5
330
1A
100
AcDbEntity
  8
0
100
AcDbLine
 10
501.7121830147902
 20
151.0374992346364
 30
0.0
 11
501.7121830147902
 21
153.0374992346362
 31
0.0
  0
LINE
  5
6B6
330
1A
100
AcDbEntity
  8
0
100
AcDbLine
 10
503.2106000624635
 20
155.5374992346355
 30
0.0
 11
503.2106000624635
 21
153.0374992346364
 31
0.0
  0
LINE
  5
6B7
330
1A
100
AcDbEntity
  8
0
100
AcDbLine
 10
510.7121830147902
 20
155.5374992346355
 30
0.0
 11
510.7121830147902
 21
163.8503531552198
 31
0.0
  0
LINE
  5
6B8
330
1A
100
AcDbEntity
  8
0
100
AcDbLine
 10
512.7121830147975
 20
163.0374992346403
 30
0.0
 11
512.2121830147976
 21
162.5374992346403
 31
0.0
  0
LINE
  5
6B9
330
1A
100
AcDbEntity
  8
0
100
AcDbLine
 10
500.0789481790579
 20
151.0374992346364
 30
0.0
 11
521.3401876837088
 21
151.0374992346364
 31
0.0
  0
LINE
  5
6BA
330
1A
100
AcDbEntity
  8
0
100
AcDbLine
 10
519.7121830147903
 20
153.0374992346364
 30
0.0
 11
501.7121830147902
 21
153.0374992346362
 31
0.0
  0
LINE
  5
6BB
330
1A
100
AcDbEntity
  8
0
100
AcDbLine
 10
500.3947741207618
 20
149.5374992346364
 30
0.0
 11
521.0239919726395
 21
149.5374992346364
 31
0.0
  0
LINE
  5
6BC
330
1A
100
AcDbEntity
  8
0
100
AcDbLine
 10
520.7106000624644
 20
148.0508001783048
 30
0.0
 11
522.3757346361494
 21
155.9500276918011
 31
0.0
  0
LINE
  5
6BD
330
1A
100
AcDbEntity
  8
0
100
AcDbLine
 10
520.210594383177
 20
84.2374992346347
 30
0.0
 11
520.210594383177
 21
85.03749923463578
 31
0.0
  0
LINE
  5
6BE
330
1A
100
AcDbEntity
  8
0
100
AcDbLine
 10
518.210594383177
 20
83.10894925608659
 30
0.0
 11
518.210594383177
 21
84.2374992346347
 31
0.0
  0
ARC
  5
6BF
330
1A
100
AcDbEntity
  8
0
100
AcDbCircle
 10
497.0876195111809
 20
155.5374992346346
 30
0.0
 40
2.0
100
AcDbArc
 50
11.8899918905081
 51
90.0
  0
ARC
  5
6C0
330
1A
100
AcDbEntity
  8
0
100
AcDbCircle
 10
483.7105943831456
 20
89.03749923463374
 30
0.0
 40
5.0
100
AcDbArc
 50
233.1301023541691
 51
306.8698976458308
  0
LINE
  5
6C2
330
1A
100
AcDbEntity
  8
0
100
AcDbLine
 10
499.1314703539462
 20
155.5374992346355
 30
0.0
 11
522.2887748169162
 21
155.5374992346355
 31
0.0
  0
LINE
  5
6C3
330
1A
100
AcDbEntity
  8
0
100
AcDbLine
 10
500.7106000624666
 20
148.0374992346323
 30
0.0
 11
499.0447094887394
 21
155.949565758076
 31
0.0
  0
ARC
  5
6C4
330
1A
100
AcDbEntity
  8
0
100
AcDbCircle
 10
510.7105687968286
 20
292.2831691674939
 30
0.0
 40
80.5
100
AcDbArc
 50
134.512255632755
 51
178.4676517900934
  0
ARC
  5
6C5
330
1A
100
AcDbEntity
  8
0
100
AcDbCircle
 10
510.7105687968286
 20
292.2821704584232
 30
0.0
 40
86.0
100
AcDbArc
 50
97.43560178155519
 51
147.3596438904091
  0
ARC
  5
6C6
330
1A
100
AcDbEntity
  8
0
100
AcDbCircle
 10
510.7076682169504
 20
292.2292882040865
 30
0.0
 40
68.0
100
AcDbArc
 50
92.49190636897649
 51
267.5080936310235
  0
ARC
  5
6C7
330
1A
100
AcDbEntity
  8
0
100
AcDbCircle
 10
510.7076682169504
 20
292.2292882040863
 30
0.0
 40
67.5
100
AcDbArc
 50
92.09155133757594
 51
267.908448662424
  0
ARC
  5
6C8
330
1A
100
AcDbEntity
  8
0
100
AcDbCircle
 10
510.7105687968286
 20
292.2831691674939
 30
0.0
 40
83.0
100
AcDbArc
 50
98.71474201861017
 51
261.2852579813898
  0
ARC
  5
6C9
330
1A
100
AcDbEntity
  8
0
100
AcDbCircle
 10
510.7105687968286
 20
292.2821704584232
 30
0.0
 40
86.0
100
AcDbArc
 50
212.6402866403161
 51
262.5643982184448
  0
ARC
  5
6CA
330
1A
100
AcDbEntity
  8
0
100
AcDbCircle
 10
510.7105687968286
 20
292.2831691674939
 30
0.0
 40
80.5
100
AcDbArc
 50
181.6618779111003
 51
221.4883923412754
  0
LINE
  5
6CB
330
1A
100
AcDbEntity
  8
0
100
AcDbLine
 10
418.0325578464184
 20
380.2901136757873
 30
0.0
 11
433.9290084526687
 21
380.2901136757855
 31
0.0
  0
ARC
  5
6CC
330
1A
100
AcDbEntity
  8
0
100
AcDbCircle
 10
442.7105687967932
 20
-1111.716830832508
 30
0.0
 40
1497.799999999999
100
AcDbArc
 50
90.0
 51
92.96975146140324
  0
ARC
  5
6CD
330
1A
100
AcDbEntity
  8
0
100
AcDbCircle
 10
404.710799760955
 20
345.2856013850368
 30
0.0
 40
2.0
100
AcDbArc
 50
0.0
 51
90.0
  0
LINE
  5
6CE
330
1A
100
AcDbEntity
  8
0
100
AcDbLine
 10
423.222784071398
 20
339.285601385035
 30
0.0
 11
418.0325578464175
 21
339.2856013850368
 31
0.0
  0
ARC
  5
6CF
330
1A
100
AcDbEntity
  8
0
100
AcDbCircle
 10
595.2594145203634
 20
292.2856013850296
 30
0.0
 40
178.3412521438422
100
AcDbArc
 50
154.7716564239433
 51
164.7198004509632
  0
LINE
  5
6D0
330
1A
100
AcDbEntity
  8
0
100
AcDbLine
 10
435.3576874728793
 20
292.2831571944691
 30
0.0
 11
429.0105688029329
 21
292.2831691674939
 31
0.0
  0
ARC
  5
6D1
330
1A
100
AcDbEntity
  8
0
100
AcDbCircle
 10
510.7105687968286
 20
292.2831691674939
 30
0.0
 40
80.5
100
AcDbArc
 50
181.5323482099065
 51
181.6618779111003
  0
ARC
  5
6D2
330
1A
100
AcDbEntity
  8
0
100
AcDbCircle
 10
431.5105688029329
 20
292.2831691674939
 30
0.0
 40
2.5
100
AcDbArc
 50
120.562959028922
 51
239.4370409710779
  0
LINE
  5
6D3
330
1A
100
AcDbEntity
  8
0
100
AcDbLine
 10
423.2227840713989
 20
245.2856013850368
 30
0.0
 11
418.0325578464166
 21
245.2856013850368
 31
0.0
  0
ARC
  5
6D4
330
1A
100
AcDbEntity
  8
0
100
AcDbCircle
 10
486.5291648285867
 20
292.2821851180056
 30
0.0
 40
66.92076575076074
100
AcDbArc
 50
136.1210151829681
 51
223.8789153477513
  0
LINE
  5
6D5
330
1A
100
AcDbEntity
  8
0
100
AcDbLine
 10
406.710799760955
 20
239.2856013850368
 30
0.0
 11
406.710799760955
 21
345.2856013850368
 31
0.0
  0
ARC
  5
6D6
330
1A
100
AcDbEntity
  8
0
100
AcDbCircle
 10
375.710799760955
 20
345.2856013850368
 30
0.0
 40
2.0
100
AcDbArc
 50
90.0
 51
180.0
  0
CIRCLE
  5
6D7
330
1A
100
AcDbEntity
  8
0
100
AcDbCircle
 10
364.710799760955
 20
364.7856013850368
 30
0.0
 40
7.0
  0
CIRCLE
  5
6D8
330
1A
100
AcDbEntity
  8
0
100
AcDbCircle
 10
362.6074770247545
 20
319.7856013850369
 30
0.0
 40
5.75
  0
CIRCLE
  5
6D9
330
1A
100
AcDbEntity
  8
0
100
AcDbCircle
 10
362.6074770247545
 20
341.7856013850368
 30
0.0
 40
5.75
  0
CIRCLE
  5
6DA
330
1A
100
AcDbEntity
  8
0
100
AcDbCircle
 10
362.6074770247545
 20
297.7856013850368
 30
0.0
 40
5.75
  0
CIRCLE
  5
6DB
330
1A
100
AcDbEntity
  8
0
100
AcDbCircle
 10
362.6074770247545
 20
253.7856013850368
 30
0.0
 40
5.75
  0
CIRCLE
  5
6DC
330
1A
100
AcDbEntity
  8
0
100
AcDbCircle
 10
362.6074770247545
 20
275.7856013850369
 30
0.0
 40
5.75
  0
LINE
  5
6DD
330
1A
100
AcDbEntity
  8
0
100
AcDbLine
 10
373.7107997609541
 20
239.2856013850368
 30
0.0
 11
373.710799760955
 21
345.2856013850368
 31
0.0
  0
LINE
  5
6DE
330
1A
100
AcDbEntity
  8
0
100
AcDbLine
 10
375.710799760955
 20
347.2856013850369
 30
0.0
 11
404.710799760955
 21
347.2856013850369
 31
0.0
  0
ARC
  5
6DF
330
1A
100
AcDbEntity
  8
0
100
AcDbCircle
 10
443.710799760954
 20
-1107.714398614962
 30
0.0
 40
1488.299999999999
100
AcDbArc
 50
91.04945307175432
 51
93.02238957840069
  0
ARC
  5
6E0
330
1A
100
AcDbEntity
  8
0
100
AcDbCircle
 10
365.9765799690926
 20
364.5348605369481
 30
0.0
 40
14.0
100
AcDbArc
 50
93.02238957840069
 51
175.7738334891883
  0
LINE
  5
6E1
330
1A
100
AcDbEntity
  8
0
100
AcDbLine
 10
433.9290084526687
 20
368.2994310100793
 30
0.0
 11
433.9290084526687
 21
380.2901136757855
 31
0.0
  0
LINE
  5
6E2
330
1A
100
AcDbEntity
  8
0
100
AcDbLine
 10
436.9109177475333
 20
385.5719369233013
 30
0.0
 11
438.2923160388681
 21
338.6674770488091
 31
0.0
  0
LINE
  5
6E3
330
1A
100
AcDbEntity
  8
0
100
AcDbLine
 10
418.0325578464184
 20
380.2901136757873
 30
0.0
 11
418.0325578464175
 21
339.2856013850368
 31
0.0
  0
LINE
  5
6E4
330
1A
100
AcDbEntity
  8
0
100
AcDbLine
 10
433.9290084526659
 20
216.2717717599925
 30
0.0
 11
433.9290084526659
 21
204.2810890942864
 31
0.0
  0
LINE
  5
6E5
330
1A
100
AcDbEntity
  8
0
100
AcDbLine
 10
418.0325578464166
 20
204.2810890942864
 30
0.0
 11
433.9290084526659
 21
204.2810890942864
 31
0.0
  0
CIRCLE
  5
6E6
330
1A
100
AcDbEntity
  8
0
100
AcDbCircle
 10
362.6074770247545
 20
231.7856013850369
 30
0.0
 40
5.75
  0
ARC
  5
6E7
330
1A
100
AcDbEntity
  8
0
100
AcDbCircle
 10
365.9765799690916
 20
220.0363422331238
 30
0.0
 40
14.0
100
AcDbArc
 50
184.2261665108116
 51
266.9776104215993
  0
ARC
  5
6E8
330
1A
100
AcDbEntity
  8
0
100
AcDbCircle
 10
442.7105687968282
 20
1696.283169167494
 30
0.0
 40
1497.3
100
AcDbArc
 50
267.0278121870844
 51
270.0
  0
ARC
  5
6E9
330
1A
100
AcDbEntity
  8
0
100
AcDbCircle
 10
442.7105687968332
 20
1696.283169167493
 30
0.0
 40
1500.3
100
AcDbArc
 50
267.0088508318123
 51
270.0
  0
ARC
  5
6EA
330
1A
100
AcDbEntity
  8
0
100
AcDbCircle
 10
443.7107997609859
 20
1692.285601385033
 30
0.0
 40
1488.299999999999
100
AcDbArc
 50
266.9776104215993
 51
268.9505469282456
  0
LINE
  5
6EB
330
1A
100
AcDbEntity
  8
0
100
AcDbLine
 10
375.7107997609541
 20
237.2856013850368
 30
0.0
 11
404.710799760955
 21
237.2856013850368
 31
0.0
  0
ARC
  5
6EC
330
1A
100
AcDbEntity
  8
0
100
AcDbCircle
 10
1343.710799760955
 20
292.2856013850369
 30
0.0
 40
994.4
100
AcDbArc
 50
175.7738334891883
 51
184.2261665108116
  0
LINE
  5
6ED
330
1A
100
AcDbEntity
  8
0
100
AcDbLine
 10
416.4520088435751
 20
204.2352499796379
 30
0.0
 11
416.4520088435751
 21
380.3359527904331
 31
0.0
  0
ARC
  5
6EE
330
1A
100
AcDbEntity
  8
0
100
AcDbCircle
 10
375.7107997609541
 20
239.2856013850368
 30
0.0
 40
2.0
100
AcDbArc
 50
180.0
 51
270.0
  0
LINE
  5
6EF
330
1A
100
AcDbEntity
  8
0
100
AcDbLine
 10
436.9109177475338
 20
198.9944014116865
 30
0.0
 11
438.2922597982341
 21
245.896951672865
 31
0.0
  0
ARC
  5
6F0
330
1A
100
AcDbEntity
  8
0
100
AcDbCircle
 10
595.2594145203634
 20
292.2856013850378
 30
0.0
 40
178.3412521438422
100
AcDbArc
 50
195.2801995490908
 51
205.2283435760566
  0
LINE
  5
6F1
330
1A
100
AcDbEntity
  8
0
100
AcDbLine
 10
418.0325578464166
 20
204.2810890942864
 30
0.0
 11
418.0325578464166
 21
245.2856013850368
 31
0.0
  0
ARC
  5
6F2
330
1A
100
AcDbEntity
  8
0
100
AcDbCircle
 10
404.710799760955
 20
239.2856013850368
 30
0.0
 40
2.0
100
AcDbArc
 50
270.0
 51
0.0
  0
LINE
  5
6F3
330
1A
100
AcDbEntity
  8
0
100
AcDbLine
 10
520.7105687968287
 20
373.0374260212351
 30
0.0
 11
520.7105687968287
 21
376.5674004812451
 31
0.0
  0
LINE
  5
6F4
330
1A
100
AcDbEntity
  8
0
100
AcDbLine
 10
522.7105687968287
 20
371.7265452286858
 30
0.0
 11
522.7105687968292
 21
373.8307013189944
 31
0.0
  0
LINE
  5
6F5
330
1A
100
AcDbEntity
  8
0
100
AcDbLine
 10
522.7105687968292
 20
374.4111181252026
 30
0.0
 11
520.9820864738817
 21
377.252465080501
 31
0.0
  0
ARC
  5
6F6
330
1A
100
AcDbEntity
  8
0
100
AcDbCircle
 10
521.7105687968287
 20
376.5674004812451
 30
0.0
 40
1.0
100
AcDbArc
 50
82.5643982184448
 51
180.0
  0
ARC
  5
6F7
330
1A
100
AcDbEntity
  8
0
100
AcDbCircle
 10
521.7105687968287
 20
373.0374260212351
 30
0.0
 40
1.0
100
AcDbArc
 50
180.0
 51
262.2431538847875
  0
ARC
  5
6F8
330
1A
100
AcDbEntity
  8
0
100
AcDbCircle
 10
523.2105687968291
 20
373.8307013189942
 30
0.0
 40
0.5
100
AcDbArc
 50
81.28525798137671
 51
179.9999999999869
  0
ARC
  5
6F9
330
1A
100
AcDbEntity
  8
0
100
AcDbCircle
 10
513.7076682169508
 20
366.168452386541
 30
0.0
 40
1.0
100
AcDbArc
 50
87.67656138894265
 51
180.0
  0
LINE
  5
6FA
330
1A
100
AcDbEntity
  8
0
  6
ByBlock
100
AcDbLine
 10
500.7105687968286
 20
373.0374260212349
 30
0.0
 11
500.7105687968289
 21
376.5674004812451
 31
0.0
  0
ARC
  5
6FB
330
1A
100
AcDbEntity
  8
0
100
AcDbCircle
 10
499.7105687968287
 20
373.0374260212351
 30
0.0
 40
1.0
100
AcDbArc
 50
277.7568461152124
 51
359.9999999999869
  0
ARC
  5
6FC
330
1A
100
AcDbEntity
  8
0
100
AcDbCircle
 10
507.7076682169508
 20
366.168452386541
 30
0.0
 40
1.0
100
AcDbArc
 50
0.0
 51
92.32343861105734
  0
ARC
  5
6FD
330
1A
100
AcDbEntity
  8
0
100
AcDbCircle
 10
508.2076682169508
 20
366.1870464178127
 30
0.0
 40
1.0
100
AcDbArc
 50
0.0
 51
91.93603662660237
  0
ARC
  5
6FE
330
1A
100
AcDbEntity
  8
0
100
AcDbCircle
 10
513.2076682169508
 20
366.1870464178127
 30
0.0
 40
1.0
100
AcDbArc
 50
88.06396337339764
 51
180.0
  0
ARC
  5
6FF
330
1A
100
AcDbEntity
  8
0
100
AcDbCircle
 10
513.7076682169513
 20
361.1640399625425
 30
0.0
 40
1.0
100
AcDbArc
 50
180.0
 51
267.5080936310235
  0
ARC
  5
700
330
1A
100
AcDbEntity
  8
0
100
AcDbCircle
 10
508.2076682169512
 20
360.6836525645858
 30
0.0
 40
1.0
100
AcDbArc
 50
272.0915513375759
 51
0.0
  0
ARC
  5
701
330
1A
100
AcDbEntity
  8
0
100
AcDbCircle
 10
507.7076682169512
 20
361.1640399625428
 30
0.0
 40
1.0
100
AcDbArc
 50
272.4919063689765
 51
0.0
  0
ARC
  5
702
330
1A
100
AcDbEntity
  8
0
100
AcDbCircle
 10
513.2076682169513
 20
360.6836525645856
 30
0.0
 40
1.0
100
AcDbArc
 50
180.0
 51
267.908448662424
  0
LINE
  5
703
330
1A
100
AcDbEntity
  8
0
100
AcDbLine
 10
512.7076682169509
 20
366.168452386541
 30
0.0
 11
512.7076682169513
 21
361.1640399625425
 31
0.0
  0
LINE
  5
704
330
1A
100
AcDbEntity
  8
0
100
AcDbLine
 10
508.7076682169508
 20
366.168452386541
 30
0.0
 11
508.7076682169512
 21
361.1640399625428
 31
0.0
  0
LINE
  5
705
330
1A
100
AcDbEntity
  8
0
100
AcDbLine
 10
509.2076682169508
 20
366.1870464178127
 30
0.0
 11
509.2076682169512
 21
360.6836525645856
 31
0.0
  0
LINE
  5
706
330
1A
100
AcDbEntity
  8
0
100
AcDbLine
 10
512.2076682169509
 20
366.1870464178125
 30
0.0
 11
512.2076682169513
 21
360.6836525645856
 31
0.0
  0
LINE
  5
707
330
1A
100
AcDbEntity
  8
0
100
AcDbLine
 10
498.7105687968287
 20
371.7265452286858
 30
0.0
 11
498.7105687968287
 21
373.8307013189944
 31
0.0
  0
ARC
  5
708
330
1A
100
AcDbEntity
  8
0
100
AcDbCircle
 10
498.2105687968286
 20
373.8307013189942
 30
0.0
 40
0.5
100
AcDbArc
 50
0.0000000000130276
 51
98.71474201861017
  0
ARC
  5
709
330
1A
100
AcDbEntity
  8
0
100
AcDbCircle
 10
456.7163968659833
 20
350.2263085976772
 30
0.0
 40
2.5
100
AcDbArc
 50
73.5189353293225
 51
192.4401354447883
  0
ARC
  5
70A
330
1A
100
AcDbEntity
  8
0
100
AcDbCircle
 10
510.7105687968286
 20
292.2831691674939
 30
0.0
 40
80.5
100
AcDbArc
 50
97.75684611521242
 51
131.4468151413448
  0
LINE
  5
70B
330
1A
100
AcDbEntity
  8
0
100
AcDbLine
 10
498.7105687968284
 20
374.4111181252026
 30
0.0
 11
500.4390511197759
 21
377.252465080501
 31
0.0
  0
ARC
  5
70C
330
1A
100
AcDbEntity
  8
0
100
AcDbCircle
 10
499.7105687968288
 20
376.5674004812451
 30
0.0
 40
1.0
100
AcDbArc
 50
0.0
 51
97.43560178155519
  0
ARC
  5
70D
330
1A
100
AcDbEntity
  8
0
100
AcDbCircle
 10
513.7076682169513
 20
223.29453644563
 30
0.0
 40
1.0
100
AcDbArc
 50
92.49190636897649
 51
180.0
  0
ARC
  5
70E
330
1A
100
AcDbEntity
  8
0
100
AcDbCircle
 10
507.7076682169512
 20
223.29453644563
 30
0.0
 40
1.0
100
AcDbArc
 50
0.0
 51
87.5080936310235
  0
ARC
  5
70F
330
1A
100
AcDbEntity
  8
0
100
AcDbCircle
 10
508.2076682169512
 20
223.7749238435869
 30
0.0
 40
1.0
100
AcDbArc
 50
0.0
 51
87.90844866242407
  0
ARC
  5
710
330
1A
100
AcDbEntity
  8
0
100
AcDbCircle
 10
513.2076682169516
 20
223.7749238435869
 30
0.0
 40
1.0
100
AcDbArc
 50
92.09155133757594
 51
180.0
  0
ARC
  5
711
330
1A
100
AcDbEntity
  8
0
100
AcDbCircle
 10
513.7076682169511
 20
218.2901240216315
 30
0.0
 40
1.0
100
AcDbArc
 50
180.0
 51
272.3234386110573
  0
LINE
  5
712
330
1A
100
AcDbEntity
  8
0
100
AcDbLine
 10
520.7105687968287
 20
211.5289123137527
 30
0.0
 11
520.7105687968287
 21
207.9969404356013
 31
0.0
  0
LINE
  5
713
330
1A
100
AcDbEntity
  8
0
100
AcDbLine
 10
522.7105687968292
 20
210.1552202097852
 30
0.0
 11
520.9819863520189
 21
207.3119823192796
 31
0.0
  0
ARC
  5
714
330
1A
100
AcDbEntity
  8
0
100
AcDbCircle
 10
521.7105687968287
 20
207.9969404356013
 30
0.0
 40
1.0
100
AcDbArc
 50
180.0
 51
277.4356017815552
  0
ARC
  5
715
330
1A
100
AcDbEntity
  8
0
100
AcDbCircle
 10
523.2105687968291
 20
210.7356370159936
 30
0.0
 40
0.5
100
AcDbArc
 50
180.000000000013
 51
278.7147420186101
  0
LINE
  5
716
330
1A
100
AcDbEntity
  8
0
100
AcDbLine
 10
522.7105687968287
 20
212.839793106302
 30
0.0
 11
522.7105687968292
 21
210.7356370159934
 31
0.0
  0
ARC
  5
717
330
1A
100
AcDbEntity
  8
0
100
AcDbCircle
 10
521.7105687968287
 20
211.5289123137527
 30
0.0
 40
1.0
100
AcDbArc
 50
97.75684611521242
 51
180.0
  0
ARC
  5
718
330
1A
100
AcDbEntity
  8
0
100
AcDbCircle
 10
508.207668216951
 20
218.27152999036
 30
0.0
 40
1.0
100
AcDbArc
 50
268.0639633733976
 51
0.0
  0
ARC
  5
719
330
1A
100
AcDbEntity
  8
0
100
AcDbCircle
 10
507.7076682169511
 20
218.2901240216315
 30
0.0
 40
1.0
100
AcDbArc
 50
267.6765613889426
 51
0.0
  0
LINE
  5
71A
330
1A
100
AcDbEntity
  8
0
  6
ByBlock
100
AcDbLine
 10
500.7105687968286
 20
211.5289123137529
 30
0.0
 11
500.7105687968289
 21
207.9969404356013
 31
0.0
  0
ARC
  5
71B
330
1A
100
AcDbEntity
  8
0
100
AcDbCircle
 10
499.7105687968287
 20
211.5289123137527
 30
0.0
 40
1.0
100
AcDbArc
 50
0.0
 51
82.24315388478757
  0
ARC
  5
71C
330
1A
100
AcDbEntity
  8
0
100
AcDbCircle
 10
513.207668216951
 20
218.27152999036
 30
0.0
 40
1.0
100
AcDbArc
 50
180.0
 51
271.9360366266023
  0
LINE
  5
71D
330
1A
100
AcDbEntity
  8
0
100
AcDbLine
 10
512.207668216951
 20
218.27152999036
 30
0.0
 11
512.2076682169513
 21
223.7749238435869
 31
0.0
  0
LINE
  5
71E
330
1A
100
AcDbEntity
  8
0
100
AcDbLine
 10
509.207668216951
 20
218.2715299903597
 30
0.0
 11
509.2076682169515
 21
223.7749238435867
 31
0.0
  0
LINE
  5
71F
330
1A
100
AcDbEntity
  8
0
100
AcDbLine
 10
508.707668216951
 20
218.2901240216313
 30
0.0
 11
508.7076682169512
 21
223.2945364456297
 31
0.0
  0
LINE
  5
720
330
1A
100
AcDbEntity
  8
0
100
AcDbLine
 10
512.707668216951
 20
218.2901240216315
 30
0.0
 11
512.7076682169513
 21
223.2945364456302
 31
0.0
  0
ARC
  5
721
330
1A
100
AcDbEntity
  8
0
100
AcDbCircle
 10
498.2105687968286
 20
210.7356370159936
 30
0.0
 40
0.5
100
AcDbArc
 50
261.2852579813767
 51
359.9999999999869
  0
LINE
  5
722
330
1A
100
AcDbEntity
  8
0
100
AcDbLine
 10
498.7105687968287
 20
212.839793106302
 30
0.0
 11
498.7105687968287
 21
210.7356370159934
 31
0.0
  0
ARC
  5
723
330
1A
100
AcDbEntity
  8
0
100
AcDbCircle
 10
510.7105687968286
 20
292.2831691674939
 30
0.0
 40
80.5
100
AcDbArc
 50
224.5524850783212
 51
262.2431538847875
  0
LINE
  5
724
330
1A
100
AcDbEntity
  8
0
100
AcDbLine
 10
498.7105687968284
 20
210.1552202097852
 30
0.0
 11
500.4391512416395
 21
207.3119823192807
 31
0.0
  0
ARC
  5
725
330
1A
100
AcDbEntity
  8
0
100
AcDbCircle
 10
499.7105687968287
 20
207.9969404356013
 30
0.0
 40
1.0
100
AcDbArc
 50
262.5643982184448
 51
0.0
  0
ARC
  5
726
330
1A
100
AcDbEntity
  8
0
100
AcDbCircle
 10
452.8071438050091
 20
238.2487218260562
 30
0.0
 40
2.5
100
AcDbArc
 50
163.6024997351014
 51
282.4383776844754
  0
ARC
  5
727
330
1A
100
AcDbEntity
  8
0
100
AcDbCircle
 10
599.2103690983399
 20
80.53749923463568
 30
0.0
 40
3.0
100
AcDbArc
 50
269.9999999999934
 51
0.0
  0
ARC
  5
728
330
1A
100
AcDbEntity
  8
0
100
AcDbCircle
 10
597.2103690983399
 20
80.53749923463589
 30
0.0
 40
3.0
100
AcDbArc
 50
180.0
 51
269.9999999999934
  0
ARC
  5
729
330
1A
100
AcDbEntity
  8
0
100
AcDbCircle
 10
602.225990225027
 20
147.5374992346473
 30
0.0
 40
0.5
100
AcDbArc
 50
1.818302964414785
 51
90.0
  0
ARC
  5
72A
330
1A
100
AcDbEntity
  8
0
100
AcDbCircle
 10
602.210369098339
 20
148.5374992346473
 30
0.0
 40
0.5
100
AcDbArc
 50
0.0
 51
90.0
  0
LINE
  5
72B
330
1A
100
AcDbEntity
  8
0
100
AcDbLine
 10
602.725738462675
 20
147.5533642580644
 30
0.0
 11
602.7103690983389
 21
148.5374992346473
 31
0.0
  0
ARC
  5
72C
330
1A
100
AcDbEntity
  8
0
100
AcDbCircle
 10
593.3843406699657
 20
157.0374992346364
 30
0.0
 40
0.5
100
AcDbArc
 50
19.31149005201829
 51
90.0
  0
ARC
  5
72D
330
1A
100
AcDbEntity
  8
0
100
AcDbCircle
 10
584.7632184480849
 20
162.0374992346394
 30
0.0
 40
1.0
100
AcDbArc
 50
3.000000000005594
 51
89.99999999998697
  0
LINE
  5
730
330
1A
100
AcDbEntity
  8
0
100
AcDbLine
 10
584.7632184480849
 20
163.0374992346394
 30
0.0
 11
578.7121830147993
 21
163.0374992346403
 31
0.0
  0
LINE
  5
731
330
1A
100
AcDbEntity
  8
0
100
AcDbLine
 10
586.0004258008565
 20
157.5374992346365
 30
0.0
 11
585.7618479828393
 21
162.0898351908822
 31
0.0
  0
LINE
  5
732
330
1A
100
AcDbEntity
  8
0
100
AcDbLine
 10
593.8562079957164
 20
157.2028510622317
 30
0.0
 11
596.7175119554767
 21
149.0374992346346
 31
0.0
  0
LINE
  5
734
330
1A
100
AcDbEntity
  8
0
100
AcDbLine
 10
594.9103690983415
 20
149.0374992346473
 30
0.0
 11
602.678623066593
 21
149.0374992346473
 31
0.0
  0
LINE
  5
735
330
1A
100
AcDbEntity
  8
0
100
AcDbLine
 10
602.21036909834
 20
80.53749923463568
 30
0.0
 11
602.2103690983399
 21
85.03749923463464
 31
0.0
  0
ARC
  5
736
330
1A
100
AcDbEntity
  8
0
100
AcDbCircle
 10
602.6458694781076
 20
87.03749923463556
 30
0.0
 40
2.0
100
AcDbArc
 50
270.0
 51
1.818302964414785
  0
LINE
  5
737
330
1A
100
AcDbEntity
  8
0
100
AcDbLine
 10
594.2103690983399
 20
80.53749923463589
 30
0.0
 11
594.2103690983399
 21
85.03749923463464
 31
0.0
  0
LINE
  5
738
330
1A
100
AcDbEntity
  8
0
100
AcDbLine
 10
597.2103690983394
 20
77.5374992346359
 30
0.0
 11
599.2103690983396
 21
77.53749923463567
 31
0.0
  0
LINE
  5
739
330
1A
100
AcDbEntity
  8
0
100
AcDbLine
 10
573.7106000624521
 20
82.53749923463306
 30
0.0
 11
569.7106000624521
 21
82.53749923463306
 31
0.0
  0
LINE
  5
73A
330
1A
100
AcDbEntity
  8
0
100
AcDbLine
 10
575.2106000624521
 20
84.03749923463307
 30
0.0
 11
575.2106000624521
 21
85.03749923463397
 31
0.0
  0
ARC
  5
73B
330
1A
100
AcDbEntity
  8
0
100
AcDbCircle
 10
573.7106000624521
 20
84.03749923463307
 30
0.0
 40
1.5
100
AcDbArc
 50
270.0
 51
0.0
  0
LINE
  5
73C
330
1A
100
AcDbEntity
  8
0
100
AcDbLine
 10
568.2106000624521
 20
84.03749923463307
 30
0.0
 11
568.2106000624521
 21
85.03749923463397
 31
0.0
  0
ARC
  5
73D
330
1A
100
AcDbEntity
  8
0
100
AcDbCircle
 10
569.7106000624521
 20
84.03749923463307
 30
0.0
 40
1.5
100
AcDbArc
 50
180.0
 51
270.0
  0
ARC
  5
73E
330
1A
100
AcDbEntity
  8
0
100
AcDbCircle
 10
573.2557711854565
 20
95.03749923463283
 30
0.0
 40
10.0
100
AcDbArc
 50
230.9570734517404
 51
270.0
  0
LINE
  5
73F
330
1A
100
AcDbEntity
  8
0
100
AcDbLine
 10
554.7315748302767
 20
97.18568020620068
 30
0.0
 11
566.9567465895607
 21
87.27075672954788
 31
0.0
  0
LINE
  5
740
330
1A
100
AcDbEntity
  8
0
100
AcDbLine
 10
548.210594383177
 20
84.2374992346347
 30
0.0
 11
548.210594383177
 21
85.03749923463487
 31
0.0
  0
LINE
  5
741
330
1A
100
AcDbEntity
  8
0
100
AcDbLine
 10
550.2105943831771
 20
83.10894925608659
 30
0.0
 11
550.2105943831771
 21
84.2374992346347
 31
0.0
  0
LINE
  5
743
330
1A
100
AcDbEntity
  8
0
100
AcDbLine
 10
573.2557711854574
 20
85.03749923463283
 30
0.0
 11
604.710369098339
 21
85.03749923463464
 31
0.0
  0
ARC
  5
744
330
1A
100
AcDbEntity
  8
0
100
AcDbCircle
 10
548.4325502343804
 20
89.41893770111574
 30
0.0
 40
10.0
100
AcDbArc
 50
50.95707345174042
 51
83.82732059674227
  0
LINE
  5
746
330
1A
100
AcDbEntity
  8
0
100
AcDbLine
 10
602.678623066593
 20
149.0374992346473
 30
0.0
 11
604.710369098339
 21
85.03749923463464
 31
0.0
  0
LINE
  5
747
330
1A
100
AcDbEntity
  8
0
100
AcDbLine
 10
604.7105687968287
 20
383.7430798825692
 30
0.0
 11
602.7105687968291
 21
381.0430798825684
 31
0.0
  0
LINE
  5
748
330
1A
100
AcDbEntity
  8
0
100
AcDbLine
 10
604.7105687968287
 20
383.7430798825692
 30
0.0
 11
604.7105687968287
 21
387.7831691674939
 31
0.0
  0
ARC
  5
749
330
1A
100
AcDbEntity
  8
0
100
AcDbCircle
 10
601.7105687968292
 20
385.0831691674932
 30
0.0
 40
1.0
100
AcDbArc
 50
0.0
 51
90.0
  0
ARC
  5
74A
330
1A
100
AcDbEntity
  8
0
100
AcDbCircle
 10
568.615122722902
 20
346.3187189856075
 30
0.0
 40
2.5
100
AcDbArc
 50
343.5598645552118
 51
102.4810646706828
  0
LINE
  5
74B
330
1A
100
AcDbEntity
  8
0
100
AcDbLine
 10
586.0576484277792
 20
292.2838979808582
 30
0.0
 11
592.4105687907247
 21
292.283169167495
 31
0.0
  0
ARC
  5
74C
330
1A
100
AcDbEntity
  8
0
100
AcDbCircle
 10
589.9105687907247
 20
292.2831691674948
 30
0.0
 40
2.5
100
AcDbArc
 50
300.562959028922
 51
59.43704097107793
  0
ARC
  5
74D
330
1A
100
AcDbEntity
  8
0
100
AcDbCircle
 10
510.7105687968286
 20
292.2831691674939
 30
0.0
 40
80.5
100
AcDbArc
 50
1.532348209919619
 51
41.48774436724544
  0
LINE
  5
74E
330
1A
100
AcDbEntity
  8
0
100
AcDbLine
 10
596.7105687968287
 20
292.2821704584232
 30
0.0
 11
602.7105687968291
 21
292.2831691674939
 31
0.0
  0
LINE
  5
74F
330
1A
100
AcDbEntity
  8
0
100
AcDbLine
 10
604.7105687968287
 20
196.7831691674939
 30
0.0
 11
604.7105687968287
 21
201.3232584524187
 31
0.0
  0
LINE
  5
750
330
1A
100
AcDbEntity
  8
0
100
AcDbLine
 10
602.7105687968291
 20
198.9831691674946
 30
0.0
 11
604.6305467152055
 21
196.391198977685
 31
0.0
  0
ARC
  5
751
330
1A
100
AcDbEntity
  8
0
100
AcDbCircle
 10
601.7105687968292
 20
199.9831691674946
 30
0.0
 40
1.0
100
AcDbArc
 50
270.0
 51
0.0
  0
ARC
  5
752
330
1A
100
AcDbEntity
  8
0
100
AcDbCircle
 10
603.7105687968287
 20
196.7831691674939
 30
0.0
 40
1.0
100
AcDbArc
 50
270.0
 51
0.0
  0
LINE
  5
753
330
1A
100
AcDbEntity
  8
0
100
AcDbLine
 10
602.7105687968291
 20
204.0232584524176
 30
0.0
 11
604.7105687968283
 21
201.3232584524187
 31
0.0
  0
ARC
  5
754
330
1A
100
AcDbEntity
  8
0
100
AcDbCircle
 10
564.7036914483329
 20
234.3412082788813
 30
0.0
 40
2.5
100
AcDbArc
 50
253.561622315528
 51
12.3975002649057
  0
LINE
  5
755
330
1A
100
AcDbEntity
  8
0
100
AcDbLine
 10
569.7105687968296
 20
195.7831691674939
 30
0.0
 11
551.7105687968792
 21
195.9831691674937
 31
0.0
  0
LINE
  5
756
330
1A
100
AcDbEntity
  8
0
100
AcDbLine
 10
569.7105687968296
 20
195.7831691674939
 30
0.0
 11
603.7105687968287
 21
195.7831691674939
 31
0.0
  0
LINE
  5
757
330
1A
100
AcDbEntity
  8
0
100
AcDbLine
 10
602.7105687968291
 20
199.9831691674946
 30
0.0
 11
602.7105687968291
 21
385.0831691674932
 31
0.0
  0
ARC
  5
758
330
1A
100
AcDbEntity
  8
0
100
AcDbCircle
 10
510.7105687968286
 20
292.2831691674939
 30
0.0
 40
80.5
100
AcDbArc
 50
314.51160765873
 51
358.3381220888996
  0
LINE
  5
759
330
1A
100
AcDbEntity
  8
0
100
AcDbLine
 10
442.7050139270595
 20
388.5831074467182
 30
0.0
 11
551.7050139271122
 21
388.5831074467191
 31
0.0
  0
LINE
  5
75A
330
1A
100
AcDbEntity
  8
0
100
AcDbLine
 10
569.7105687968296
 20
388.7831691674939
 30
0.0
 11
551.7105687968792
 21
388.5831691674941
 31
0.0
  0
LINE
  5
75B
330
1A
100
AcDbEntity
  8
0
100
AcDbLine
 10
569.7105687968296
 20
388.7831691674939
 30
0.0
 11
603.7105687968287
 21
388.7831691674939
 31
0.0
  0
LINE
  5
98A
330
1A
100
AcDbEntity
  8
MEASURE
100
AcDbLine
 10
173.0248109776356
 20
78.53749923463624
 30
0.0
 11
173.0248109776356
 21
167.4823687120556
 31
0.0
  0
LINE
  5
A0E
330
1A
100
AcDbEntity
  8
0
100
AcDbLine
 10
78.82481097763502
 20
85.03749923463351
 30
0.0
 11
85.71488627127564
 21
85.03749923463351
 31
0.0
  0
LINE
  5
A12
330
1A
100
AcDbEntity
  8
0
100
AcDbLine
 10
89.28934999060311
 20
85.03749923463351
 30
0.0
 11
89.28934999060311
 21
82.8864344002709
 31
0.0
  0
LINE
  5
A13
330
1A
100
AcDbEntity
  8
0
100
AcDbLine
 10
94.28934999060311
 20
85.03749923463351
 30
0.0
 11
94.28934999060311
 21
82.8864344002709
 31
0.0
  0
LINE
  5
A14
330
1A
100
AcDbEntity
  8
0
100
AcDbLine
 10
267.2248109776355
 20
85.03749923463351
 30
0.0
 11
260.3347356839949
 21
85.03749923463351
 31
0.0
  0
LINE
  5
A18
330
1A
100
AcDbEntity
  8
0
100
AcDbLine
 10
251.289349990603
 20
85.03749923463351
 30
0.0
 11
251.289349990603
 21
82.88643440027119
 31
0.0
  0
LINE
  5
A19
330
1A
100
AcDbEntity
  8
0
100
AcDbLine
 10
256.289349990603
 20
85.03749923463351
 30
0.0
 11
256.2893499906029
 21
82.88643440027119
 31
0.0
  0
LINE
  5
A5D
330
1A
100
AcDbEntity
  8
0
100
AcDbLine
 10
157.0248109776356
 20
84.2374992346347
 30
0.0
 11
189.0248109776356
 21
84.2374992346347
 31
0.0
  0
LINE
  5
A5E
330
1A
100
AcDbEntity
  8
0
100
AcDbLine
 10
187.0248109776356
 20
84.2374992346347
 30
0.0
 11
187.0248109776356
 21
85.03749923463487
 31
0.0
  0
LINE
  5
A5F
330
1A
100
AcDbEntity
  8
0
100
AcDbLine
 10
159.0248109776356
 20
84.2374992346347
 30
0.0
 11
159.0248109776356
 21
85.03749923463578
 31
0.0
  0
ARC
  5
A60
330
1A
100
AcDbEntity
  8
0
100
AcDbCircle
 10
173.0248109776356
 20
202.0374992346348
 30
0.0
 40
120.0
100
AcDbArc
 50
262.3377443392409
 51
277.662255660759
  0
LINE
  5
A61
330
1A
100
AcDbEntity
  8
0
100
AcDbLine
 10
157.0248109776356
 20
83.10894925608659
 30
0.0
 11
157.0248109776356
 21
84.2374992346347
 31
0.0
  0
LINE
  5
A62
330
1A
100
AcDbEntity
  8
0
100
AcDbLine
 10
189.0248109776356
 20
83.10894925608659
 30
0.0
 11
189.0248109776356
 21
84.2374992346347
 31
0.0
  0
ARC
  5
A63
330
1A
100
AcDbEntity
  8
0
100
AcDbCircle
 10
173.0248109776356
 20
83.53749923463624
 30
0.0
 40
6.0
100
AcDbArc
 50
193.0773242585888
 51
346.9226757414111
  0
LINE
  5
BB6
330
1A
100
AcDbEntity
  8
MEASURE
 62
     9
100
AcDbLine
 10
90.78934999060312
 20
77.53749923463556
 30
0.0
 11
53.04813196360463
 21
77.53749923463556
 31
0.0
  0
LINE
  5
BB7
330
1A
100
AcDbEntity
  8
MEASURE
 62
     9
100
AcDbLine
 10
97.97377554435207
 20
163.0374992346391
 30
0.0
 11
53.04813196360464
 21
163.0374992346392
 31
0.0
  0
LINE
  5
BB8
330
1A
100
AcDbEntity
  8
MEASURE
 62
     9
100
AcDbLine
 10
55.04813196360464
 20
82.53749923463557
 30
0.0
 11
55.04813196360465
 21
157.5374992346392
 31
0.0
  0
SOLID
  5
BBA
330
1A
100
AcDbEntity
  8
MEASURE
 62
     9
100
AcDbTrace
 10
54.2147986302713
 20
82.53749923463557
 30
0.0
 11
55.88146529693797
 21
82.53749923463557
 31
0.0
 12
55.04813196360462
 22
77.53749923463556
 32
0.0
 13
55.04813196360462
 23
77.53749923463556
 33
0.0
  0
SOLID
  5
BBB
330
1A
100
AcDbEntity
  8
MEASURE
 62
     9
100
AcDbTrace
 10
54.21479863027131
 20
158.0374992346392
 30
0.0
 11
55.88146529693798
 21
158.0374992346392
 31
0.0
 12
55.04813196360465
 22
163.0374992346392
 32
0.0
 13
55.04813196360465
 23
163.0374992346392
 33
0.0
  0
LINE
  5
BBC
330
1A
100
AcDbEntity
  8
0
 62
     9
100
AcDbLine
 10
173.0248109776356
 20
83.53749923463624
 30
0.0
 11
173.0248109776356
 21
61.80914267618982
 31
0.0
  0
LINE
  5
BBD
330
1A
100
AcDbEntity
  8
0
 62
     9
100
AcDbLine
 10
176.0248109776352
 20
84.03749923463351
 30
0.0
 11
176.0248109776352
 21
61.80914267618982
 31
0.0
  0
LINE
  5
BBE
330
1A
100
AcDbEntity
  8
0
 62
     9
100
AcDbLine
 10
168.0248109776356
 20
63.80914267618982
 30
0.0
 11
163.0248109776356
 21
63.80914267618982
 31
0.0
  0
LINE
  5
BBF
330
1A
100
AcDbEntity
  8
0
 62
     9
100
AcDbLine
 10
181.0248109776352
 20
63.80914267618982
 30
0.0
 11
186.0248109776352
 21
63.80914267618982
 31
0.0
  0
LINE
  5
BC1
330
1A
100
AcDbEntity
  8
0
 62
     9
100
AcDbLine
 10
173.0248109776356
 20
63.80914267618982
 30
0.0
 11
176.0248109776352
 21
63.80914267618982
 31
0.0
  0
SOLID
  5
BC2
330
1A
100
AcDbEntity
  8
0
 62
     9
100
AcDbTrace
 10
168.0248109776356
 20
64.64247600952315
 30
0.0
 11
168.0248109776356
 21
62.97580934285648
 31
0.0
 12
173.0248109776356
 22
63.80914267618982
 32
0.0
 13
173.0248109776356
 23
63.80914267618982
 33
0.0
  0
SOLID
  5
BC3
330
1A
100
AcDbEntity
  8
0
 62
     9
100
AcDbTrace
 10
181.0248109776352
 20
64.64247600952315
 30
0.0
 11
181.0248109776352
 21
62.97580934285648
 31
0.0
 12
176.0248109776352
 22
63.80914267618982
 32
0.0
 13
176.0248109776352
 23
63.80914267618982
 33
0.0
  0
LINE
  5
BC4
330
1A
100
AcDbEntity
  8
MEASURE
 62
     9
100
AcDbLine
 10
91.78934999060308
 20
77.53749923463556
 30
0.0
 11
91.78934999060311
 21
35.55707100530571
 31
0.0
  0
LINE
  5
BC5
330
1A
100
AcDbEntity
  8
MEASURE
 62
     9
100
AcDbLine
 10
253.7893499906031
 20
77.53749923463584
 30
0.0
 11
253.7893499906031
 21
35.55707100530571
 31
0.0
  0
LINE
  5
BC6
330
1A
100
AcDbEntity
  8
MEASURE
 62
     9
100
AcDbLine
 10
96.78934999060311
 20
37.55707100530571
 30
0.0
 11
248.7893499906031
 21
37.55707100530571
 31
0.0
  0
SOLID
  5
BC8
330
1A
100
AcDbEntity
  8
MEASURE
 62
     9
100
AcDbTrace
 10
96.78934999060311
 20
38.39040433863905
 30
0.0
 11
96.78934999060311
 21
36.72373767197238
 31
0.0
 12
91.78934999060311
 22
37.55707100530571
 32
0.0
 13
91.78934999060311
 23
37.55707100530571
 33
0.0
  0
SOLID
  5
BC9
330
1A
100
AcDbEntity
  8
MEASURE
 62
     9
100
AcDbTrace
 10
248.7893499906031
 20
38.39040433863905
 30
0.0
 11
248.7893499906031
 21
36.72373767197238
 31
0.0
 12
253.7893499906031
 22
37.55707100530571
 32
0.0
 13
253.7893499906031
 23
37.55707100530571
 33
0.0
  0
LINE
  5
BCA
330
1A
100
AcDbEntity
  8
MEASURE
 62
     9
100
AcDbLine
 10
248.0248109776371
 20
164.0374992346389
 30
0.0
 11
248.0248109776371
 21
177.236671292607
 31
0.0
  0
LINE
  5
BCB
330
1A
100
AcDbEntity
  8
MEASURE
 62
     9
100
AcDbLine
 10
98.02481097763621
 20
164.0374992346389
 30
0.0
 11
98.02481097763621
 21
177.236671292607
 31
0.0
  0
LINE
  5
BCC
330
1A
100
AcDbEntity
  8
MEASURE
 62
     9
100
AcDbLine
 10
243.0248109776371
 20
175.236671292607
 30
0.0
 11
103.0248109776362
 21
175.236671292607
 31
0.0
  0
SOLID
  5
BCE
330
1A
100
AcDbEntity
  8
MEASURE
 62
     9
100
AcDbTrace
 10
243.0248109776371
 20
176.0700046259404
 30
0.0
 11
243.0248109776371
 21
174.4033379592737
 31
0.0
 12
248.0248109776371
 22
175.236671292607
 32
0.0
 13
248.0248109776371
 23
175.236671292607
 33
0.0
  0
SOLID
  5
BCF
330
1A
100
AcDbEntity
  8
MEASURE
 62
     9
100
AcDbTrace
 10
103.0248109776362
 20
176.0700046259404
 30
0.0
 11
103.0248109776362
 21
174.4033379592737
 31
0.0
 12
98.02481097763621
 22
175.236671292607
 32
0.0
 13
98.02481097763621
 23
175.236671292607
 33
0.0
  0
LINE
  5
BD0
330
1A
100
AcDbEntity
  8
0
 62
     9
100
AcDbLine
 10
342.2106000624521
 20
98.03749923463465
 30
0.0
 11
342.2106000624521
 21
43.89815902001953
 31
0.0
  0
LINE
  5
BD1
330
1A
100
AcDbEntity
  8
0
 62
     9
100
AcDbLine
 10
534.2105943831771
 20
81.03749923463487
 30
0.0
 11
534.2105943831771
 21
43.89815902001953
 31
0.0
  0
LINE
  5
BD2
330
1A
100
AcDbEntity
  8
0
 62
     9
100
AcDbLine
 10
347.2106000624521
 20
45.89815902001953
 30
0.0
 11
529.210594383177
 21
45.89815902001953
 31
0.0
  0
SOLID
  5
BD4
330
1A
100
AcDbEntity
  8
0
 62
     9
100
AcDbTrace
 10
347.2106000624521
 20
46.73149235335286
 30
0.0
 11
347.2106000624521
 21
45.06482568668619
 31
0.0
 12
342.2106000624521
 22
45.89815902001953
 32
0.0
 13
342.2106000624521
 23
45.89815902001953
 33
0.0
  0
SOLID
  5
BD5
330
1A
100
AcDbEntity
  8
0
 62
     9
100
AcDbTrace
 10
529.210594383177
 20
46.73149235335286
 30
0.0
 11
529.210594383177
 21
45.06482568668619
 31
0.0
 12
534.2105943831771
 22
45.89815902001953
 32
0.0
 13
534.2105943831771
 23
45.89815902001953
 33
0.0
  0
LINE
  5
BD6
330
1A
100
AcDbEntity
  8
MEASURE
 62
     9
100
AcDbLine
 10
403.710600062403
 20
75.5881222335563
 30
0.0
 11
403.710600062403
 21
61.9976876061769
 31
0.0
  0
LINE
  5
BD7
330
1A
100
AcDbEntity
  8
MEASURE
 62
     9
100
AcDbLine
 10
598.2103690982785
 20
77.53749923463579
 30
0.0
 11
598.2103690982785
 21
61.9976876061769
 31
0.0
  0
LINE
  5
BD8
330
1A
100
AcDbEntity
  8
MEASURE
 62
     9
100
AcDbLine
 10
408.710600062403
 20
63.99768760617689
 30
0.0
 11
593.2103690982785
 21
63.99768760617689
 31
0.0
  0
SOLID
  5
BDA
330
1A
100
AcDbEntity
  8
MEASURE
 62
     9
100
AcDbTrace
 10
408.710600062403
 20
64.83102093951022
 30
0.0
 11
408.710600062403
 21
63.16435427284356
 31
0.0
 12
403.710600062403
 22
63.99768760617689
 32
0.0
 13
403.710600062403
 23
63.99768760617689
 33
0.0
  0
SOLID
  5
BDB
330
1A
100
AcDbEntity
  8
MEASURE
 62
     9
100
AcDbTrace
 10
593.2103690982785
 20
64.83102093951022
 30
0.0
 11
593.2103690982785
 21
63.16435427284356
 31
0.0
 12
598.2103690982785
 22
63.99768760617689
 32
0.0
 13
598.2103690982785
 23
63.99768760617689
 33
0.0
  0
LINE
  5
BDC
330
1A
100
AcDbEntity
  8
MEASURE
 62
     9
100
AcDbLine
 10
600.2103690983399
 20
77.53749923463567
 30
0.0
 11
621.2466546162636
 21
77.53749923463566
 31
0.0
  0
LINE
  5
BDD
330
1A
100
AcDbEntity
  8
MEASURE
 62
     9
100
AcDbLine
 10
603.678623066593
 20
149.0374992346473
 30
0.0
 11
621.2466546162636
 21
149.0374992346473
 31
0.0
  0
LINE
  5
BDE
330
1A
100
AcDbEntity
  8
MEASURE
 62
     9
100
AcDbLine
 10
619.2466546162636
 20
82.53749923463566
 30
0.0
 11
619.2466546162636
 21
144.0374992346473
 31
0.0
  0
SOLID
  5
BE0
330
1A
100
AcDbEntity
  8
MEASURE
 62
     9
100
AcDbTrace
 10
618.4133212829302
 20
82.53749923463566
 30
0.0
 11
620.079987949597
 21
82.53749923463566
 31
0.0
 12
619.2466546162636
 22
77.53749923463566
 32
0.0
 13
619.2466546162636
 23
77.53749923463566
 33
0.0
  0
SOLID
  5
BE1
330
1A
100
AcDbEntity
  8
MEASURE
 62
     9
100
AcDbTrace
 10
618.4133212829302
 20
144.0374992346473
 30
0.0
 11
620.079987949597
 21
144.0374992346473
 31
0.0
 12
619.2466546162636
 22
149.0374992346473
 32
0.0
 13
619.2466546162636
 23
149.0374992346473
 33
0.0
  0
LINE
  5
BE2
330
1A
100
AcDbEntity
  8
MEASURE
 62
     9
100
AcDbLine
 10
342.2106000624521
 20
100.0374992346346
 30
0.0
 11
342.2106000624521
 21
178.1504271180604
 31
0.0
  0
LINE
  5
BE3
330
1A
100
AcDbEntity
  8
MEASURE
 62
     9
100
AcDbLine
 10
510.7121830147902
 20
164.8503531552198
 30
0.0
 11
510.7121830147902
 21
178.1504271180604
 31
0.0
  0
LINE
  5
BE4
330
1A
100
AcDbEntity
  8
MEASURE
 62
     9
100
AcDbLine
 10
347.2106000624521
 20
176.1504271180604
 30
0.0
 11
505.7121830147902
 21
176.1504271180604
 31
0.0
  0
SOLID
  5
BE6
330
1A
100
AcDbEntity
  8
MEASURE
 62
     9
100
AcDbTrace
 10
347.2106000624521
 20
176.9837604513937
 30
0.0
 11
347.2106000624521
 21
175.317093784727
 31
0.0
 12
342.2106000624521
 22
176.1504271180604
 32
0.0
 13
342.2106000624521
 23
176.1504271180604
 33
0.0
  0
SOLID
  5
BE7
330
1A
100
AcDbEntity
  8
MEASURE
 62
     9
100
AcDbTrace
 10
505.7121830147902
 20
176.9837604513937
 30
0.0
 11
505.7121830147902
 21
175.317093784727
 31
0.0
 12
510.7121830147902
 22
176.1504271180604
 32
0.0
 13
510.7121830147902
 23
176.1504271180604
 33
0.0
  0
LINE
  5
BE8
330
1A
100
AcDbEntity
  8
MEASURE
 62
     9
100
AcDbLine
 10
342.2106000624521
 20
98.03749923463465
 30
0.0
 11
342.2106000624521
 21
61.99768760616677
 31
0.0
  0
LINE
  5
BE9
330
1A
100
AcDbEntity
  8
MEASURE
 62
     9
100
AcDbLine
 10
403.7106000624639
 20
77.08812223355653
 30
0.0
 11
403.7106000624639
 21
61.99768760616677
 31
0.0
  0
LINE
  5
BEA
330
1A
100
AcDbEntity
  8
MEASURE
 62
     9
100
AcDbLine
 10
347.2106000624521
 20
63.99768760616677
 30
0.0
 11
398.7106000624639
 21
63.99768760616677
 31
0.0
  0
SOLID
  5
BEC
330
1A
100
AcDbEntity
  8
MEASURE
 62
     9
100
AcDbTrace
 10
347.2106000624521
 20
64.83102093950011
 30
0.0
 11
347.2106000624521
 21
63.16435427283344
 31
0.0
 12
342.2106000624521
 22
63.99768760616677
 32
0.0
 13
342.2106000624521
 23
63.99768760616677
 33
0.0
  0
SOLID
  5
BED
330
1A
100
AcDbEntity
  8
MEASURE
 62
     9
100
AcDbTrace
 10
398.7106000624639
 20
64.83102093950011
 30
0.0
 11
398.7106000624639
 21
63.16435427283344
 31
0.0
 12
403.7106000624639
 22
63.99768760616677
 32
0.0
 13
403.7106000624639
 23
63.99768760616677
 33
0.0
  0
LINE
  5
BEE
330
1A
100
AcDbEntity
  8
MEASURE
 62
     9
100
AcDbLine
 10
604.7105687968287
 20
388.7831691674939
 30
0.0
 11
624.2164869111697
 21
388.7831691674939
 31
0.0
  0
LINE
  5
BEF
330
1A
100
AcDbEntity
  8
MEASURE
 62
     9
100
AcDbLine
 10
604.7105687968287
 20
195.7831691674939
 30
0.0
 11
624.2164869111697
 21
195.7831691674939
 31
0.0
  0
LINE
  5
BF0
330
1A
100
AcDbEntity
  8
MEASURE
 62
     9
100
AcDbLine
 10
622.2164869111698
 20
383.7831691674939
 30
0.0
 11
622.2164869111696
 21
200.7831691674939
 31
0.0
  0
SOLID
  5
BF2
330
1A
100
AcDbEntity
  8
MEASURE
 62
     9
100
AcDbTrace
 10
621.3831535778364
 20
383.7831691674939
 30
0.0
 11
623.0498202445032
 21
383.7831691674939
 31
0.0
 12
622.2164869111698
 22
388.7831691674939
 32
0.0
 13
622.2164869111698
 23
388.7831691674939
 33
0.0
  0
SOLID
  5
BF3
330
1A
100
AcDbEntity
  8
MEASURE
 62
     9
100
AcDbTrace
 10
621.3831535778362
 20
200.7831691674939
 30
0.0
 11
623.049820244503
 21
200.7831691674939
 31
0.0
 12
622.2164869111696
 22
195.7831691674939
 32
0.0
 13
622.2164869111696
 23
195.7831691674939
 33
0.0
  0
LINE
  5
BF4
330
1A
100
AcDbEntity
  8
MEASURE
 62
     9
100
AcDbLine
 10
342.2106000624521
 20
293.5332941596775
 30
0.0
 11
342.2106000624521
 21
401.9361760958056
 31
0.0
  0
LINE
  5
BF5
330
1A
100
AcDbEntity
  8
MEASURE
 62
     9
100
AcDbLine
 10
604.7105687968283
 20
389.5331691674939
 30
0.0
 11
604.7105687968283
 21
401.9361760958056
 31
0.0
  0
LINE
  5
BF6
330
1A
100
AcDbEntity
  8
MEASURE
 62
     9
100
AcDbLine
 10
347.2106000624521
 20
399.9361760958056
 30
0.0
 11
599.7105687968282
 21
399.9361760958056
 31
0.0
  0
SOLID
  5
BF8
330
1A
100
AcDbEntity
  8
MEASURE
 62
     9
100
AcDbTrace
 10
347.2106000624521
 20
400.7695094291389
 30
0.0
 11
347.2106000624521
 21
399.1028427624723
 31
0.0
 12
342.2106000624521
 22
399.9361760958056
 32
0.0
 13
342.2106000624521
 23
399.9361760958056
 33
0.0
  0
SOLID
  5
BF9
330
1A
100
AcDbEntity
  8
MEASURE
 62
     9
100
AcDbTrace
 10
599.7105687968282
 20
400.7695094291389
 30
0.0
 11
599.7105687968282
 21
399.1028427624723
 31
0.0
 12
604.7105687968283
 22
399.9361760958056
 32
0.0
 13
604.7105687968283
 23
399.9361760958056
 33
0.0
  0
TEXT
  5
CBB
330
1A
100
AcDbEntity
  8
0
 62
     2
100
AcDbText
 10
54.16403166665642
 20
112.0249195242341
 30
0.0
 40
7.0
  1
85.5
 50
90.0
 41
0.8
  7
AD-STANDARD
100
AcDbText
  0
TEXT
  5
CBC
330
1A
100
AcDbEntity
  8
0
 62
     2
100
AcDbText
 10
190.2820675484674
 20
55.37753601916197
 30
0.0
 40
7.0
  1
（床下秤量金具位置）
 41
0.8
  7
AD-STANDARD
100
AcDbText
  0
SOLID
  5
CBD
330
1A
100
AcDbEntity
  8
0
100
AcDbTrace
 10
186.180359117379
 20
61.63231582385985
 30
0.0
 11
184.8822697652594
 21
63.80914267618982
 31
0.0
 12
186.8161900234255
 22
62.1709840922408
 32
0.0
 13
186.8161900234255
 23
62.1709840922408
 33
0.0
1001
ACAD
1000
DSTYLE
1002
{
1070
   147
1040
0.5
1070
    77
1070
     1
1002
}
  0
TEXT
  5
CBF
330
1A
100
AcDbEntity
  8
0
 62
     2
100
AcDbText
 10
164.48092745713
 20
38.77721963122421
 30
0.0
 40
7.0
  1
162
 41
0.8
  7
AD-STANDARD
100
AcDbText
  0
TEXT
  5
CC0
330
1A
100
AcDbEntity
  8
0
 62
     2
100
AcDbText
 10
181.0394124466996
 20
64.88059770531314
 30
0.0
 40
7.0
  1
3
 41
0.8
  7
AD-STANDARD
100
AcDbText
  0
TEXT
  5
CC1
330
1A
100
AcDbEntity
  8
0
 62
     2
100
AcDbText
 10
155.1046154538704
 20
176.8994270650309
 30
0.0
 40
7.0
  1
φ150
 41
0.8
  7
AD-STANDARD
100
AcDbText
  0
TEXT
  5
CC2
330
1A
100
AcDbEntity
  8
0
100
AcDbText
 10
54.57166271537005
 20
397.8303896247871
 30
0.0
 40
10.5
  1
FX-1200iWP／2000iWP／3000iWP
 41
0.8
  7
AD-STANDARD
100
AcDbText
  0
TEXT
  5
CC3
330
1A
100
AcDbEntity
  8
0
100
AcDbText
 10
54.57166271537005
 20
417.4841507275127
 30
0.0
 40
10.5
  1
FX-1200i／2000i／3000i
 41
0.8
  7
AD-STANDARD
100
AcDbText
  0
TEXT
  5
CC4
330
1A
100
AcDbEntity
  8
0
 62
     2
100
AcDbText
 10
358.5417335043702
 20
66.11597414481469
 30
0.0
 40
7.0
  1
61.5
 41
0.8
  7
AD-STANDARD
100
AcDbText
  0
TEXT
  5
CC5
330
1A
100
AcDbEntity
  8
0
 62
     2
100
AcDbText
 10
411.8874304114068
 20
48.01597524421016
 30
0.0
 40
7.0
  1
192（床下秤量金具位置）
 41
0.8
  7
AD-STANDARD
100
AcDbText
  0
TEXT
  5
CC6
330
1A
100
AcDbEntity
  8
0
 62
     2
100
AcDbText
 10
468.8367297014933
 20
67.4866958349379
 30
0.0
 40
7.0
  1
194.5
 41
0.8
  7
AD-STANDARD
100
AcDbText
  0
TEXT
  5
CC7
330
1A
100
AcDbEntity
  8
0
 62
     2
100
AcDbText
 10
399.7349295996999
 20
178.4004106561857
 30
0.0
 40
7.0
  1
168.5
 41
0.8
  7
AD-STANDARD
100
AcDbText
  0
TEXT
  5
CC8
330
1A
100
AcDbEntity
  8
0
 62
     2
100
AcDbText
 10
618.8500819500641
 20
104.1109574294712
 30
0.0
 40
7.0
  1
71.5
 50
90.0
 41
0.8
  7
AD-STANDARD
100
AcDbText
  0
TEXT
  5
CC9
330
1A
100
AcDbEntity
  8
0
 62
     2
100
AcDbText
 10
620.8834937078774
 20
278.0963392324078
 30
0.0
 40
7.0
  1
193
 50
90.0
 41
0.8
  7
AD-STANDARD
100
AcDbText
  0
TEXT
  5
CCA
330
1A
100
AcDbEntity
  8
0
 62
     2
100
AcDbText
 10
466.8836678751168
 20
401.4938551712881
 30
0.0
 40
7.0
  1
262.5
 41
0.8
  7
AD-STANDARD
100
AcDbText
  0
LINE
  5
CCB
330
1A
100
AcDbEntity
  8
0
100
AcDbLine
 10
186.4982745704023
 20
61.90164995805033
 30
0.0
 11
192.3271036003361
 21
55.02144211801485
 31
0.0
1001
ACAD
1000
DSTYLE
1002
{
1070
   147
1040
0.5
1070
    77
1070
     1
1002
}
  0
LINE
  5
CCC
330
1A
100
AcDbEntity
  8
0
100
AcDbLine
 10
192.3271036003361
 20
55.02144211801485
 30
0.0
 11
251.2633700176793
 21
55.02144211801485
 31
0.0
1001
ACAD
1000
DSTYLE
1002
{
1070
   147
1040
0.5
1070
    77
1070
     1
1002
}
  0
TEXT
  5
CD1
330
1A
100
AcDbEntity
  8
0
100
AcDbText
 10
54.57166271537005
 20
337.343062047234
 30
0.0
 40
10.5
  1
FZ-1200iWP／2000iWP／3000iWP
 41
0.8
  7
AD-STANDARD
100
AcDbText
  0
TEXT
  5
CD2
330
1A
100
AcDbEntity
  8
0
100
AcDbText
 10
54.57166271537005
 20
356.9968231499597
 30
0.0
 40
10.5
  1
FZ-1200i／2000i／3000i
 41
0.8
  7
AD-STANDARD
100
AcDbText
  0
VIEWPORT
  5
22
330
17
100
AcDbEntity
 67
     1
  8
0
100
AcDbViewport
 10
219.6453055412645
 20
158.916737313856
 30
0.0
 40
658.0783197690554
 41
394.9516148057526
 68
     1
 69
     1
 12
219.6453055412645
 22
158.916737313856
 13
0.0
 23
0.0
 14
1.0
 24
1.0
 15
10.0
 25
10.0
 16
0.0
 26
0.0
 36
1.0
 17
0.0
 27
0.0
 37
0.0
 42
50.0
 43
0.0
 44
0.0
 45
394.9516148057526
 50
0.0
 51
0.0
 72
   100
 90
    32768
  1

281
     0
 71
     1
 74
     0
110
0.0
120
0.0
130
0.0
111
1.0
121
0.0
131
0.0
112
0.0
122
1.0
132
0.0
 79
     0
146
0.0
  0
VIEWPORT
  5
399
330
17
100
AcDbEntity
 67
     1
  8
0
100
AcDbViewport
 10
212.5
 20
149.4999999999999
 30
0.0
 40
385.0
 41
264.9999999999999
 68
     2
 69
     2
 12
323.5744476321093
 22
232.1856332362068
 13
0.0
 23
0.0
 14
168.0
 24
168.0
 15
0.0
 25
0.0
 16
0.0
 26
0.0
 36
1.0
 17
0.0
 27
0.0
 37
0.0
 42
50.0
 43
0.0
 44
0.0
 45
529.9999999999998
 50
0.0
 51
0.0
 72
   100
 90
    36864
  1

281
     0
 71
     1
 74
     0
110
0.0
120
0.0
130
0.0
111
1.0
121
0.0
131
0.0
112
0.0
122
1.0
132
0.0
 79
     0
146
0.0
  0
LWPOLYLINE
  5
C4C
330
17
100
AcDbEntity
 67
     1
  8
0
100
AcDbPolyline
 90
        4
 70
     1
 43
0.3
 10
405.0
 20
281.9999999999999
 10
20.0
 20
281.9999999999999
 10
20.0
 20
17.0
 10
404.9999999999998
 20
16.99999999999994
  0
VIEWPORT
  5
C4D
330
17
100
AcDbEntity
 67
     1
  8
DEFPOINTS
100
AcDbViewport
 10
212.4999999999999
 20
149.4999999999999
 30
0.0
 40
385.0
 41
264.9999999999999
 68
     0
 69
     3
 12
190.8230237662355
 22
130.5307286144516
 13
0.0
 23
0.0
 14
168.0
 24
168.0
 15
0.0
 25
0.0
 16
0.0
 26
0.0
 36
1.0
 17
0.0
 27
0.0
 37
0.0
 42
50.0
 43
0.0
 44
0.0
 45
265.0000003883643
 50
0.0
 51
0.0
 72
   100
 90
   167936
  1

281
     0
 71
     1
 74
     0
110
0.0
120
0.0
130
0.0
111
1.0
121
0.0
131
0.0
112
0.0
122
1.0
132
0.0
 79
     0
146
0.0
  0
LINE
  5
C4E
330
17
100
AcDbEntity
 67
     1
  8
0
100
AcDbLine
 10
20.0
 20
147.0
 30
0.0
 11
15.0
 21
147.0
 31
0.0
  0
ENDSEC
  0
SECTION
  2
OBJECTS
  0
DICTIONARY
  5
C
330
0
100
AcDbDictionary
281
     1
  3
ACAD_GROUP
350
D
  3
ACAD_LAYOUT
350
2C2
  3
ACAD_MLINESTYLE
350
E
  3
ACAD_PLOTSETTINGS
350
2C3
  3
ACAD_PLOTSTYLENAME
350
2C0
  3
AcadDim
350
2CE
  3
CONTENTDICTIONARY
350
234
  0
DICTIONARY
  5
D
102
{ACAD_REACTORS
330
C
102
}
330
C
100
AcDbDictionary
281
     1
  0
DICTIONARY
  5
2C2
102
{ACAD_REACTORS
330
C
102
}
330
C
100
AcDbDictionary
281
     1
  3
Model
350
2C4
  3
ﾚｲｱｳﾄ1
350
2C5
  0
DICTIONARY
  5
E
102
{ACAD_REACTORS
330
C
102
}
330
C
100
AcDbDictionary
281
     1
  3
STANDARD
350
13
  0
DICTIONARY
  5
2C3
102
{ACAD_REACTORS
330
C
102
}
330
C
100
AcDbDictionary
281
     1
  3
A3form
350
2DD
  0
ACDBDICTIONARYWDFLT
  5
2C0
102
{ACAD_REACTORS
330
C
102
}
330
C
100
AcDbDictionary
281
     1
  3
Normal
350
2C1
100
AcDbDictionaryWithDefault
340
2C1
  0
XRECORD
  5
2CE
102
{ACAD_REACTORS
330
C
102
}
330
C
100
AcDbXrecord
280
     1
 90
   990106
  3

 60
     0
 61
     0
 62
     4
 63
     4
 64
     1
 65
     0
 66
     0
 67
     3
 68
     1
 69
     0
 70
     0
 71
     0
 72
     0
 40
0.0
170
     2
  0
DICTIONARY
  5
234
102
{ACAD_REACTORS
330
C
102
}
330
C
100
AcDbDictionary
281
     1
  0
LAYOUT
  5
2C4
102
{ACAD_REACTORS
330
2C2
102
}
330
2C2
100
AcDbPlotSettings
  1

  2
\\Adj-dv01-sv2\Canon LBP5700 LIPS
  4
A4
  6

 40
3.174999952316284
 41
3.174999952316284
 42
3.175003051757812
 43
3.17498779296875
 44
210.0
 45
297.0
 46
0.0
 47
0.0
 48
999.5393123970275
 49
-497.5620405084963
140
1234.892056331908
141
-300.4985758098082
142
1.0
143
1.0
 70
 11952
 72
     1
 73
     0
 74
     4
  7

 75
    16
147
1.0
148
-999.5393123970275
149
497.5620405084963
100
AcDbLayout
  1
Model
 70
     1
 71
     0
 10
0.0
 20
0.0
 11
12.0
 21
9.0
 12
0.0
 22
0.0
 32
0.0
 14
0.0
 24
0.0
 34
0.0
 15
0.0
 25
0.0
 35
0.0
146
0.0
 13
0.0
 23
0.0
 33
0.0
 16
1.0
 26
0.0
 36
0.0
 17
0.0
 27
1.0
 37
0.0
 76
     0
330
1A
  0
LAYOUT
  5
2C5
102
{ACAD_REACTORS
330
2C2
102
}
330
2C2
100
AcDbPlotSettings
  1

  2
EPSON LP-8300S
  4
A3
  6

 40
5.873749732971191
 41
5.873747825622558
 42
5.873748779296875
 43
5.873748779296875
 44
297.0106506347656
 45
419.9466552734374
 46
6.009999999999999
 47
11.43
 48
0.0
 49
0.0
140
0.0
141
0.0
142
1.0
143
1.0
 70
   692
 72
     1
 73
     1
 74
     1
  7
aclt.ctb
 75
    16
147
1.0
148
-19.84157324440025
149
-8.91143729421708
100
AcDbLayout
  1
ﾚｲｱｳﾄ1
 70
     1
 71
     1
 10
2.537824465103376
 20
-2.97231243875411
 11
422.4844797385408
 21
294.0383381960115
 12
0.0
 22
0.0
 32
0.0
 14
15.0
 24
16.84999999999994
 34
0.0
 15
405.1499999999999
 25
282.1499999999999
 35
0.0
146
0.0
 13
0.0
 23
0.0
 33
0.0
 16
1.0
 26
0.0
 36
0.0
 17
0.0
 27
1.0
 37
0.0
 76
     0
330
17
331
22
  0
MLINESTYLE
  5
13
102
{ACAD_REACTORS
330
E
102
}
330
E
100
AcDbMlineStyle
  2
STANDARD
 70
     0
  3

 62
     0
 51
90.0
 52
90.0
 71
     2
 49
0.5
 62
   256
  6
BYLAYER
 49
-0.5
 62
   256
  6
BYLAYER
  0
PLOTSETTINGS
  5
2DD
102
{ACAD_REACTORS
330
2C3
102
}
330
2C3
100
AcDbPlotSettings
  1
A3form
  2
Laser Wind 2080W
  4
A3
  6

 40
4.773083209991455
 41
4.773059368133544
 42
4.7730712890625
 43
4.7730712890625
 44
297.0106506347656
 45
419.9889831542968
 46
0.0
 47
0.0
 48
0.0
 49
0.0
140
0.0
141
0.0
142
1.0
143
1.000041778052157
 70
   688
 72
     1
 73
     1
 74
     2
  7
monochrome.ctb
 75
     0
147
0.9999582236931756
148
0.0
149
0.0
  0
ACDBPLACEHOLDER
  5
2C1
102
{ACAD_REACTORS
330
2C0
102
}
330
2C0
  0
ENDSEC
  0
EOF
